  0
SECTION
  2
HEADER
  9
$ACADVER
  1
AC1024
  9
$ACADMAINTVER
 70
     6
  9
$DWGCODEPAGE
  3
ANSI_1252
  9
$INSBASE
 10
0.0
 20
0.0
 30
0.0
  9
$EXTMIN
 10
1.000000000000000E+20
 20
1.000000000000000E+20
 30
1.000000000000000E+20
  9
$EXTMAX
 10
-1.000000000000000E+20
 20
-1.000000000000000E+20
 30
-1.000000000000000E+20
  9
$LIMMIN
 10
0.0
 20
0.0
  9
$LIMMAX
 10
12.0
 20
9.0
  9
$ORTHOMODE
 70
     0
  9
$REGENMODE
 70
     1
  9
$FILLMODE
 70
     1
  9
$QTEXTMODE
 70
     0
  9
$MIRRTEXT
 70
     1
  9
$LTSCALE
 40
1.0
  9
$ATTMODE
 70
     1
  9
$TEXTSIZE
 40
0.2
  9
$TRACEWID
 40
0.05
  9
$TEXTSTYLE
  7
Standard
  9
$CLAYER
  8
0
  9
$CELTYPE
  6
ByLayer
  9
$CECOLOR
 62
   256
  9
$CELTSCALE
 40
1.0
  9
$DISPSILH
 70
     0
  9
$DIMSCALE
 40
1.0
  9
$DIMASZ
 40
0.18
  9
$DIMEXO
 40
0.0625
  9
$DIMDLI
 40
0.38
  9
$DIMRND
 40
0.0
  9
$DIMDLE
 40
0.0
  9
$DIMEXE
 40
0.18
  9
$DIMTP
 40
0.0
  9
$DIMTM
 40
0.0
  9
$DIMTXT
 40
0.18
  9
$DIMCEN
 40
0.09
  9
$DIMTSZ
 40
0.0
  9
$DIMTOL
 70
     0
  9
$DIMLIM
 70
     0
  9
$DIMTIH
 70
     1
  9
$DIMTOH
 70
     1
  9
$DIMSE1
 70
     0
  9
$DIMSE2
 70
     0
  9
$DIMTAD
 70
     0
  9
$DIMZIN
 70
     0
  9
$DIMBLK
  1

  9
$DIMASO
 70
     1
  9
$DIMSHO
 70
     1
  9
$DIMPOST
  1

  9
$DIMAPOST
  1

  9
$DIMALT
 70
     0
  9
$DIMALTD
 70
     2
  9
$DIMALTF
 40
25.4
  9
$DIMLFAC
 40
1.0
  9
$DIMTOFL
 70
     0
  9
$DIMTVP
 40
0.0
  9
$DIMTIX
 70
     0
  9
$DIMSOXD
 70
     0
  9
$DIMSAH
 70
     0
  9
$DIMBLK1
  1

  9
$DIMBLK2
  1

  9
$DIMSTYLE
  2
Standard
  9
$DIMCLRD
 70
     0
  9
$DIMCLRE
 70
     0
  9
$DIMCLRT
 70
     0
  9
$DIMTFAC
 40
1.0
  9
$DIMGAP
 40
0.09
  9
$DIMJUST
 70
     0
  9
$DIMSD1
 70
     0
  9
$DIMSD2
 70
     0
  9
$DIMTOLJ
 70
     1
  9
$DIMTZIN
 70
     0
  9
$DIMALTZ
 70
     0
  9
$DIMALTTZ
 70
     0
  9
$DIMUPT
 70
     0
  9
$DIMDEC
 70
     4
  9
$DIMTDEC
 70
     4
  9
$DIMALTU
 70
     2
  9
$DIMALTTD
 70
     2
  9
$DIMTXSTY
  7
Standard
  9
$DIMAUNIT
 70
     0
  9
$DIMADEC
 70
     0
  9
$DIMALTRND
 40
0.0
  9
$DIMAZIN
 70
     0
  9
$DIMDSEP
 70
    46
  9
$DIMATFIT
 70
     3
  9
$DIMFRAC
 70
     0
  9
$DIMLDRBLK
  1

  9
$DIMLUNIT
 70
     2
  9
$DIMLWD
 70
    -2
  9
$DIMLWE
 70
    -2
  9
$DIMTMOVE
 70
     0
  9
$DIMFXL
 40
1.0
  9
$DIMFXLON
 70
     0
  9
$DIMJOGANG
 40
0.7853981633974483
  9
$DIMTFILL
 70
     0
  9
$DIMTFILLCLR
 70
     0
  9
$DIMARCSYM
 70
     0
  9
$DIMLTYPE
  6

  9
$DIMLTEX1
  6

  9
$DIMLTEX2
  6

  9
$DIMTXTDIRECTION
 70
     0
  9
$LUNITS
 70
     2
  9
$LUPREC
 70
     4
  9
$SKETCHINC
 40
0.1
  9
$FILLETRAD
 40
0.5
  9
$AUNITS
 70
     0
  9
$AUPREC
 70
     0
  9
$MENU
  1
.
  9
$ELEVATION
 40
0.0
  9
$PELEVATION
 40
0.0
  9
$THICKNESS
 40
0.0
  9
$LIMCHECK
 70
     0
  9
$CHAMFERA
 40
0.5
  9
$CHAMFERB
 40
0.5
  9
$CHAMFERC
 40
1.0
  9
$CHAMFERD
 40
0.0
  9
$SKPOLY
 70
     0
  9
$TDCREATE
 40
2459211.655215255
  9
$TDUCREATE
 40
2459211.613548588
  9
$TDUPDATE
 40
2459211.655215614
  9
$TDUUPDATE
 40
2459211.613548947
  9
$TDINDWG
 40
0.0000000116
  9
$TDUSRTIMER
 40
0.0000000116
  9
$USRTIMER
 70
     1
  9
$ANGBASE
 50
0.0
  9
$ANGDIR
 70
     0
  9
$PDMODE
 70
     0
  9
$PDSIZE
 40
0.0
  9
$PLINEWID
 40
0.0
  9
$SPLFRAME
 70
     0
  9
$SPLINETYPE
 70
     6
  9
$SPLINESEGS
 70
     8
  9
$HANDSEED
  5
302
  9
$SURFTAB1
 70
     6
  9
$SURFTAB2
 70
     6
  9
$SURFTYPE
 70
     6
  9
$SURFU
 70
     6
  9
$SURFV
 70
     6
  9
$UCSBASE
  2

  9
$UCSNAME
  2

  9
$UCSORG
 10
0.0
 20
0.0
 30
0.0
  9
$UCSXDIR
 10
1.0
 20
0.0
 30
0.0
  9
$UCSYDIR
 10
0.0
 20
1.0
 30
0.0
  9
$UCSORTHOREF
  2

  9
$UCSORTHOVIEW
 70
     0
  9
$UCSORGTOP
 10
0.0
 20
0.0
 30
0.0
  9
$UCSORGBOTTOM
 10
0.0
 20
0.0
 30
0.0
  9
$UCSORGLEFT
 10
0.0
 20
0.0
 30
0.0
  9
$UCSORGRIGHT
 10
0.0
 20
0.0
 30
0.0
  9
$UCSORGFRONT
 10
0.0
 20
0.0
 30
0.0
  9
$UCSORGBACK
 10
0.0
 20
0.0
 30
0.0
  9
$PUCSBASE
  2

  9
$PUCSNAME
  2

  9
$PUCSORG
 10
0.0
 20
0.0
 30
0.0
  9
$PUCSXDIR
 10
1.0
 20
0.0
 30
0.0
  9
$PUCSYDIR
 10
0.0
 20
1.0
 30
0.0
  9
$PUCSORTHOREF
  2

  9
$PUCSORTHOVIEW
 70
     0
  9
$PUCSORGTOP
 10
0.0
 20
0.0
 30
0.0
  9
$PUCSORGBOTTOM
 10
0.0
 20
0.0
 30
0.0
  9
$PUCSORGLEFT
 10
0.0
 20
0.0
 30
0.0
  9
$PUCSORGRIGHT
 10
0.0
 20
0.0
 30
0.0
  9
$PUCSORGFRONT
 10
0.0
 20
0.0
 30
0.0
  9
$PUCSORGBACK
 10
0.0
 20
0.0
 30
0.0
  9
$USERI1
 70
     0
  9
$USERI2
 70
     0
  9
$USERI3
 70
     0
  9
$USERI4
 70
     0
  9
$USERI5
 70
     0
  9
$USERR1
 40
0.0
  9
$USERR2
 40
0.0
  9
$USERR3
 40
0.0
  9
$USERR4
 40
0.0
  9
$USERR5
 40
0.0
  9
$WORLDVIEW
 70
     1
  9
$SHADEDGE
 70
     3
  9
$SHADEDIF
 70
    70
  9
$TILEMODE
 70
     1
  9
$MAXACTVP
 70
    64
  9
$PINSBASE
 10
0.0
 20
0.0
 30
0.0
  9
$PLIMCHECK
 70
     0
  9
$PEXTMIN
 10
1.000000000000000E+20
 20
1.000000000000000E+20
 30
1.000000000000000E+20
  9
$PEXTMAX
 10
-1.000000000000000E+20
 20
-1.000000000000000E+20
 30
-1.000000000000000E+20
  9
$PLIMMIN
 10
0.0
 20
0.0
  9
$PLIMMAX
 10
12.0
 20
9.0
  9
$UNITMODE
 70
     0
  9
$VISRETAIN
 70
     1
  9
$PLINEGEN
 70
     0
  9
$PSLTSCALE
 70
     1
  9
$TREEDEPTH
 70
  3020
  9
$CMLSTYLE
  2
Standard
  9
$CMLJUST
 70
     0
  9
$CMLSCALE
 40
1.0
  9
$PROXYGRAPHICS
 70
     1
  9
$MEASUREMENT
 70
     0
  9
$CELWEIGHT
370
    -1
  9
$ENDCAPS
280
     0
  9
$JOINSTYLE
280
     0
  9
$LWDISPLAY
290
     1
  9
$INSUNITS
 70
     1
  9
$HYPERLINKBASE
  1

  9
$STYLESHEET
  1

  9
$XEDIT
290
     1
  9
$CEPSNTYPE
380
     0
  9
$PSTYLEMODE
290
     1
  9
$FINGERPRINTGUID
  2
{710E9E16-C78E-49E1-876D-81DD046660A5}
  9
$VERSIONGUID
  2
{FAEB1C32-E019-11D5-929B-00C0DF256EC4}
  9
$EXTNAMES
290
     1
  9
$PSVPSCALE
 40
0.0
  9
$OLESTARTUP
290
     0
  9
$SORTENTS
280
   127
  9
$INDEXCTL
280
     0
  9
$HIDETEXT
280
     1
  9
$XCLIPFRAME
280
     2
  9
$HALOGAP
280
     0
  9
$OBSCOLOR
 70
   257
  9
$OBSLTYPE
280
     0
  9
$INTERSECTIONDISPLAY
280
     0
  9
$INTERSECTIONCOLOR
 70
   257
  9
$DIMASSOC
280
     2
  9
$PROJECTNAME
  1

  9
$CAMERADISPLAY
290
     0
  9
$LENSLENGTH
 40
50.0
  9
$CAMERAHEIGHT
 40
0.0
  9
$STEPSPERSEC
 40
2.0
  9
$STEPSIZE
 40
6.0
  9
$3DDWFPREC
 40
2.0
  9
$PSOLWIDTH
 40
0.25
  9
$PSOLHEIGHT
 40
4.0
  9
$LOFTANG1
 40
1.570796326794897
  9
$LOFTANG2
 40
1.570796326794897
  9
$LOFTMAG1
 40
0.0
  9
$LOFTMAG2
 40
0.0
  9
$LOFTPARAM
 70
     7
  9
$LOFTNORMALS
280
     1
  9
$LATITUDE
 40
37.795
  9
$LONGITUDE
 40
-122.394
  9
$NORTHDIRECTION
 40
0.0
  9
$TIMEZONE
 70
 -8000
  9
$LIGHTGLYPHDISPLAY
280
     1
  9
$TILEMODELIGHTSYNCH
280
     1
  9
$CMATERIAL
347
3C
  9
$SOLIDHIST
280
     1
  9
$SHOWHIST
280
     1
  9
$DWFFRAME
280
     2
  9
$DGNFRAME
280
     2
  9
$REALWORLDSCALE
290
     1
  9
$INTERFERECOLOR
 62
   256
  9
$CSHADOW
280
     0
  9
$SHADOWPLANELOCATION
 40
0.0
  0
ENDSEC
  0
SECTION
  2
CLASSES
  0
CLASS
  1
ACDBDICTIONARYWDFLT
  2
AcDbDictionaryWithDefault
  3
ObjectDBX Classes
 90
        0
 91
        4
280
     0
281
     0
  0
CLASS
  1
VISUALSTYLE
  2
AcDbVisualStyle
  3
ObjectDBX Classes
 90
     4095
 91
        4
280
     0
281
     0
  0
CLASS
  1
MATERIAL
  2
AcDbMaterial
  3
ObjectDBX Classes
 90
     1153
 91
        4
280
     0
281
     0
  0
CLASS
  1
SUN
  2
AcDbSun
  3
SCENEOE
 90
     1024
 91
        4
280
     0
281
     0
  0
ENDSEC
  0
SECTION
  2
TABLES
  0
TABLE
  2
VPORT
  5
8
330
0
100
AcDbSymbolTable
 70
     1
  0
VPORT
  5
29
330
8
100
AcDbSymbolTableRecord
100
AcDbViewportTableRecord
  2
*Active
 70
     0
 10
0.0
 20
0.0
 11
1.0
 21
1.0
 12
0.0
 22
0.0
 13
0.0
 23
0.0
 14
0.5
 24
0.5
 15
0.5
 25
0.5
 16
0.0
 26
0.0
 36
1.0
 17
199.9999999499937
 27
-199.9999999499937
 37
0.0
 40
299.9999999249998
 41
1.333333333333292
 42
50.0
 43
0.0
 44
0.0
 50
0.0
 51
0.0
 71
     0
 72
   100
 73
     1
 74
     3
 75
     0
 76
     0
 77
     0
 78
     0
281
     0
 65
     1
110
0.0
120
0.0
130
0.0
111
1.0
121
0.0
131
0.0
112
0.0
122
1.0
132
0.0
 79
     0
146
0.0
 60
     3
 61
     5
292
     1
282
     1
141
0.0
142
0.0
 63
   250
361
3F
  0
ENDTAB
  0
TABLE
  2
LTYPE
  5
5
330
0
100
AcDbSymbolTable
 70
     1
  0
LTYPE
  5
14
330
5
100
AcDbSymbolTableRecord
100
AcDbLinetypeTableRecord
  2
ByBlock
 70
     0
  3

 72
    65
 73
     0
 40
0.0
  0
LTYPE
  5
15
330
5
100
AcDbSymbolTableRecord
100
AcDbLinetypeTableRecord
  2
ByLayer
 70
     0
  3

 72
    65
 73
     0
 40
0.0
  0
LTYPE
  5
16
330
5
100
AcDbSymbolTableRecord
100
AcDbLinetypeTableRecord
  2
Continuous
 70
     0
  3
Solid line
 72
    65
 73
     0
 40
0.0
  0
ENDTAB
  0
TABLE
  2
LAYER
  5
2
330
0
100
AcDbSymbolTable
 70
     5
  0
LAYER
  5
10
330
2
100
AcDbSymbolTableRecord
100
AcDbLayerTableRecord
  2
0
 70
     0
 62
     7
  6
Continuous
370
    -3
390
F
347
3E
  0
LAYER
  5
40
330
2
100
AcDbSymbolTableRecord
100
AcDbLayerTableRecord
  2
Livello 1
 70
     0
 62
     7
  6
Continuous
370
    -3
390
F
347
3E
  0
LAYER
  5
41
330
2
100
AcDbSymbolTableRecord
100
AcDbLayerTableRecord
  2
raster
 70
     0
 62
     7
  6
Continuous
370
    -3
390
F
347
3E
  0
LAYER
  5
61
330
2
100
AcDbSymbolTableRecord
100
AcDbLayerTableRecord
  2
notes
 70
     0
 62
     7
  6
Continuous
370
    -3
390
F
347
3E
  0
LAYER
  5
6B
330
2
100
AcDbSymbolTableRecord
100
AcDbLayerTableRecord
  2
cut
 70
     0
 62
     7
  6
Continuous
370
    -3
390
F
347
3E
  0
ENDTAB
  0
TABLE
  2
STYLE
  5
3
330
0
100
AcDbSymbolTable
 70
     1
  0
STYLE
  5
11
330
3
100
AcDbSymbolTableRecord
100
AcDbTextStyleTableRecord
  2
Standard
 70
     0
 40
0.0
 41
1.0
 50
0.0
 71
     0
 42
0.2
  3
txt
  4

  0
ENDTAB
  0
TABLE
  2
VIEW
  5
6
330
0
100
AcDbSymbolTable
 70
     0
  0
ENDTAB
  0
TABLE
  2
UCS
  5
7
330
0
100
AcDbSymbolTable
 70
     0
  0
ENDTAB
  0
TABLE
  2
APPID
  5
9
330
0
100
AcDbSymbolTable
 70
     1
  0
APPID
  5
12
330
9
100
AcDbSymbolTableRecord
100
AcDbRegAppTableRecord
  2
ACAD
 70
     0
  0
ENDTAB
  0
TABLE
  2
DIMSTYLE
  5
A
330
0
100
AcDbSymbolTable
 70
     1
100
AcDbDimStyleTable
  0
DIMSTYLE
105
27
330
A
100
AcDbSymbolTableRecord
100
AcDbDimStyleTableRecord
  2
Standard
 70
     0
178
     0
340
11
  0
ENDTAB
  0
TABLE
  2
BLOCK_RECORD
  5
1
330
0
100
AcDbSymbolTable
 70
     3
  0
BLOCK_RECORD
  5
1F
330
1
100
AcDbSymbolTableRecord
100
AcDbBlockTableRecord
  2
*Model_Space
340
22
 70
     0
280
     1
281
     0
  0
BLOCK_RECORD
  5
1B
330
1
100
AcDbSymbolTableRecord
100
AcDbBlockTableRecord
  2
*Paper_Space
340
1E
 70
     0
280
     1
281
     0
  0
BLOCK_RECORD
  5
23
330
1
100
AcDbSymbolTableRecord
100
AcDbBlockTableRecord
  2
*Paper_Space0
340
26
 70
     0
280
     1
281
     0
  0
BLOCK_RECORD
  5
62
330
1
100
AcDbSymbolTableRecord
100
AcDbBlockTableRecord
  2
block 2
340
0
102
{BLKREFS
331
63
102
}
 70
     0
280
     1
281
     0
  0
BLOCK_RECORD
  5
6C
330
1
100
AcDbSymbolTableRecord
100
AcDbBlockTableRecord
  2
block 3
340
0
102
{BLKREFS
331
6D
102
}
 70
     0
280
     1
281
     0
  0
ENDTAB
  0
ENDSEC
  0
SECTION
  2
BLOCKS
  0
BLOCK
  5
20
330
1F
100
AcDbEntity
  8
0
100
AcDbBlockBegin
  2
*Model_Space
 70
     0
 10
0.0
 20
0.0
 30
0.0
  3
*Model_Space
  1

  0
ENDBLK
  5
21
330
1F
100
AcDbEntity
  8
0
100
AcDbBlockEnd
  0
BLOCK
  5
1C
330
1B
100
AcDbEntity
 67
     1
  8
0
100
AcDbBlockBegin
  2
*Paper_Space
 70
     0
 10
0.0
 20
0.0
 30
0.0
  3
*Paper_Space
  1

  0
ENDBLK
  5
1D
330
1B
100
AcDbEntity
 67
     1
  8
0
100
AcDbBlockEnd
  0
BLOCK
  5
24
330
23
100
AcDbEntity
  8
0
100
AcDbBlockBegin
  2
*Paper_Space0
 70
     0
 10
0.0
 20
0.0
 30
0.0
  3
*Paper_Space0
  1

  0
ENDBLK
  5
25
330
23
100
AcDbEntity
  8
0
100
AcDbBlockEnd
  0
BLOCK
  5
64
330
62
100
AcDbEntity
  8
0
100
AcDbBlockBegin
  2
block 2
 70
     0
 10
0.0
 20
0.0
 30
0.0
  3
block 2
  1

  0
MTEXT
  5
66
330
62
100
AcDbEntity
  8
notes
 62
    20
420
 16727808
100
AcDbMText
 10
409.5560518724374
 20
-77.29984671461601
 30
0.0
 40
10.61508333067956
 41
0.0
 46
0.0
 71
     7
 72
     1
  1
\fArial|b0|i0|c0|p34;\W1;free use - not for commercial purpose
 73
     1
 44
1.0
  0
MTEXT
  5
67
330
62
100
AcDbEntity
  8
notes
 62
    20
420
 16727808
100
AcDbMText
 10
409.5560518724374
 20
-93.2995591672133
 30
0.0
 40
10.61508333067956
 41
0.0
 46
0.0
 71
     7
 72
     1
  1
\fArial|b0|i0|c0|p34;\W1;please give credit to
 73
     1
 44
1.0
  0
MTEXT
  5
68
330
62
100
AcDbEntity
  8
notes
 62
    20
420
 16727808
100
AcDbMText
 10
409.5560518724374
 20
-109.2996161293591
 30
0.0
 40
10.61508333067956
 41
0.0
 46
0.0
 71
     7
 72
     1
  1
\fArial|b0|i0|c0|p34;\W1;LOFOIO
 73
     1
 44
1.0
  0
MTEXT
  5
69
330
62
100
AcDbEntity
  8
notes
 62
    20
420
 16727808
100
AcDbMText
 10
409.5560518724374
 20
-125.2996730915049
 30
0.0
 40
10.61508333067956
 41
0.0
 46
0.0
 71
     7
 72
     1
  1
\fArial|b0|i0|c0|p34;\W1;makerspace in florence
 73
     1
 44
1.0
  0
MTEXT
  5
6A
330
62
100
AcDbEntity
  8
notes
 62
    20
420
 16727808
100
AcDbMText
 10
409.5560518724374
 20
-141.2993855441023
 30
0.0
 40
10.61508333067956
 41
0.0
 46
0.0
 71
     7
 72
     1
  1
\fArial|b0|i0|c0|p34;\W1;www.lofo.io
 73
     1
 44
1.0
  0
ENDBLK
  5
65
330
62
100
AcDbEntity
  8
0
100
AcDbBlockEnd
  0
BLOCK
  5
6E
330
6C
100
AcDbEntity
  8
0
100
AcDbBlockBegin
  2
block 3
 70
     0
 10
0.0
 20
0.0
 30
0.0
  3
block 3
  1

  0
POLYLINE
  5
70
330
6C
100
AcDbEntity
  8
cut
 62
     7
420
 16777215
370
    35
100
AcDb2dPolyline
 66
     1
 10
0.0
 20
0.0
 30
0.0
  0
VERTEX
  5
71
330
70
100
AcDbEntity
  8
cut
 62
     7
420
 16777215
370
    35
100
AcDbVertex
100
AcDb2dVertex
 10
120.2857580254463
 20
-179.1055761357921
 30
0.0
  0
VERTEX
  5
72
330
70
100
AcDbEntity
  8
cut
 62
     7
420
 16777215
370
    35
100
AcDbVertex
100
AcDb2dVertex
 10
147.9425127407537
 20
-131.2026578144348
 30
0.0
  0
VERTEX
  5
73
330
70
100
AcDbEntity
  8
cut
 62
     7
420
 16777215
370
    35
100
AcDbVertex
100
AcDb2dVertex
 10
120.2857580254463
 20
-83.29973949307721
 30
0.0
  0
VERTEX
  5
74
330
70
100
AcDbEntity
  8
cut
 62
     7
420
 16777215
370
    35
100
AcDbVertex
100
AcDb2dVertex
 10
64.97224859483009
 20
-83.29973949307721
 30
0.0
  0
VERTEX
  5
75
330
70
100
AcDbEntity
  8
cut
 62
     7
420
 16777215
370
    35
100
AcDbVertex
100
AcDb2dVertex
 10
37.31545860174384
 20
-131.2026578144348
 30
0.0
  0
VERTEX
  5
76
330
70
100
AcDbEntity
  8
cut
 62
     7
420
 16777215
370
    35
100
AcDbVertex
100
AcDb2dVertex
 10
64.97224859483009
 20
-179.1055761357921
 30
0.0
  0
VERTEX
  5
77
330
70
100
AcDbEntity
  8
cut
 62
     7
420
 16777215
370
    35
100
AcDbVertex
100
AcDb2dVertex
 10
120.2857580254463
 20
-179.1055761357921
 30
0.0
  0
SEQEND
  5
78
330
70
100
AcDbEntity
  8
cut
 62
     7
420
 16777215
370
    35
  0
POLYLINE
  5
79
330
6C
100
AcDbEntity
  8
cut
 62
     7
420
 16777215
370
    35
100
AcDb2dPolyline
 66
     1
 10
0.0
 20
0.0
 30
0.0
  0
VERTEX
  5
7A
330
79
100
AcDbEntity
  8
cut
 62
     7
420
 16777215
370
    35
100
AcDbVertex
100
AcDb2dVertex
 10
123.1725033025023
 20
-184.1055661345425
 30
0.0
  0
VERTEX
  5
7B
330
79
100
AcDbEntity
  8
cut
 62
     7
420
 16777215
370
    35
100
AcDbVertex
100
AcDb2dVertex
 10
153.7160032948664
 20
-131.2026578144348
 30
0.0
  0
VERTEX
  5
7C
330
79
100
AcDbEntity
  8
cut
 62
     7
420
 16777215
370
    35
100
AcDbVertex
100
AcDb2dVertex
 10
123.1725033025023
 20
-78.29974949432682
 30
0.0
  0
VERTEX
  5
7D
330
79
100
AcDbEntity
  8
cut
 62
     7
420
 16777215
370
    35
100
AcDbVertex
100
AcDb2dVertex
 10
62.08546803999591
 20
-78.29974949432682
 30
0.0
  0
VERTEX
  5
7E
330
79
100
AcDbEntity
  8
cut
 62
     7
420
 16777215
370
    35
100
AcDbVertex
100
AcDb2dVertex
 10
31.5419680476318
 20
-131.2026578144348
 30
0.0
  0
VERTEX
  5
7F
330
79
100
AcDbEntity
  8
cut
 62
     7
420
 16777215
370
    35
100
AcDbVertex
100
AcDb2dVertex
 10
62.08546803999591
 20
-184.1055661345425
 30
0.0
  0
VERTEX
  5
80
330
79
100
AcDbEntity
  8
cut
 62
     7
420
 16777215
370
    35
100
AcDbVertex
100
AcDb2dVertex
 10
123.1725033025023
 20
-184.1055661345425
 30
0.0
  0
SEQEND
  5
81
330
79
100
AcDbEntity
  8
cut
 62
     7
420
 16777215
370
    35
  0
ENDBLK
  5
6F
330
6C
100
AcDbEntity
  8
0
100
AcDbBlockEnd
  0
ENDSEC
  0
SECTION
  2
ENTITIES
  0
SPLINE
  5
42
330
1F
100
AcDbEntity
  8
raster
370
     0
100
AcDbSpline
210
0.0
220
0.0
230
1.0
 70
    11
 71
     3
 72
    38
 73
    34
 74
     0
 42
0.0000000001
 43
0.0000000001
 12
1.0
 22
0.0
 32
0.0
 13
1.0
 23
0.0
 33
0.0
 40
0.0
 40
0.0
 40
0.0
 40
0.0
 40
1.0
 40
1.0
 40
1.0
 40
2.0
 40
2.0
 40
2.0
 40
3.0
 40
3.0
 40
3.0
 40
4.0
 40
4.0
 40
4.0
 40
5.0
 40
5.0
 40
5.0
 40
6.0
 40
6.0
 40
6.0
 40
7.0
 40
7.0
 40
7.0
 40
8.0
 40
8.0
 40
8.0
 40
9.0
 40
9.0
 40
9.0
 40
10.0
 40
10.0
 40
10.0
 40
11.0
 40
11.0
 40
11.0
 40
11.0
 10
81.29382243530308
 20
-271.0035875017056
 30
0.0
 10
81.29372414630485
 20
-272.3026916680471
 30
0.0
 10
81.29368132419557
 20
-273.6017605566112
 30
0.0
 10
81.29375187974934
 20
-274.9008294451752
 30
0.0
 10
81.29379470186053
 20
-275.3160841672939
 30
0.0
 10
81.28825609075083
 20
-275.7314800005233
 30
0.0
 10
81.29569970186006
 20
-276.1466288893081
 30
0.0
 10
81.31203331296707
 20
-277.0571836113025
 30
0.0
 10
81.87301297608226
 20
-277.8567191666584
 30
0.0
 10
82.70637989926574
 20
-278.1689627776912
 30
0.0
 10
83.56698886795884
 20
-278.4914016664997
 30
0.0
 10
84.50484096449429
 20
-278.2588858332243
 30
0.0
 10
85.12065747868144
 20
-277.5619380556215
 30
0.0
 10
85.5212719230256
 20
-277.108548055734
 30
0.0
 10
85.66905053409997
 20
-276.5685511114248
 30
0.0
 10
85.6681962125924
 20
-275.970098889352
 30
0.0
 10
85.66361775632346
 20
-272.6585386124021
 30
0.0
 10
85.66600899042598
 20
-269.3469783354523
 30
0.0
 10
85.66579732376472
 20
-266.0353827807255
 30
0.0
 10
85.66579732376472
 20
-265.9502222251903
 30
0.0
 10
85.66809037926177
 20
-265.8647088918786
 30
0.0
 10
85.661387601655
 20
-265.7799716696776
 30
0.0
 10
85.59454386745202
 20
-264.9377147254434
 30
0.0
 10
85.19678692310683
 20
-264.300104170048
 30
0.0
 10
84.43940831218517
 20
-263.9251013923633
 30
0.0
 10
83.69296581237153
 20
-263.5554961146782
 30
0.0
 10
82.94634692366965
 20
-263.6113761146644
 30
0.0
 10
82.25581213298291
 20
-264.0772191701041
 30
0.0
 10
81.60902937170593
 20
-264.5134994477719
 30
0.0
 10
81.29703271299897
 20
-265.1464886142808
 30
0.0
 10
81.29517053519342
 20
-265.924434169642
 30
0.0
 10
81.29107831297229
 20
-267.617485280329
 30
0.0
 10
81.29390053519373
 20
-269.3105363910173
 30
0.0
 10
81.29382243530308
 20
-271.0035875017056
 30
0.0
  0
SPLINE
  5
43
330
1F
100
AcDbEntity
  8
raster
370
     0
100
AcDbSpline
210
0.0
220
0.0
230
1.0
 70
    11
 71
     3
 72
    38
 73
    34
 74
     0
 42
0.0000000001
 43
0.0000000001
 12
1.0
 22
0.0
 32
0.0
 13
1.0
 23
0.0
 33
0.0
 40
0.0
 40
0.0
 40
0.0
 40
0.0
 40
1.0
 40
1.0
 40
1.0
 40
2.0
 40
2.0
 40
2.0
 40
3.0
 40
3.0
 40
3.0
 40
4.0
 40
4.0
 40
4.0
 40
5.0
 40
5.0
 40
5.0
 40
6.0
 40
6.0
 40
6.0
 40
7.0
 40
7.0
 40
7.0
 40
8.0
 40
8.0
 40
8.0
 40
9.0
 40
9.0
 40
9.0
 40
10.0
 40
10.0
 40
10.0
 40
11.0
 40
11.0
 40
11.0
 40
11.0
 10
84.96024178620938
 20
-270.9877477794871
 30
0.0
 10
84.96024178620938
 20
-272.606327501305
 30
0.0
 10
84.96162525649879
 20
-274.2249072231222
 30
0.0
 10
84.95845025649957
 20
-275.8434869449395
 30
0.0
 10
84.9580622009443
 20
-276.0343397226699
 30
0.0
 10
84.95005414539091
 20
-276.2282263892876
 30
0.0
 10
84.91611692317719
 20
-276.4153397225746
 30
0.0
 10
84.78844664543136
 20
-277.1188491668429
 30
0.0
 10
84.13911625160249
 20
-277.6283661111597
 30
0.0
 10
83.42276571432255
 20
-277.6003555556116
 30
0.0
 10
82.71368239907945
 20
-277.5726272222849
 30
0.0
 10
82.12172130307052
 20
-277.0389802779741
 30
0.0
 10
82.03053581278765
 20
-276.3363880559272
 30
0.0
 10
82.00731547265592
 20
-276.1575297226393
 30
0.0
 10
81.9993502572397
 20
-275.9755316671285
 30
0.0
 10
81.99923686175092
 20
-275.7949800005069
 30
0.0
 10
81.99740241735327
 20
-272.611054723526
 30
0.0
 10
81.99737470168449
 20
-269.4271294465437
 30
0.0
 10
81.99923686175092
 20
-266.2432041695615
 30
0.0
 10
81.9993502572397
 20
-266.0519986140546
 30
0.0
 10
82.00692741711026
 20
-265.8592761141022
 30
0.0
 10
82.03106497945366
 20
-265.6698344474828
 30
0.0
 10
82.12123497943126
 20
-264.9612802809933
 30
0.0
 10
82.70458831261863
 20
-264.4386752811237
 30
0.0
 10
83.42344359021696
 20
-264.4125697255752
 30
0.0
 10
84.15432859003414
 20
-264.3859702811375
 30
0.0
 10
84.78865831209777
 20
-264.8819405587911
 30
0.0
 10
84.91568595401276
 20
-265.5920822252806
 30
0.0
 10
84.94919984204664
 20
-265.7793719474553
 30
0.0
 10
84.95801928626608
 20
-265.9731175029628
 30
0.0
 10
84.95841497872206
 20
-266.1639350029151
 30
0.0
 10
84.96162525649879
 20
-267.7718608358464
 30
0.0
 10
84.96024178620938
 20
-269.3798219465558
 30
0.0
 10
84.96024178620938
 20
-270.9877477794871
 30
0.0
  0
HATCH
  5
44
330
1F
100
AcDbEntity
  8
raster
 62
     5
420
      255
100
AcDbHatch
 10
0.0
 20
0.0
 30
0.0
210
0.0
220
0.0
230
1.0
  2
SOLID
 70
     1
 71
     0
 91
        2
 92
        1
 93
        1
 72
     4
 94
        3
 73
     0
 74
     1
 95
       38
 96
       34
 40
0.0
 40
0.0
 40
0.0
 40
0.0
 40
1.0
 40
1.0
 40
1.0
 40
2.0
 40
2.0
 40
2.0
 40
3.0
 40
3.0
 40
3.0
 40
4.0
 40
4.0
 40
4.0
 40
5.0
 40
5.0
 40
5.0
 40
6.0
 40
6.0
 40
6.0
 40
7.0
 40
7.0
 40
7.0
 40
8.0
 40
8.0
 40
8.0
 40
9.0
 40
9.0
 40
9.0
 40
10.0
 40
10.0
 40
10.0
 40
11.0
 40
11.0
 40
11.0
 40
11.0
 10
81.29382243530308
 20
-271.0035875017056
 10
81.29372414630485
 20
-272.3026916680471
 10
81.29368132419557
 20
-273.6017605566112
 10
81.29375187974934
 20
-274.9008294451752
 10
81.29379470186053
 20
-275.3160841672939
 10
81.28825609075083
 20
-275.7314800005233
 10
81.29569970186006
 20
-276.1466288893081
 10
81.31203331296707
 20
-277.0571836113025
 10
81.87301297608226
 20
-277.8567191666584
 10
82.70637989926574
 20
-278.1689627776912
 10
83.56698886795884
 20
-278.4914016664997
 10
84.50484096449429
 20
-278.2588858332243
 10
85.12065747868144
 20
-277.5619380556215
 10
85.5212719230256
 20
-277.108548055734
 10
85.66905053409997
 20
-276.5685511114248
 10
85.6681962125924
 20
-275.970098889352
 10
85.66361775632346
 20
-272.6585386124021
 10
85.66600899042598
 20
-269.3469783354523
 10
85.66579732376472
 20
-266.0353827807255
 10
85.66579732376472
 20
-265.9502222251903
 10
85.66809037926177
 20
-265.8647088918786
 10
85.661387601655
 20
-265.7799716696776
 10
85.59454386745202
 20
-264.9377147254434
 10
85.19678692310683
 20
-264.300104170048
 10
84.43940831218517
 20
-263.9251013923633
 10
83.69296581237153
 20
-263.5554961146782
 10
82.94634692366965
 20
-263.6113761146644
 10
82.25581213298291
 20
-264.0772191701041
 10
81.60902937170593
 20
-264.5134994477719
 10
81.29703271299897
 20
-265.1464886142808
 10
81.29517053519342
 20
-265.924434169642
 10
81.29107831297229
 20
-267.617485280329
 10
81.29390053519373
 20
-269.3105363910173
 10
81.29382243530308
 20
-271.0035875017056
 97
        0
 97
        0
 92
        1
 93
        1
 72
     4
 94
        3
 73
     0
 74
     1
 95
       38
 96
       34
 40
0.0
 40
0.0
 40
0.0
 40
0.0
 40
1.0
 40
1.0
 40
1.0
 40
2.0
 40
2.0
 40
2.0
 40
3.0
 40
3.0
 40
3.0
 40
4.0
 40
4.0
 40
4.0
 40
5.0
 40
5.0
 40
5.0
 40
6.0
 40
6.0
 40
6.0
 40
7.0
 40
7.0
 40
7.0
 40
8.0
 40
8.0
 40
8.0
 40
9.0
 40
9.0
 40
9.0
 40
10.0
 40
10.0
 40
10.0
 40
11.0
 40
11.0
 40
11.0
 40
11.0
 10
84.96024178620938
 20
-270.9877477794871
 10
84.96024178620938
 20
-272.606327501305
 10
84.96162525649879
 20
-274.2249072231222
 10
84.95845025649957
 20
-275.8434869449395
 10
84.9580622009443
 20
-276.0343397226699
 10
84.95005414539091
 20
-276.2282263892876
 10
84.91611692317719
 20
-276.4153397225746
 10
84.78844664543136
 20
-277.1188491668429
 10
84.13911625160249
 20
-277.6283661111597
 10
83.42276571432255
 20
-277.6003555556116
 10
82.71368239907945
 20
-277.5726272222849
 10
82.12172130307052
 20
-277.0389802779741
 10
82.03053581278765
 20
-276.3363880559272
 10
82.00731547265592
 20
-276.1575297226393
 10
81.9993502572397
 20
-275.9755316671285
 10
81.99923686175092
 20
-275.7949800005069
 10
81.99740241735327
 20
-272.611054723526
 10
81.99737470168449
 20
-269.4271294465437
 10
81.99923686175092
 20
-266.2432041695615
 10
81.9993502572397
 20
-266.0519986140546
 10
82.00692741711026
 20
-265.8592761141022
 10
82.03106497945366
 20
-265.6698344474828
 10
82.12123497943126
 20
-264.9612802809933
 10
82.70458831261863
 20
-264.4386752811237
 10
83.42344359021696
 20
-264.4125697255752
 10
84.15432859003414
 20
-264.3859702811375
 10
84.78865831209777
 20
-264.8819405587911
 10
84.91568595401276
 20
-265.5920822252806
 10
84.94919984204664
 20
-265.7793719474553
 10
84.95801928626608
 20
-265.9731175029628
 10
84.95841497872206
 20
-266.1639350029151
 10
84.96162525649879
 20
-267.7718608358464
 10
84.96024178620938
 20
-269.3798219465558
 10
84.96024178620938
 20
-270.9877477794871
 97
        0
 97
        0
 75
     2
 76
     1
 98
        0
  0
SPLINE
  5
45
330
1F
100
AcDbEntity
  8
raster
370
     0
100
AcDbSpline
210
0.0
220
0.0
230
1.0
 70
    11
 71
     3
 72
    35
 73
    31
 74
     0
 42
0.0000000001
 43
0.0000000001
 12
1.0
 22
0.0
 32
0.0
 13
1.0
 23
0.0
 33
0.0
 40
0.0
 40
0.0
 40
0.0
 40
0.0
 40
1.0
 40
1.0
 40
1.0
 40
2.0
 40
2.0
 40
2.0
 40
3.0
 40
3.0
 40
3.0
 40
4.0
 40
4.0
 40
4.0
 40
5.0
 40
5.0
 40
5.0
 40
6.0
 40
6.0
 40
6.0
 40
7.0
 40
7.0
 40
7.0
 40
8.0
 40
8.0
 40
8.0
 40
9.0
 40
9.0
 40
9.0
 40
10.0
 40
10.0
 40
10.0
 40
10.0
 10
107.6274563619438
 20
-271.0324094461425
 30
0.0
 10
107.627562195277
 20
-270.638462501797
 30
0.0
 10
107.6276327508327
 20
-270.2444802796733
 30
0.0
 10
107.627562195277
 20
-269.8505333353265
 30
0.0
 10
107.6273423190346
 20
-268.5089194467731
 30
0.0
 10
107.6352880286083
 20
-267.1672350026646
 30
0.0
 10
107.6239909302312
 20
-265.8257269474444
 30
0.0
 10
107.6163709304256
 20
-264.9197230587815
 30
0.0
 10
107.0455412227664
 20
-264.1429769478649
 30
0.0
 10
106.1885381890749
 20
-263.8259355590548
 30
0.0
 10
105.3619880291768
 20
-263.5201477813535
 30
0.0
 10
104.4244729563021
 20
-263.7581316701836
 30
0.0
 10
103.8275376937535
 20
-264.4232236144611
 30
0.0
 10
103.4144077518856
 20
-264.8835633365686
 30
0.0
 10
103.2568219185922
 20
-265.4296280586541
 30
0.0
 10
103.2574135416319
 20
-266.0388047251686
 30
0.0
 10
103.2606238193277
 20
-269.3502238910071
 30
0.0
 10
103.2588599304839
 20
-272.6616783346238
 30
0.0
 10
103.2596441408136
 20
-275.9730975004629
 30
0.0
 10
103.2596794185911
 20
-276.0900786115446
 30
0.0
 10
103.2630308074792
 20
-276.2075536115155
 30
0.0
 10
103.2739235412107
 20
-276.323970278153
 30
0.0
 10
103.3975368713904
 20
-277.6459344444889
 30
0.0
 10
104.6625355293515
 20
-278.5568772220392
 30
0.0
 10
105.9491513623632
 20
-278.2519361110048
 30
0.0
 10
106.9414094176709
 20
-278.0168097221743
 30
0.0
 10
107.6225527508339
 20
-277.1561025001672
 30
0.0
 10
107.6258688619439
 20
-276.1113511115397
 30
0.0
 10
107.6312663619428
 20
-274.4184058341846
 30
0.0
 10
107.6273152508324
 20
-272.7253900012744
 30
0.0
 10
107.6274563619438
 20
-271.0324094461425
 30
0.0
  0
SPLINE
  5
46
330
1F
100
AcDbEntity
  8
raster
370
     0
100
AcDbSpline
210
0.0
220
0.0
230
1.0
 70
    11
 71
     3
 72
    38
 73
    34
 74
     0
 42
0.0000000001
 43
0.0000000001
 12
1.0
 22
0.0
 32
0.0
 13
1.0
 23
0.0
 33
0.0
 40
0.0
 40
0.0
 40
0.0
 40
0.0
 40
1.0
 40
1.0
 40
1.0
 40
2.0
 40
2.0
 40
2.0
 40
3.0
 40
3.0
 40
3.0
 40
4.0
 40
4.0
 40
4.0
 40
5.0
 40
5.0
 40
5.0
 40
6.0
 40
6.0
 40
6.0
 40
7.0
 40
7.0
 40
7.0
 40
8.0
 40
8.0
 40
8.0
 40
9.0
 40
9.0
 40
9.0
 40
10.0
 40
10.0
 40
10.0
 40
11.0
 40
11.0
 40
11.0
 40
11.0
 10
106.9189292815522
 20
-271.0330444461423
 30
0.0
 10
106.9189021954543
 20
-272.6517652790709
 30
0.0
 10
106.920172195454
 20
-274.270521389777
 30
0.0
 10
106.9172441398993
 20
-275.8892775004838
 30
0.0
 10
106.9168913621216
 20
-276.0800950004361
 30
0.0
 10
106.9172794176769
 20
-276.2760630559428
 30
0.0
 10
106.8767723381832
 20
-276.4608127781187
 30
0.0
 10
106.7222991399478
 20
-277.1660861112758
 30
0.0
 10
106.059747195669
 20
-277.6507675000431
 30
0.0
 10
105.3464929327795
 20
-277.5980625000568
 30
0.0
 10
104.6133583071416
 20
-277.5438405556263
 30
0.0
 10
104.0362762995392
 20
-276.9672958335476
 30
0.0
 10
103.9790557454435
 20
-276.2296375003986
 30
0.0
 10
103.9724940789442
 20
-276.1448650004199
 30
0.0
 10
103.9747599739679
 20
-276.0593516671076
 30
0.0
 10
103.9747599739679
 20
-275.9741911115738
 30
0.0
 10
103.974583585079
 20
-272.6621369457348
 30
0.0
 10
103.9745130295234
 20
-269.350118057674
 30
0.0
 10
103.9749635233256
 20
-266.0380638918356
 30
0.0
 10
103.9750069184125
 20
-265.9316661140842
 30
0.0
 10
103.9720435850797
 20
-265.8242452807783
 30
0.0
 10
103.9846024739658
 20
-265.7190116696927
 30
0.0
 10
104.0774101873787
 20
-264.9405369476655
 30
0.0
 10
104.7243069182251
 20
-264.3849825033599
 30
0.0
 10
105.5013976510497
 20
-264.4124991700195
 30
0.0
 10
106.2821383067245
 20
-264.440121670013
 30
0.0
 10
106.8959281710278
 20
-265.0325061143088
 30
0.0
 10
106.90884802879
 20
-265.8255505585549
 30
0.0
 10
106.9290621954518
 20
-267.0712441693546
 30
0.0
 10
106.9173852510101
 20
-268.3174316690435
 30
0.0
 10
106.9188316398986
 20
-269.5634075020653
 30
0.0
 10
106.9193878926516
 20
-270.0532747241651
 30
0.0
 10
106.9189292815522
 20
-270.5431419462643
 30
0.0
 10
106.9189292815522
 20
-271.0330444461423
 30
0.0
  0
HATCH
  5
47
330
1F
100
AcDbEntity
  8
raster
 62
     5
420
      255
100
AcDbHatch
 10
0.0
 20
0.0
 30
0.0
210
0.0
220
0.0
230
1.0
  2
SOLID
 70
     1
 71
     0
 91
        2
 92
        1
 93
        1
 72
     4
 94
        3
 73
     0
 74
     1
 95
       35
 96
       31
 40
0.0
 40
0.0
 40
0.0
 40
0.0
 40
1.0
 40
1.0
 40
1.0
 40
2.0
 40
2.0
 40
2.0
 40
3.0
 40
3.0
 40
3.0
 40
4.0
 40
4.0
 40
4.0
 40
5.0
 40
5.0
 40
5.0
 40
6.0
 40
6.0
 40
6.0
 40
7.0
 40
7.0
 40
7.0
 40
8.0
 40
8.0
 40
8.0
 40
9.0
 40
9.0
 40
9.0
 40
10.0
 40
10.0
 40
10.0
 40
10.0
 10
107.6274563619438
 20
-271.0324094461425
 10
107.627562195277
 20
-270.638462501797
 10
107.6276327508327
 20
-270.2444802796733
 10
107.627562195277
 20
-269.8505333353265
 10
107.6273423190346
 20
-268.5089194467731
 10
107.6352880286083
 20
-267.1672350026646
 10
107.6239909302312
 20
-265.8257269474444
 10
107.6163709304256
 20
-264.9197230587815
 10
107.0455412227664
 20
-264.1429769478649
 10
106.1885381890749
 20
-263.8259355590548
 10
105.3619880291768
 20
-263.5201477813535
 10
104.4244729563021
 20
-263.7581316701836
 10
103.8275376937535
 20
-264.4232236144611
 10
103.4144077518856
 20
-264.8835633365686
 10
103.2568219185922
 20
-265.4296280586541
 10
103.2574135416319
 20
-266.0388047251686
 10
103.2606238193277
 20
-269.3502238910071
 10
103.2588599304839
 20
-272.6616783346238
 10
103.2596441408136
 20
-275.9730975004629
 10
103.2596794185911
 20
-276.0900786115446
 10
103.2630308074792
 20
-276.2075536115155
 10
103.2739235412107
 20
-276.323970278153
 10
103.3975368713904
 20
-277.6459344444889
 10
104.6625355293515
 20
-278.5568772220392
 10
105.9491513623632
 20
-278.2519361110048
 10
106.9414094176709
 20
-278.0168097221743
 10
107.6225527508339
 20
-277.1561025001672
 10
107.6258688619439
 20
-276.1113511115397
 10
107.6312663619428
 20
-274.4184058341846
 10
107.6273152508324
 20
-272.7253900012744
 10
107.6274563619438
 20
-271.0324094461425
 97
        0
 97
        0
 92
        1
 93
        1
 72
     4
 94
        3
 73
     0
 74
     1
 95
       38
 96
       34
 40
0.0
 40
0.0
 40
0.0
 40
0.0
 40
1.0
 40
1.0
 40
1.0
 40
2.0
 40
2.0
 40
2.0
 40
3.0
 40
3.0
 40
3.0
 40
4.0
 40
4.0
 40
4.0
 40
5.0
 40
5.0
 40
5.0
 40
6.0
 40
6.0
 40
6.0
 40
7.0
 40
7.0
 40
7.0
 40
8.0
 40
8.0
 40
8.0
 40
9.0
 40
9.0
 40
9.0
 40
10.0
 40
10.0
 40
10.0
 40
11.0
 40
11.0
 40
11.0
 40
11.0
 10
106.9189292815522
 20
-271.0330444461423
 10
106.9189021954543
 20
-272.6517652790709
 10
106.920172195454
 20
-274.270521389777
 10
106.9172441398993
 20
-275.8892775004838
 10
106.9168913621216
 20
-276.0800950004361
 10
106.9172794176769
 20
-276.2760630559428
 10
106.8767723381832
 20
-276.4608127781187
 10
106.7222991399478
 20
-277.1660861112758
 10
106.059747195669
 20
-277.6507675000431
 10
105.3464929327795
 20
-277.5980625000568
 10
104.6133583071416
 20
-277.5438405556263
 10
104.0362762995392
 20
-276.9672958335476
 10
103.9790557454435
 20
-276.2296375003986
 10
103.9724940789442
 20
-276.1448650004199
 10
103.9747599739679
 20
-276.0593516671076
 10
103.9747599739679
 20
-275.9741911115738
 10
103.974583585079
 20
-272.6621369457348
 10
103.9745130295234
 20
-269.350118057674
 10
103.9749635233256
 20
-266.0380638918356
 10
103.9750069184125
 20
-265.9316661140842
 10
103.9720435850797
 20
-265.8242452807783
 10
103.9846024739658
 20
-265.7190116696927
 10
104.0774101873787
 20
-264.9405369476655
 10
104.7243069182251
 20
-264.3849825033599
 10
105.5013976510497
 20
-264.4124991700195
 10
106.2821383067245
 20
-264.440121670013
 10
106.8959281710278
 20
-265.0325061143088
 10
106.90884802879
 20
-265.8255505585549
 10
106.9290621954518
 20
-267.0712441693546
 10
106.9173852510101
 20
-268.3174316690435
 10
106.9188316398986
 20
-269.5634075020653
 10
106.9193878926516
 20
-270.0532747241651
 10
106.9189292815522
 20
-270.5431419462643
 10
106.9189292815522
 20
-271.0330444461423
 97
        0
 97
        0
 75
     2
 76
     1
 98
        0
  0
SPLINE
  5
48
330
1F
100
AcDbEntity
  8
raster
370
     0
100
AcDbSpline
210
0.0
220
0.0
230
1.0
 70
    11
 71
     3
 72
    29
 73
    25
 74
     0
 42
0.0000000001
 43
0.0000000001
 12
1.0
 22
0.0
 32
0.0
 13
1.0
 23
0.0
 33
0.0
 40
0.0
 40
0.0
 40
0.0
 40
0.0
 40
1.0
 40
1.0
 40
1.0
 40
2.0
 40
2.0
 40
2.0
 40
3.0
 40
3.0
 40
3.0
 40
4.0
 40
4.0
 40
4.0
 40
5.0
 40
5.0
 40
5.0
 40
6.0
 40
6.0
 40
6.0
 40
7.0
 40
7.0
 40
7.0
 40
8.0
 40
8.0
 40
8.0
 40
8.0
 10
88.97097997771898
 20
-278.2708097221105
 30
0.0
 10
88.97097997771898
 20
-278.2708097221105
 30
0.0
 10
88.97097997771898
 20
-278.2708097221105
 30
0.0
 10
88.97097997771898
 20
-278.2708097221105
 30
0.0
 10
88.77331085559655
 20
-278.2708097221105
 30
0.0
 10
88.61160525558707
 20
-278.1090963888178
 30
0.0
 10
88.61160525558707
 20
-277.911434999978
 30
0.0
 10
88.61160525558707
 20
-277.911434999978
 30
0.0
 10
88.61160525558707
 20
-264.0892488923222
 30
0.0
 10
88.61160525558707
 20
-264.0892488923222
 30
0.0
 10
88.61160525558707
 20
-263.8915875034837
 30
0.0
 10
88.77331085559655
 20
-263.7298741701903
 30
0.0
 10
88.97097997771898
 20
-263.7298741701903
 30
0.0
 10
88.97097997771898
 20
-263.7298741701903
 30
0.0
 10
88.97097997771898
 20
-263.7298741701903
 30
0.0
 10
88.97097997771898
 20
-263.7298741701903
 30
0.0
 10
89.16860608878065
 20
-263.7298741701903
 30
0.0
 10
89.33034695249648
 20
-263.8915875034837
 30
0.0
 10
89.33034695249648
 20
-264.0892488923222
 30
0.0
 10
89.33034695249648
 20
-264.0892488923222
 30
0.0
 10
89.33034695249648
 20
-277.911434999978
 30
0.0
 10
89.33034695249648
 20
-277.911434999978
 30
0.0
 10
89.33034695249648
 20
-278.1090963888178
 30
0.0
 10
89.16860608878065
 20
-278.2708097221105
 30
0.0
 10
88.97097997771898
 20
-278.2708097221105
 30
0.0
  0
HATCH
  5
49
330
1F
100
AcDbEntity
  8
raster
 62
     5
420
      255
100
AcDbHatch
 10
0.0
 20
0.0
 30
0.0
210
0.0
220
0.0
230
1.0
  2
SOLID
 70
     1
 71
     0
 91
        1
 92
        1
 93
        1
 72
     4
 94
        3
 73
     0
 74
     1
 95
       29
 96
       25
 40
0.0
 40
0.0
 40
0.0
 40
0.0
 40
1.0
 40
1.0
 40
1.0
 40
2.0
 40
2.0
 40
2.0
 40
3.0
 40
3.0
 40
3.0
 40
4.0
 40
4.0
 40
4.0
 40
5.0
 40
5.0
 40
5.0
 40
6.0
 40
6.0
 40
6.0
 40
7.0
 40
7.0
 40
7.0
 40
8.0
 40
8.0
 40
8.0
 40
8.0
 10
88.97097997771898
 20
-278.2708097221105
 10
88.97097997771898
 20
-278.2708097221105
 10
88.97097997771898
 20
-278.2708097221105
 10
88.97097997771898
 20
-278.2708097221105
 10
88.77331085559655
 20
-278.2708097221105
 10
88.61160525558707
 20
-278.1090963888178
 10
88.61160525558707
 20
-277.911434999978
 10
88.61160525558707
 20
-277.911434999978
 10
88.61160525558707
 20
-264.0892488923222
 10
88.61160525558707
 20
-264.0892488923222
 10
88.61160525558707
 20
-263.8915875034837
 10
88.77331085559655
 20
-263.7298741701903
 10
88.97097997771898
 20
-263.7298741701903
 10
88.97097997771898
 20
-263.7298741701903
 10
88.97097997771898
 20
-263.7298741701903
 10
88.97097997771898
 20
-263.7298741701903
 10
89.16860608878065
 20
-263.7298741701903
 10
89.33034695249648
 20
-263.8915875034837
 10
89.33034695249648
 20
-264.0892488923222
 10
89.33034695249648
 20
-264.0892488923222
 10
89.33034695249648
 20
-277.911434999978
 10
89.33034695249648
 20
-277.911434999978
 10
89.33034695249648
 20
-278.1090963888178
 10
89.16860608878065
 20
-278.2708097221105
 10
88.97097997771898
 20
-278.2708097221105
 97
        0
 97
        0
 75
     2
 76
     1
 98
        0
  0
SPLINE
  5
4A
330
1F
100
AcDbEntity
  8
raster
370
     0
100
AcDbSpline
210
0.0
220
0.0
230
1.0
 70
    11
 71
     3
 72
    29
 73
    25
 74
     0
 42
0.0000000001
 43
0.0000000001
 12
1.0
 22
0.0
 32
0.0
 13
1.0
 23
0.0
 33
0.0
 40
0.0
 40
0.0
 40
0.0
 40
0.0
 40
1.0
 40
1.0
 40
1.0
 40
2.0
 40
2.0
 40
2.0
 40
3.0
 40
3.0
 40
3.0
 40
4.0
 40
4.0
 40
4.0
 40
5.0
 40
5.0
 40
5.0
 40
6.0
 40
6.0
 40
6.0
 40
7.0
 40
7.0
 40
7.0
 40
8.0
 40
8.0
 40
8.0
 40
8.0
 10
77.98682053602029
 20
-278.2708097221105
 30
0.0
 10
77.98682053602029
 20
-278.2708097221105
 30
0.0
 10
77.98682053602029
 20
-278.2708097221105
 30
0.0
 10
77.98682053602029
 20
-278.2708097221105
 30
0.0
 10
77.78915914718111
 20
-278.2708097221105
 30
0.0
 10
77.62743836217368
 20
-278.1090963888178
 30
0.0
 10
77.62743836217368
 20
-277.911434999978
 30
0.0
 10
77.62743836217368
 20
-277.911434999978
 30
0.0
 10
77.62743836217368
 20
-264.0892488923222
 30
0.0
 10
77.62743836217368
 20
-264.0892488923222
 30
0.0
 10
77.62743836217368
 20
-263.8915875034837
 30
0.0
 10
77.78915914718111
 20
-263.7298741701903
 30
0.0
 10
77.98682053602029
 20
-263.7298741701903
 30
0.0
 10
77.98682053602029
 20
-263.7298741701903
 30
0.0
 10
77.98682053602029
 20
-263.7298741701903
 30
0.0
 10
77.98682053602029
 20
-263.7298741701903
 30
0.0
 10
78.18448192486012
 20
-263.7298741701903
 30
0.0
 10
78.34619525815286
 20
-263.8915875034837
 30
0.0
 10
78.34619525815286
 20
-264.0892488923222
 30
0.0
 10
78.34619525815286
 20
-264.0892488923222
 30
0.0
 10
78.34619525815286
 20
-277.911434999978
 30
0.0
 10
78.34619525815286
 20
-277.911434999978
 30
0.0
 10
78.34619525815286
 20
-278.1090963888178
 30
0.0
 10
78.18448192486012
 20
-278.2708097221105
 30
0.0
 10
77.98682053602029
 20
-278.2708097221105
 30
0.0
  0
HATCH
  5
4B
330
1F
100
AcDbEntity
  8
raster
 62
     5
420
      255
100
AcDbHatch
 10
0.0
 20
0.0
 30
0.0
210
0.0
220
0.0
230
1.0
  2
SOLID
 70
     1
 71
     0
 91
        1
 92
        1
 93
        1
 72
     4
 94
        3
 73
     0
 74
     1
 95
       29
 96
       25
 40
0.0
 40
0.0
 40
0.0
 40
0.0
 40
1.0
 40
1.0
 40
1.0
 40
2.0
 40
2.0
 40
2.0
 40
3.0
 40
3.0
 40
3.0
 40
4.0
 40
4.0
 40
4.0
 40
5.0
 40
5.0
 40
5.0
 40
6.0
 40
6.0
 40
6.0
 40
7.0
 40
7.0
 40
7.0
 40
8.0
 40
8.0
 40
8.0
 40
8.0
 10
77.98682053602029
 20
-278.2708097221105
 10
77.98682053602029
 20
-278.2708097221105
 10
77.98682053602029
 20
-278.2708097221105
 10
77.98682053602029
 20
-278.2708097221105
 10
77.78915914718111
 20
-278.2708097221105
 10
77.62743836217368
 20
-278.1090963888178
 10
77.62743836217368
 20
-277.911434999978
 10
77.62743836217368
 20
-277.911434999978
 10
77.62743836217368
 20
-264.0892488923222
 10
77.62743836217368
 20
-264.0892488923222
 10
77.62743836217368
 20
-263.8915875034837
 10
77.78915914718111
 20
-263.7298741701903
 10
77.98682053602029
 20
-263.7298741701903
 10
77.98682053602029
 20
-263.7298741701903
 10
77.98682053602029
 20
-263.7298741701903
 10
77.98682053602029
 20
-263.7298741701903
 10
78.18448192486012
 20
-263.7298741701903
 10
78.34619525815286
 20
-263.8915875034837
 10
78.34619525815286
 20
-264.0892488923222
 10
78.34619525815286
 20
-264.0892488923222
 10
78.34619525815286
 20
-277.911434999978
 10
78.34619525815286
 20
-277.911434999978
 10
78.34619525815286
 20
-278.1090963888178
 10
78.18448192486012
 20
-278.2708097221105
 10
77.98682053602029
 20
-278.2708097221105
 97
        0
 97
        0
 75
     2
 76
     1
 98
        0
  0
SPLINE
  5
4C
330
1F
100
AcDbEntity
  8
raster
370
     0
100
AcDbSpline
210
0.0
220
0.0
230
1.0
 70
    11
 71
     3
 72
    29
 73
    25
 74
     0
 42
0.0000000001
 43
0.0000000001
 12
1.0
 22
0.0
 32
0.0
 13
1.0
 23
0.0
 33
0.0
 40
0.0
 40
0.0
 40
0.0
 40
0.0
 40
1.0
 40
1.0
 40
1.0
 40
2.0
 40
2.0
 40
2.0
 40
3.0
 40
3.0
 40
3.0
 40
4.0
 40
4.0
 40
4.0
 40
5.0
 40
5.0
 40
5.0
 40
6.0
 40
6.0
 40
6.0
 40
7.0
 40
7.0
 40
7.0
 40
8.0
 40
8.0
 40
8.0
 40
8.0
 10
77.98682053602029
 20
-278.2708097221105
 30
0.0
 10
78.18448192486012
 20
-278.2708097221105
 30
0.0
 10
78.34619525815286
 20
-278.1090963888178
 30
0.0
 10
78.34619525815286
 20
-277.911434999978
 30
0.0
 10
78.34619525815286
 20
-277.911434999978
 30
0.0
 10
78.34619525815286
 20
-264.0892488923222
 30
0.0
 10
78.34619525815286
 20
-264.0892488923222
 30
0.0
 10
78.34619525815286
 20
-263.8915875034837
 30
0.0
 10
78.18448192486012
 20
-263.7298741701903
 30
0.0
 10
77.98682053602029
 20
-263.7298741701903
 30
0.0
 10
77.98682053602029
 20
-263.7298741701903
 30
0.0
 10
77.98682053602029
 20
-263.7298741701903
 30
0.0
 10
77.98682053602029
 20
-263.7298741701903
 30
0.0
 10
77.78915914718111
 20
-263.7298741701903
 30
0.0
 10
77.62743836217368
 20
-263.8915875034837
 30
0.0
 10
77.62743836217368
 20
-264.0892488923222
 30
0.0
 10
77.62743836217368
 20
-264.0892488923222
 30
0.0
 10
77.62743836217368
 20
-277.911434999978
 30
0.0
 10
77.62743836217368
 20
-277.911434999978
 30
0.0
 10
77.62743836217368
 20
-278.1090963888178
 30
0.0
 10
77.78915914718111
 20
-278.2708097221105
 30
0.0
 10
77.98682053602029
 20
-278.2708097221105
 30
0.0
 10
77.98682053602029
 20
-278.2708097221105
 30
0.0
 10
77.98682053602029
 20
-278.2708097221105
 30
0.0
 10
77.98682053602029
 20
-278.2708097221105
 30
0.0
  0
HATCH
  5
4D
330
1F
100
AcDbEntity
  8
raster
 62
     5
420
      255
100
AcDbHatch
 10
0.0
 20
0.0
 30
0.0
210
0.0
220
0.0
230
1.0
  2
SOLID
 70
     1
 71
     0
 91
        1
 92
        1
 93
        1
 72
     4
 94
        3
 73
     0
 74
     1
 95
       29
 96
       25
 40
0.0
 40
0.0
 40
0.0
 40
0.0
 40
1.0
 40
1.0
 40
1.0
 40
2.0
 40
2.0
 40
2.0
 40
3.0
 40
3.0
 40
3.0
 40
4.0
 40
4.0
 40
4.0
 40
5.0
 40
5.0
 40
5.0
 40
6.0
 40
6.0
 40
6.0
 40
7.0
 40
7.0
 40
7.0
 40
8.0
 40
8.0
 40
8.0
 40
8.0
 10
77.98682053602029
 20
-278.2708097221105
 10
78.18448192486012
 20
-278.2708097221105
 10
78.34619525815286
 20
-278.1090963888178
 10
78.34619525815286
 20
-277.911434999978
 10
78.34619525815286
 20
-277.911434999978
 10
78.34619525815286
 20
-264.0892488923222
 10
78.34619525815286
 20
-264.0892488923222
 10
78.34619525815286
 20
-263.8915875034837
 10
78.18448192486012
 20
-263.7298741701903
 10
77.98682053602029
 20
-263.7298741701903
 10
77.98682053602029
 20
-263.7298741701903
 10
77.98682053602029
 20
-263.7298741701903
 10
77.98682053602029
 20
-263.7298741701903
 10
77.78915914718111
 20
-263.7298741701903
 10
77.62743836217368
 20
-263.8915875034837
 10
77.62743836217368
 20
-264.0892488923222
 10
77.62743836217368
 20
-264.0892488923222
 10
77.62743836217368
 20
-277.911434999978
 10
77.62743836217368
 20
-277.911434999978
 10
77.62743836217368
 20
-278.1090963888178
 10
77.78915914718111
 20
-278.2708097221105
 10
77.98682053602029
 20
-278.2708097221105
 10
77.98682053602029
 20
-278.2708097221105
 10
77.98682053602029
 20
-278.2708097221105
 10
77.98682053602029
 20
-278.2708097221105
 97
        0
 97
        0
 75
     2
 76
     1
 98
        0
  0
SPLINE
  5
4E
330
1F
100
AcDbEntity
  8
raster
370
     0
100
AcDbSpline
210
0.0
220
0.0
230
1.0
 70
    11
 71
     3
 72
    29
 73
    25
 74
     0
 42
0.0000000001
 43
0.0000000001
 12
1.0
 22
0.0
 32
0.0
 13
1.0
 23
0.0
 33
0.0
 40
0.0
 40
0.0
 40
0.0
 40
0.0
 40
1.0
 40
1.0
 40
1.0
 40
2.0
 40
2.0
 40
2.0
 40
3.0
 40
3.0
 40
3.0
 40
4.0
 40
4.0
 40
4.0
 40
5.0
 40
5.0
 40
5.0
 40
6.0
 40
6.0
 40
6.0
 40
7.0
 40
7.0
 40
7.0
 40
8.0
 40
8.0
 40
8.0
 40
8.0
 10
99.9576441416389
 20
-278.2708097221105
 30
0.0
 10
99.9576441416389
 20
-278.2708097221105
 30
0.0
 10
99.9576441416389
 20
-278.2708097221105
 30
0.0
 10
99.9576441416389
 20
-278.2708097221105
 30
0.0
 10
99.76001803057723
 20
-278.2708097221105
 30
0.0
 10
99.59826941950632
 20
-278.1090963888178
 30
0.0
 10
99.59826941950632
 20
-277.911434999978
 30
0.0
 10
99.59826941950632
 20
-277.911434999978
 30
0.0
 10
99.59826941950632
 20
-264.0892488923222
 30
0.0
 10
99.59826941950632
 20
-264.0892488923222
 30
0.0
 10
99.59826941950632
 20
-263.8915875034837
 30
0.0
 10
99.76001803057723
 20
-263.7298741701903
 30
0.0
 10
99.9576441416389
 20
-263.7298741701903
 30
0.0
 10
99.9576441416389
 20
-263.7298741701903
 30
0.0
 10
99.9576441416389
 20
-263.7298741701903
 30
0.0
 10
99.9576441416389
 20
-263.7298741701903
 30
0.0
 10
100.1552975096623
 20
-263.7298741701903
 30
0.0
 10
100.31701083887
 20
-263.8915875034837
 30
0.0
 10
100.31701083887
 20
-264.0892488923222
 30
0.0
 10
100.31701083887
 20
-264.0892488923222
 30
0.0
 10
100.31701083887
 20
-277.911434999978
 30
0.0
 10
100.31701083887
 20
-277.911434999978
 30
0.0
 10
100.31701083887
 20
-278.1090963888178
 30
0.0
 10
100.1552975096623
 20
-278.2708097221105
 30
0.0
 10
99.9576441416389
 20
-278.2708097221105
 30
0.0
  0
HATCH
  5
4F
330
1F
100
AcDbEntity
  8
raster
 62
     5
420
      255
100
AcDbHatch
 10
0.0
 20
0.0
 30
0.0
210
0.0
220
0.0
230
1.0
  2
SOLID
 70
     1
 71
     0
 91
        1
 92
        1
 93
        1
 72
     4
 94
        3
 73
     0
 74
     1
 95
       29
 96
       25
 40
0.0
 40
0.0
 40
0.0
 40
0.0
 40
1.0
 40
1.0
 40
1.0
 40
2.0
 40
2.0
 40
2.0
 40
3.0
 40
3.0
 40
3.0
 40
4.0
 40
4.0
 40
4.0
 40
5.0
 40
5.0
 40
5.0
 40
6.0
 40
6.0
 40
6.0
 40
7.0
 40
7.0
 40
7.0
 40
8.0
 40
8.0
 40
8.0
 40
8.0
 10
99.9576441416389
 20
-278.2708097221105
 10
99.9576441416389
 20
-278.2708097221105
 10
99.9576441416389
 20
-278.2708097221105
 10
99.9576441416389
 20
-278.2708097221105
 10
99.76001803057723
 20
-278.2708097221105
 10
99.59826941950632
 20
-278.1090963888178
 10
99.59826941950632
 20
-277.911434999978
 10
99.59826941950632
 20
-277.911434999978
 10
99.59826941950632
 20
-264.0892488923222
 10
99.59826941950632
 20
-264.0892488923222
 10
99.59826941950632
 20
-263.8915875034837
 10
99.76001803057723
 20
-263.7298741701903
 10
99.9576441416389
 20
-263.7298741701903
 10
99.9576441416389
 20
-263.7298741701903
 10
99.9576441416389
 20
-263.7298741701903
 10
99.9576441416389
 20
-263.7298741701903
 10
100.1552975096623
 20
-263.7298741701903
 10
100.31701083887
 20
-263.8915875034837
 10
100.31701083887
 20
-264.0892488923222
 10
100.31701083887
 20
-264.0892488923222
 10
100.31701083887
 20
-277.911434999978
 10
100.31701083887
 20
-277.911434999978
 10
100.31701083887
 20
-278.1090963888178
 10
100.1552975096623
 20
-278.2708097221105
 10
99.9576441416389
 20
-278.2708097221105
 97
        0
 97
        0
 75
     2
 76
     1
 98
        0
  0
SPLINE
  5
50
330
1F
100
AcDbEntity
  8
raster
370
     0
100
AcDbSpline
210
0.0
220
0.0
230
1.0
 70
    11
 71
     3
 72
    29
 73
    25
 74
     0
 42
0.0000000001
 43
0.0000000001
 12
1.0
 22
0.0
 32
0.0
 13
1.0
 23
0.0
 33
0.0
 40
0.0
 40
0.0
 40
0.0
 40
0.0
 40
1.0
 40
1.0
 40
1.0
 40
2.0
 40
2.0
 40
2.0
 40
3.0
 40
3.0
 40
3.0
 40
4.0
 40
4.0
 40
4.0
 40
5.0
 40
5.0
 40
5.0
 40
6.0
 40
6.0
 40
6.0
 40
7.0
 40
7.0
 40
7.0
 40
8.0
 40
8.0
 40
8.0
 40
8.0
 10
99.9576441416389
 20
-278.2708097221105
 30
0.0
 10
100.1552975096623
 20
-278.2708097221105
 30
0.0
 10
100.31701083887
 20
-278.1090963888178
 30
0.0
 10
100.31701083887
 20
-277.911434999978
 30
0.0
 10
100.31701083887
 20
-277.911434999978
 30
0.0
 10
100.31701083887
 20
-264.0892488923222
 30
0.0
 10
100.31701083887
 20
-264.0892488923222
 30
0.0
 10
100.31701083887
 20
-263.8915875034837
 30
0.0
 10
100.1552975096623
 20
-263.7298741701903
 30
0.0
 10
99.9576441416389
 20
-263.7298741701903
 30
0.0
 10
99.9576441416389
 20
-263.7298741701903
 30
0.0
 10
99.9576441416389
 20
-263.7298741701903
 30
0.0
 10
99.9576441416389
 20
-263.7298741701903
 30
0.0
 10
99.76001803057723
 20
-263.7298741701903
 30
0.0
 10
99.59826941950632
 20
-263.8915875034837
 30
0.0
 10
99.59826941950632
 20
-264.0892488923222
 30
0.0
 10
99.59826941950632
 20
-264.0892488923222
 30
0.0
 10
99.59826941950632
 20
-277.911434999978
 30
0.0
 10
99.59826941950632
 20
-277.911434999978
 30
0.0
 10
99.59826941950632
 20
-278.1090963888178
 30
0.0
 10
99.76001803057723
 20
-278.2708097221105
 30
0.0
 10
99.9576441416389
 20
-278.2708097221105
 30
0.0
 10
99.9576441416389
 20
-278.2708097221105
 30
0.0
 10
99.9576441416389
 20
-278.2708097221105
 30
0.0
 10
99.9576441416389
 20
-278.2708097221105
 30
0.0
  0
HATCH
  5
51
330
1F
100
AcDbEntity
  8
raster
 62
     5
420
      255
100
AcDbHatch
 10
0.0
 20
0.0
 30
0.0
210
0.0
220
0.0
230
1.0
  2
SOLID
 70
     1
 71
     0
 91
        1
 92
        1
 93
        1
 72
     4
 94
        3
 73
     0
 74
     1
 95
       29
 96
       25
 40
0.0
 40
0.0
 40
0.0
 40
0.0
 40
1.0
 40
1.0
 40
1.0
 40
2.0
 40
2.0
 40
2.0
 40
3.0
 40
3.0
 40
3.0
 40
4.0
 40
4.0
 40
4.0
 40
5.0
 40
5.0
 40
5.0
 40
6.0
 40
6.0
 40
6.0
 40
7.0
 40
7.0
 40
7.0
 40
8.0
 40
8.0
 40
8.0
 40
8.0
 10
99.9576441416389
 20
-278.2708097221105
 10
100.1552975096623
 20
-278.2708097221105
 10
100.31701083887
 20
-278.1090963888178
 10
100.31701083887
 20
-277.911434999978
 10
100.31701083887
 20
-277.911434999978
 10
100.31701083887
 20
-264.0892488923222
 10
100.31701083887
 20
-264.0892488923222
 10
100.31701083887
 20
-263.8915875034837
 10
100.1552975096623
 20
-263.7298741701903
 10
99.9576441416389
 20
-263.7298741701903
 10
99.9576441416389
 20
-263.7298741701903
 10
99.9576441416389
 20
-263.7298741701903
 10
99.9576441416389
 20
-263.7298741701903
 10
99.76001803057723
 20
-263.7298741701903
 10
99.59826941950632
 20
-263.8915875034837
 10
99.59826941950632
 20
-264.0892488923222
 10
99.59826941950632
 20
-264.0892488923222
 10
99.59826941950632
 20
-277.911434999978
 10
99.59826941950632
 20
-277.911434999978
 10
99.59826941950632
 20
-278.1090963888178
 10
99.76001803057723
 20
-278.2708097221105
 10
99.9576441416389
 20
-278.2708097221105
 10
99.9576441416389
 20
-278.2708097221105
 10
99.9576441416389
 20
-278.2708097221105
 10
99.9576441416389
 20
-278.2708097221105
 97
        0
 97
        0
 75
     2
 76
     1
 98
        0
  0
SPLINE
  5
52
330
1F
100
AcDbEntity
  8
raster
370
     0
100
AcDbSpline
210
0.0
220
0.0
230
1.0
 70
    11
 71
     3
 72
    17
 73
    13
 74
     0
 42
0.0000000001
 43
0.0000000001
 12
1.0
 22
0.0
 32
0.0
 13
1.0
 23
0.0
 33
0.0
 40
0.0
 40
0.0
 40
0.0
 40
0.0
 40
1.0
 40
1.0
 40
1.0
 40
2.0
 40
2.0
 40
2.0
 40
3.0
 40
3.0
 40
3.0
 40
4.0
 40
4.0
 40
4.0
 40
4.0
 10
91.166625794538
 20
-264.4109116700202
 30
0.0
 10
91.166625794538
 20
-264.8102208365871
 30
0.0
 10
90.84292469947329
 20
-265.1339297253953
 30
0.0
 10
90.44361553290634
 20
-265.1339297253953
 30
0.0
 10
90.04430636633938
 20
-265.1339297253953
 30
0.0
 10
89.72063275530935
 20
-264.8102208365871
 30
0.0
 10
89.72063275530935
 20
-264.4109116700202
 30
0.0
 10
89.72063275530935
 20
-264.0116377812314
 30
0.0
 10
90.04430636633938
 20
-263.6879288924232
 30
0.0
 10
90.44361553290634
 20
-263.6879288924232
 30
0.0
 10
90.84292469947329
 20
-263.6879288924232
 30
0.0
 10
91.166625794538
 20
-264.0116377812314
 30
0.0
 10
91.166625794538
 20
-264.4109116700202
 30
0.0
  0
HATCH
  5
53
330
1F
100
AcDbEntity
  8
raster
 62
     5
420
      255
100
AcDbHatch
 10
0.0
 20
0.0
 30
0.0
210
0.0
220
0.0
230
1.0
  2
SOLID
 70
     1
 71
     0
 91
        1
 92
        1
 93
        1
 72
     4
 94
        3
 73
     0
 74
     1
 95
       17
 96
       13
 40
0.0
 40
0.0
 40
0.0
 40
0.0
 40
1.0
 40
1.0
 40
1.0
 40
2.0
 40
2.0
 40
2.0
 40
3.0
 40
3.0
 40
3.0
 40
4.0
 40
4.0
 40
4.0
 40
4.0
 10
91.166625794538
 20
-264.4109116700202
 10
91.166625794538
 20
-264.8102208365871
 10
90.84292469947329
 20
-265.1339297253953
 10
90.44361553290634
 20
-265.1339297253953
 10
90.04430636633938
 20
-265.1339297253953
 10
89.72063275530935
 20
-264.8102208365871
 10
89.72063275530935
 20
-264.4109116700202
 10
89.72063275530935
 20
-264.0116377812314
 10
90.04430636633938
 20
-263.6879288924232
 10
90.44361553290634
 20
-263.6879288924232
 10
90.84292469947329
 20
-263.6879288924232
 10
91.166625794538
 20
-264.0116377812314
 10
91.166625794538
 20
-264.4109116700202
 97
        0
 97
        0
 75
     2
 76
     1
 98
        0
  0
SPLINE
  5
54
330
1F
100
AcDbEntity
  8
raster
370
     0
100
AcDbSpline
210
0.0
220
0.0
230
1.0
 70
    11
 71
     3
 72
    17
 73
    13
 74
     0
 42
0.0000000001
 43
0.0000000001
 12
1.0
 22
0.0
 32
0.0
 13
1.0
 23
0.0
 33
0.0
 40
0.0
 40
0.0
 40
0.0
 40
0.0
 40
1.0
 40
1.0
 40
1.0
 40
2.0
 40
2.0
 40
2.0
 40
3.0
 40
3.0
 40
3.0
 40
4.0
 40
4.0
 40
4.0
 40
4.0
 10
91.166625794538
 20
-264.4109116700202
 30
0.0
 10
91.166625794538
 20
-264.0116377812314
 30
0.0
 10
90.84292469947329
 20
-263.6879288924232
 30
0.0
 10
90.44361553290634
 20
-263.6879288924232
 30
0.0
 10
90.04430636633938
 20
-263.6879288924232
 30
0.0
 10
89.72063275530935
 20
-264.0116377812314
 30
0.0
 10
89.72063275530935
 20
-264.4109116700202
 30
0.0
 10
89.72063275530935
 20
-264.8102208365871
 30
0.0
 10
90.04430636633938
 20
-265.1339297253953
 30
0.0
 10
90.44361553290634
 20
-265.1339297253953
 30
0.0
 10
90.84292469947329
 20
-265.1339297253953
 30
0.0
 10
91.166625794538
 20
-264.8102208365871
 30
0.0
 10
91.166625794538
 20
-264.4109116700202
 30
0.0
  0
HATCH
  5
55
330
1F
100
AcDbEntity
  8
raster
 62
     5
420
      255
100
AcDbHatch
 10
0.0
 20
0.0
 30
0.0
210
0.0
220
0.0
230
1.0
  2
SOLID
 70
     1
 71
     0
 91
        1
 92
        1
 93
        1
 72
     4
 94
        3
 73
     0
 74
     1
 95
       17
 96
       13
 40
0.0
 40
0.0
 40
0.0
 40
0.0
 40
1.0
 40
1.0
 40
1.0
 40
2.0
 40
2.0
 40
2.0
 40
3.0
 40
3.0
 40
3.0
 40
4.0
 40
4.0
 40
4.0
 40
4.0
 10
91.166625794538
 20
-264.4109116700202
 10
91.166625794538
 20
-264.0116377812314
 10
90.84292469947329
 20
-263.6879288924232
 10
90.44361553290634
 20
-263.6879288924232
 10
90.04430636633938
 20
-263.6879288924232
 10
89.72063275530935
 20
-264.0116377812314
 10
89.72063275530935
 20
-264.4109116700202
 10
89.72063275530935
 20
-264.8102208365871
 10
90.04430636633938
 20
-265.1339297253953
 10
90.44361553290634
 20
-265.1339297253953
 10
90.84292469947329
 20
-265.1339297253953
 10
91.166625794538
 20
-264.8102208365871
 10
91.166625794538
 20
-264.4109116700202
 97
        0
 97
        0
 75
     2
 76
     1
 98
        0
  0
SPLINE
  5
56
330
1F
100
AcDbEntity
  8
raster
370
     0
100
AcDbSpline
210
0.0
220
0.0
230
1.0
 70
    11
 71
     3
 72
    17
 73
    13
 74
     0
 42
0.0000000001
 43
0.0000000001
 12
1.0
 22
0.0
 32
0.0
 13
1.0
 23
0.0
 33
0.0
 40
0.0
 40
0.0
 40
0.0
 40
0.0
 40
1.0
 40
1.0
 40
1.0
 40
2.0
 40
2.0
 40
2.0
 40
3.0
 40
3.0
 40
3.0
 40
4.0
 40
4.0
 40
4.0
 40
4.0
 10
91.166625794538
 20
-271.0029525017052
 30
0.0
 10
91.166625794538
 20
-271.4022616682721
 30
0.0
 10
90.84292469947329
 20
-271.7259705570803
 30
0.0
 10
90.44361553290634
 20
-271.7259705570803
 30
0.0
 10
90.04430636633938
 20
-271.7259705570803
 30
0.0
 10
89.72063275530935
 20
-271.4022616682721
 30
0.0
 10
89.72063275530935
 20
-271.0029525017052
 30
0.0
 10
89.72063275530935
 20
-270.6036433351382
 30
0.0
 10
90.04430636633938
 20
-270.2799344463306
 30
0.0
 10
90.44361553290634
 20
-270.2799344463306
 30
0.0
 10
90.84292469947329
 20
-270.2799344463306
 30
0.0
 10
91.166625794538
 20
-270.6036433351382
 30
0.0
 10
91.166625794538
 20
-271.0029525017052
 30
0.0
  0
HATCH
  5
57
330
1F
100
AcDbEntity
  8
raster
 62
     5
420
      255
100
AcDbHatch
 10
0.0
 20
0.0
 30
0.0
210
0.0
220
0.0
230
1.0
  2
SOLID
 70
     1
 71
     0
 91
        1
 92
        1
 93
        1
 72
     4
 94
        3
 73
     0
 74
     1
 95
       17
 96
       13
 40
0.0
 40
0.0
 40
0.0
 40
0.0
 40
1.0
 40
1.0
 40
1.0
 40
2.0
 40
2.0
 40
2.0
 40
3.0
 40
3.0
 40
3.0
 40
4.0
 40
4.0
 40
4.0
 40
4.0
 10
91.166625794538
 20
-271.0029525017052
 10
91.166625794538
 20
-271.4022616682721
 10
90.84292469947329
 20
-271.7259705570803
 10
90.44361553290634
 20
-271.7259705570803
 10
90.04430636633938
 20
-271.7259705570803
 10
89.72063275530935
 20
-271.4022616682721
 10
89.72063275530935
 20
-271.0029525017052
 10
89.72063275530935
 20
-270.6036433351382
 10
90.04430636633938
 20
-270.2799344463306
 10
90.44361553290634
 20
-270.2799344463306
 10
90.84292469947329
 20
-270.2799344463306
 10
91.166625794538
 20
-270.6036433351382
 10
91.166625794538
 20
-271.0029525017052
 97
        0
 97
        0
 75
     2
 76
     1
 98
        0
  0
SPLINE
  5
58
330
1F
100
AcDbEntity
  8
raster
370
     0
100
AcDbSpline
210
0.0
220
0.0
230
1.0
 70
    11
 71
     3
 72
    17
 73
    13
 74
     0
 42
0.0000000001
 43
0.0000000001
 12
1.0
 22
0.0
 32
0.0
 13
1.0
 23
0.0
 33
0.0
 40
0.0
 40
0.0
 40
0.0
 40
0.0
 40
1.0
 40
1.0
 40
1.0
 40
2.0
 40
2.0
 40
2.0
 40
3.0
 40
3.0
 40
3.0
 40
4.0
 40
4.0
 40
4.0
 40
4.0
 10
91.166625794538
 20
-271.0029525017052
 30
0.0
 10
91.166625794538
 20
-270.6036433351382
 30
0.0
 10
90.84292469947329
 20
-270.2799344463306
 30
0.0
 10
90.44361553290634
 20
-270.2799344463306
 30
0.0
 10
90.04430636633938
 20
-270.2799344463306
 30
0.0
 10
89.72063275530935
 20
-270.6036433351382
 30
0.0
 10
89.72063275530935
 20
-271.0029525017052
 30
0.0
 10
89.72063275530935
 20
-271.4022616682721
 30
0.0
 10
90.04430636633938
 20
-271.7259705570803
 30
0.0
 10
90.44361553290634
 20
-271.7259705570803
 30
0.0
 10
90.84292469947329
 20
-271.7259705570803
 30
0.0
 10
91.166625794538
 20
-271.4022616682721
 30
0.0
 10
91.166625794538
 20
-271.0029525017052
 30
0.0
  0
HATCH
  5
59
330
1F
100
AcDbEntity
  8
raster
 62
     5
420
      255
100
AcDbHatch
 10
0.0
 20
0.0
 30
0.0
210
0.0
220
0.0
230
1.0
  2
SOLID
 70
     1
 71
     0
 91
        1
 92
        1
 93
        1
 72
     4
 94
        3
 73
     0
 74
     1
 95
       17
 96
       13
 40
0.0
 40
0.0
 40
0.0
 40
0.0
 40
1.0
 40
1.0
 40
1.0
 40
2.0
 40
2.0
 40
2.0
 40
3.0
 40
3.0
 40
3.0
 40
4.0
 40
4.0
 40
4.0
 40
4.0
 10
91.166625794538
 20
-271.0029525017052
 10
91.166625794538
 20
-270.6036433351382
 10
90.84292469947329
 20
-270.2799344463306
 10
90.44361553290634
 20
-270.2799344463306
 10
90.04430636633938
 20
-270.2799344463306
 10
89.72063275530935
 20
-270.6036433351382
 10
89.72063275530935
 20
-271.0029525017052
 10
89.72063275530935
 20
-271.4022616682721
 10
90.04430636633938
 20
-271.7259705570803
 10
90.44361553290634
 20
-271.7259705570803
 10
90.84292469947329
 20
-271.7259705570803
 10
91.166625794538
 20
-271.4022616682721
 10
91.166625794538
 20
-271.0029525017052
 97
        0
 97
        0
 75
     2
 76
     1
 98
        0
  0
SPLINE
  5
5A
330
1F
100
AcDbEntity
  8
raster
370
     0
100
AcDbSpline
210
0.0
220
0.0
230
1.0
 70
    11
 71
     3
 72
    17
 73
    13
 74
     0
 42
0.0000000001
 43
0.0000000001
 12
1.0
 22
0.0
 32
0.0
 13
1.0
 23
0.0
 33
0.0
 40
0.0
 40
0.0
 40
0.0
 40
0.0
 40
1.0
 40
1.0
 40
1.0
 40
2.0
 40
2.0
 40
2.0
 40
3.0
 40
3.0
 40
3.0
 40
4.0
 40
4.0
 40
4.0
 40
4.0
 10
80.17277275769628
 20
-277.5967925000571
 30
0.0
 10
80.17277275769628
 20
-277.9960663888459
 30
0.0
 10
79.84906386888808
 20
-278.3197752776541
 30
0.0
 10
79.4497899800993
 20
-278.3197752776541
 30
0.0
 10
79.05048081353235
 20
-278.3197752776541
 30
0.0
 10
78.72677192472479
 20
-277.9960663888459
 30
0.0
 10
78.72677192472479
 20
-277.5967925000571
 30
0.0
 10
78.72677192472479
 20
-277.1974833334901
 30
0.0
 10
79.05048081353235
 20
-276.8737744446819
 30
0.0
 10
79.4497899800993
 20
-276.8737744446819
 30
0.0
 10
79.84906386888808
 20
-276.8737744446819
 30
0.0
 10
80.17277275769628
 20
-277.1974833334901
 30
0.0
 10
80.17277275769628
 20
-277.5967925000571
 30
0.0
  0
HATCH
  5
5B
330
1F
100
AcDbEntity
  8
raster
 62
     5
420
      255
100
AcDbHatch
 10
0.0
 20
0.0
 30
0.0
210
0.0
220
0.0
230
1.0
  2
SOLID
 70
     1
 71
     0
 91
        1
 92
        1
 93
        1
 72
     4
 94
        3
 73
     0
 74
     1
 95
       17
 96
       13
 40
0.0
 40
0.0
 40
0.0
 40
0.0
 40
1.0
 40
1.0
 40
1.0
 40
2.0
 40
2.0
 40
2.0
 40
3.0
 40
3.0
 40
3.0
 40
4.0
 40
4.0
 40
4.0
 40
4.0
 10
80.17277275769628
 20
-277.5967925000571
 10
80.17277275769628
 20
-277.9960663888459
 10
79.84906386888808
 20
-278.3197752776541
 10
79.4497899800993
 20
-278.3197752776541
 10
79.05048081353235
 20
-278.3197752776541
 10
78.72677192472479
 20
-277.9960663888459
 10
78.72677192472479
 20
-277.5967925000571
 10
78.72677192472479
 20
-277.1974833334901
 10
79.05048081353235
 20
-276.8737744446819
 10
79.4497899800993
 20
-276.8737744446819
 10
79.84906386888808
 20
-276.8737744446819
 10
80.17277275769628
 20
-277.1974833334901
 10
80.17277275769628
 20
-277.5967925000571
 97
        0
 97
        0
 75
     2
 76
     1
 98
        0
  0
SPLINE
  5
5C
330
1F
100
AcDbEntity
  8
raster
370
     0
100
AcDbSpline
210
0.0
220
0.0
230
1.0
 70
    11
 71
     3
 72
    17
 73
    13
 74
     0
 42
0.0000000001
 43
0.0000000001
 12
1.0
 22
0.0
 32
0.0
 13
1.0
 23
0.0
 33
0.0
 40
0.0
 40
0.0
 40
0.0
 40
0.0
 40
1.0
 40
1.0
 40
1.0
 40
2.0
 40
2.0
 40
2.0
 40
3.0
 40
3.0
 40
3.0
 40
4.0
 40
4.0
 40
4.0
 40
4.0
 10
80.17277275769628
 20
-277.5967925000571
 30
0.0
 10
80.17277275769628
 20
-277.1974833334901
 30
0.0
 10
79.84906386888808
 20
-276.8737744446819
 30
0.0
 10
79.4497899800993
 20
-276.8737744446819
 30
0.0
 10
79.05048081353235
 20
-276.8737744446819
 30
0.0
 10
78.72677192472479
 20
-277.1974833334901
 30
0.0
 10
78.72677192472479
 20
-277.5967925000571
 30
0.0
 10
78.72677192472479
 20
-277.9960663888459
 30
0.0
 10
79.05048081353235
 20
-278.3197752776541
 30
0.0
 10
79.4497899800993
 20
-278.3197752776541
 30
0.0
 10
79.84906386888808
 20
-278.3197752776541
 30
0.0
 10
80.17277275769628
 20
-277.9960663888459
 30
0.0
 10
80.17277275769628
 20
-277.5967925000571
 30
0.0
  0
HATCH
  5
5D
330
1F
100
AcDbEntity
  8
raster
 62
     5
420
      255
100
AcDbHatch
 10
0.0
 20
0.0
 30
0.0
210
0.0
220
0.0
230
1.0
  2
SOLID
 70
     1
 71
     0
 91
        1
 92
        1
 93
        1
 72
     4
 94
        3
 73
     0
 74
     1
 95
       17
 96
       13
 40
0.0
 40
0.0
 40
0.0
 40
0.0
 40
1.0
 40
1.0
 40
1.0
 40
2.0
 40
2.0
 40
2.0
 40
3.0
 40
3.0
 40
3.0
 40
4.0
 40
4.0
 40
4.0
 40
4.0
 10
80.17277275769628
 20
-277.5967925000571
 10
80.17277275769628
 20
-277.1974833334901
 10
79.84906386888808
 20
-276.8737744446819
 10
79.4497899800993
 20
-276.8737744446819
 10
79.05048081353235
 20
-276.8737744446819
 10
78.72677192472479
 20
-277.1974833334901
 10
78.72677192472479
 20
-277.5967925000571
 10
78.72677192472479
 20
-277.9960663888459
 10
79.05048081353235
 20
-278.3197752776541
 10
79.4497899800993
 20
-278.3197752776541
 10
79.84906386888808
 20
-278.3197752776541
 10
80.17277275769628
 20
-277.9960663888459
 10
80.17277275769628
 20
-277.5967925000571
 97
        0
 97
        0
 75
     2
 76
     1
 98
        0
  0
SPLINE
  5
5E
330
1F
100
AcDbEntity
  8
raster
370
     0
100
AcDbSpline
210
0.0
220
0.0
230
1.0
 70
    11
 71
     3
 72
    38
 73
    34
 74
     0
 42
0.0000000001
 43
0.0000000001
 12
1.0
 22
0.0
 32
0.0
 13
1.0
 23
0.0
 33
0.0
 40
0.0
 40
0.0
 40
0.0
 40
0.0
 40
1.0
 40
1.0
 40
1.0
 40
2.0
 40
2.0
 40
2.0
 40
3.0
 40
3.0
 40
3.0
 40
4.0
 40
4.0
 40
4.0
 40
5.0
 40
5.0
 40
5.0
 40
6.0
 40
6.0
 40
6.0
 40
7.0
 40
7.0
 40
7.0
 40
8.0
 40
8.0
 40
8.0
 40
9.0
 40
9.0
 40
9.0
 40
10.0
 40
10.0
 40
10.0
 40
11.0
 40
11.0
 40
11.0
 40
11.0
 10
96.65680076437218
 20
-266.2202014319298
 30
0.0
 10
96.65669310513827
 20
-266.0287833140306
 30
0.0
 10
96.65111635682152
 20
-265.8363747311794
 30
0.0
 10
96.63143624886203
 20
-265.6461193330064
 30
0.0
 10
96.52991359128107
 20
-264.6660973266868
 30
0.0
 10
95.8095871890089
 20
-263.9086284887143
 30
0.0
 10
94.85415455171521
 20
-263.7246388579551
 30
0.0
 10
93.93011534703085
 20
-263.546699676142
 30
0.0
 10
92.91069006109863
 20
-264.0420828750741
 30
0.0
 10
92.49512541819038
 20
-264.9234674912817
 30
0.0
 10
92.32775837314759
 20
-265.2784199854964
 30
0.0
 10
92.26578971810666
 20
-265.6506410208308
 30
0.0
 10
92.26630648242944
 20
-266.0396353648091
 30
0.0
 10
92.2686103900352
 20
-267.690503589494
 30
0.0
 10
92.26729694738145
 20
-269.341371814179
 30
0.0
 10
92.2672323518411
 20
-270.9922185070171
 30
0.0
 10
92.26714622445397
 20
-272.6111550029232
 30
0.0
 10
92.2667371193651
 20
-274.2300484351356
 30
0.0
 10
92.26783524355102
 20
-275.8489849310417
 30
0.0
 10
92.26794290278494
 20
-276.0085789793958
 30
0.0
 10
92.26706009706685
 20
-276.169271151936
 30
0.0
 10
92.28387646940422
 20
-276.32759482133
 30
0.0
 10
92.4058974451224
 20
-277.4765987612012
 30
0.0
 10
93.34838944249964
 20
-278.3262669670977
 30
0.0
 10
94.48507716601104
 20
-278.3169221455939
 30
0.0
 10
95.62691100090353
 20
-278.3075342603967
 30
0.0
 10
96.53884930769594
 20
-277.4481336597543
 30
0.0
 10
96.63789580289688
 20
-276.2844880640708
 30
0.0
 10
96.65232214024135
 20
-276.1149893661965
 30
0.0
 10
96.65701608284002
 20
-275.9441556938217
 30
0.0
 10
96.65705914653358
 20
-275.7739464450036
 30
0.0
 10
96.6581572707195
 20
-272.5893432421322
 30
0.0
 10
96.6582864618002
 20
-269.4047831029544
 30
0.0
 10
96.65680076437218
 20
-266.2202014319298
 30
0.0
  0
SPLINE
  5
5F
330
1F
100
AcDbEntity
  8
raster
370
     0
100
AcDbSpline
210
0.0
220
0.0
230
1.0
 70
    11
 71
     3
 72
    38
 73
    34
 74
     0
 42
0.0000000001
 43
0.0000000001
 12
1.0
 22
0.0
 32
0.0
 13
1.0
 23
0.0
 33
0.0
 40
0.0
 40
0.0
 40
0.0
 40
0.0
 40
1.0
 40
1.0
 40
1.0
 40
2.0
 40
2.0
 40
2.0
 40
3.0
 40
3.0
 40
3.0
 40
4.0
 40
4.0
 40
4.0
 40
5.0
 40
5.0
 40
5.0
 40
6.0
 40
6.0
 40
6.0
 40
7.0
 40
7.0
 40
7.0
 40
8.0
 40
8.0
 40
8.0
 40
9.0
 40
9.0
 40
9.0
 40
10.0
 40
10.0
 40
10.0
 40
11.0
 40
11.0
 40
11.0
 40
11.0
 10
95.92867983356463
 20
-275.7431128404106
 30
0.0
 10
95.9285937061775
 20
-275.8920916883009
 30
0.0
 10
95.92777549599975
 20
-276.0413504501993
 30
0.0
 10
95.91929194836733
 20
-276.1900063203879
 30
0.0
 10
95.87420426120411
 20
-276.9773398298481
 30
0.0
 10
95.27363799073794
 20
-277.5715542055133
 30
0.0
 10
94.49885754795203
 20
-277.5984474821451
 30
0.0
 10
93.76810973183697
 20
-277.6237689339617
 30
0.0
 10
93.13089625814645
 20
-277.0780012135577
 30
0.0
 10
93.01955507843253
 20
-276.3226855602635
 30
0.0
 10
92.99330775720429
 20
-276.1445095281358
 30
0.0
 10
92.98256336565967
 20
-275.9625008272806
 30
0.0
 10
92.98241264273219
 20
-275.7822362060149
 30
0.0
 10
92.98025945805391
 20
-272.5881589905591
 30
0.0
 10
92.97985035296503
 20
-269.3940387114097
 30
0.0
 10
92.98318778921637
 20
-266.1999184322603
 30
0.0
 10
92.9834031076842
 20
-265.9882173146917
 30
0.0
 10
92.99798016795616
 20
-265.772769655783
 30
0.0
 10
93.03871842206924
 20
-265.5655040986516
 30
0.0
 10
93.18022571912587
 20
-264.8462327568718
 30
0.0
 10
93.83115497921705
 20
-264.3735225926019
 30
0.0
 10
94.58713811976156
 20
-264.4256511936631
 30
0.0
 10
95.2974952769733
 20
-264.4746576769408
 30
0.0
 10
95.86343833781271
 20
-265.0349809257699
 30
0.0
 10
95.91522242932537
 20
-265.7459194428448
 30
0.0
 10
95.9275817093787
 20
-265.9155688636466
 30
0.0
 10
95.92837838770967
 20
-266.0863594723278
 30
0.0
 10
95.9284645150968
 20
-266.2566117848395
 30
0.0
 10
95.92941191635525
 20
-267.8430136602567
 30
0.0
 10
95.92902434311316
 20
-269.4294155356739
 30
0.0
 10
95.92902434311316
 20
-271.0158174110911
 30
0.0
 10
95.92904587495994
 20
-272.5915825541976
 30
0.0
 10
95.92930425712133
 20
-274.1673692291509
 30
0.0
 10
95.92867983356463
 20
-275.7431128404106
 30
0.0
  0
HATCH
  5
60
330
1F
100
AcDbEntity
  8
raster
 62
     5
420
      255
100
AcDbHatch
 10
0.0
 20
0.0
 30
0.0
210
0.0
220
0.0
230
1.0
  2
SOLID
 70
     1
 71
     0
 91
        2
 92
        1
 93
        1
 72
     4
 94
        3
 73
     0
 74
     1
 95
       38
 96
       34
 40
0.0
 40
0.0
 40
0.0
 40
0.0
 40
1.0
 40
1.0
 40
1.0
 40
2.0
 40
2.0
 40
2.0
 40
3.0
 40
3.0
 40
3.0
 40
4.0
 40
4.0
 40
4.0
 40
5.0
 40
5.0
 40
5.0
 40
6.0
 40
6.0
 40
6.0
 40
7.0
 40
7.0
 40
7.0
 40
8.0
 40
8.0
 40
8.0
 40
9.0
 40
9.0
 40
9.0
 40
10.0
 40
10.0
 40
10.0
 40
11.0
 40
11.0
 40
11.0
 40
11.0
 10
96.65680076437218
 20
-266.2202014319298
 10
96.65669310513827
 20
-266.0287833140306
 10
96.65111635682152
 20
-265.8363747311794
 10
96.63143624886203
 20
-265.6461193330064
 10
96.52991359128107
 20
-264.6660973266868
 10
95.8095871890089
 20
-263.9086284887143
 10
94.85415455171521
 20
-263.7246388579551
 10
93.93011534703085
 20
-263.546699676142
 10
92.91069006109863
 20
-264.0420828750741
 10
92.49512541819038
 20
-264.9234674912817
 10
92.32775837314759
 20
-265.2784199854964
 10
92.26578971810666
 20
-265.6506410208308
 10
92.26630648242944
 20
-266.0396353648091
 10
92.2686103900352
 20
-267.690503589494
 10
92.26729694738145
 20
-269.341371814179
 10
92.2672323518411
 20
-270.9922185070171
 10
92.26714622445397
 20
-272.6111550029232
 10
92.2667371193651
 20
-274.2300484351356
 10
92.26783524355102
 20
-275.8489849310417
 10
92.26794290278494
 20
-276.0085789793958
 10
92.26706009706685
 20
-276.169271151936
 10
92.28387646940422
 20
-276.32759482133
 10
92.4058974451224
 20
-277.4765987612012
 10
93.34838944249964
 20
-278.3262669670977
 10
94.48507716601104
 20
-278.3169221455939
 10
95.62691100090353
 20
-278.3075342603967
 10
96.53884930769594
 20
-277.4481336597543
 10
96.63789580289688
 20
-276.2844880640708
 10
96.65232214024135
 20
-276.1149893661965
 10
96.65701608284002
 20
-275.9441556938217
 10
96.65705914653358
 20
-275.7739464450036
 10
96.6581572707195
 20
-272.5893432421322
 10
96.6582864618002
 20
-269.4047831029544
 10
96.65680076437218
 20
-266.2202014319298
 97
        0
 97
        0
 92
        1
 93
        1
 72
     4
 94
        3
 73
     0
 74
     1
 95
       38
 96
       34
 40
0.0
 40
0.0
 40
0.0
 40
0.0
 40
1.0
 40
1.0
 40
1.0
 40
2.0
 40
2.0
 40
2.0
 40
3.0
 40
3.0
 40
3.0
 40
4.0
 40
4.0
 40
4.0
 40
5.0
 40
5.0
 40
5.0
 40
6.0
 40
6.0
 40
6.0
 40
7.0
 40
7.0
 40
7.0
 40
8.0
 40
8.0
 40
8.0
 40
9.0
 40
9.0
 40
9.0
 40
10.0
 40
10.0
 40
10.0
 40
11.0
 40
11.0
 40
11.0
 40
11.0
 10
95.92867983356463
 20
-275.7431128404106
 10
95.9285937061775
 20
-275.8920916883009
 10
95.92777549599975
 20
-276.0413504501993
 10
95.91929194836733
 20
-276.1900063203879
 10
95.87420426120411
 20
-276.9773398298481
 10
95.27363799073794
 20
-277.5715542055133
 10
94.49885754795203
 20
-277.5984474821451
 10
93.76810973183697
 20
-277.6237689339617
 10
93.13089625814645
 20
-277.0780012135577
 10
93.01955507843253
 20
-276.3226855602635
 10
92.99330775720429
 20
-276.1445095281358
 10
92.98256336565967
 20
-275.9625008272806
 10
92.98241264273219
 20
-275.7822362060149
 10
92.98025945805391
 20
-272.5881589905591
 10
92.97985035296503
 20
-269.3940387114097
 10
92.98318778921637
 20
-266.1999184322603
 10
92.9834031076842
 20
-265.9882173146917
 10
92.99798016795616
 20
-265.772769655783
 10
93.03871842206924
 20
-265.5655040986516
 10
93.18022571912587
 20
-264.8462327568718
 10
93.83115497921705
 20
-264.3735225926019
 10
94.58713811976156
 20
-264.4256511936631
 10
95.2974952769733
 20
-264.4746576769408
 10
95.86343833781271
 20
-265.0349809257699
 10
95.91522242932537
 20
-265.7459194428448
 10
95.9275817093787
 20
-265.9155688636466
 10
95.92837838770967
 20
-266.0863594723278
 10
95.9284645150968
 20
-266.2566117848395
 10
95.92941191635525
 20
-267.8430136602567
 10
95.92902434311316
 20
-269.4294155356739
 10
95.92902434311316
 20
-271.0158174110911
 10
95.92904587495994
 20
-272.5915825541976
 10
95.92930425712133
 20
-274.1673692291509
 10
95.92867983356463
 20
-275.7431128404106
 97
        0
 97
        0
 75
     2
 76
     1
 98
        0
  0
INSERT
  5
63
330
1F
100
AcDbEntity
  8
notes
100
AcDbBlockReference
  2
block 2
 10
0.0
 20
0.0
 30
0.0
  0
INSERT
  5
6D
330
1F
100
AcDbEntity
  8
cut
100
AcDbBlockReference
  2
block 3
 10
0.0
 20
0.0
 30
0.0
  0
POLYLINE
  5
82
330
1F
100
AcDbEntity
  8
cut
 62
     7
420
 16777215
370
    35
100
AcDb2dPolyline
 66
     1
 10
0.0
 20
0.0
 30
0.0
  0
VERTEX
  5
83
330
82
100
AcDbEntity
  8
cut
 62
     7
420
 16777215
370
    35
100
AcDbVertex
100
AcDb2dVertex
 10
132.9874513556037
 20
-340.9113724842281
 30
0.0
  0
VERTEX
  5
84
330
82
100
AcDbEntity
  8
cut
 62
     7
420
 16777215
370
    35
100
AcDbVertex
100
AcDb2dVertex
 10
173.3458994010699
 20
-271.0084558350374
 30
0.0
  0
VERTEX
  5
85
330
82
100
AcDbEntity
  8
cut
 62
     7
420
 16777215
370
    35
100
AcDbVertex
100
AcDb2dVertex
 10
132.9874513556037
 20
-201.1055744636247
 30
0.0
  0
VERTEX
  5
86
330
82
100
AcDbEntity
  8
cut
 62
     7
420
 16777215
370
    35
100
AcDbVertex
100
AcDb2dVertex
 10
52.2705199868938
 20
-201.1055744636247
 30
0.0
  0
VERTEX
  5
87
330
82
100
AcDbEntity
  8
cut
 62
     7
420
 16777215
370
    35
100
AcDbVertex
100
AcDb2dVertex
 10
11.91203666365007
 20
-271.0084558350374
 30
0.0
  0
VERTEX
  5
88
330
82
100
AcDbEntity
  8
cut
 62
     7
420
 16777215
370
    35
100
AcDbVertex
100
AcDb2dVertex
 10
52.2705199868938
 20
-340.9113724842281
 30
0.0
  0
VERTEX
  5
89
330
82
100
AcDbEntity
  8
cut
 62
     7
420
 16777215
370
    35
100
AcDbVertex
100
AcDb2dVertex
 10
132.9874513556037
 20
-340.9113724842281
 30
0.0
  0
SEQEND
  5
8A
330
82
100
AcDbEntity
  8
cut
 62
     7
420
 16777215
370
    35
  0
POLYLINE
  5
8B
330
1F
100
AcDbEntity
  8
cut
 62
     7
420
 16777215
370
    35
100
AcDb2dPolyline
 66
     1
 10
0.0
 20
0.0
 30
0.0
  0
VERTEX
  5
8C
330
8B
100
AcDbEntity
  8
cut
 62
     7
420
 16777215
370
    35
100
AcDbVertex
100
AcDb2dVertex
 10
77.62896275833197
 20
-211.008470016704
 30
0.0
  0
VERTEX
  5
8D
330
8B
100
AcDbEntity
  8
cut
 62
     7
420
 16777215
370
    35
100
AcDbVertex
100
AcDb2dVertex
 10
77.62896275833197
 20
-214.0084569603983
 30
0.0
  0
SEQEND
  5
8E
330
8B
100
AcDbEntity
  8
cut
 62
     7
420
 16777215
370
    35
  0
POLYLINE
  5
8F
330
1F
100
AcDbEntity
  8
cut
 62
     7
420
 16777215
370
    35
100
AcDb2dPolyline
 66
     1
 10
0.0
 20
0.0
 30
0.0
  0
VERTEX
  5
90
330
8F
100
AcDbEntity
  8
cut
 62
     7
420
 16777215
370
    35
100
AcDbVertex
100
AcDb2dVertex
 10
107.628965096771
 20
-211.008470016704
 30
0.0
  0
VERTEX
  5
91
330
8F
100
AcDbEntity
  8
cut
 62
     7
420
 16777215
370
    35
100
AcDbVertex
100
AcDb2dVertex
 10
107.628965096771
 20
-214.0084569603983
 30
0.0
  0
SEQEND
  5
92
330
8F
100
AcDbEntity
  8
cut
 62
     7
420
 16777215
370
    35
  0
POLYLINE
  5
93
330
1F
100
AcDbEntity
  8
cut
 62
     7
420
 16777215
370
    35
100
AcDb2dPolyline
 66
     1
 10
0.0
 20
0.0
 30
0.0
  0
VERTEX
  5
94
330
93
100
AcDbEntity
  8
cut
 62
     7
420
 16777215
370
    35
100
AcDbVertex
100
AcDb2dVertex
 10
107.628965096771
 20
-211.008470016704
 30
0.0
  0
VERTEX
  5
95
330
93
100
AcDbEntity
  8
cut
 62
     7
420
 16777215
370
    35
100
AcDbVertex
100
AcDb2dVertex
 10
77.62896275833197
 20
-211.008470016704
 30
0.0
  0
SEQEND
  5
96
330
93
100
AcDbEntity
  8
cut
 62
     7
420
 16777215
370
    35
  0
POLYLINE
  5
97
330
1F
100
AcDbEntity
  8
cut
 62
     7
420
 16777215
370
    35
100
AcDb2dPolyline
 66
     1
 10
0.0
 20
0.0
 30
0.0
  0
VERTEX
  5
98
330
97
100
AcDbEntity
  8
cut
 62
     7
420
 16777215
370
    35
100
AcDbVertex
100
AcDb2dVertex
 10
107.628965096771
 20
-214.0084569603983
 30
0.0
  0
VERTEX
  5
99
330
97
100
AcDbEntity
  8
cut
 62
     7
420
 16777215
370
    35
100
AcDbVertex
100
AcDb2dVertex
 10
77.62896275833197
 20
-214.0084569603983
 30
0.0
  0
SEQEND
  5
9A
330
97
100
AcDbEntity
  8
cut
 62
     7
420
 16777215
370
    35
  0
POLYLINE
  5
9B
330
1F
100
AcDbEntity
  8
cut
 62
     7
420
 16777215
370
    35
100
AcDb2dPolyline
 66
     1
 10
0.0
 20
0.0
 30
0.0
  0
VERTEX
  5
9C
330
9B
100
AcDbEntity
  8
cut
 62
     7
420
 16777215
370
    35
100
AcDbVertex
100
AcDb2dVertex
 10
77.62896275833197
 20
-331.0084769311488
 30
0.0
  0
VERTEX
  5
9D
330
9B
100
AcDbEntity
  8
cut
 62
     7
420
 16777215
370
    35
100
AcDbVertex
100
AcDb2dVertex
 10
77.62896275833197
 20
-328.0084547096764
 30
0.0
  0
SEQEND
  5
9E
330
9B
100
AcDbEntity
  8
cut
 62
     7
420
 16777215
370
    35
  0
POLYLINE
  5
9F
330
1F
100
AcDbEntity
  8
cut
 62
     7
420
 16777215
370
    35
100
AcDb2dPolyline
 66
     1
 10
0.0
 20
0.0
 30
0.0
  0
VERTEX
  5
A0
330
9F
100
AcDbEntity
  8
cut
 62
     7
420
 16777215
370
    35
100
AcDbVertex
100
AcDb2dVertex
 10
107.628965096771
 20
-331.0084769311488
 30
0.0
  0
VERTEX
  5
A1
330
9F
100
AcDbEntity
  8
cut
 62
     7
420
 16777215
370
    35
100
AcDbVertex
100
AcDb2dVertex
 10
107.628965096771
 20
-328.0084547096764
 30
0.0
  0
SEQEND
  5
A2
330
9F
100
AcDbEntity
  8
cut
 62
     7
420
 16777215
370
    35
  0
POLYLINE
  5
A3
330
1F
100
AcDbEntity
  8
cut
 62
     7
420
 16777215
370
    35
100
AcDb2dPolyline
 66
     1
 10
0.0
 20
0.0
 30
0.0
  0
VERTEX
  5
A4
330
A3
100
AcDbEntity
  8
cut
 62
     7
420
 16777215
370
    35
100
AcDbVertex
100
AcDb2dVertex
 10
107.628965096771
 20
-331.0084769311488
 30
0.0
  0
VERTEX
  5
A5
330
A3
100
AcDbEntity
  8
cut
 62
     7
420
 16777215
370
    35
100
AcDbVertex
100
AcDb2dVertex
 10
77.62896275833197
 20
-331.0084769311488
 30
0.0
  0
SEQEND
  5
A6
330
A3
100
AcDbEntity
  8
cut
 62
     7
420
 16777215
370
    35
  0
POLYLINE
  5
A7
330
1F
100
AcDbEntity
  8
cut
 62
     7
420
 16777215
370
    35
100
AcDb2dPolyline
 66
     1
 10
0.0
 20
0.0
 30
0.0
  0
VERTEX
  5
A8
330
A7
100
AcDbEntity
  8
cut
 62
     7
420
 16777215
370
    35
100
AcDbVertex
100
AcDb2dVertex
 10
107.628965096771
 20
-328.0084547096764
 30
0.0
  0
VERTEX
  5
A9
330
A7
100
AcDbEntity
  8
cut
 62
     7
420
 16777215
370
    35
100
AcDbVertex
100
AcDb2dVertex
 10
77.62896275833197
 20
-328.0084547096764
 30
0.0
  0
SEQEND
  5
AA
330
A7
100
AcDbEntity
  8
cut
 62
     7
420
 16777215
370
    35
  0
POLYLINE
  5
AB
330
1F
100
AcDbEntity
  8
cut
 62
     7
420
 16777215
370
    35
100
AcDb2dPolyline
 66
     1
 10
0.0
 20
0.0
 30
0.0
  0
VERTEX
  5
AC
330
AB
100
AcDbEntity
  8
cut
 62
     7
420
 16777215
370
    35
100
AcDbVertex
100
AcDb2dVertex
 10
152.0905091286059
 20
-253.9988519504006
 30
0.0
  0
VERTEX
  5
AD
330
AB
100
AcDbEntity
  8
cut
 62
     7
420
 16777215
370
    35
100
AcDbVertex
100
AcDb2dVertex
 10
149.4924066292554
 20
-255.4988630611368
 30
0.0
  0
SEQEND
  5
AE
330
AB
100
AcDbEntity
  8
cut
 62
     7
420
 16777215
370
    35
  0
POLYLINE
  5
AF
330
1F
100
AcDbEntity
  8
cut
 62
     7
420
 16777215
370
    35
100
AcDb2dPolyline
 66
     1
 10
0.0
 20
0.0
 30
0.0
  0
VERTEX
  5
B0
330
AF
100
AcDbEntity
  8
cut
 62
     7
420
 16777215
370
    35
100
AcDbVertex
100
AcDb2dVertex
 10
137.0905038545785
 20
-228.0180739013401
 30
0.0
  0
VERTEX
  5
B1
330
AF
100
AcDbEntity
  8
cut
 62
     7
420
 16777215
370
    35
100
AcDbVertex
100
AcDb2dVertex
 10
134.4924277447602
 20
-229.5180850120763
 30
0.0
  0
SEQEND
  5
B2
330
AF
100
AcDbEntity
  8
cut
 62
     7
420
 16777215
370
    35
  0
POLYLINE
  5
B3
330
1F
100
AcDbEntity
  8
cut
 62
     7
420
 16777215
370
    35
100
AcDb2dPolyline
 66
     1
 10
0.0
 20
0.0
 30
0.0
  0
VERTEX
  5
B4
330
B3
100
AcDbEntity
  8
cut
 62
     7
420
 16777215
370
    35
100
AcDbVertex
100
AcDb2dVertex
 10
137.0905038545785
 20
-228.0180739013401
 30
0.0
  0
VERTEX
  5
B5
330
B3
100
AcDbEntity
  8
cut
 62
     7
420
 16777215
370
    35
100
AcDbVertex
100
AcDb2dVertex
 10
152.0905091286059
 20
-253.9988519504006
 30
0.0
  0
SEQEND
  5
B6
330
B3
100
AcDbEntity
  8
cut
 62
     7
420
 16777215
370
    35
  0
POLYLINE
  5
B7
330
1F
100
AcDbEntity
  8
cut
 62
     7
420
 16777215
370
    35
100
AcDb2dPolyline
 66
     1
 10
0.0
 20
0.0
 30
0.0
  0
VERTEX
  5
B8
330
B7
100
AcDbEntity
  8
cut
 62
     7
420
 16777215
370
    35
100
AcDbVertex
100
AcDb2dVertex
 10
134.4924277447602
 20
-229.5180850120763
 30
0.0
  0
VERTEX
  5
B9
330
B7
100
AcDbEntity
  8
cut
 62
     7
420
 16777215
370
    35
100
AcDbVertex
100
AcDb2dVertex
 10
149.4924066292554
 20
-255.4988630611368
 30
0.0
  0
SEQEND
  5
BA
330
B7
100
AcDbEntity
  8
cut
 62
     7
420
 16777215
370
    35
  0
POLYLINE
  5
BB
330
1F
100
AcDbEntity
  8
cut
 62
     7
420
 16777215
370
    35
100
AcDb2dPolyline
 66
     1
 10
0.0
 20
0.0
 30
0.0
  0
VERTEX
  5
BC
330
BB
100
AcDbEntity
  8
cut
 62
     7
420
 16777215
370
    35
100
AcDbVertex
100
AcDb2dVertex
 10
48.16743221014215
 20
-313.9988377687346
 30
0.0
  0
VERTEX
  5
BD
330
BB
100
AcDbEntity
  8
cut
 62
     7
420
 16777215
370
    35
100
AcDbVertex
100
AcDb2dVertex
 10
50.76553470949265
 20
-312.4988619357758
 30
0.0
  0
SEQEND
  5
BE
330
BB
100
AcDbEntity
  8
cut
 62
     7
420
 16777215
370
    35
  0
POLYLINE
  5
BF
330
1F
100
AcDbEntity
  8
cut
 62
     7
420
 16777215
370
    35
100
AcDb2dPolyline
 66
     1
 10
0.0
 20
0.0
 30
0.0
  0
VERTEX
  5
C0
330
BF
100
AcDbEntity
  8
cut
 62
     7
420
 16777215
370
    35
100
AcDbVertex
100
AcDb2dVertex
 10
33.16745588533121
 20
-288.0180949974516
 30
0.0
  0
VERTEX
  5
C1
330
BF
100
AcDbEntity
  8
cut
 62
     7
420
 16777215
370
    35
100
AcDbVertex
100
AcDb2dVertex
 10
35.76552304127122
 20
-286.5180838867154
 30
0.0
  0
SEQEND
  5
C2
330
BF
100
AcDbEntity
  8
cut
 62
     7
420
 16777215
370
    35
  0
POLYLINE
  5
C3
330
1F
100
AcDbEntity
  8
cut
 62
     7
420
 16777215
370
    35
100
AcDb2dPolyline
 66
     1
 10
0.0
 20
0.0
 30
0.0
  0
VERTEX
  5
C4
330
C3
100
AcDbEntity
  8
cut
 62
     7
420
 16777215
370
    35
100
AcDbVertex
100
AcDb2dVertex
 10
33.16745588533121
 20
-288.0180949974516
 30
0.0
  0
VERTEX
  5
C5
330
C3
100
AcDbEntity
  8
cut
 62
     7
420
 16777215
370
    35
100
AcDbVertex
100
AcDb2dVertex
 10
48.16743221014215
 20
-313.9988377687346
 30
0.0
  0
SEQEND
  5
C6
330
C3
100
AcDbEntity
  8
cut
 62
     7
420
 16777215
370
    35
  0
POLYLINE
  5
C7
330
1F
100
AcDbEntity
  8
cut
 62
     7
420
 16777215
370
    35
100
AcDb2dPolyline
 66
     1
 10
0.0
 20
0.0
 30
0.0
  0
VERTEX
  5
C8
330
C7
100
AcDbEntity
  8
cut
 62
     7
420
 16777215
370
    35
100
AcDbVertex
100
AcDb2dVertex
 10
35.76552304127122
 20
-286.5180838867154
 30
0.0
  0
VERTEX
  5
C9
330
C7
100
AcDbEntity
  8
cut
 62
     7
420
 16777215
370
    35
100
AcDbVertex
100
AcDb2dVertex
 10
50.76553470949265
 20
-312.4988619357758
 30
0.0
  0
SEQEND
  5
CA
330
C7
100
AcDbEntity
  8
cut
 62
     7
420
 16777215
370
    35
  0
POLYLINE
  5
CB
330
1F
100
AcDbEntity
  8
cut
 62
     7
420
 16777215
370
    35
100
AcDb2dPolyline
 66
     1
 10
0.0
 20
0.0
 30
0.0
  0
VERTEX
  5
CC
330
CB
100
AcDbEntity
  8
cut
 62
     7
420
 16777215
370
    35
100
AcDbVertex
100
AcDb2dVertex
 10
48.16743221014215
 20
-228.0180739013401
 30
0.0
  0
VERTEX
  5
CD
330
CB
100
AcDbEntity
  8
cut
 62
     7
420
 16777215
370
    35
100
AcDbVertex
100
AcDb2dVertex
 10
50.76553470949265
 20
-229.5180850120763
 30
0.0
  0
SEQEND
  5
CE
330
CB
100
AcDbEntity
  8
cut
 62
     7
420
 16777215
370
    35
  0
POLYLINE
  5
CF
330
1F
100
AcDbEntity
  8
cut
 62
     7
420
 16777215
370
    35
100
AcDb2dPolyline
 66
     1
 10
0.0
 20
0.0
 30
0.0
  0
VERTEX
  5
D0
330
CF
100
AcDbEntity
  8
cut
 62
     7
420
 16777215
370
    35
100
AcDbVertex
100
AcDb2dVertex
 10
33.16745588533121
 20
-253.9988519504006
 30
0.0
  0
VERTEX
  5
D1
330
CF
100
AcDbEntity
  8
cut
 62
     7
420
 16777215
370
    35
100
AcDbVertex
100
AcDb2dVertex
 10
35.76552304127122
 20
-255.4988630611368
 30
0.0
  0
SEQEND
  5
D2
330
CF
100
AcDbEntity
  8
cut
 62
     7
420
 16777215
370
    35
  0
POLYLINE
  5
D3
330
1F
100
AcDbEntity
  8
cut
 62
     7
420
 16777215
370
    35
100
AcDb2dPolyline
 66
     1
 10
0.0
 20
0.0
 30
0.0
  0
VERTEX
  5
D4
330
D3
100
AcDbEntity
  8
cut
 62
     7
420
 16777215
370
    35
100
AcDbVertex
100
AcDb2dVertex
 10
33.16745588533121
 20
-253.9988519504006
 30
0.0
  0
VERTEX
  5
D5
330
D3
100
AcDbEntity
  8
cut
 62
     7
420
 16777215
370
    35
100
AcDbVertex
100
AcDb2dVertex
 10
48.16743221014215
 20
-228.0180739013401
 30
0.0
  0
SEQEND
  5
D6
330
D3
100
AcDbEntity
  8
cut
 62
     7
420
 16777215
370
    35
  0
POLYLINE
  5
D7
330
1F
100
AcDbEntity
  8
cut
 62
     7
420
 16777215
370
    35
100
AcDb2dPolyline
 66
     1
 10
0.0
 20
0.0
 30
0.0
  0
VERTEX
  5
D8
330
D7
100
AcDbEntity
  8
cut
 62
     7
420
 16777215
370
    35
100
AcDbVertex
100
AcDb2dVertex
 10
35.76552304127122
 20
-255.4988630611368
 30
0.0
  0
VERTEX
  5
D9
330
D7
100
AcDbEntity
  8
cut
 62
     7
420
 16777215
370
    35
100
AcDbVertex
100
AcDb2dVertex
 10
50.76553470949265
 20
-229.5180850120763
 30
0.0
  0
SEQEND
  5
DA
330
D7
100
AcDbEntity
  8
cut
 62
     7
420
 16777215
370
    35
  0
POLYLINE
  5
DB
330
1F
100
AcDbEntity
  8
cut
 62
     7
420
 16777215
370
    35
100
AcDb2dPolyline
 66
     1
 10
0.0
 20
0.0
 30
0.0
  0
VERTEX
  5
DC
330
DB
100
AcDbEntity
  8
cut
 62
     7
420
 16777215
370
    35
100
AcDbVertex
100
AcDb2dVertex
 10
152.0905091286059
 20
-288.0180949974516
 30
0.0
  0
VERTEX
  5
DD
330
DB
100
AcDbEntity
  8
cut
 62
     7
420
 16777215
370
    35
100
AcDbVertex
100
AcDb2dVertex
 10
149.4924066292554
 20
-286.5180838867154
 30
0.0
  0
SEQEND
  5
DE
330
DB
100
AcDbEntity
  8
cut
 62
     7
420
 16777215
370
    35
  0
POLYLINE
  5
DF
330
1F
100
AcDbEntity
  8
cut
 62
     7
420
 16777215
370
    35
100
AcDb2dPolyline
 66
     1
 10
0.0
 20
0.0
 30
0.0
  0
VERTEX
  5
E0
330
DF
100
AcDbEntity
  8
cut
 62
     7
420
 16777215
370
    35
100
AcDbVertex
100
AcDb2dVertex
 10
137.0905038545785
 20
-313.9988377687346
 30
0.0
  0
VERTEX
  5
E1
330
DF
100
AcDbEntity
  8
cut
 62
     7
420
 16777215
370
    35
100
AcDbVertex
100
AcDb2dVertex
 10
134.4924277447602
 20
-312.4988619357758
 30
0.0
  0
SEQEND
  5
E2
330
DF
100
AcDbEntity
  8
cut
 62
     7
420
 16777215
370
    35
  0
POLYLINE
  5
E3
330
1F
100
AcDbEntity
  8
cut
 62
     7
420
 16777215
370
    35
100
AcDb2dPolyline
 66
     1
 10
0.0
 20
0.0
 30
0.0
  0
VERTEX
  5
E4
330
E3
100
AcDbEntity
  8
cut
 62
     7
420
 16777215
370
    35
100
AcDbVertex
100
AcDb2dVertex
 10
137.0905038545785
 20
-313.9988377687346
 30
0.0
  0
VERTEX
  5
E5
330
E3
100
AcDbEntity
  8
cut
 62
     7
420
 16777215
370
    35
100
AcDbVertex
100
AcDb2dVertex
 10
152.0905091286059
 20
-288.0180949974516
 30
0.0
  0
SEQEND
  5
E6
330
E3
100
AcDbEntity
  8
cut
 62
     7
420
 16777215
370
    35
  0
POLYLINE
  5
E7
330
1F
100
AcDbEntity
  8
cut
 62
     7
420
 16777215
370
    35
100
AcDb2dPolyline
 66
     1
 10
0.0
 20
0.0
 30
0.0
  0
VERTEX
  5
E8
330
E7
100
AcDbEntity
  8
cut
 62
     7
420
 16777215
370
    35
100
AcDbVertex
100
AcDb2dVertex
 10
134.4924277447602
 20
-312.4988619357758
 30
0.0
  0
VERTEX
  5
E9
330
E7
100
AcDbEntity
  8
cut
 62
     7
420
 16777215
370
    35
100
AcDbVertex
100
AcDb2dVertex
 10
149.4924066292554
 20
-286.5180838867154
 30
0.0
  0
SEQEND
  5
EA
330
E7
100
AcDbEntity
  8
cut
 62
     7
420
 16777215
370
    35
  0
POLYLINE
  5
EB
330
1F
100
AcDbEntity
  8
cut
 62
     7
420
 16777215
370
    35
100
AcDb2dPolyline
 66
     1
 10
0.0
 20
0.0
 30
0.0
  0
VERTEX
  5
EC
330
EB
100
AcDbEntity
  8
cut
 62
     7
420
 16777215
370
    35
100
AcDbVertex
100
AcDb2dVertex
 10
132.9874513556037
 20
-201.1055744636247
 30
0.0
  0
VERTEX
  5
ED
330
EB
100
AcDbEntity
  8
cut
 62
     7
420
 16777215
370
    35
100
AcDbVertex
100
AcDb2dVertex
 10
173.3458994010699
 20
-131.2026578144348
 30
0.0
  0
VERTEX
  5
EE
330
EB
100
AcDbEntity
  8
cut
 62
     7
420
 16777215
370
    35
100
AcDbVertex
100
AcDb2dVertex
 10
132.9874513556037
 20
-61.2997411652437
 30
0.0
  0
VERTEX
  5
EF
330
EB
100
AcDbEntity
  8
cut
 62
     7
420
 16777215
370
    35
100
AcDbVertex
100
AcDb2dVertex
 10
52.2705199868938
 20
-61.2997411652437
 30
0.0
  0
VERTEX
  5
F0
330
EB
100
AcDbEntity
  8
cut
 62
     7
420
 16777215
370
    35
100
AcDbVertex
100
AcDb2dVertex
 10
11.91203666365007
 20
-131.2026578144348
 30
0.0
  0
VERTEX
  5
F1
330
EB
100
AcDbEntity
  8
cut
 62
     7
420
 16777215
370
    35
100
AcDbVertex
100
AcDb2dVertex
 10
52.2705199868938
 20
-201.1055744636247
 30
0.0
  0
VERTEX
  5
F2
330
EB
100
AcDbEntity
  8
cut
 62
     7
420
 16777215
370
    35
100
AcDbVertex
100
AcDb2dVertex
 10
132.9874513556037
 20
-201.1055744636247
 30
0.0
  0
SEQEND
  5
F3
330
EB
100
AcDbEntity
  8
cut
 62
     7
420
 16777215
370
    35
  0
POLYLINE
  5
F4
330
1F
100
AcDbEntity
  8
cut
 62
     7
420
 16777215
370
    35
100
AcDb2dPolyline
 66
     1
 10
0.0
 20
0.0
 30
0.0
  0
VERTEX
  5
F5
330
F4
100
AcDbEntity
  8
cut
 62
     7
420
 16777215
370
    35
100
AcDbVertex
100
AcDb2dVertex
 10
77.62896275833197
 20
-71.20263671832365
 30
0.0
  0
VERTEX
  5
F6
330
F4
100
AcDbEntity
  8
cut
 62
     7
420
 16777215
370
    35
100
AcDbVertex
100
AcDb2dVertex
 10
77.62896275833197
 20
-74.20265893979582
 30
0.0
  0
SEQEND
  5
F7
330
F4
100
AcDbEntity
  8
cut
 62
     7
420
 16777215
370
    35
  0
POLYLINE
  5
F8
330
1F
100
AcDbEntity
  8
cut
 62
     7
420
 16777215
370
    35
100
AcDb2dPolyline
 66
     1
 10
0.0
 20
0.0
 30
0.0
  0
VERTEX
  5
F9
330
F8
100
AcDbEntity
  8
cut
 62
     7
420
 16777215
370
    35
100
AcDbVertex
100
AcDb2dVertex
 10
107.628965096771
 20
-71.20263671832365
 30
0.0
  0
VERTEX
  5
FA
330
F8
100
AcDbEntity
  8
cut
 62
     7
420
 16777215
370
    35
100
AcDbVertex
100
AcDb2dVertex
 10
107.628965096771
 20
-74.20265893979582
 30
0.0
  0
SEQEND
  5
FB
330
F8
100
AcDbEntity
  8
cut
 62
     7
420
 16777215
370
    35
  0
POLYLINE
  5
FC
330
1F
100
AcDbEntity
  8
cut
 62
     7
420
 16777215
370
    35
100
AcDb2dPolyline
 66
     1
 10
0.0
 20
0.0
 30
0.0
  0
VERTEX
  5
FD
330
FC
100
AcDbEntity
  8
cut
 62
     7
420
 16777215
370
    35
100
AcDbVertex
100
AcDb2dVertex
 10
107.628965096771
 20
-71.20263671832365
 30
0.0
  0
VERTEX
  5
FE
330
FC
100
AcDbEntity
  8
cut
 62
     7
420
 16777215
370
    35
100
AcDbVertex
100
AcDb2dVertex
 10
77.62896275833197
 20
-71.20263671832365
 30
0.0
  0
SEQEND
  5
FF
330
FC
100
AcDbEntity
  8
cut
 62
     7
420
 16777215
370
    35
  0
POLYLINE
  5
100
330
1F
100
AcDbEntity
  8
cut
 62
     7
420
 16777215
370
    35
100
AcDb2dPolyline
 66
     1
 10
0.0
 20
0.0
 30
0.0
  0
VERTEX
  5
101
330
100
100
AcDbEntity
  8
cut
 62
     7
420
 16777215
370
    35
100
AcDbVertex
100
AcDb2dVertex
 10
107.628965096771
 20
-74.20265893979582
 30
0.0
  0
VERTEX
  5
102
330
100
100
AcDbEntity
  8
cut
 62
     7
420
 16777215
370
    35
100
AcDbVertex
100
AcDb2dVertex
 10
77.62896275833197
 20
-74.20265893979582
 30
0.0
  0
SEQEND
  5
103
330
100
100
AcDbEntity
  8
cut
 62
     7
420
 16777215
370
    35
  0
POLYLINE
  5
104
330
1F
100
AcDbEntity
  8
cut
 62
     7
420
 16777215
370
    35
100
AcDb2dPolyline
 66
     1
 10
0.0
 20
0.0
 30
0.0
  0
VERTEX
  5
105
330
104
100
AcDbEntity
  8
cut
 62
     7
420
 16777215
370
    35
100
AcDbVertex
100
AcDb2dVertex
 10
77.62896275833197
 20
-191.2026436327679
 30
0.0
  0
VERTEX
  5
106
330
104
100
AcDbEntity
  8
cut
 62
     7
420
 16777215
370
    35
100
AcDbVertex
100
AcDb2dVertex
 10
77.62896275833197
 20
-188.2026566890735
 30
0.0
  0
SEQEND
  5
107
330
104
100
AcDbEntity
  8
cut
 62
     7
420
 16777215
370
    35
  0
POLYLINE
  5
108
330
1F
100
AcDbEntity
  8
cut
 62
     7
420
 16777215
370
    35
100
AcDb2dPolyline
 66
     1
 10
0.0
 20
0.0
 30
0.0
  0
VERTEX
  5
109
330
108
100
AcDbEntity
  8
cut
 62
     7
420
 16777215
370
    35
100
AcDbVertex
100
AcDb2dVertex
 10
107.628965096771
 20
-191.2026436327679
 30
0.0
  0
VERTEX
  5
10A
330
108
100
AcDbEntity
  8
cut
 62
     7
420
 16777215
370
    35
100
AcDbVertex
100
AcDb2dVertex
 10
107.628965096771
 20
-188.2026566890735
 30
0.0
  0
SEQEND
  5
10B
330
108
100
AcDbEntity
  8
cut
 62
     7
420
 16777215
370
    35
  0
POLYLINE
  5
10C
330
1F
100
AcDbEntity
  8
cut
 62
     7
420
 16777215
370
    35
100
AcDb2dPolyline
 66
     1
 10
0.0
 20
0.0
 30
0.0
  0
VERTEX
  5
10D
330
10C
100
AcDbEntity
  8
cut
 62
     7
420
 16777215
370
    35
100
AcDbVertex
100
AcDb2dVertex
 10
107.628965096771
 20
-191.2026436327679
 30
0.0
  0
VERTEX
  5
10E
330
10C
100
AcDbEntity
  8
cut
 62
     7
420
 16777215
370
    35
100
AcDbVertex
100
AcDb2dVertex
 10
77.62896275833197
 20
-191.2026436327679
 30
0.0
  0
SEQEND
  5
10F
330
10C
100
AcDbEntity
  8
cut
 62
     7
420
 16777215
370
    35
  0
POLYLINE
  5
110
330
1F
100
AcDbEntity
  8
cut
 62
     7
420
 16777215
370
    35
100
AcDb2dPolyline
 66
     1
 10
0.0
 20
0.0
 30
0.0
  0
VERTEX
  5
111
330
110
100
AcDbEntity
  8
cut
 62
     7
420
 16777215
370
    35
100
AcDbVertex
100
AcDb2dVertex
 10
107.628965096771
 20
-188.2026566890735
 30
0.0
  0
VERTEX
  5
112
330
110
100
AcDbEntity
  8
cut
 62
     7
420
 16777215
370
    35
100
AcDbVertex
100
AcDb2dVertex
 10
77.62896275833197
 20
-188.2026566890735
 30
0.0
  0
SEQEND
  5
113
330
110
100
AcDbEntity
  8
cut
 62
     7
420
 16777215
370
    35
  0
POLYLINE
  5
114
330
1F
100
AcDbEntity
  8
cut
 62
     7
420
 16777215
370
    35
100
AcDb2dPolyline
 66
     1
 10
0.0
 20
0.0
 30
0.0
  0
VERTEX
  5
115
330
114
100
AcDbEntity
  8
cut
 62
     7
420
 16777215
370
    35
100
AcDbVertex
100
AcDb2dVertex
 10
152.0905091286059
 20
-114.1930186520206
 30
0.0
  0
VERTEX
  5
116
330
114
100
AcDbEntity
  8
cut
 62
     7
420
 16777215
370
    35
100
AcDbVertex
100
AcDb2dVertex
 10
149.4924066292554
 20
-115.6930297627565
 30
0.0
  0
SEQEND
  5
117
330
114
100
AcDbEntity
  8
cut
 62
     7
420
 16777215
370
    35
  0
POLYLINE
  5
118
330
1F
100
AcDbEntity
  8
cut
 62
     7
420
 16777215
370
    35
100
AcDb2dPolyline
 66
     1
 10
0.0
 20
0.0
 30
0.0
  0
VERTEX
  5
119
330
118
100
AcDbEntity
  8
cut
 62
     7
420
 16777215
370
    35
100
AcDbVertex
100
AcDb2dVertex
 10
137.0905038545785
 20
-88.2122758807376
 30
0.0
  0
VERTEX
  5
11A
330
118
100
AcDbEntity
  8
cut
 62
     7
420
 16777215
370
    35
100
AcDbVertex
100
AcDb2dVertex
 10
134.4924277447602
 20
-89.712251713696
 30
0.0
  0
SEQEND
  5
11B
330
118
100
AcDbEntity
  8
cut
 62
     7
420
 16777215
370
    35
  0
POLYLINE
  5
11C
330
1F
100
AcDbEntity
  8
cut
 62
     7
420
 16777215
370
    35
100
AcDb2dPolyline
 66
     1
 10
0.0
 20
0.0
 30
0.0
  0
VERTEX
  5
11D
330
11C
100
AcDbEntity
  8
cut
 62
     7
420
 16777215
370
    35
100
AcDbVertex
100
AcDb2dVertex
 10
137.0905038545785
 20
-88.2122758807376
 30
0.0
  0
VERTEX
  5
11E
330
11C
100
AcDbEntity
  8
cut
 62
     7
420
 16777215
370
    35
100
AcDbVertex
100
AcDb2dVertex
 10
152.0905091286059
 20
-114.1930186520206
 30
0.0
  0
SEQEND
  5
11F
330
11C
100
AcDbEntity
  8
cut
 62
     7
420
 16777215
370
    35
  0
POLYLINE
  5
120
330
1F
100
AcDbEntity
  8
cut
 62
     7
420
 16777215
370
    35
100
AcDb2dPolyline
 66
     1
 10
0.0
 20
0.0
 30
0.0
  0
VERTEX
  5
121
330
120
100
AcDbEntity
  8
cut
 62
     7
420
 16777215
370
    35
100
AcDbVertex
100
AcDb2dVertex
 10
134.4924277447602
 20
-89.712251713696
 30
0.0
  0
VERTEX
  5
122
330
120
100
AcDbEntity
  8
cut
 62
     7
420
 16777215
370
    35
100
AcDbVertex
100
AcDb2dVertex
 10
149.4924066292554
 20
-115.6930297627565
 30
0.0
  0
SEQEND
  5
123
330
120
100
AcDbEntity
  8
cut
 62
     7
420
 16777215
370
    35
  0
POLYLINE
  5
124
330
1F
100
AcDbEntity
  8
cut
 62
     7
420
 16777215
370
    35
100
AcDb2dPolyline
 66
     1
 10
0.0
 20
0.0
 30
0.0
  0
VERTEX
  5
125
330
124
100
AcDbEntity
  8
cut
 62
     7
420
 16777215
370
    35
100
AcDbVertex
100
AcDb2dVertex
 10
48.16743221014215
 20
-174.1930397481314
 30
0.0
  0
VERTEX
  5
126
330
124
100
AcDbEntity
  8
cut
 62
     7
420
 16777215
370
    35
100
AcDbVertex
100
AcDb2dVertex
 10
50.76553470949265
 20
-172.6930286373955
 30
0.0
  0
SEQEND
  5
127
330
124
100
AcDbEntity
  8
cut
 62
     7
420
 16777215
370
    35
  0
POLYLINE
  5
128
330
1F
100
AcDbEntity
  8
cut
 62
     7
420
 16777215
370
    35
100
AcDb2dPolyline
 66
     1
 10
0.0
 20
0.0
 30
0.0
  0
VERTEX
  5
129
330
128
100
AcDbEntity
  8
cut
 62
     7
420
 16777215
370
    35
100
AcDbVertex
100
AcDb2dVertex
 10
33.16745588533121
 20
-148.212261699071
 30
0.0
  0
VERTEX
  5
12A
330
128
100
AcDbEntity
  8
cut
 62
     7
420
 16777215
370
    35
100
AcDbVertex
100
AcDb2dVertex
 10
35.76552304127122
 20
-146.712250588335
 30
0.0
  0
SEQEND
  5
12B
330
128
100
AcDbEntity
  8
cut
 62
     7
420
 16777215
370
    35
  0
POLYLINE
  5
12C
330
1F
100
AcDbEntity
  8
cut
 62
     7
420
 16777215
370
    35
100
AcDb2dPolyline
 66
     1
 10
0.0
 20
0.0
 30
0.0
  0
VERTEX
  5
12D
330
12C
100
AcDbEntity
  8
cut
 62
     7
420
 16777215
370
    35
100
AcDbVertex
100
AcDb2dVertex
 10
33.16745588533121
 20
-148.212261699071
 30
0.0
  0
VERTEX
  5
12E
330
12C
100
AcDbEntity
  8
cut
 62
     7
420
 16777215
370
    35
100
AcDbVertex
100
AcDb2dVertex
 10
48.16743221014215
 20
-174.1930397481314
 30
0.0
  0
SEQEND
  5
12F
330
12C
100
AcDbEntity
  8
cut
 62
     7
420
 16777215
370
    35
  0
POLYLINE
  5
130
330
1F
100
AcDbEntity
  8
cut
 62
     7
420
 16777215
370
    35
100
AcDb2dPolyline
 66
     1
 10
0.0
 20
0.0
 30
0.0
  0
VERTEX
  5
131
330
130
100
AcDbEntity
  8
cut
 62
     7
420
 16777215
370
    35
100
AcDbVertex
100
AcDb2dVertex
 10
35.76552304127122
 20
-146.712250588335
 30
0.0
  0
VERTEX
  5
132
330
130
100
AcDbEntity
  8
cut
 62
     7
420
 16777215
370
    35
100
AcDbVertex
100
AcDb2dVertex
 10
50.76553470949265
 20
-172.6930286373955
 30
0.0
  0
SEQEND
  5
133
330
130
100
AcDbEntity
  8
cut
 62
     7
420
 16777215
370
    35
  0
POLYLINE
  5
134
330
1F
100
AcDbEntity
  8
cut
 62
     7
420
 16777215
370
    35
100
AcDb2dPolyline
 66
     1
 10
0.0
 20
0.0
 30
0.0
  0
VERTEX
  5
135
330
134
100
AcDbEntity
  8
cut
 62
     7
420
 16777215
370
    35
100
AcDbVertex
100
AcDb2dVertex
 10
48.16743221014215
 20
-88.2122758807376
 30
0.0
  0
VERTEX
  5
136
330
134
100
AcDbEntity
  8
cut
 62
     7
420
 16777215
370
    35
100
AcDbVertex
100
AcDb2dVertex
 10
50.76553470949265
 20
-89.712251713696
 30
0.0
  0
SEQEND
  5
137
330
134
100
AcDbEntity
  8
cut
 62
     7
420
 16777215
370
    35
  0
POLYLINE
  5
138
330
1F
100
AcDbEntity
  8
cut
 62
     7
420
 16777215
370
    35
100
AcDb2dPolyline
 66
     1
 10
0.0
 20
0.0
 30
0.0
  0
VERTEX
  5
139
330
138
100
AcDbEntity
  8
cut
 62
     7
420
 16777215
370
    35
100
AcDbVertex
100
AcDb2dVertex
 10
33.16745588533121
 20
-114.1930186520206
 30
0.0
  0
VERTEX
  5
13A
330
138
100
AcDbEntity
  8
cut
 62
     7
420
 16777215
370
    35
100
AcDbVertex
100
AcDb2dVertex
 10
35.76552304127122
 20
-115.6930297627565
 30
0.0
  0
SEQEND
  5
13B
330
138
100
AcDbEntity
  8
cut
 62
     7
420
 16777215
370
    35
  0
POLYLINE
  5
13C
330
1F
100
AcDbEntity
  8
cut
 62
     7
420
 16777215
370
    35
100
AcDb2dPolyline
 66
     1
 10
0.0
 20
0.0
 30
0.0
  0
VERTEX
  5
13D
330
13C
100
AcDbEntity
  8
cut
 62
     7
420
 16777215
370
    35
100
AcDbVertex
100
AcDb2dVertex
 10
33.16745588533121
 20
-114.1930186520206
 30
0.0
  0
VERTEX
  5
13E
330
13C
100
AcDbEntity
  8
cut
 62
     7
420
 16777215
370
    35
100
AcDbVertex
100
AcDb2dVertex
 10
48.16743221014215
 20
-88.2122758807376
 30
0.0
  0
SEQEND
  5
13F
330
13C
100
AcDbEntity
  8
cut
 62
     7
420
 16777215
370
    35
  0
POLYLINE
  5
140
330
1F
100
AcDbEntity
  8
cut
 62
     7
420
 16777215
370
    35
100
AcDb2dPolyline
 66
     1
 10
0.0
 20
0.0
 30
0.0
  0
VERTEX
  5
141
330
140
100
AcDbEntity
  8
cut
 62
     7
420
 16777215
370
    35
100
AcDbVertex
100
AcDb2dVertex
 10
35.76552304127122
 20
-115.6930297627565
 30
0.0
  0
VERTEX
  5
142
330
140
100
AcDbEntity
  8
cut
 62
     7
420
 16777215
370
    35
100
AcDbVertex
100
AcDb2dVertex
 10
50.76553470949265
 20
-89.712251713696
 30
0.0
  0
SEQEND
  5
143
330
140
100
AcDbEntity
  8
cut
 62
     7
420
 16777215
370
    35
  0
POLYLINE
  5
144
330
1F
100
AcDbEntity
  8
cut
 62
     7
420
 16777215
370
    35
100
AcDb2dPolyline
 66
     1
 10
0.0
 20
0.0
 30
0.0
  0
VERTEX
  5
145
330
144
100
AcDbEntity
  8
cut
 62
     7
420
 16777215
370
    35
100
AcDbVertex
100
AcDb2dVertex
 10
152.0905091286059
 20
-148.212261699071
 30
0.0
  0
VERTEX
  5
146
330
144
100
AcDbEntity
  8
cut
 62
     7
420
 16777215
370
    35
100
AcDbVertex
100
AcDb2dVertex
 10
149.4924066292554
 20
-146.712250588335
 30
0.0
  0
SEQEND
  5
147
330
144
100
AcDbEntity
  8
cut
 62
     7
420
 16777215
370
    35
  0
POLYLINE
  5
148
330
1F
100
AcDbEntity
  8
cut
 62
     7
420
 16777215
370
    35
100
AcDb2dPolyline
 66
     1
 10
0.0
 20
0.0
 30
0.0
  0
VERTEX
  5
149
330
148
100
AcDbEntity
  8
cut
 62
     7
420
 16777215
370
    35
100
AcDbVertex
100
AcDb2dVertex
 10
137.0905038545785
 20
-174.1930397481314
 30
0.0
  0
VERTEX
  5
14A
330
148
100
AcDbEntity
  8
cut
 62
     7
420
 16777215
370
    35
100
AcDbVertex
100
AcDb2dVertex
 10
134.4924277447602
 20
-172.6930286373955
 30
0.0
  0
SEQEND
  5
14B
330
148
100
AcDbEntity
  8
cut
 62
     7
420
 16777215
370
    35
  0
POLYLINE
  5
14C
330
1F
100
AcDbEntity
  8
cut
 62
     7
420
 16777215
370
    35
100
AcDb2dPolyline
 66
     1
 10
0.0
 20
0.0
 30
0.0
  0
VERTEX
  5
14D
330
14C
100
AcDbEntity
  8
cut
 62
     7
420
 16777215
370
    35
100
AcDbVertex
100
AcDb2dVertex
 10
137.0905038545785
 20
-174.1930397481314
 30
0.0
  0
VERTEX
  5
14E
330
14C
100
AcDbEntity
  8
cut
 62
     7
420
 16777215
370
    35
100
AcDbVertex
100
AcDb2dVertex
 10
152.0905091286059
 20
-148.212261699071
 30
0.0
  0
SEQEND
  5
14F
330
14C
100
AcDbEntity
  8
cut
 62
     7
420
 16777215
370
    35
  0
POLYLINE
  5
150
330
1F
100
AcDbEntity
  8
cut
 62
     7
420
 16777215
370
    35
100
AcDb2dPolyline
 66
     1
 10
0.0
 20
0.0
 30
0.0
  0
VERTEX
  5
151
330
150
100
AcDbEntity
  8
cut
 62
     7
420
 16777215
370
    35
100
AcDbVertex
100
AcDb2dVertex
 10
134.4924277447602
 20
-172.6930286373955
 30
0.0
  0
VERTEX
  5
152
330
150
100
AcDbEntity
  8
cut
 62
     7
420
 16777215
370
    35
100
AcDbVertex
100
AcDb2dVertex
 10
149.4924066292554
 20
-146.712250588335
 30
0.0
  0
SEQEND
  5
153
330
150
100
AcDbEntity
  8
cut
 62
     7
420
 16777215
370
    35
  0
POLYLINE
  5
154
330
1F
100
AcDbEntity
  8
cut
 62
     7
420
 16777215
370
    35
100
AcDb2dPolyline
 66
     1
 10
0.0
 20
0.0
 30
0.0
  0
VERTEX
  5
155
330
154
100
AcDbEntity
  8
cut
 62
     7
420
 16777215
370
    35
100
AcDbVertex
100
AcDb2dVertex
 10
253.0050784089707
 20
-189.929866913956
 30
0.0
  0
VERTEX
  5
156
330
154
100
AcDbEntity
  8
cut
 62
     7
420
 16777215
370
    35
100
AcDbVertex
100
AcDb2dVertex
 10
253.0050784089707
 20
-69.93028333284461
 30
0.0
  0
SEQEND
  5
157
330
154
100
AcDbEntity
  8
cut
 62
     7
420
 16777215
370
    35
  0
POLYLINE
  5
158
330
1F
100
AcDbEntity
  8
cut
 62
     7
420
 16777215
370
    35
100
AcDb2dPolyline
 66
     1
 10
0.0
 20
0.0
 30
0.0
  0
VERTEX
  5
159
330
158
100
AcDbEntity
  8
cut
 62
     7
420
 16777215
370
    35
100
AcDbVertex
100
AcDb2dVertex
 10
204.8640350876729
 20
-192.9298538576504
 30
0.0
  0
VERTEX
  5
15A
330
158
100
AcDbEntity
  8
cut
 62
     7
420
 16777215
370
    35
100
AcDbVertex
100
AcDb2dVertex
 10
204.8640350876729
 20
-189.929866913956
 30
0.0
  0
SEQEND
  5
15B
330
158
100
AcDbEntity
  8
cut
 62
     7
420
 16777215
370
    35
  0
POLYLINE
  5
15C
330
1F
100
AcDbEntity
  8
cut
 62
     7
420
 16777215
370
    35
100
AcDb2dPolyline
 66
     1
 10
0.0
 20
0.0
 30
0.0
  0
VERTEX
  5
15D
330
15C
100
AcDbEntity
  8
cut
 62
     7
420
 16777215
370
    35
100
AcDbVertex
100
AcDb2dVertex
 10
186.723037592208
 20
-189.929866913956
 30
0.0
  0
VERTEX
  5
15E
330
15C
100
AcDbEntity
  8
cut
 62
     7
420
 16777215
370
    35
100
AcDbVertex
100
AcDb2dVertex
 10
186.723037592208
 20
-69.93028333284461
 30
0.0
  0
SEQEND
  5
15F
330
15C
100
AcDbEntity
  8
cut
 62
     7
420
 16777215
370
    35
  0
POLYLINE
  5
160
330
1F
100
AcDbEntity
  8
cut
 62
     7
420
 16777215
370
    35
100
AcDb2dPolyline
 66
     1
 10
0.0
 20
0.0
 30
0.0
  0
VERTEX
  5
161
330
160
100
AcDbEntity
  8
cut
 62
     7
420
 16777215
370
    35
100
AcDbVertex
100
AcDb2dVertex
 10
253.0050784089707
 20
-189.929866913956
 30
0.0
  0
VERTEX
  5
162
330
160
100
AcDbEntity
  8
cut
 62
     7
420
 16777215
370
    35
100
AcDbVertex
100
AcDb2dVertex
 10
234.8640456357283
 20
-189.929866913956
 30
0.0
  0
SEQEND
  5
163
330
160
100
AcDbEntity
  8
cut
 62
     7
420
 16777215
370
    35
  0
POLYLINE
  5
164
330
1F
100
AcDbEntity
  8
cut
 62
     7
420
 16777215
370
    35
100
AcDb2dPolyline
 66
     1
 10
0.0
 20
0.0
 30
0.0
  0
VERTEX
  5
165
330
164
100
AcDbEntity
  8
cut
 62
     7
420
 16777215
370
    35
100
AcDbVertex
100
AcDb2dVertex
 10
204.8640350876729
 20
-189.929866913956
 30
0.0
  0
VERTEX
  5
166
330
164
100
AcDbEntity
  8
cut
 62
     7
420
 16777215
370
    35
100
AcDbVertex
100
AcDb2dVertex
 10
186.723037592208
 20
-189.929866913956
 30
0.0
  0
SEQEND
  5
167
330
164
100
AcDbEntity
  8
cut
 62
     7
420
 16777215
370
    35
  0
POLYLINE
  5
168
330
1F
100
AcDbEntity
  8
cut
 62
     7
420
 16777215
370
    35
100
AcDb2dPolyline
 66
     1
 10
0.0
 20
0.0
 30
0.0
  0
VERTEX
  5
169
330
168
100
AcDbEntity
  8
cut
 62
     7
420
 16777215
370
    35
100
AcDbVertex
100
AcDb2dVertex
 10
234.8640456357283
 20
-189.929866913956
 30
0.0
  0
VERTEX
  5
16A
330
168
100
AcDbEntity
  8
cut
 62
     7
420
 16777215
370
    35
100
AcDbVertex
100
AcDb2dVertex
 10
234.8640456357283
 20
-192.9298538576504
 30
0.0
  0
SEQEND
  5
16B
330
168
100
AcDbEntity
  8
cut
 62
     7
420
 16777215
370
    35
  0
POLYLINE
  5
16C
330
1F
100
AcDbEntity
  8
cut
 62
     7
420
 16777215
370
    35
100
AcDb2dPolyline
 66
     1
 10
0.0
 20
0.0
 30
0.0
  0
VERTEX
  5
16D
330
16C
100
AcDbEntity
  8
cut
 62
     7
420
 16777215
370
    35
100
AcDbVertex
100
AcDb2dVertex
 10
192.7230467573742
 20
-183.9298577487892
 30
0.0
  0
VERTEX
  5
16E
330
16C
100
AcDbEntity
  8
cut
 62
     7
420
 16777215
370
    35
100
AcDbVertex
100
AcDb2dVertex
 10
192.7230467573742
 20
-75.93025722023363
 30
0.0
  0
SEQEND
  5
16F
330
16C
100
AcDbEntity
  8
cut
 62
     7
420
 16777215
370
    35
  0
POLYLINE
  5
170
330
1F
100
AcDbEntity
  8
cut
 62
     7
420
 16777215
370
    35
100
AcDb2dPolyline
 66
     1
 10
0.0
 20
0.0
 30
0.0
  0
VERTEX
  5
171
330
170
100
AcDbEntity
  8
cut
 62
     7
420
 16777215
370
    35
100
AcDbVertex
100
AcDb2dVertex
 10
192.7230467573742
 20
-75.93025722023363
 30
0.0
  0
VERTEX
  5
172
330
170
100
AcDbEntity
  8
cut
 62
     7
420
 16777215
370
    35
100
AcDbVertex
100
AcDb2dVertex
 10
247.0050692438039
 20
-75.93025722023363
 30
0.0
  0
SEQEND
  5
173
330
170
100
AcDbEntity
  8
cut
 62
     7
420
 16777215
370
    35
  0
POLYLINE
  5
174
330
1F
100
AcDbEntity
  8
cut
 62
     7
420
 16777215
370
    35
100
AcDb2dPolyline
 66
     1
 10
0.0
 20
0.0
 30
0.0
  0
VERTEX
  5
175
330
174
100
AcDbEntity
  8
cut
 62
     7
420
 16777215
370
    35
100
AcDbVertex
100
AcDb2dVertex
 10
247.0050692438039
 20
-183.9298577487892
 30
0.0
  0
VERTEX
  5
176
330
174
100
AcDbEntity
  8
cut
 62
     7
420
 16777215
370
    35
100
AcDbVertex
100
AcDb2dVertex
 10
192.7230467573742
 20
-183.9298577487892
 30
0.0
  0
SEQEND
  5
177
330
174
100
AcDbEntity
  8
cut
 62
     7
420
 16777215
370
    35
  0
SPLINE
  5
178
330
1F
100
AcDbEntity
  8
cut
 62
     7
420
 16777215
370
    35
100
AcDbSpline
210
0.0
220
0.0
230
1.0
 70
     8
 71
     3
 72
    17
 73
    13
 74
     0
 42
0.0000000001
 43
0.0000000001
 12
1.0
 22
0.0
 32
0.0
 13
1.0
 23
0.0
 33
0.0
 40
0.0
 40
0.0
 40
0.0
 40
0.0
 40
1.0
 40
1.0
 40
1.0
 40
2.0
 40
2.0
 40
2.0
 40
3.0
 40
3.0
 40
3.0
 40
4.0
 40
4.0
 40
4.0
 40
4.0
 10
225.8640495268671
 20
-66.93026111137276
 30
0.0
 10
225.8640495268671
 20
-65.33902166732594
 30
0.0
 10
225.2319423048026
 20
-63.81290500104079
 30
0.0
 10
224.1067575828622
 20
-62.68772027909972
 30
0.0
 10
222.9815375831436
 20
-61.56242972382545
 30
0.0
 10
221.4553856390806
 20
-60.93025194620591
 30
0.0
 10
219.8640403617003
 20
-60.93025194620591
 30
0.0
 10
218.2728009176538
 20
-60.93025194620591
 30
0.0
 10
216.7466842513683
 20
-61.56239444604793
 30
0.0
 10
215.6214995294279
 20
-62.68754389021084
 30
0.0
 10
214.4962089741536
 20
-63.81276388992975
 30
0.0
 10
213.8640311965341
 20
-65.33891583399273
 30
0.0
 10
213.8640311965341
 20
-66.93026111137276
 30
0.0
  0
SPLINE
  5
179
330
1F
100
AcDbEntity
  8
cut
 62
     7
420
 16777215
370
    35
100
AcDbSpline
210
0.0
220
0.0
230
1.0
 70
     8
 71
     3
 72
    11
 73
     7
 74
     0
 42
0.0000000001
 43
0.0000000001
 12
1.0
 22
0.0
 32
0.0
 13
1.0
 23
0.0
 33
0.0
 40
0.0
 40
0.0
 40
0.0
 40
0.0
 40
1.0
 40
1.0
 40
1.0
 40
2.0
 40
2.0
 40
2.0
 40
2.0
 10
221.8640434167557
 20
-66.93026111137276
 30
0.0
 10
221.8640434167557
 20
-65.82571388942655
 30
0.0
 10
220.9686228614243
 20
-64.93025805631703
 30
0.0
 10
219.8640403617003
 20
-64.93025805631703
 30
0.0
 10
218.7594931397544
 20
-64.93025805631703
 30
0.0
 10
217.8640373066449
 20
-65.82571388942655
 30
0.0
 10
217.8640373066449
 20
-66.93026111137276
 30
0.0
  0
POLYLINE
  5
17A
330
1F
100
AcDbEntity
  8
cut
 62
     7
420
 16777215
370
    35
100
AcDb2dPolyline
 66
     1
 10
0.0
 20
0.0
 30
0.0
  0
VERTEX
  5
17B
330
17A
100
AcDbEntity
  8
cut
 62
     7
420
 16777215
370
    35
100
AcDbVertex
100
AcDb2dVertex
 10
247.0050692438039
 20
-183.9298577487892
 30
0.0
  0
VERTEX
  5
17C
330
17A
100
AcDbEntity
  8
cut
 62
     7
420
 16777215
370
    35
100
AcDbVertex
100
AcDb2dVertex
 10
247.0050692438039
 20
-75.93025722023363
 30
0.0
  0
SEQEND
  5
17D
330
17A
100
AcDbEntity
  8
cut
 62
     7
420
 16777215
370
    35
  0
POLYLINE
  5
17E
330
1F
100
AcDbEntity
  8
cut
 62
     7
420
 16777215
370
    35
100
AcDb2dPolyline
 66
     1
 10
0.0
 20
0.0
 30
0.0
  0
VERTEX
  5
17F
330
17E
100
AcDbEntity
  8
cut
 62
     7
420
 16777215
370
    35
100
AcDbVertex
100
AcDb2dVertex
 10
234.8640456357283
 20
-192.9298538576504
 30
0.0
  0
VERTEX
  5
180
330
17E
100
AcDbEntity
  8
cut
 62
     7
420
 16777215
370
    35
100
AcDbVertex
100
AcDb2dVertex
 10
204.8640350876729
 20
-192.9298538576504
 30
0.0
  0
SEQEND
  5
181
330
17E
100
AcDbEntity
  8
cut
 62
     7
420
 16777215
370
    35
  0
POLYLINE
  5
182
330
1F
100
AcDbEntity
  8
cut
 62
     7
420
 16777215
370
    35
100
AcDb2dPolyline
 66
     1
 10
0.0
 20
0.0
 30
0.0
  0
VERTEX
  5
183
330
182
100
AcDbEntity
  8
cut
 62
     7
420
 16777215
370
    35
100
AcDbVertex
100
AcDb2dVertex
 10
204.8640350876729
 20
-66.93026111137276
 30
0.0
  0
VERTEX
  5
184
330
182
100
AcDbEntity
  8
cut
 62
     7
420
 16777215
370
    35
100
AcDbVertex
100
AcDb2dVertex
 10
204.8640350876729
 20
-69.93028333284461
 30
0.0
  0
SEQEND
  5
185
330
182
100
AcDbEntity
  8
cut
 62
     7
420
 16777215
370
    35
  0
POLYLINE
  5
186
330
1F
100
AcDbEntity
  8
cut
 62
     7
420
 16777215
370
    35
100
AcDb2dPolyline
 66
     1
 10
0.0
 20
0.0
 30
0.0
  0
VERTEX
  5
187
330
186
100
AcDbEntity
  8
cut
 62
     7
420
 16777215
370
    35
100
AcDbVertex
100
AcDb2dVertex
 10
234.8640456357283
 20
-69.93028333284461
 30
0.0
  0
VERTEX
  5
188
330
186
100
AcDbEntity
  8
cut
 62
     7
420
 16777215
370
    35
100
AcDbVertex
100
AcDb2dVertex
 10
234.8640456357283
 20
-66.93026111137276
 30
0.0
  0
SEQEND
  5
189
330
186
100
AcDbEntity
  8
cut
 62
     7
420
 16777215
370
    35
  0
POLYLINE
  5
18A
330
1F
100
AcDbEntity
  8
cut
 62
     7
420
 16777215
370
    35
100
AcDb2dPolyline
 66
     1
 10
0.0
 20
0.0
 30
0.0
  0
VERTEX
  5
18B
330
18A
100
AcDbEntity
  8
cut
 62
     7
420
 16777215
370
    35
100
AcDbVertex
100
AcDb2dVertex
 10
186.723037592208
 20
-69.93028333284461
 30
0.0
  0
VERTEX
  5
18C
330
18A
100
AcDbEntity
  8
cut
 62
     7
420
 16777215
370
    35
100
AcDbVertex
100
AcDb2dVertex
 10
204.8640350876729
 20
-69.93028333284461
 30
0.0
  0
SEQEND
  5
18D
330
18A
100
AcDbEntity
  8
cut
 62
     7
420
 16777215
370
    35
  0
POLYLINE
  5
18E
330
1F
100
AcDbEntity
  8
cut
 62
     7
420
 16777215
370
    35
100
AcDb2dPolyline
 66
     1
 10
0.0
 20
0.0
 30
0.0
  0
VERTEX
  5
18F
330
18E
100
AcDbEntity
  8
cut
 62
     7
420
 16777215
370
    35
100
AcDbVertex
100
AcDb2dVertex
 10
234.8640456357283
 20
-69.93028333284461
 30
0.0
  0
VERTEX
  5
190
330
18E
100
AcDbEntity
  8
cut
 62
     7
420
 16777215
370
    35
100
AcDbVertex
100
AcDb2dVertex
 10
253.0050784089707
 20
-69.93028333284461
 30
0.0
  0
SEQEND
  5
191
330
18E
100
AcDbEntity
  8
cut
 62
     7
420
 16777215
370
    35
  0
POLYLINE
  5
192
330
1F
100
AcDbEntity
  8
cut
 62
     7
420
 16777215
370
    35
100
AcDb2dPolyline
 66
     1
 10
0.0
 20
0.0
 30
0.0
  0
VERTEX
  5
193
330
192
100
AcDbEntity
  8
cut
 62
     7
420
 16777215
370
    35
100
AcDbVertex
100
AcDb2dVertex
 10
234.8640456357283
 20
-66.93026111137276
 30
0.0
  0
VERTEX
  5
194
330
192
100
AcDbEntity
  8
cut
 62
     7
420
 16777215
370
    35
100
AcDbVertex
100
AcDb2dVertex
 10
225.8640495268671
 20
-66.93026111137276
 30
0.0
  0
SEQEND
  5
195
330
192
100
AcDbEntity
  8
cut
 62
     7
420
 16777215
370
    35
  0
POLYLINE
  5
196
330
1F
100
AcDbEntity
  8
cut
 62
     7
420
 16777215
370
    35
100
AcDb2dPolyline
 66
     1
 10
0.0
 20
0.0
 30
0.0
  0
VERTEX
  5
197
330
196
100
AcDbEntity
  8
cut
 62
     7
420
 16777215
370
    35
100
AcDbVertex
100
AcDb2dVertex
 10
221.8640434167557
 20
-66.93026111137276
 30
0.0
  0
VERTEX
  5
198
330
196
100
AcDbEntity
  8
cut
 62
     7
420
 16777215
370
    35
100
AcDbVertex
100
AcDb2dVertex
 10
217.8640373066449
 20
-66.93026111137276
 30
0.0
  0
SEQEND
  5
199
330
196
100
AcDbEntity
  8
cut
 62
     7
420
 16777215
370
    35
  0
POLYLINE
  5
19A
330
1F
100
AcDbEntity
  8
cut
 62
     7
420
 16777215
370
    35
100
AcDb2dPolyline
 66
     1
 10
0.0
 20
0.0
 30
0.0
  0
VERTEX
  5
19B
330
19A
100
AcDbEntity
  8
cut
 62
     7
420
 16777215
370
    35
100
AcDbVertex
100
AcDb2dVertex
 10
213.8640311965341
 20
-66.93026111137276
 30
0.0
  0
VERTEX
  5
19C
330
19A
100
AcDbEntity
  8
cut
 62
     7
420
 16777215
370
    35
100
AcDbVertex
100
AcDb2dVertex
 10
204.8640350876729
 20
-66.93026111137276
 30
0.0
  0
SEQEND
  5
19D
330
19A
100
AcDbEntity
  8
cut
 62
     7
420
 16777215
370
    35
  0
POLYLINE
  5
19E
330
1F
100
AcDbEntity
  8
cut
 62
     7
420
 16777215
370
    35
100
AcDb2dPolyline
 66
     1
 10
0.0
 20
0.0
 30
0.0
  0
VERTEX
  5
19F
330
19E
100
AcDbEntity
  8
cut
 62
     7
420
 16777215
370
    35
100
AcDbVertex
100
AcDb2dVertex
 10
319.2871192257335
 20
-189.929866913956
 30
0.0
  0
VERTEX
  5
1A0
330
19E
100
AcDbEntity
  8
cut
 62
     7
420
 16777215
370
    35
100
AcDbVertex
100
AcDb2dVertex
 10
319.2871192257335
 20
-69.93028333284461
 30
0.0
  0
SEQEND
  5
1A1
330
19E
100
AcDbEntity
  8
cut
 62
     7
420
 16777215
370
    35
  0
POLYLINE
  5
1A2
330
1F
100
AcDbEntity
  8
cut
 62
     7
420
 16777215
370
    35
100
AcDb2dPolyline
 66
     1
 10
0.0
 20
0.0
 30
0.0
  0
VERTEX
  5
1A3
330
1A2
100
AcDbEntity
  8
cut
 62
     7
420
 16777215
370
    35
100
AcDbVertex
100
AcDb2dVertex
 10
271.1460759044356
 20
-192.9298538576504
 30
0.0
  0
VERTEX
  5
1A4
330
1A2
100
AcDbEntity
  8
cut
 62
     7
420
 16777215
370
    35
100
AcDbVertex
100
AcDb2dVertex
 10
271.1460759044356
 20
-189.929866913956
 30
0.0
  0
SEQEND
  5
1A5
330
1A2
100
AcDbEntity
  8
cut
 62
     7
420
 16777215
370
    35
  0
POLYLINE
  5
1A6
330
1F
100
AcDbEntity
  8
cut
 62
     7
420
 16777215
370
    35
100
AcDb2dPolyline
 66
     1
 10
0.0
 20
0.0
 30
0.0
  0
VERTEX
  5
1A7
330
1A6
100
AcDbEntity
  8
cut
 62
     7
420
 16777215
370
    35
100
AcDbVertex
100
AcDb2dVertex
 10
319.2871192257335
 20
-189.929866913956
 30
0.0
  0
VERTEX
  5
1A8
330
1A6
100
AcDbEntity
  8
cut
 62
     7
420
 16777215
370
    35
100
AcDbVertex
100
AcDb2dVertex
 10
301.146086452491
 20
-189.929866913956
 30
0.0
  0
SEQEND
  5
1A9
330
1A6
100
AcDbEntity
  8
cut
 62
     7
420
 16777215
370
    35
  0
POLYLINE
  5
1AA
330
1F
100
AcDbEntity
  8
cut
 62
     7
420
 16777215
370
    35
100
AcDb2dPolyline
 66
     1
 10
0.0
 20
0.0
 30
0.0
  0
VERTEX
  5
1AB
330
1AA
100
AcDbEntity
  8
cut
 62
     7
420
 16777215
370
    35
100
AcDbVertex
100
AcDb2dVertex
 10
271.1460759044356
 20
-189.929866913956
 30
0.0
  0
VERTEX
  5
1AC
330
1AA
100
AcDbEntity
  8
cut
 62
     7
420
 16777215
370
    35
100
AcDbVertex
100
AcDb2dVertex
 10
253.0050784089707
 20
-189.929866913956
 30
0.0
  0
SEQEND
  5
1AD
330
1AA
100
AcDbEntity
  8
cut
 62
     7
420
 16777215
370
    35
  0
POLYLINE
  5
1AE
330
1F
100
AcDbEntity
  8
cut
 62
     7
420
 16777215
370
    35
100
AcDb2dPolyline
 66
     1
 10
0.0
 20
0.0
 30
0.0
  0
VERTEX
  5
1AF
330
1AE
100
AcDbEntity
  8
cut
 62
     7
420
 16777215
370
    35
100
AcDbVertex
100
AcDb2dVertex
 10
301.146086452491
 20
-189.929866913956
 30
0.0
  0
VERTEX
  5
1B0
330
1AE
100
AcDbEntity
  8
cut
 62
     7
420
 16777215
370
    35
100
AcDbVertex
100
AcDb2dVertex
 10
301.146086452491
 20
-192.9298538576504
 30
0.0
  0
SEQEND
  5
1B1
330
1AE
100
AcDbEntity
  8
cut
 62
     7
420
 16777215
370
    35
  0
POLYLINE
  5
1B2
330
1F
100
AcDbEntity
  8
cut
 62
     7
420
 16777215
370
    35
100
AcDb2dPolyline
 66
     1
 10
0.0
 20
0.0
 30
0.0
  0
VERTEX
  5
1B3
330
1B2
100
AcDbEntity
  8
cut
 62
     7
420
 16777215
370
    35
100
AcDbVertex
100
AcDb2dVertex
 10
259.005087574137
 20
-183.9298577487892
 30
0.0
  0
VERTEX
  5
1B4
330
1B2
100
AcDbEntity
  8
cut
 62
     7
420
 16777215
370
    35
100
AcDbVertex
100
AcDb2dVertex
 10
259.005087574137
 20
-75.93025722023363
 30
0.0
  0
SEQEND
  5
1B5
330
1B2
100
AcDbEntity
  8
cut
 62
     7
420
 16777215
370
    35
  0
POLYLINE
  5
1B6
330
1F
100
AcDbEntity
  8
cut
 62
     7
420
 16777215
370
    35
100
AcDb2dPolyline
 66
     1
 10
0.0
 20
0.0
 30
0.0
  0
VERTEX
  5
1B7
330
1B6
100
AcDbEntity
  8
cut
 62
     7
420
 16777215
370
    35
100
AcDbVertex
100
AcDb2dVertex
 10
325.2871283908997
 20
-183.9298577487892
 30
0.0
  0
VERTEX
  5
1B8
330
1B6
100
AcDbEntity
  8
cut
 62
     7
420
 16777215
370
    35
100
AcDbVertex
100
AcDb2dVertex
 10
325.2871283908997
 20
-75.93025722023363
 30
0.0
  0
SEQEND
  5
1B9
330
1B6
100
AcDbEntity
  8
cut
 62
     7
420
 16777215
370
    35
  0
POLYLINE
  5
1BA
330
1F
100
AcDbEntity
  8
cut
 62
     7
420
 16777215
370
    35
100
AcDb2dPolyline
 66
     1
 10
0.0
 20
0.0
 30
0.0
  0
VERTEX
  5
1BB
330
1BA
100
AcDbEntity
  8
cut
 62
     7
420
 16777215
370
    35
100
AcDbVertex
100
AcDb2dVertex
 10
259.005087574137
 20
-75.93025722023363
 30
0.0
  0
VERTEX
  5
1BC
330
1BA
100
AcDbEntity
  8
cut
 62
     7
420
 16777215
370
    35
100
AcDbVertex
100
AcDb2dVertex
 10
313.2871100605666
 20
-75.93025722023363
 30
0.0
  0
SEQEND
  5
1BD
330
1BA
100
AcDbEntity
  8
cut
 62
     7
420
 16777215
370
    35
  0
POLYLINE
  5
1BE
330
1F
100
AcDbEntity
  8
cut
 62
     7
420
 16777215
370
    35
100
AcDb2dPolyline
 66
     1
 10
0.0
 20
0.0
 30
0.0
  0
VERTEX
  5
1BF
330
1BE
100
AcDbEntity
  8
cut
 62
     7
420
 16777215
370
    35
100
AcDbVertex
100
AcDb2dVertex
 10
313.2871100605666
 20
-183.9298577487892
 30
0.0
  0
VERTEX
  5
1C0
330
1BE
100
AcDbEntity
  8
cut
 62
     7
420
 16777215
370
    35
100
AcDbVertex
100
AcDb2dVertex
 10
259.005087574137
 20
-183.9298577487892
 30
0.0
  0
SEQEND
  5
1C1
330
1BE
100
AcDbEntity
  8
cut
 62
     7
420
 16777215
370
    35
  0
SPLINE
  5
1C2
330
1F
100
AcDbEntity
  8
cut
 62
     7
420
 16777215
370
    35
100
AcDbSpline
210
0.0
220
0.0
230
1.0
 70
     8
 71
     3
 72
    17
 73
    13
 74
     0
 42
0.0000000001
 43
0.0000000001
 12
1.0
 22
0.0
 32
0.0
 13
1.0
 23
0.0
 33
0.0
 40
0.0
 40
0.0
 40
0.0
 40
0.0
 40
1.0
 40
1.0
 40
1.0
 40
2.0
 40
2.0
 40
2.0
 40
3.0
 40
3.0
 40
3.0
 40
4.0
 40
4.0
 40
4.0
 40
4.0
 10
292.1460903436299
 20
-66.93026111137276
 30
0.0
 10
292.1460903436299
 20
-65.33902166732594
 30
0.0
 10
291.5139831215653
 20
-63.81290500104079
 30
0.0
 10
290.3887983996249
 20
-62.68772027909972
 30
0.0
 10
289.2635783999064
 20
-61.56242972382545
 30
0.0
 10
287.7374264558434
 20
-60.93025194620591
 30
0.0
 10
286.146081178463
 20
-60.93025194620591
 30
0.0
 10
284.5548417344165
 20
-60.93025194620591
 30
0.0
 10
283.0287250681311
 20
-61.56239444604793
 30
0.0
 10
281.9035403461906
 20
-62.68754389021084
 30
0.0
 10
280.7782497909163
 20
-63.81276388992975
 30
0.0
 10
280.1460720132968
 20
-65.33891583399273
 30
0.0
 10
280.1460720132968
 20
-66.93026111137276
 30
0.0
  0
SPLINE
  5
1C3
330
1F
100
AcDbEntity
  8
cut
 62
     7
420
 16777215
370
    35
100
AcDbSpline
210
0.0
220
0.0
230
1.0
 70
     8
 71
     3
 72
    11
 73
     7
 74
     0
 42
0.0000000001
 43
0.0000000001
 12
1.0
 22
0.0
 32
0.0
 13
1.0
 23
0.0
 33
0.0
 40
0.0
 40
0.0
 40
0.0
 40
0.0
 40
1.0
 40
1.0
 40
1.0
 40
2.0
 40
2.0
 40
2.0
 40
2.0
 10
288.1460842335184
 20
-66.93026111137276
 30
0.0
 10
288.1460842335184
 20
-65.82571388942655
 30
0.0
 10
287.250663678187
 20
-64.93025805631703
 30
0.0
 10
286.146081178463
 20
-64.93025805631703
 30
0.0
 10
285.0415339565171
 20
-64.93025805631703
 30
0.0
 10
284.1460781234076
 20
-65.82571388942655
 30
0.0
 10
284.1460781234076
 20
-66.93026111137276
 30
0.0
  0
POLYLINE
  5
1C4
330
1F
100
AcDbEntity
  8
cut
 62
     7
420
 16777215
370
    35
100
AcDb2dPolyline
 66
     1
 10
0.0
 20
0.0
 30
0.0
  0
VERTEX
  5
1C5
330
1C4
100
AcDbEntity
  8
cut
 62
     7
420
 16777215
370
    35
100
AcDbVertex
100
AcDb2dVertex
 10
313.2871100605666
 20
-183.9298577487892
 30
0.0
  0
VERTEX
  5
1C6
330
1C4
100
AcDbEntity
  8
cut
 62
     7
420
 16777215
370
    35
100
AcDbVertex
100
AcDb2dVertex
 10
313.2871100605666
 20
-75.93025722023363
 30
0.0
  0
SEQEND
  5
1C7
330
1C4
100
AcDbEntity
  8
cut
 62
     7
420
 16777215
370
    35
  0
POLYLINE
  5
1C8
330
1F
100
AcDbEntity
  8
cut
 62
     7
420
 16777215
370
    35
100
AcDb2dPolyline
 66
     1
 10
0.0
 20
0.0
 30
0.0
  0
VERTEX
  5
1C9
330
1C8
100
AcDbEntity
  8
cut
 62
     7
420
 16777215
370
    35
100
AcDbVertex
100
AcDb2dVertex
 10
301.146086452491
 20
-192.9298538576504
 30
0.0
  0
VERTEX
  5
1CA
330
1C8
100
AcDbEntity
  8
cut
 62
     7
420
 16777215
370
    35
100
AcDbVertex
100
AcDb2dVertex
 10
271.1460759044356
 20
-192.9298538576504
 30
0.0
  0
SEQEND
  5
1CB
330
1C8
100
AcDbEntity
  8
cut
 62
     7
420
 16777215
370
    35
  0
POLYLINE
  5
1CC
330
1F
100
AcDbEntity
  8
cut
 62
     7
420
 16777215
370
    35
100
AcDb2dPolyline
 66
     1
 10
0.0
 20
0.0
 30
0.0
  0
VERTEX
  5
1CD
330
1CC
100
AcDbEntity
  8
cut
 62
     7
420
 16777215
370
    35
100
AcDbVertex
100
AcDb2dVertex
 10
271.1460759044356
 20
-66.93026111137276
 30
0.0
  0
VERTEX
  5
1CE
330
1CC
100
AcDbEntity
  8
cut
 62
     7
420
 16777215
370
    35
100
AcDbVertex
100
AcDb2dVertex
 10
271.1460759044356
 20
-69.93028333284461
 30
0.0
  0
SEQEND
  5
1CF
330
1CC
100
AcDbEntity
  8
cut
 62
     7
420
 16777215
370
    35
  0
POLYLINE
  5
1D0
330
1F
100
AcDbEntity
  8
cut
 62
     7
420
 16777215
370
    35
100
AcDb2dPolyline
 66
     1
 10
0.0
 20
0.0
 30
0.0
  0
VERTEX
  5
1D1
330
1D0
100
AcDbEntity
  8
cut
 62
     7
420
 16777215
370
    35
100
AcDbVertex
100
AcDb2dVertex
 10
301.146086452491
 20
-69.93028333284461
 30
0.0
  0
VERTEX
  5
1D2
330
1D0
100
AcDbEntity
  8
cut
 62
     7
420
 16777215
370
    35
100
AcDbVertex
100
AcDb2dVertex
 10
301.146086452491
 20
-66.93026111137276
 30
0.0
  0
SEQEND
  5
1D3
330
1D0
100
AcDbEntity
  8
cut
 62
     7
420
 16777215
370
    35
  0
POLYLINE
  5
1D4
330
1F
100
AcDbEntity
  8
cut
 62
     7
420
 16777215
370
    35
100
AcDb2dPolyline
 66
     1
 10
0.0
 20
0.0
 30
0.0
  0
VERTEX
  5
1D5
330
1D4
100
AcDbEntity
  8
cut
 62
     7
420
 16777215
370
    35
100
AcDbVertex
100
AcDb2dVertex
 10
253.0050784089707
 20
-69.93028333284461
 30
0.0
  0
VERTEX
  5
1D6
330
1D4
100
AcDbEntity
  8
cut
 62
     7
420
 16777215
370
    35
100
AcDbVertex
100
AcDb2dVertex
 10
271.1460759044356
 20
-69.93028333284461
 30
0.0
  0
SEQEND
  5
1D7
330
1D4
100
AcDbEntity
  8
cut
 62
     7
420
 16777215
370
    35
  0
POLYLINE
  5
1D8
330
1F
100
AcDbEntity
  8
cut
 62
     7
420
 16777215
370
    35
100
AcDb2dPolyline
 66
     1
 10
0.0
 20
0.0
 30
0.0
  0
VERTEX
  5
1D9
330
1D8
100
AcDbEntity
  8
cut
 62
     7
420
 16777215
370
    35
100
AcDbVertex
100
AcDb2dVertex
 10
301.146086452491
 20
-69.93028333284461
 30
0.0
  0
VERTEX
  5
1DA
330
1D8
100
AcDbEntity
  8
cut
 62
     7
420
 16777215
370
    35
100
AcDbVertex
100
AcDb2dVertex
 10
319.2871192257335
 20
-69.93028333284461
 30
0.0
  0
SEQEND
  5
1DB
330
1D8
100
AcDbEntity
  8
cut
 62
     7
420
 16777215
370
    35
  0
POLYLINE
  5
1DC
330
1F
100
AcDbEntity
  8
cut
 62
     7
420
 16777215
370
    35
100
AcDb2dPolyline
 66
     1
 10
0.0
 20
0.0
 30
0.0
  0
VERTEX
  5
1DD
330
1DC
100
AcDbEntity
  8
cut
 62
     7
420
 16777215
370
    35
100
AcDbVertex
100
AcDb2dVertex
 10
301.146086452491
 20
-66.93026111137276
 30
0.0
  0
VERTEX
  5
1DE
330
1DC
100
AcDbEntity
  8
cut
 62
     7
420
 16777215
370
    35
100
AcDbVertex
100
AcDb2dVertex
 10
292.1460903436299
 20
-66.93026111137276
 30
0.0
  0
SEQEND
  5
1DF
330
1DC
100
AcDbEntity
  8
cut
 62
     7
420
 16777215
370
    35
  0
POLYLINE
  5
1E0
330
1F
100
AcDbEntity
  8
cut
 62
     7
420
 16777215
370
    35
100
AcDb2dPolyline
 66
     1
 10
0.0
 20
0.0
 30
0.0
  0
VERTEX
  5
1E1
330
1E0
100
AcDbEntity
  8
cut
 62
     7
420
 16777215
370
    35
100
AcDbVertex
100
AcDb2dVertex
 10
288.1460842335184
 20
-66.93026111137276
 30
0.0
  0
VERTEX
  5
1E2
330
1E0
100
AcDbEntity
  8
cut
 62
     7
420
 16777215
370
    35
100
AcDbVertex
100
AcDb2dVertex
 10
284.1460781234076
 20
-66.93026111137276
 30
0.0
  0
SEQEND
  5
1E3
330
1E0
100
AcDbEntity
  8
cut
 62
     7
420
 16777215
370
    35
  0
POLYLINE
  5
1E4
330
1F
100
AcDbEntity
  8
cut
 62
     7
420
 16777215
370
    35
100
AcDb2dPolyline
 66
     1
 10
0.0
 20
0.0
 30
0.0
  0
VERTEX
  5
1E5
330
1E4
100
AcDbEntity
  8
cut
 62
     7
420
 16777215
370
    35
100
AcDbVertex
100
AcDb2dVertex
 10
280.1460720132968
 20
-66.93026111137276
 30
0.0
  0
VERTEX
  5
1E6
330
1E4
100
AcDbEntity
  8
cut
 62
     7
420
 16777215
370
    35
100
AcDbVertex
100
AcDb2dVertex
 10
271.1460759044356
 20
-66.93026111137276
 30
0.0
  0
SEQEND
  5
1E7
330
1E4
100
AcDbEntity
  8
cut
 62
     7
420
 16777215
370
    35
  0
POLYLINE
  5
1E8
330
1F
100
AcDbEntity
  8
cut
 62
     7
420
 16777215
370
    35
100
AcDb2dPolyline
 66
     1
 10
0.0
 20
0.0
 30
0.0
  0
VERTEX
  5
1E9
330
1E8
100
AcDbEntity
  8
cut
 62
     7
420
 16777215
370
    35
100
AcDbVertex
100
AcDb2dVertex
 10
385.5691600424962
 20
-189.929866913956
 30
0.0
  0
VERTEX
  5
1EA
330
1E8
100
AcDbEntity
  8
cut
 62
     7
420
 16777215
370
    35
100
AcDbVertex
100
AcDb2dVertex
 10
385.5691600424962
 20
-69.93028333284461
 30
0.0
  0
SEQEND
  5
1EB
330
1E8
100
AcDbEntity
  8
cut
 62
     7
420
 16777215
370
    35
  0
POLYLINE
  5
1EC
330
1F
100
AcDbEntity
  8
cut
 62
     7
420
 16777215
370
    35
100
AcDb2dPolyline
 66
     1
 10
0.0
 20
0.0
 30
0.0
  0
VERTEX
  5
1ED
330
1EC
100
AcDbEntity
  8
cut
 62
     7
420
 16777215
370
    35
100
AcDbVertex
100
AcDb2dVertex
 10
337.4281167211984
 20
-192.9298538576504
 30
0.0
  0
VERTEX
  5
1EE
330
1EC
100
AcDbEntity
  8
cut
 62
     7
420
 16777215
370
    35
100
AcDbVertex
100
AcDb2dVertex
 10
337.4281167211984
 20
-189.929866913956
 30
0.0
  0
SEQEND
  5
1EF
330
1EC
100
AcDbEntity
  8
cut
 62
     7
420
 16777215
370
    35
  0
POLYLINE
  5
1F0
330
1F
100
AcDbEntity
  8
cut
 62
     7
420
 16777215
370
    35
100
AcDb2dPolyline
 66
     1
 10
0.0
 20
0.0
 30
0.0
  0
VERTEX
  5
1F1
330
1F0
100
AcDbEntity
  8
cut
 62
     7
420
 16777215
370
    35
100
AcDbVertex
100
AcDb2dVertex
 10
385.5691600424962
 20
-189.929866913956
 30
0.0
  0
VERTEX
  5
1F2
330
1F0
100
AcDbEntity
  8
cut
 62
     7
420
 16777215
370
    35
100
AcDbVertex
100
AcDb2dVertex
 10
367.4281272692538
 20
-189.929866913956
 30
0.0
  0
SEQEND
  5
1F3
330
1F0
100
AcDbEntity
  8
cut
 62
     7
420
 16777215
370
    35
  0
POLYLINE
  5
1F4
330
1F
100
AcDbEntity
  8
cut
 62
     7
420
 16777215
370
    35
100
AcDb2dPolyline
 66
     1
 10
0.0
 20
0.0
 30
0.0
  0
VERTEX
  5
1F5
330
1F4
100
AcDbEntity
  8
cut
 62
     7
420
 16777215
370
    35
100
AcDbVertex
100
AcDb2dVertex
 10
337.4281167211984
 20
-189.929866913956
 30
0.0
  0
VERTEX
  5
1F6
330
1F4
100
AcDbEntity
  8
cut
 62
     7
420
 16777215
370
    35
100
AcDbVertex
100
AcDb2dVertex
 10
319.2871192257335
 20
-189.929866913956
 30
0.0
  0
SEQEND
  5
1F7
330
1F4
100
AcDbEntity
  8
cut
 62
     7
420
 16777215
370
    35
  0
POLYLINE
  5
1F8
330
1F
100
AcDbEntity
  8
cut
 62
     7
420
 16777215
370
    35
100
AcDb2dPolyline
 66
     1
 10
0.0
 20
0.0
 30
0.0
  0
VERTEX
  5
1F9
330
1F8
100
AcDbEntity
  8
cut
 62
     7
420
 16777215
370
    35
100
AcDbVertex
100
AcDb2dVertex
 10
367.4281272692538
 20
-189.929866913956
 30
0.0
  0
VERTEX
  5
1FA
330
1F8
100
AcDbEntity
  8
cut
 62
     7
420
 16777215
370
    35
100
AcDbVertex
100
AcDb2dVertex
 10
367.4281272692538
 20
-192.9298538576504
 30
0.0
  0
SEQEND
  5
1FB
330
1F8
100
AcDbEntity
  8
cut
 62
     7
420
 16777215
370
    35
  0
POLYLINE
  5
1FC
330
1F
100
AcDbEntity
  8
cut
 62
     7
420
 16777215
370
    35
100
AcDb2dPolyline
 66
     1
 10
0.0
 20
0.0
 30
0.0
  0
VERTEX
  5
1FD
330
1FC
100
AcDbEntity
  8
cut
 62
     7
420
 16777215
370
    35
100
AcDbVertex
100
AcDb2dVertex
 10
325.2871283908997
 20
-75.93025722023363
 30
0.0
  0
VERTEX
  5
1FE
330
1FC
100
AcDbEntity
  8
cut
 62
     7
420
 16777215
370
    35
100
AcDbVertex
100
AcDb2dVertex
 10
379.5691508773293
 20
-75.93025722023363
 30
0.0
  0
SEQEND
  5
1FF
330
1FC
100
AcDbEntity
  8
cut
 62
     7
420
 16777215
370
    35
  0
POLYLINE
  5
200
330
1F
100
AcDbEntity
  8
cut
 62
     7
420
 16777215
370
    35
100
AcDb2dPolyline
 66
     1
 10
0.0
 20
0.0
 30
0.0
  0
VERTEX
  5
201
330
200
100
AcDbEntity
  8
cut
 62
     7
420
 16777215
370
    35
100
AcDbVertex
100
AcDb2dVertex
 10
379.5691508773293
 20
-183.9298577487892
 30
0.0
  0
VERTEX
  5
202
330
200
100
AcDbEntity
  8
cut
 62
     7
420
 16777215
370
    35
100
AcDbVertex
100
AcDb2dVertex
 10
325.2871283908997
 20
-183.9298577487892
 30
0.0
  0
SEQEND
  5
203
330
200
100
AcDbEntity
  8
cut
 62
     7
420
 16777215
370
    35
  0
SPLINE
  5
204
330
1F
100
AcDbEntity
  8
cut
 62
     7
420
 16777215
370
    35
100
AcDbSpline
210
0.0
220
0.0
230
1.0
 70
     8
 71
     3
 72
    17
 73
    13
 74
     0
 42
0.0000000001
 43
0.0000000001
 12
1.0
 22
0.0
 32
0.0
 13
1.0
 23
0.0
 33
0.0
 40
0.0
 40
0.0
 40
0.0
 40
0.0
 40
1.0
 40
1.0
 40
1.0
 40
2.0
 40
2.0
 40
2.0
 40
3.0
 40
3.0
 40
3.0
 40
4.0
 40
4.0
 40
4.0
 40
4.0
 10
358.4281311603926
 20
-66.93026111137276
 30
0.0
 10
358.4281311603926
 20
-65.33902166732594
 30
0.0
 10
357.7960239383281
 20
-63.81290500104079
 30
0.0
 10
356.6708392163877
 20
-62.68772027909972
 30
0.0
 10
355.5456192166691
 20
-61.56242972382545
 30
0.0
 10
354.0194672726061
 20
-60.93025194620591
 30
0.0
 10
352.4281219952258
 20
-60.93025194620591
 30
0.0
 10
350.8368825511793
 20
-60.93025194620591
 30
0.0
 10
349.3107658848938
 20
-61.56239444604793
 30
0.0
 10
348.1855811629533
 20
-62.68754389021084
 30
0.0
 10
347.0602906076791
 20
-63.81276388992975
 30
0.0
 10
346.4281128300595
 20
-65.33891583399273
 30
0.0
 10
346.4281128300595
 20
-66.93026111137276
 30
0.0
  0
SPLINE
  5
205
330
1F
100
AcDbEntity
  8
cut
 62
     7
420
 16777215
370
    35
100
AcDbSpline
210
0.0
220
0.0
230
1.0
 70
     8
 71
     3
 72
    11
 73
     7
 74
     0
 42
0.0000000001
 43
0.0000000001
 12
1.0
 22
0.0
 32
0.0
 13
1.0
 23
0.0
 33
0.0
 40
0.0
 40
0.0
 40
0.0
 40
0.0
 40
1.0
 40
1.0
 40
1.0
 40
2.0
 40
2.0
 40
2.0
 40
2.0
 10
354.4281250502812
 20
-66.93026111137276
 30
0.0
 10
354.4281250502812
 20
-65.82571388942655
 30
0.0
 10
353.5327044949498
 20
-64.93025805631703
 30
0.0
 10
352.4281219952258
 20
-64.93025805631703
 30
0.0
 10
351.3235747732799
 20
-64.93025805631703
 30
0.0
 10
350.4281189401704
 20
-65.82571388942655
 30
0.0
 10
350.4281189401704
 20
-66.93026111137276
 30
0.0
  0
POLYLINE
  5
206
330
1F
100
AcDbEntity
  8
cut
 62
     7
420
 16777215
370
    35
100
AcDb2dPolyline
 66
     1
 10
0.0
 20
0.0
 30
0.0
  0
VERTEX
  5
207
330
206
100
AcDbEntity
  8
cut
 62
     7
420
 16777215
370
    35
100
AcDbVertex
100
AcDb2dVertex
 10
379.5691508773293
 20
-183.9298577487892
 30
0.0
  0
VERTEX
  5
208
330
206
100
AcDbEntity
  8
cut
 62
     7
420
 16777215
370
    35
100
AcDbVertex
100
AcDb2dVertex
 10
379.5691508773293
 20
-75.93025722023363
 30
0.0
  0
SEQEND
  5
209
330
206
100
AcDbEntity
  8
cut
 62
     7
420
 16777215
370
    35
  0
POLYLINE
  5
20A
330
1F
100
AcDbEntity
  8
cut
 62
     7
420
 16777215
370
    35
100
AcDb2dPolyline
 66
     1
 10
0.0
 20
0.0
 30
0.0
  0
VERTEX
  5
20B
330
20A
100
AcDbEntity
  8
cut
 62
     7
420
 16777215
370
    35
100
AcDbVertex
100
AcDb2dVertex
 10
367.4281272692538
 20
-192.9298538576504
 30
0.0
  0
VERTEX
  5
20C
330
20A
100
AcDbEntity
  8
cut
 62
     7
420
 16777215
370
    35
100
AcDbVertex
100
AcDb2dVertex
 10
337.4281167211984
 20
-192.9298538576504
 30
0.0
  0
SEQEND
  5
20D
330
20A
100
AcDbEntity
  8
cut
 62
     7
420
 16777215
370
    35
  0
POLYLINE
  5
20E
330
1F
100
AcDbEntity
  8
cut
 62
     7
420
 16777215
370
    35
100
AcDb2dPolyline
 66
     1
 10
0.0
 20
0.0
 30
0.0
  0
VERTEX
  5
20F
330
20E
100
AcDbEntity
  8
cut
 62
     7
420
 16777215
370
    35
100
AcDbVertex
100
AcDb2dVertex
 10
337.4281167211984
 20
-66.93026111137276
 30
0.0
  0
VERTEX
  5
210
330
20E
100
AcDbEntity
  8
cut
 62
     7
420
 16777215
370
    35
100
AcDbVertex
100
AcDb2dVertex
 10
337.4281167211984
 20
-69.93028333284461
 30
0.0
  0
SEQEND
  5
211
330
20E
100
AcDbEntity
  8
cut
 62
     7
420
 16777215
370
    35
  0
POLYLINE
  5
212
330
1F
100
AcDbEntity
  8
cut
 62
     7
420
 16777215
370
    35
100
AcDb2dPolyline
 66
     1
 10
0.0
 20
0.0
 30
0.0
  0
VERTEX
  5
213
330
212
100
AcDbEntity
  8
cut
 62
     7
420
 16777215
370
    35
100
AcDbVertex
100
AcDb2dVertex
 10
367.4281272692538
 20
-69.93028333284461
 30
0.0
  0
VERTEX
  5
214
330
212
100
AcDbEntity
  8
cut
 62
     7
420
 16777215
370
    35
100
AcDbVertex
100
AcDb2dVertex
 10
367.4281272692538
 20
-66.93026111137276
 30
0.0
  0
SEQEND
  5
215
330
212
100
AcDbEntity
  8
cut
 62
     7
420
 16777215
370
    35
  0
POLYLINE
  5
216
330
1F
100
AcDbEntity
  8
cut
 62
     7
420
 16777215
370
    35
100
AcDb2dPolyline
 66
     1
 10
0.0
 20
0.0
 30
0.0
  0
VERTEX
  5
217
330
216
100
AcDbEntity
  8
cut
 62
     7
420
 16777215
370
    35
100
AcDbVertex
100
AcDb2dVertex
 10
319.2871192257335
 20
-69.93028333284461
 30
0.0
  0
VERTEX
  5
218
330
216
100
AcDbEntity
  8
cut
 62
     7
420
 16777215
370
    35
100
AcDbVertex
100
AcDb2dVertex
 10
337.4281167211984
 20
-69.93028333284461
 30
0.0
  0
SEQEND
  5
219
330
216
100
AcDbEntity
  8
cut
 62
     7
420
 16777215
370
    35
  0
POLYLINE
  5
21A
330
1F
100
AcDbEntity
  8
cut
 62
     7
420
 16777215
370
    35
100
AcDb2dPolyline
 66
     1
 10
0.0
 20
0.0
 30
0.0
  0
VERTEX
  5
21B
330
21A
100
AcDbEntity
  8
cut
 62
     7
420
 16777215
370
    35
100
AcDbVertex
100
AcDb2dVertex
 10
367.4281272692538
 20
-69.93028333284461
 30
0.0
  0
VERTEX
  5
21C
330
21A
100
AcDbEntity
  8
cut
 62
     7
420
 16777215
370
    35
100
AcDbVertex
100
AcDb2dVertex
 10
385.5691600424962
 20
-69.93028333284461
 30
0.0
  0
SEQEND
  5
21D
330
21A
100
AcDbEntity
  8
cut
 62
     7
420
 16777215
370
    35
  0
POLYLINE
  5
21E
330
1F
100
AcDbEntity
  8
cut
 62
     7
420
 16777215
370
    35
100
AcDb2dPolyline
 66
     1
 10
0.0
 20
0.0
 30
0.0
  0
VERTEX
  5
21F
330
21E
100
AcDbEntity
  8
cut
 62
     7
420
 16777215
370
    35
100
AcDbVertex
100
AcDb2dVertex
 10
367.4281272692538
 20
-66.93026111137276
 30
0.0
  0
VERTEX
  5
220
330
21E
100
AcDbEntity
  8
cut
 62
     7
420
 16777215
370
    35
100
AcDbVertex
100
AcDb2dVertex
 10
358.4281311603926
 20
-66.93026111137276
 30
0.0
  0
SEQEND
  5
221
330
21E
100
AcDbEntity
  8
cut
 62
     7
420
 16777215
370
    35
  0
POLYLINE
  5
222
330
1F
100
AcDbEntity
  8
cut
 62
     7
420
 16777215
370
    35
100
AcDb2dPolyline
 66
     1
 10
0.0
 20
0.0
 30
0.0
  0
VERTEX
  5
223
330
222
100
AcDbEntity
  8
cut
 62
     7
420
 16777215
370
    35
100
AcDbVertex
100
AcDb2dVertex
 10
354.4281250502812
 20
-66.93026111137276
 30
0.0
  0
VERTEX
  5
224
330
222
100
AcDbEntity
  8
cut
 62
     7
420
 16777215
370
    35
100
AcDbVertex
100
AcDb2dVertex
 10
350.4281189401704
 20
-66.93026111137276
 30
0.0
  0
SEQEND
  5
225
330
222
100
AcDbEntity
  8
cut
 62
     7
420
 16777215
370
    35
  0
POLYLINE
  5
226
330
1F
100
AcDbEntity
  8
cut
 62
     7
420
 16777215
370
    35
100
AcDb2dPolyline
 66
     1
 10
0.0
 20
0.0
 30
0.0
  0
VERTEX
  5
227
330
226
100
AcDbEntity
  8
cut
 62
     7
420
 16777215
370
    35
100
AcDbVertex
100
AcDb2dVertex
 10
346.4281128300595
 20
-66.93026111137276
 30
0.0
  0
VERTEX
  5
228
330
226
100
AcDbEntity
  8
cut
 62
     7
420
 16777215
370
    35
100
AcDbVertex
100
AcDb2dVertex
 10
337.4281167211984
 20
-66.93026111137276
 30
0.0
  0
SEQEND
  5
229
330
226
100
AcDbEntity
  8
cut
 62
     7
420
 16777215
370
    35
  0
POLYLINE
  5
22A
330
1F
100
AcDbEntity
  8
cut
 62
     7
420
 16777215
370
    35
100
AcDb2dPolyline
 66
     1
 10
0.0
 20
0.0
 30
0.0
  0
VERTEX
  5
22B
330
22A
100
AcDbEntity
  8
cut
 62
     7
420
 16777215
370
    35
100
AcDbVertex
100
AcDb2dVertex
 10
253.0050784089707
 20
-335.4067779025758
 30
0.0
  0
VERTEX
  5
22C
330
22A
100
AcDbEntity
  8
cut
 62
     7
420
 16777215
370
    35
100
AcDbVertex
100
AcDb2dVertex
 10
253.0050784089707
 20
-215.4071943214651
 30
0.0
  0
SEQEND
  5
22D
330
22A
100
AcDbEntity
  8
cut
 62
     7
420
 16777215
370
    35
  0
POLYLINE
  5
22E
330
1F
100
AcDbEntity
  8
cut
 62
     7
420
 16777215
370
    35
100
AcDb2dPolyline
 66
     1
 10
0.0
 20
0.0
 30
0.0
  0
VERTEX
  5
22F
330
22E
100
AcDbEntity
  8
cut
 62
     7
420
 16777215
370
    35
100
AcDbVertex
100
AcDb2dVertex
 10
204.8640350876729
 20
-338.4067648462702
 30
0.0
  0
VERTEX
  5
230
330
22E
100
AcDbEntity
  8
cut
 62
     7
420
 16777215
370
    35
100
AcDbVertex
100
AcDb2dVertex
 10
204.8640350876729
 20
-335.4067779025758
 30
0.0
  0
SEQEND
  5
231
330
22E
100
AcDbEntity
  8
cut
 62
     7
420
 16777215
370
    35
  0
POLYLINE
  5
232
330
1F
100
AcDbEntity
  8
cut
 62
     7
420
 16777215
370
    35
100
AcDb2dPolyline
 66
     1
 10
0.0
 20
0.0
 30
0.0
  0
VERTEX
  5
233
330
232
100
AcDbEntity
  8
cut
 62
     7
420
 16777215
370
    35
100
AcDbVertex
100
AcDb2dVertex
 10
186.723037592208
 20
-335.4067779025758
 30
0.0
  0
VERTEX
  5
234
330
232
100
AcDbEntity
  8
cut
 62
     7
420
 16777215
370
    35
100
AcDbVertex
100
AcDb2dVertex
 10
186.723037592208
 20
-215.4071943214651
 30
0.0
  0
SEQEND
  5
235
330
232
100
AcDbEntity
  8
cut
 62
     7
420
 16777215
370
    35
  0
POLYLINE
  5
236
330
1F
100
AcDbEntity
  8
cut
 62
     7
420
 16777215
370
    35
100
AcDb2dPolyline
 66
     1
 10
0.0
 20
0.0
 30
0.0
  0
VERTEX
  5
237
330
236
100
AcDbEntity
  8
cut
 62
     7
420
 16777215
370
    35
100
AcDbVertex
100
AcDb2dVertex
 10
253.0050784089707
 20
-335.4067779025758
 30
0.0
  0
VERTEX
  5
238
330
236
100
AcDbEntity
  8
cut
 62
     7
420
 16777215
370
    35
100
AcDbVertex
100
AcDb2dVertex
 10
234.8640456357283
 20
-335.4067779025758
 30
0.0
  0
SEQEND
  5
239
330
236
100
AcDbEntity
  8
cut
 62
     7
420
 16777215
370
    35
  0
POLYLINE
  5
23A
330
1F
100
AcDbEntity
  8
cut
 62
     7
420
 16777215
370
    35
100
AcDb2dPolyline
 66
     1
 10
0.0
 20
0.0
 30
0.0
  0
VERTEX
  5
23B
330
23A
100
AcDbEntity
  8
cut
 62
     7
420
 16777215
370
    35
100
AcDbVertex
100
AcDb2dVertex
 10
204.8640350876729
 20
-335.4067779025758
 30
0.0
  0
VERTEX
  5
23C
330
23A
100
AcDbEntity
  8
cut
 62
     7
420
 16777215
370
    35
100
AcDbVertex
100
AcDb2dVertex
 10
186.723037592208
 20
-335.4067779025758
 30
0.0
  0
SEQEND
  5
23D
330
23A
100
AcDbEntity
  8
cut
 62
     7
420
 16777215
370
    35
  0
POLYLINE
  5
23E
330
1F
100
AcDbEntity
  8
cut
 62
     7
420
 16777215
370
    35
100
AcDb2dPolyline
 66
     1
 10
0.0
 20
0.0
 30
0.0
  0
VERTEX
  5
23F
330
23E
100
AcDbEntity
  8
cut
 62
     7
420
 16777215
370
    35
100
AcDbVertex
100
AcDb2dVertex
 10
234.8640456357283
 20
-335.4067779025758
 30
0.0
  0
VERTEX
  5
240
330
23E
100
AcDbEntity
  8
cut
 62
     7
420
 16777215
370
    35
100
AcDbVertex
100
AcDb2dVertex
 10
234.8640456357283
 20
-338.4067648462702
 30
0.0
  0
SEQEND
  5
241
330
23E
100
AcDbEntity
  8
cut
 62
     7
420
 16777215
370
    35
  0
POLYLINE
  5
242
330
1F
100
AcDbEntity
  8
cut
 62
     7
420
 16777215
370
    35
100
AcDb2dPolyline
 66
     1
 10
0.0
 20
0.0
 30
0.0
  0
VERTEX
  5
243
330
242
100
AcDbEntity
  8
cut
 62
     7
420
 16777215
370
    35
100
AcDbVertex
100
AcDb2dVertex
 10
192.7230467573742
 20
-329.406768737409
 30
0.0
  0
VERTEX
  5
244
330
242
100
AcDbEntity
  8
cut
 62
     7
420
 16777215
370
    35
100
AcDbVertex
100
AcDb2dVertex
 10
192.7230467573742
 20
-221.4071682088537
 30
0.0
  0
SEQEND
  5
245
330
242
100
AcDbEntity
  8
cut
 62
     7
420
 16777215
370
    35
  0
POLYLINE
  5
246
330
1F
100
AcDbEntity
  8
cut
 62
     7
420
 16777215
370
    35
100
AcDb2dPolyline
 66
     1
 10
0.0
 20
0.0
 30
0.0
  0
VERTEX
  5
247
330
246
100
AcDbEntity
  8
cut
 62
     7
420
 16777215
370
    35
100
AcDbVertex
100
AcDb2dVertex
 10
192.7230467573742
 20
-221.4071682088537
 30
0.0
  0
VERTEX
  5
248
330
246
100
AcDbEntity
  8
cut
 62
     7
420
 16777215
370
    35
100
AcDbVertex
100
AcDb2dVertex
 10
247.0050692438039
 20
-221.4071682088537
 30
0.0
  0
SEQEND
  5
249
330
246
100
AcDbEntity
  8
cut
 62
     7
420
 16777215
370
    35
  0
POLYLINE
  5
24A
330
1F
100
AcDbEntity
  8
cut
 62
     7
420
 16777215
370
    35
100
AcDb2dPolyline
 66
     1
 10
0.0
 20
0.0
 30
0.0
  0
VERTEX
  5
24B
330
24A
100
AcDbEntity
  8
cut
 62
     7
420
 16777215
370
    35
100
AcDbVertex
100
AcDb2dVertex
 10
247.0050692438039
 20
-329.406768737409
 30
0.0
  0
VERTEX
  5
24C
330
24A
100
AcDbEntity
  8
cut
 62
     7
420
 16777215
370
    35
100
AcDbVertex
100
AcDb2dVertex
 10
192.7230467573742
 20
-329.406768737409
 30
0.0
  0
SEQEND
  5
24D
330
24A
100
AcDbEntity
  8
cut
 62
     7
420
 16777215
370
    35
  0
SPLINE
  5
24E
330
1F
100
AcDbEntity
  8
cut
 62
     7
420
 16777215
370
    35
100
AcDbSpline
210
0.0
220
0.0
230
1.0
 70
     8
 71
     3
 72
    17
 73
    13
 74
     0
 42
0.0000000001
 43
0.0000000001
 12
1.0
 22
0.0
 32
0.0
 13
1.0
 23
0.0
 33
0.0
 40
0.0
 40
0.0
 40
0.0
 40
0.0
 40
1.0
 40
1.0
 40
1.0
 40
2.0
 40
2.0
 40
2.0
 40
3.0
 40
3.0
 40
3.0
 40
4.0
 40
4.0
 40
4.0
 40
4.0
 10
225.8640495268671
 20
-212.4071720999932
 30
0.0
 10
225.8640495268671
 20
-210.8159326559461
 30
0.0
 10
225.2319423048026
 20
-209.2898159896612
 30
0.0
 10
224.1067575828622
 20
-208.1646312677202
 30
0.0
 10
222.9815375831436
 20
-207.0393407124459
 30
0.0
 10
221.4553856390806
 20
-206.4071629348263
 30
0.0
 10
219.8640403617003
 20
-206.4071629348263
 30
0.0
 10
218.2728009176538
 20
-206.4071629348263
 30
0.0
 10
216.7466842513683
 20
-207.0393054346684
 30
0.0
 10
215.6214995294279
 20
-208.1644548788313
 30
0.0
 10
214.4962089741536
 20
-209.2896748785499
 30
0.0
 10
213.8640311965341
 20
-210.8158268226128
 30
0.0
 10
213.8640311965341
 20
-212.4071720999932
 30
0.0
  0
SPLINE
  5
24F
330
1F
100
AcDbEntity
  8
cut
 62
     7
420
 16777215
370
    35
100
AcDbSpline
210
0.0
220
0.0
230
1.0
 70
     8
 71
     3
 72
    11
 73
     7
 74
     0
 42
0.0000000001
 43
0.0000000001
 12
1.0
 22
0.0
 32
0.0
 13
1.0
 23
0.0
 33
0.0
 40
0.0
 40
0.0
 40
0.0
 40
0.0
 40
1.0
 40
1.0
 40
1.0
 40
2.0
 40
2.0
 40
2.0
 40
2.0
 10
221.8640434167557
 20
-212.4071720999932
 30
0.0
 10
221.8640434167557
 20
-211.3026248780467
 30
0.0
 10
220.9686228614243
 20
-210.4071690449371
 30
0.0
 10
219.8640403617003
 20
-210.4071690449371
 30
0.0
 10
218.7594931397544
 20
-210.4071690449371
 30
0.0
 10
217.8640373066449
 20
-211.3026248780467
 30
0.0
 10
217.8640373066449
 20
-212.4071720999932
 30
0.0
  0
POLYLINE
  5
250
330
1F
100
AcDbEntity
  8
cut
 62
     7
420
 16777215
370
    35
100
AcDb2dPolyline
 66
     1
 10
0.0
 20
0.0
 30
0.0
  0
VERTEX
  5
251
330
250
100
AcDbEntity
  8
cut
 62
     7
420
 16777215
370
    35
100
AcDbVertex
100
AcDb2dVertex
 10
247.0050692438039
 20
-329.406768737409
 30
0.0
  0
VERTEX
  5
252
330
250
100
AcDbEntity
  8
cut
 62
     7
420
 16777215
370
    35
100
AcDbVertex
100
AcDb2dVertex
 10
247.0050692438039
 20
-221.4071682088537
 30
0.0
  0
SEQEND
  5
253
330
250
100
AcDbEntity
  8
cut
 62
     7
420
 16777215
370
    35
  0
POLYLINE
  5
254
330
1F
100
AcDbEntity
  8
cut
 62
     7
420
 16777215
370
    35
100
AcDb2dPolyline
 66
     1
 10
0.0
 20
0.0
 30
0.0
  0
VERTEX
  5
255
330
254
100
AcDbEntity
  8
cut
 62
     7
420
 16777215
370
    35
100
AcDbVertex
100
AcDb2dVertex
 10
234.8640456357283
 20
-338.4067648462702
 30
0.0
  0
VERTEX
  5
256
330
254
100
AcDbEntity
  8
cut
 62
     7
420
 16777215
370
    35
100
AcDbVertex
100
AcDb2dVertex
 10
204.8640350876729
 20
-338.4067648462702
 30
0.0
  0
SEQEND
  5
257
330
254
100
AcDbEntity
  8
cut
 62
     7
420
 16777215
370
    35
  0
POLYLINE
  5
258
330
1F
100
AcDbEntity
  8
cut
 62
     7
420
 16777215
370
    35
100
AcDb2dPolyline
 66
     1
 10
0.0
 20
0.0
 30
0.0
  0
VERTEX
  5
259
330
258
100
AcDbEntity
  8
cut
 62
     7
420
 16777215
370
    35
100
AcDbVertex
100
AcDb2dVertex
 10
204.8640350876729
 20
-212.4071720999932
 30
0.0
  0
VERTEX
  5
25A
330
258
100
AcDbEntity
  8
cut
 62
     7
420
 16777215
370
    35
100
AcDbVertex
100
AcDb2dVertex
 10
204.8640350876729
 20
-215.4071943214651
 30
0.0
  0
SEQEND
  5
25B
330
258
100
AcDbEntity
  8
cut
 62
     7
420
 16777215
370
    35
  0
POLYLINE
  5
25C
330
1F
100
AcDbEntity
  8
cut
 62
     7
420
 16777215
370
    35
100
AcDb2dPolyline
 66
     1
 10
0.0
 20
0.0
 30
0.0
  0
VERTEX
  5
25D
330
25C
100
AcDbEntity
  8
cut
 62
     7
420
 16777215
370
    35
100
AcDbVertex
100
AcDb2dVertex
 10
234.8640456357283
 20
-215.4071943214651
 30
0.0
  0
VERTEX
  5
25E
330
25C
100
AcDbEntity
  8
cut
 62
     7
420
 16777215
370
    35
100
AcDbVertex
100
AcDb2dVertex
 10
234.8640456357283
 20
-212.4071720999932
 30
0.0
  0
SEQEND
  5
25F
330
25C
100
AcDbEntity
  8
cut
 62
     7
420
 16777215
370
    35
  0
POLYLINE
  5
260
330
1F
100
AcDbEntity
  8
cut
 62
     7
420
 16777215
370
    35
100
AcDb2dPolyline
 66
     1
 10
0.0
 20
0.0
 30
0.0
  0
VERTEX
  5
261
330
260
100
AcDbEntity
  8
cut
 62
     7
420
 16777215
370
    35
100
AcDbVertex
100
AcDb2dVertex
 10
186.723037592208
 20
-215.4071943214651
 30
0.0
  0
VERTEX
  5
262
330
260
100
AcDbEntity
  8
cut
 62
     7
420
 16777215
370
    35
100
AcDbVertex
100
AcDb2dVertex
 10
204.8640350876729
 20
-215.4071943214651
 30
0.0
  0
SEQEND
  5
263
330
260
100
AcDbEntity
  8
cut
 62
     7
420
 16777215
370
    35
  0
POLYLINE
  5
264
330
1F
100
AcDbEntity
  8
cut
 62
     7
420
 16777215
370
    35
100
AcDb2dPolyline
 66
     1
 10
0.0
 20
0.0
 30
0.0
  0
VERTEX
  5
265
330
264
100
AcDbEntity
  8
cut
 62
     7
420
 16777215
370
    35
100
AcDbVertex
100
AcDb2dVertex
 10
234.8640456357283
 20
-215.4071943214651
 30
0.0
  0
VERTEX
  5
266
330
264
100
AcDbEntity
  8
cut
 62
     7
420
 16777215
370
    35
100
AcDbVertex
100
AcDb2dVertex
 10
253.0050784089707
 20
-215.4071943214651
 30
0.0
  0
SEQEND
  5
267
330
264
100
AcDbEntity
  8
cut
 62
     7
420
 16777215
370
    35
  0
POLYLINE
  5
268
330
1F
100
AcDbEntity
  8
cut
 62
     7
420
 16777215
370
    35
100
AcDb2dPolyline
 66
     1
 10
0.0
 20
0.0
 30
0.0
  0
VERTEX
  5
269
330
268
100
AcDbEntity
  8
cut
 62
     7
420
 16777215
370
    35
100
AcDbVertex
100
AcDb2dVertex
 10
234.8640456357283
 20
-212.4071720999932
 30
0.0
  0
VERTEX
  5
26A
330
268
100
AcDbEntity
  8
cut
 62
     7
420
 16777215
370
    35
100
AcDbVertex
100
AcDb2dVertex
 10
225.8640495268671
 20
-212.4071720999932
 30
0.0
  0
SEQEND
  5
26B
330
268
100
AcDbEntity
  8
cut
 62
     7
420
 16777215
370
    35
  0
POLYLINE
  5
26C
330
1F
100
AcDbEntity
  8
cut
 62
     7
420
 16777215
370
    35
100
AcDb2dPolyline
 66
     1
 10
0.0
 20
0.0
 30
0.0
  0
VERTEX
  5
26D
330
26C
100
AcDbEntity
  8
cut
 62
     7
420
 16777215
370
    35
100
AcDbVertex
100
AcDb2dVertex
 10
221.8640434167557
 20
-212.4071720999932
 30
0.0
  0
VERTEX
  5
26E
330
26C
100
AcDbEntity
  8
cut
 62
     7
420
 16777215
370
    35
100
AcDbVertex
100
AcDb2dVertex
 10
217.8640373066449
 20
-212.4071720999932
 30
0.0
  0
SEQEND
  5
26F
330
26C
100
AcDbEntity
  8
cut
 62
     7
420
 16777215
370
    35
  0
POLYLINE
  5
270
330
1F
100
AcDbEntity
  8
cut
 62
     7
420
 16777215
370
    35
100
AcDb2dPolyline
 66
     1
 10
0.0
 20
0.0
 30
0.0
  0
VERTEX
  5
271
330
270
100
AcDbEntity
  8
cut
 62
     7
420
 16777215
370
    35
100
AcDbVertex
100
AcDb2dVertex
 10
213.8640311965341
 20
-212.4071720999932
 30
0.0
  0
VERTEX
  5
272
330
270
100
AcDbEntity
  8
cut
 62
     7
420
 16777215
370
    35
100
AcDbVertex
100
AcDb2dVertex
 10
204.8640350876729
 20
-212.4071720999932
 30
0.0
  0
SEQEND
  5
273
330
270
100
AcDbEntity
  8
cut
 62
     7
420
 16777215
370
    35
  0
POLYLINE
  5
274
330
1F
100
AcDbEntity
  8
cut
 62
     7
420
 16777215
370
    35
100
AcDb2dPolyline
 66
     1
 10
0.0
 20
0.0
 30
0.0
  0
VERTEX
  5
275
330
274
100
AcDbEntity
  8
cut
 62
     7
420
 16777215
370
    35
100
AcDbVertex
100
AcDb2dVertex
 10
319.2871192257335
 20
-335.4067779025758
 30
0.0
  0
VERTEX
  5
276
330
274
100
AcDbEntity
  8
cut
 62
     7
420
 16777215
370
    35
100
AcDbVertex
100
AcDb2dVertex
 10
319.2871192257335
 20
-215.4071943214651
 30
0.0
  0
SEQEND
  5
277
330
274
100
AcDbEntity
  8
cut
 62
     7
420
 16777215
370
    35
  0
POLYLINE
  5
278
330
1F
100
AcDbEntity
  8
cut
 62
     7
420
 16777215
370
    35
100
AcDb2dPolyline
 66
     1
 10
0.0
 20
0.0
 30
0.0
  0
VERTEX
  5
279
330
278
100
AcDbEntity
  8
cut
 62
     7
420
 16777215
370
    35
100
AcDbVertex
100
AcDb2dVertex
 10
271.1460759044356
 20
-338.4067648462702
 30
0.0
  0
VERTEX
  5
27A
330
278
100
AcDbEntity
  8
cut
 62
     7
420
 16777215
370
    35
100
AcDbVertex
100
AcDb2dVertex
 10
271.1460759044356
 20
-335.4067779025758
 30
0.0
  0
SEQEND
  5
27B
330
278
100
AcDbEntity
  8
cut
 62
     7
420
 16777215
370
    35
  0
POLYLINE
  5
27C
330
1F
100
AcDbEntity
  8
cut
 62
     7
420
 16777215
370
    35
100
AcDb2dPolyline
 66
     1
 10
0.0
 20
0.0
 30
0.0
  0
VERTEX
  5
27D
330
27C
100
AcDbEntity
  8
cut
 62
     7
420
 16777215
370
    35
100
AcDbVertex
100
AcDb2dVertex
 10
319.2871192257335
 20
-335.4067779025758
 30
0.0
  0
VERTEX
  5
27E
330
27C
100
AcDbEntity
  8
cut
 62
     7
420
 16777215
370
    35
100
AcDbVertex
100
AcDb2dVertex
 10
301.146086452491
 20
-335.4067779025758
 30
0.0
  0
SEQEND
  5
27F
330
27C
100
AcDbEntity
  8
cut
 62
     7
420
 16777215
370
    35
  0
POLYLINE
  5
280
330
1F
100
AcDbEntity
  8
cut
 62
     7
420
 16777215
370
    35
100
AcDb2dPolyline
 66
     1
 10
0.0
 20
0.0
 30
0.0
  0
VERTEX
  5
281
330
280
100
AcDbEntity
  8
cut
 62
     7
420
 16777215
370
    35
100
AcDbVertex
100
AcDb2dVertex
 10
271.1460759044356
 20
-335.4067779025758
 30
0.0
  0
VERTEX
  5
282
330
280
100
AcDbEntity
  8
cut
 62
     7
420
 16777215
370
    35
100
AcDbVertex
100
AcDb2dVertex
 10
253.0050784089707
 20
-335.4067779025758
 30
0.0
  0
SEQEND
  5
283
330
280
100
AcDbEntity
  8
cut
 62
     7
420
 16777215
370
    35
  0
POLYLINE
  5
284
330
1F
100
AcDbEntity
  8
cut
 62
     7
420
 16777215
370
    35
100
AcDb2dPolyline
 66
     1
 10
0.0
 20
0.0
 30
0.0
  0
VERTEX
  5
285
330
284
100
AcDbEntity
  8
cut
 62
     7
420
 16777215
370
    35
100
AcDbVertex
100
AcDb2dVertex
 10
301.146086452491
 20
-335.4067779025758
 30
0.0
  0
VERTEX
  5
286
330
284
100
AcDbEntity
  8
cut
 62
     7
420
 16777215
370
    35
100
AcDbVertex
100
AcDb2dVertex
 10
301.146086452491
 20
-338.4067648462702
 30
0.0
  0
SEQEND
  5
287
330
284
100
AcDbEntity
  8
cut
 62
     7
420
 16777215
370
    35
  0
POLYLINE
  5
288
330
1F
100
AcDbEntity
  8
cut
 62
     7
420
 16777215
370
    35
100
AcDb2dPolyline
 66
     1
 10
0.0
 20
0.0
 30
0.0
  0
VERTEX
  5
289
330
288
100
AcDbEntity
  8
cut
 62
     7
420
 16777215
370
    35
100
AcDbVertex
100
AcDb2dVertex
 10
259.005087574137
 20
-329.406768737409
 30
0.0
  0
VERTEX
  5
28A
330
288
100
AcDbEntity
  8
cut
 62
     7
420
 16777215
370
    35
100
AcDbVertex
100
AcDb2dVertex
 10
259.005087574137
 20
-221.4071682088537
 30
0.0
  0
SEQEND
  5
28B
330
288
100
AcDbEntity
  8
cut
 62
     7
420
 16777215
370
    35
  0
POLYLINE
  5
28C
330
1F
100
AcDbEntity
  8
cut
 62
     7
420
 16777215
370
    35
100
AcDb2dPolyline
 66
     1
 10
0.0
 20
0.0
 30
0.0
  0
VERTEX
  5
28D
330
28C
100
AcDbEntity
  8
cut
 62
     7
420
 16777215
370
    35
100
AcDbVertex
100
AcDb2dVertex
 10
325.2871283908997
 20
-329.406768737409
 30
0.0
  0
VERTEX
  5
28E
330
28C
100
AcDbEntity
  8
cut
 62
     7
420
 16777215
370
    35
100
AcDbVertex
100
AcDb2dVertex
 10
325.2871283908997
 20
-221.4071682088537
 30
0.0
  0
SEQEND
  5
28F
330
28C
100
AcDbEntity
  8
cut
 62
     7
420
 16777215
370
    35
  0
POLYLINE
  5
290
330
1F
100
AcDbEntity
  8
cut
 62
     7
420
 16777215
370
    35
100
AcDb2dPolyline
 66
     1
 10
0.0
 20
0.0
 30
0.0
  0
VERTEX
  5
291
330
290
100
AcDbEntity
  8
cut
 62
     7
420
 16777215
370
    35
100
AcDbVertex
100
AcDb2dVertex
 10
259.005087574137
 20
-221.4071682088537
 30
0.0
  0
VERTEX
  5
292
330
290
100
AcDbEntity
  8
cut
 62
     7
420
 16777215
370
    35
100
AcDbVertex
100
AcDb2dVertex
 10
313.2871100605666
 20
-221.4071682088537
 30
0.0
  0
SEQEND
  5
293
330
290
100
AcDbEntity
  8
cut
 62
     7
420
 16777215
370
    35
  0
POLYLINE
  5
294
330
1F
100
AcDbEntity
  8
cut
 62
     7
420
 16777215
370
    35
100
AcDb2dPolyline
 66
     1
 10
0.0
 20
0.0
 30
0.0
  0
VERTEX
  5
295
330
294
100
AcDbEntity
  8
cut
 62
     7
420
 16777215
370
    35
100
AcDbVertex
100
AcDb2dVertex
 10
313.2871100605666
 20
-329.406768737409
 30
0.0
  0
VERTEX
  5
296
330
294
100
AcDbEntity
  8
cut
 62
     7
420
 16777215
370
    35
100
AcDbVertex
100
AcDb2dVertex
 10
259.005087574137
 20
-329.406768737409
 30
0.0
  0
SEQEND
  5
297
330
294
100
AcDbEntity
  8
cut
 62
     7
420
 16777215
370
    35
  0
SPLINE
  5
298
330
1F
100
AcDbEntity
  8
cut
 62
     7
420
 16777215
370
    35
100
AcDbSpline
210
0.0
220
0.0
230
1.0
 70
     8
 71
     3
 72
    17
 73
    13
 74
     0
 42
0.0000000001
 43
0.0000000001
 12
1.0
 22
0.0
 32
0.0
 13
1.0
 23
0.0
 33
0.0
 40
0.0
 40
0.0
 40
0.0
 40
0.0
 40
1.0
 40
1.0
 40
1.0
 40
2.0
 40
2.0
 40
2.0
 40
3.0
 40
3.0
 40
3.0
 40
4.0
 40
4.0
 40
4.0
 40
4.0
 10
292.1460903436299
 20
-212.4071720999932
 30
0.0
 10
292.1460903436299
 20
-210.8159326559461
 30
0.0
 10
291.5139831215653
 20
-209.2898159896612
 30
0.0
 10
290.3887983996249
 20
-208.1646312677202
 30
0.0
 10
289.2635783999064
 20
-207.0393407124459
 30
0.0
 10
287.7374264558434
 20
-206.4071629348263
 30
0.0
 10
286.146081178463
 20
-206.4071629348263
 30
0.0
 10
284.5548417344165
 20
-206.4071629348263
 30
0.0
 10
283.0287250681311
 20
-207.0393054346684
 30
0.0
 10
281.9035403461906
 20
-208.1644548788313
 30
0.0
 10
280.7782497909163
 20
-209.2896748785499
 30
0.0
 10
280.1460720132968
 20
-210.8158268226128
 30
0.0
 10
280.1460720132968
 20
-212.4071720999932
 30
0.0
  0
SPLINE
  5
299
330
1F
100
AcDbEntity
  8
cut
 62
     7
420
 16777215
370
    35
100
AcDbSpline
210
0.0
220
0.0
230
1.0
 70
     8
 71
     3
 72
    11
 73
     7
 74
     0
 42
0.0000000001
 43
0.0000000001
 12
1.0
 22
0.0
 32
0.0
 13
1.0
 23
0.0
 33
0.0
 40
0.0
 40
0.0
 40
0.0
 40
0.0
 40
1.0
 40
1.0
 40
1.0
 40
2.0
 40
2.0
 40
2.0
 40
2.0
 10
288.1460842335184
 20
-212.4071720999932
 30
0.0
 10
288.1460842335184
 20
-211.3026248780467
 30
0.0
 10
287.250663678187
 20
-210.4071690449371
 30
0.0
 10
286.146081178463
 20
-210.4071690449371
 30
0.0
 10
285.0415339565171
 20
-210.4071690449371
 30
0.0
 10
284.1460781234076
 20
-211.3026248780467
 30
0.0
 10
284.1460781234076
 20
-212.4071720999932
 30
0.0
  0
POLYLINE
  5
29A
330
1F
100
AcDbEntity
  8
cut
 62
     7
420
 16777215
370
    35
100
AcDb2dPolyline
 66
     1
 10
0.0
 20
0.0
 30
0.0
  0
VERTEX
  5
29B
330
29A
100
AcDbEntity
  8
cut
 62
     7
420
 16777215
370
    35
100
AcDbVertex
100
AcDb2dVertex
 10
313.2871100605666
 20
-329.406768737409
 30
0.0
  0
VERTEX
  5
29C
330
29A
100
AcDbEntity
  8
cut
 62
     7
420
 16777215
370
    35
100
AcDbVertex
100
AcDb2dVertex
 10
313.2871100605666
 20
-221.4071682088537
 30
0.0
  0
SEQEND
  5
29D
330
29A
100
AcDbEntity
  8
cut
 62
     7
420
 16777215
370
    35
  0
POLYLINE
  5
29E
330
1F
100
AcDbEntity
  8
cut
 62
     7
420
 16777215
370
    35
100
AcDb2dPolyline
 66
     1
 10
0.0
 20
0.0
 30
0.0
  0
VERTEX
  5
29F
330
29E
100
AcDbEntity
  8
cut
 62
     7
420
 16777215
370
    35
100
AcDbVertex
100
AcDb2dVertex
 10
301.146086452491
 20
-338.4067648462702
 30
0.0
  0
VERTEX
  5
2A0
330
29E
100
AcDbEntity
  8
cut
 62
     7
420
 16777215
370
    35
100
AcDbVertex
100
AcDb2dVertex
 10
271.1460759044356
 20
-338.4067648462702
 30
0.0
  0
SEQEND
  5
2A1
330
29E
100
AcDbEntity
  8
cut
 62
     7
420
 16777215
370
    35
  0
POLYLINE
  5
2A2
330
1F
100
AcDbEntity
  8
cut
 62
     7
420
 16777215
370
    35
100
AcDb2dPolyline
 66
     1
 10
0.0
 20
0.0
 30
0.0
  0
VERTEX
  5
2A3
330
2A2
100
AcDbEntity
  8
cut
 62
     7
420
 16777215
370
    35
100
AcDbVertex
100
AcDb2dVertex
 10
271.1460759044356
 20
-212.4071720999932
 30
0.0
  0
VERTEX
  5
2A4
330
2A2
100
AcDbEntity
  8
cut
 62
     7
420
 16777215
370
    35
100
AcDbVertex
100
AcDb2dVertex
 10
271.1460759044356
 20
-215.4071943214651
 30
0.0
  0
SEQEND
  5
2A5
330
2A2
100
AcDbEntity
  8
cut
 62
     7
420
 16777215
370
    35
  0
POLYLINE
  5
2A6
330
1F
100
AcDbEntity
  8
cut
 62
     7
420
 16777215
370
    35
100
AcDb2dPolyline
 66
     1
 10
0.0
 20
0.0
 30
0.0
  0
VERTEX
  5
2A7
330
2A6
100
AcDbEntity
  8
cut
 62
     7
420
 16777215
370
    35
100
AcDbVertex
100
AcDb2dVertex
 10
301.146086452491
 20
-215.4071943214651
 30
0.0
  0
VERTEX
  5
2A8
330
2A6
100
AcDbEntity
  8
cut
 62
     7
420
 16777215
370
    35
100
AcDbVertex
100
AcDb2dVertex
 10
301.146086452491
 20
-212.4071720999932
 30
0.0
  0
SEQEND
  5
2A9
330
2A6
100
AcDbEntity
  8
cut
 62
     7
420
 16777215
370
    35
  0
POLYLINE
  5
2AA
330
1F
100
AcDbEntity
  8
cut
 62
     7
420
 16777215
370
    35
100
AcDb2dPolyline
 66
     1
 10
0.0
 20
0.0
 30
0.0
  0
VERTEX
  5
2AB
330
2AA
100
AcDbEntity
  8
cut
 62
     7
420
 16777215
370
    35
100
AcDbVertex
100
AcDb2dVertex
 10
253.0050784089707
 20
-215.4071943214651
 30
0.0
  0
VERTEX
  5
2AC
330
2AA
100
AcDbEntity
  8
cut
 62
     7
420
 16777215
370
    35
100
AcDbVertex
100
AcDb2dVertex
 10
271.1460759044356
 20
-215.4071943214651
 30
0.0
  0
SEQEND
  5
2AD
330
2AA
100
AcDbEntity
  8
cut
 62
     7
420
 16777215
370
    35
  0
POLYLINE
  5
2AE
330
1F
100
AcDbEntity
  8
cut
 62
     7
420
 16777215
370
    35
100
AcDb2dPolyline
 66
     1
 10
0.0
 20
0.0
 30
0.0
  0
VERTEX
  5
2AF
330
2AE
100
AcDbEntity
  8
cut
 62
     7
420
 16777215
370
    35
100
AcDbVertex
100
AcDb2dVertex
 10
301.146086452491
 20
-215.4071943214651
 30
0.0
  0
VERTEX
  5
2B0
330
2AE
100
AcDbEntity
  8
cut
 62
     7
420
 16777215
370
    35
100
AcDbVertex
100
AcDb2dVertex
 10
319.2871192257335
 20
-215.4071943214651
 30
0.0
  0
SEQEND
  5
2B1
330
2AE
100
AcDbEntity
  8
cut
 62
     7
420
 16777215
370
    35
  0
POLYLINE
  5
2B2
330
1F
100
AcDbEntity
  8
cut
 62
     7
420
 16777215
370
    35
100
AcDb2dPolyline
 66
     1
 10
0.0
 20
0.0
 30
0.0
  0
VERTEX
  5
2B3
330
2B2
100
AcDbEntity
  8
cut
 62
     7
420
 16777215
370
    35
100
AcDbVertex
100
AcDb2dVertex
 10
301.146086452491
 20
-212.4071720999932
 30
0.0
  0
VERTEX
  5
2B4
330
2B2
100
AcDbEntity
  8
cut
 62
     7
420
 16777215
370
    35
100
AcDbVertex
100
AcDb2dVertex
 10
292.1460903436299
 20
-212.4071720999932
 30
0.0
  0
SEQEND
  5
2B5
330
2B2
100
AcDbEntity
  8
cut
 62
     7
420
 16777215
370
    35
  0
POLYLINE
  5
2B6
330
1F
100
AcDbEntity
  8
cut
 62
     7
420
 16777215
370
    35
100
AcDb2dPolyline
 66
     1
 10
0.0
 20
0.0
 30
0.0
  0
VERTEX
  5
2B7
330
2B6
100
AcDbEntity
  8
cut
 62
     7
420
 16777215
370
    35
100
AcDbVertex
100
AcDb2dVertex
 10
288.1460842335184
 20
-212.4071720999932
 30
0.0
  0
VERTEX
  5
2B8
330
2B6
100
AcDbEntity
  8
cut
 62
     7
420
 16777215
370
    35
100
AcDbVertex
100
AcDb2dVertex
 10
284.1460781234076
 20
-212.4071720999932
 30
0.0
  0
SEQEND
  5
2B9
330
2B6
100
AcDbEntity
  8
cut
 62
     7
420
 16777215
370
    35
  0
POLYLINE
  5
2BA
330
1F
100
AcDbEntity
  8
cut
 62
     7
420
 16777215
370
    35
100
AcDb2dPolyline
 66
     1
 10
0.0
 20
0.0
 30
0.0
  0
VERTEX
  5
2BB
330
2BA
100
AcDbEntity
  8
cut
 62
     7
420
 16777215
370
    35
100
AcDbVertex
100
AcDb2dVertex
 10
280.1460720132968
 20
-212.4071720999932
 30
0.0
  0
VERTEX
  5
2BC
330
2BA
100
AcDbEntity
  8
cut
 62
     7
420
 16777215
370
    35
100
AcDbVertex
100
AcDb2dVertex
 10
271.1460759044356
 20
-212.4071720999932
 30
0.0
  0
SEQEND
  5
2BD
330
2BA
100
AcDbEntity
  8
cut
 62
     7
420
 16777215
370
    35
  0
POLYLINE
  5
2BE
330
1F
100
AcDbEntity
  8
cut
 62
     7
420
 16777215
370
    35
100
AcDb2dPolyline
 66
     1
 10
0.0
 20
0.0
 30
0.0
  0
VERTEX
  5
2BF
330
2BE
100
AcDbEntity
  8
cut
 62
     7
420
 16777215
370
    35
100
AcDbVertex
100
AcDb2dVertex
 10
385.5691600424962
 20
-335.4067779025758
 30
0.0
  0
VERTEX
  5
2C0
330
2BE
100
AcDbEntity
  8
cut
 62
     7
420
 16777215
370
    35
100
AcDbVertex
100
AcDb2dVertex
 10
385.5691600424962
 20
-215.4071943214651
 30
0.0
  0
SEQEND
  5
2C1
330
2BE
100
AcDbEntity
  8
cut
 62
     7
420
 16777215
370
    35
  0
POLYLINE
  5
2C2
330
1F
100
AcDbEntity
  8
cut
 62
     7
420
 16777215
370
    35
100
AcDb2dPolyline
 66
     1
 10
0.0
 20
0.0
 30
0.0
  0
VERTEX
  5
2C3
330
2C2
100
AcDbEntity
  8
cut
 62
     7
420
 16777215
370
    35
100
AcDbVertex
100
AcDb2dVertex
 10
337.4281167211984
 20
-338.4067648462702
 30
0.0
  0
VERTEX
  5
2C4
330
2C2
100
AcDbEntity
  8
cut
 62
     7
420
 16777215
370
    35
100
AcDbVertex
100
AcDb2dVertex
 10
337.4281167211984
 20
-335.4067779025758
 30
0.0
  0
SEQEND
  5
2C5
330
2C2
100
AcDbEntity
  8
cut
 62
     7
420
 16777215
370
    35
  0
POLYLINE
  5
2C6
330
1F
100
AcDbEntity
  8
cut
 62
     7
420
 16777215
370
    35
100
AcDb2dPolyline
 66
     1
 10
0.0
 20
0.0
 30
0.0
  0
VERTEX
  5
2C7
330
2C6
100
AcDbEntity
  8
cut
 62
     7
420
 16777215
370
    35
100
AcDbVertex
100
AcDb2dVertex
 10
385.5691600424962
 20
-335.4067779025758
 30
0.0
  0
VERTEX
  5
2C8
330
2C6
100
AcDbEntity
  8
cut
 62
     7
420
 16777215
370
    35
100
AcDbVertex
100
AcDb2dVertex
 10
367.4281272692538
 20
-335.4067779025758
 30
0.0
  0
SEQEND
  5
2C9
330
2C6
100
AcDbEntity
  8
cut
 62
     7
420
 16777215
370
    35
  0
POLYLINE
  5
2CA
330
1F
100
AcDbEntity
  8
cut
 62
     7
420
 16777215
370
    35
100
AcDb2dPolyline
 66
     1
 10
0.0
 20
0.0
 30
0.0
  0
VERTEX
  5
2CB
330
2CA
100
AcDbEntity
  8
cut
 62
     7
420
 16777215
370
    35
100
AcDbVertex
100
AcDb2dVertex
 10
337.4281167211984
 20
-335.4067779025758
 30
0.0
  0
VERTEX
  5
2CC
330
2CA
100
AcDbEntity
  8
cut
 62
     7
420
 16777215
370
    35
100
AcDbVertex
100
AcDb2dVertex
 10
319.2871192257335
 20
-335.4067779025758
 30
0.0
  0
SEQEND
  5
2CD
330
2CA
100
AcDbEntity
  8
cut
 62
     7
420
 16777215
370
    35
  0
POLYLINE
  5
2CE
330
1F
100
AcDbEntity
  8
cut
 62
     7
420
 16777215
370
    35
100
AcDb2dPolyline
 66
     1
 10
0.0
 20
0.0
 30
0.0
  0
VERTEX
  5
2CF
330
2CE
100
AcDbEntity
  8
cut
 62
     7
420
 16777215
370
    35
100
AcDbVertex
100
AcDb2dVertex
 10
367.4281272692538
 20
-335.4067779025758
 30
0.0
  0
VERTEX
  5
2D0
330
2CE
100
AcDbEntity
  8
cut
 62
     7
420
 16777215
370
    35
100
AcDbVertex
100
AcDb2dVertex
 10
367.4281272692538
 20
-338.4067648462702
 30
0.0
  0
SEQEND
  5
2D1
330
2CE
100
AcDbEntity
  8
cut
 62
     7
420
 16777215
370
    35
  0
POLYLINE
  5
2D2
330
1F
100
AcDbEntity
  8
cut
 62
     7
420
 16777215
370
    35
100
AcDb2dPolyline
 66
     1
 10
0.0
 20
0.0
 30
0.0
  0
VERTEX
  5
2D3
330
2D2
100
AcDbEntity
  8
cut
 62
     7
420
 16777215
370
    35
100
AcDbVertex
100
AcDb2dVertex
 10
325.2871283908997
 20
-221.4071682088537
 30
0.0
  0
VERTEX
  5
2D4
330
2D2
100
AcDbEntity
  8
cut
 62
     7
420
 16777215
370
    35
100
AcDbVertex
100
AcDb2dVertex
 10
379.5691508773293
 20
-221.4071682088537
 30
0.0
  0
SEQEND
  5
2D5
330
2D2
100
AcDbEntity
  8
cut
 62
     7
420
 16777215
370
    35
  0
POLYLINE
  5
2D6
330
1F
100
AcDbEntity
  8
cut
 62
     7
420
 16777215
370
    35
100
AcDb2dPolyline
 66
     1
 10
0.0
 20
0.0
 30
0.0
  0
VERTEX
  5
2D7
330
2D6
100
AcDbEntity
  8
cut
 62
     7
420
 16777215
370
    35
100
AcDbVertex
100
AcDb2dVertex
 10
379.5691508773293
 20
-329.406768737409
 30
0.0
  0
VERTEX
  5
2D8
330
2D6
100
AcDbEntity
  8
cut
 62
     7
420
 16777215
370
    35
100
AcDbVertex
100
AcDb2dVertex
 10
325.2871283908997
 20
-329.406768737409
 30
0.0
  0
SEQEND
  5
2D9
330
2D6
100
AcDbEntity
  8
cut
 62
     7
420
 16777215
370
    35
  0
SPLINE
  5
2DA
330
1F
100
AcDbEntity
  8
cut
 62
     7
420
 16777215
370
    35
100
AcDbSpline
210
0.0
220
0.0
230
1.0
 70
     8
 71
     3
 72
    17
 73
    13
 74
     0
 42
0.0000000001
 43
0.0000000001
 12
1.0
 22
0.0
 32
0.0
 13
1.0
 23
0.0
 33
0.0
 40
0.0
 40
0.0
 40
0.0
 40
0.0
 40
1.0
 40
1.0
 40
1.0
 40
2.0
 40
2.0
 40
2.0
 40
3.0
 40
3.0
 40
3.0
 40
4.0
 40
4.0
 40
4.0
 40
4.0
 10
358.4281311603926
 20
-212.4071720999932
 30
0.0
 10
358.4281311603926
 20
-210.8159326559461
 30
0.0
 10
357.7960239383281
 20
-209.2898159896612
 30
0.0
 10
356.6708392163877
 20
-208.1646312677202
 30
0.0
 10
355.5456192166691
 20
-207.0393407124459
 30
0.0
 10
354.0194672726061
 20
-206.4071629348263
 30
0.0
 10
352.4281219952258
 20
-206.4071629348263
 30
0.0
 10
350.8368825511793
 20
-206.4071629348263
 30
0.0
 10
349.3107658848938
 20
-207.0393054346684
 30
0.0
 10
348.1855811629533
 20
-208.1644548788313
 30
0.0
 10
347.0602906076791
 20
-209.2896748785499
 30
0.0
 10
346.4281128300595
 20
-210.8158268226128
 30
0.0
 10
346.4281128300595
 20
-212.4071720999932
 30
0.0
  0
SPLINE
  5
2DB
330
1F
100
AcDbEntity
  8
cut
 62
     7
420
 16777215
370
    35
100
AcDbSpline
210
0.0
220
0.0
230
1.0
 70
     8
 71
     3
 72
    11
 73
     7
 74
     0
 42
0.0000000001
 43
0.0000000001
 12
1.0
 22
0.0
 32
0.0
 13
1.0
 23
0.0
 33
0.0
 40
0.0
 40
0.0
 40
0.0
 40
0.0
 40
1.0
 40
1.0
 40
1.0
 40
2.0
 40
2.0
 40
2.0
 40
2.0
 10
354.4281250502812
 20
-212.4071720999932
 30
0.0
 10
354.4281250502812
 20
-211.3026248780467
 30
0.0
 10
353.5327044949498
 20
-210.4071690449371
 30
0.0
 10
352.4281219952258
 20
-210.4071690449371
 30
0.0
 10
351.3235747732799
 20
-210.4071690449371
 30
0.0
 10
350.4281189401704
 20
-211.3026248780467
 30
0.0
 10
350.4281189401704
 20
-212.4071720999932
 30
0.0
  0
POLYLINE
  5
2DC
330
1F
100
AcDbEntity
  8
cut
 62
     7
420
 16777215
370
    35
100
AcDb2dPolyline
 66
     1
 10
0.0
 20
0.0
 30
0.0
  0
VERTEX
  5
2DD
330
2DC
100
AcDbEntity
  8
cut
 62
     7
420
 16777215
370
    35
100
AcDbVertex
100
AcDb2dVertex
 10
379.5691508773293
 20
-329.406768737409
 30
0.0
  0
VERTEX
  5
2DE
330
2DC
100
AcDbEntity
  8
cut
 62
     7
420
 16777215
370
    35
100
AcDbVertex
100
AcDb2dVertex
 10
379.5691508773293
 20
-221.4071682088537
 30
0.0
  0
SEQEND
  5
2DF
330
2DC
100
AcDbEntity
  8
cut
 62
     7
420
 16777215
370
    35
  0
POLYLINE
  5
2E0
330
1F
100
AcDbEntity
  8
cut
 62
     7
420
 16777215
370
    35
100
AcDb2dPolyline
 66
     1
 10
0.0
 20
0.0
 30
0.0
  0
VERTEX
  5
2E1
330
2E0
100
AcDbEntity
  8
cut
 62
     7
420
 16777215
370
    35
100
AcDbVertex
100
AcDb2dVertex
 10
367.4281272692538
 20
-338.4067648462702
 30
0.0
  0
VERTEX
  5
2E2
330
2E0
100
AcDbEntity
  8
cut
 62
     7
420
 16777215
370
    35
100
AcDbVertex
100
AcDb2dVertex
 10
337.4281167211984
 20
-338.4067648462702
 30
0.0
  0
SEQEND
  5
2E3
330
2E0
100
AcDbEntity
  8
cut
 62
     7
420
 16777215
370
    35
  0
POLYLINE
  5
2E4
330
1F
100
AcDbEntity
  8
cut
 62
     7
420
 16777215
370
    35
100
AcDb2dPolyline
 66
     1
 10
0.0
 20
0.0
 30
0.0
  0
VERTEX
  5
2E5
330
2E4
100
AcDbEntity
  8
cut
 62
     7
420
 16777215
370
    35
100
AcDbVertex
100
AcDb2dVertex
 10
337.4281167211984
 20
-212.4071720999932
 30
0.0
  0
VERTEX
  5
2E6
330
2E4
100
AcDbEntity
  8
cut
 62
     7
420
 16777215
370
    35
100
AcDbVertex
100
AcDb2dVertex
 10
337.4281167211984
 20
-215.4071943214651
 30
0.0
  0
SEQEND
  5
2E7
330
2E4
100
AcDbEntity
  8
cut
 62
     7
420
 16777215
370
    35
  0
POLYLINE
  5
2E8
330
1F
100
AcDbEntity
  8
cut
 62
     7
420
 16777215
370
    35
100
AcDb2dPolyline
 66
     1
 10
0.0
 20
0.0
 30
0.0
  0
VERTEX
  5
2E9
330
2E8
100
AcDbEntity
  8
cut
 62
     7
420
 16777215
370
    35
100
AcDbVertex
100
AcDb2dVertex
 10
367.4281272692538
 20
-215.4071943214651
 30
0.0
  0
VERTEX
  5
2EA
330
2E8
100
AcDbEntity
  8
cut
 62
     7
420
 16777215
370
    35
100
AcDbVertex
100
AcDb2dVertex
 10
367.4281272692538
 20
-212.4071720999932
 30
0.0
  0
SEQEND
  5
2EB
330
2E8
100
AcDbEntity
  8
cut
 62
     7
420
 16777215
370
    35
  0
POLYLINE
  5
2EC
330
1F
100
AcDbEntity
  8
cut
 62
     7
420
 16777215
370
    35
100
AcDb2dPolyline
 66
     1
 10
0.0
 20
0.0
 30
0.0
  0
VERTEX
  5
2ED
330
2EC
100
AcDbEntity
  8
cut
 62
     7
420
 16777215
370
    35
100
AcDbVertex
100
AcDb2dVertex
 10
319.2871192257335
 20
-215.4071943214651
 30
0.0
  0
VERTEX
  5
2EE
330
2EC
100
AcDbEntity
  8
cut
 62
     7
420
 16777215
370
    35
100
AcDbVertex
100
AcDb2dVertex
 10
337.4281167211984
 20
-215.4071943214651
 30
0.0
  0
SEQEND
  5
2EF
330
2EC
100
AcDbEntity
  8
cut
 62
     7
420
 16777215
370
    35
  0
POLYLINE
  5
2F0
330
1F
100
AcDbEntity
  8
cut
 62
     7
420
 16777215
370
    35
100
AcDb2dPolyline
 66
     1
 10
0.0
 20
0.0
 30
0.0
  0
VERTEX
  5
2F1
330
2F0
100
AcDbEntity
  8
cut
 62
     7
420
 16777215
370
    35
100
AcDbVertex
100
AcDb2dVertex
 10
367.4281272692538
 20
-215.4071943214651
 30
0.0
  0
VERTEX
  5
2F2
330
2F0
100
AcDbEntity
  8
cut
 62
     7
420
 16777215
370
    35
100
AcDbVertex
100
AcDb2dVertex
 10
385.5691600424962
 20
-215.4071943214651
 30
0.0
  0
SEQEND
  5
2F3
330
2F0
100
AcDbEntity
  8
cut
 62
     7
420
 16777215
370
    35
  0
POLYLINE
  5
2F4
330
1F
100
AcDbEntity
  8
cut
 62
     7
420
 16777215
370
    35
100
AcDb2dPolyline
 66
     1
 10
0.0
 20
0.0
 30
0.0
  0
VERTEX
  5
2F5
330
2F4
100
AcDbEntity
  8
cut
 62
     7
420
 16777215
370
    35
100
AcDbVertex
100
AcDb2dVertex
 10
367.4281272692538
 20
-212.4071720999932
 30
0.0
  0
VERTEX
  5
2F6
330
2F4
100
AcDbEntity
  8
cut
 62
     7
420
 16777215
370
    35
100
AcDbVertex
100
AcDb2dVertex
 10
358.4281311603926
 20
-212.4071720999932
 30
0.0
  0
SEQEND
  5
2F7
330
2F4
100
AcDbEntity
  8
cut
 62
     7
420
 16777215
370
    35
  0
POLYLINE
  5
2F8
330
1F
100
AcDbEntity
  8
cut
 62
     7
420
 16777215
370
    35
100
AcDb2dPolyline
 66
     1
 10
0.0
 20
0.0
 30
0.0
  0
VERTEX
  5
2F9
330
2F8
100
AcDbEntity
  8
cut
 62
     7
420
 16777215
370
    35
100
AcDbVertex
100
AcDb2dVertex
 10
354.4281250502812
 20
-212.4071720999932
 30
0.0
  0
VERTEX
  5
2FA
330
2F8
100
AcDbEntity
  8
cut
 62
     7
420
 16777215
370
    35
100
AcDbVertex
100
AcDb2dVertex
 10
350.4281189401704
 20
-212.4071720999932
 30
0.0
  0
SEQEND
  5
2FB
330
2F8
100
AcDbEntity
  8
cut
 62
     7
420
 16777215
370
    35
  0
POLYLINE
  5
2FC
330
1F
100
AcDbEntity
  8
cut
 62
     7
420
 16777215
370
    35
100
AcDb2dPolyline
 66
     1
 10
0.0
 20
0.0
 30
0.0
  0
VERTEX
  5
2FD
330
2FC
100
AcDbEntity
  8
cut
 62
     7
420
 16777215
370
    35
100
AcDbVertex
100
AcDb2dVertex
 10
346.4281128300595
 20
-212.4071720999932
 30
0.0
  0
VERTEX
  5
2FE
330
2FC
100
AcDbEntity
  8
cut
 62
     7
420
 16777215
370
    35
100
AcDbVertex
100
AcDb2dVertex
 10
337.4281167211984
 20
-212.4071720999932
 30
0.0
  0
SEQEND
  5
2FF
330
2FC
100
AcDbEntity
  8
cut
 62
     7
420
 16777215
370
    35
  0
ENDSEC
  0
SECTION
  2
OBJECTS
  0
DICTIONARY
  5
C
330
0
100
AcDbDictionary
281
     1
  3
ACAD_GROUP
350
D
  3
ACAD_LAYOUT
350
1A
  3
ACAD_MATERIAL
350
3B
  3
ACAD_MLEADERSTYLE
350
301
  3
ACAD_MLINESTYLE
350
17
  3
ACAD_PLOTSETTINGS
350
19
  3
ACAD_PLOTSTYLENAME
350
E
  3
ACAD_TABLESTYLE
350
300
  3
ACAD_VISUALSTYLE
350
2A
  0
SUN
  5
3F
330
29
100
AcDbSun
 90
        1
290
     0
 63
     7
421
 16777215
 40
1.0
291
     1
 91
  2455826
 92
 54000000
292
     0
 70
     2
 71
   256
280
     1
  0
DICTIONARY
  5
D
102
{ACAD_REACTORS
330
C
102
}
330
C
100
AcDbDictionary
281
     1
  0
DICTIONARY
  5
1A
102
{ACAD_REACTORS
330
C
102
}
330
C
100
AcDbDictionary
281
     1
  3
Layout1
350
1E
  3
Layout2
350
26
  3
Model
350
22
  0
DICTIONARY
  5
3B
102
{ACAD_REACTORS
330
C
102
}
330
C
100
AcDbDictionary
281
     1
  3
ByBlock
350
3D
  3
ByLayer
350
3C
  3
Global
350
3E
  0
DICTIONARY
  5
301
102
{ACAD_REACTORS
330
C
102
}
330
C
100
AcDbDictionary
281
     1
  0
DICTIONARY
  5
17
102
{ACAD_REACTORS
330
C
102
}
330
C
100
AcDbDictionary
281
     1
  3
Standard
350
18
  0
DICTIONARY
  5
19
102
{ACAD_REACTORS
330
C
102
}
330
C
100
AcDbDictionary
281
     1
  0
ACDBDICTIONARYWDFLT
  5
E
102
{ACAD_REACTORS
330
C
102
}
330
C
100
AcDbDictionary
281
     1
  3
Normal
350
F
100
AcDbDictionaryWithDefault
340
F
  0
DICTIONARY
  5
300
102
{ACAD_REACTORS
330
C
102
}
330
C
100
AcDbDictionary
281
     1
  0
DICTIONARY
  5
2A
102
{ACAD_REACTORS
330
C
102
}
330
C
100
AcDbDictionary
281
     1
  3
2dWireframe
350
2F
  3
3D Hidden
350
31
  3
3dWireframe
350
30
  3
Basic
350
32
  3
Brighten
350
36
  3
ColorChange
350
3A
  3
Conceptual
350
34
  3
Dim
350
35
  3
Facepattern
350
39
  3
Flat
350
2B
  3
FlatWithEdges
350
2C
  3
Gouraud
350
2D
  3
GouraudWithEdges
350
2E
  3
Linepattern
350
38
  3
Realistic
350
33
  3
Thicken
350
37
  0
LAYOUT
  5
1E
102
{ACAD_REACTORS
330
1A
102
}
330
1A
100
AcDbPlotSettings
  1

  2
none_device
  4

  6

 40
0.0
 41
0.0
 42
0.0
 43
0.0
 44
0.0
 45
0.0
 46
0.0
 47
0.0
 48
0.0
 49
0.0
140
0.0
141
0.0
142
1.0
143
1.0
 70
   688
 72
     0
 73
     0
 74
     5
  7

 75
    16
 76
     0
 77
     2
 78
   300
147
1.0
148
0.0
149
0.0
100
AcDbLayout
  1
Layout1
 70
     1
 71
     1
 10
0.0
 20
0.0
 11
12.0
 21
9.0
 12
0.0
 22
0.0
 32
0.0
 14
1.000000000000000E+20
 24
1.000000000000000E+20
 34
1.000000000000000E+20
 15
-1.000000000000000E+20
 25
-1.000000000000000E+20
 35
-1.000000000000000E+20
146
0.0
 13
0.0
 23
0.0
 33
0.0
 16
1.0
 26
0.0
 36
0.0
 17
0.0
 27
1.0
 37
0.0
 76
     0
330
1B
  0
LAYOUT
  5
26
102
{ACAD_REACTORS
330
1A
102
}
330
1A
100
AcDbPlotSettings
  1

  2
none_device
  4

  6

 40
0.0
 41
0.0
 42
0.0
 43
0.0
 44
0.0
 45
0.0
 46
0.0
 47
0.0
 48
0.0
 49
0.0
140
0.0
141
0.0
142
1.0
143
1.0
 70
   688
 72
     0
 73
     0
 74
     5
  7

 75
    16
 76
     0
 77
     2
 78
   300
147
1.0
148
0.0
149
0.0
100
AcDbLayout
  1
Layout2
 70
     1
 71
     2
 10
0.0
 20
0.0
 11
0.0
 21
0.0
 12
0.0
 22
0.0
 32
0.0
 14
0.0
 24
0.0
 34
0.0
 15
0.0
 25
0.0
 35
0.0
146
0.0
 13
0.0
 23
0.0
 33
0.0
 16
1.0
 26
0.0
 36
0.0
 17
0.0
 27
1.0
 37
0.0
 76
     0
330
23
  0
LAYOUT
  5
22
102
{ACAD_REACTORS
330
1A
102
}
330
1A
100
AcDbPlotSettings
  1

  2
none_device
  4

  6

 40
0.0
 41
0.0
 42
0.0
 43
0.0
 44
0.0
 45
0.0
 46
0.0
 47
0.0
 48
0.0
 49
0.0
140
0.0
141
0.0
142
1.0
143
1.0
 70
  1712
 72
     0
 73
     0
 74
     0
  7

 75
     0
 76
     0
 77
     2
 78
   300
147
1.0
148
0.0
149
0.0
100
AcDbLayout
  1
Model
 70
     1
 71
     0
 10
0.0
 20
0.0
 11
12.0
 21
9.0
 12
0.0
 22
0.0
 32
0.0
 14
1.000000000000000E+20
 24
1.000000000000000E+20
 34
1.000000000000000E+20
 15
-1.000000000000000E+20
 25
-1.000000000000000E+20
 35
-1.000000000000000E+20
146
0.0
 13
0.0
 23
0.0
 33
0.0
 16
1.0
 26
0.0
 36
0.0
 17
0.0
 27
1.0
 37
0.0
 76
     0
330
1F
331
29
  0
MATERIAL
  5
3D
102
{ACAD_REACTORS
330
3B
102
}
330
3B
100
AcDbMaterial
  1
ByBlock
 72
     1
 94
      127
  0
MATERIAL
  5
3C
102
{ACAD_REACTORS
330
3B
102
}
330
3B
100
AcDbMaterial
  1
ByLayer
 72
     1
 94
      127
  0
MATERIAL
  5
3E
102
{ACAD_REACTORS
330
3B
102
}
330
3B
100
AcDbMaterial
  1
Global
 72
     1
 94
      127
  0
MLINESTYLE
  5
18
102
{ACAD_REACTORS
330
17
102
}
330
17
100
AcDbMlineStyle
  2
Standard
 70
     0
  3

 62
   256
 51
90.0
 52
90.0
 71
     2
 49
0.5
 62
   256
  6
BYLAYER
 49
-0.5
 62
   256
  6
BYLAYER
  0
ACDBPLACEHOLDER
  5
F
102
{ACAD_REACTORS
330
E
102
}
330
E
  0
VISUALSTYLE
  5
2F
102
{ACAD_REACTORS
330
2A
102
}
330
2A
100
AcDbVisualStyle
  2
2dWireframe
 70
     4
177
     2
291
     0
 71
     0
176
     1
 72
     2
176
     1
 73
     0
176
     1
 90
        0
176
     1
 40
-0.6
176
     1
 41
-30.0
176
     1
 62
     5
 63
     7
421
 16777215
176
     1
 74
     1
176
     1
 91
        4
176
     1
 64
     7
176
     1
 65
   257
176
     1
 75
     1
176
     1
175
     1
176
     1
 42
1.0
176
     1
 92
        0
176
     1
 66
   257
176
     1
 43
1.0
176
     1
 76
     1
176
     1
 77
     6
176
     1
 78
     2
176
     1
 67
     7
176
     1
 79
     5
176
     1
170
     0
176
     1
171
     0
176
     1
290
     0
176
     1
 93
        1
176
     1
 44
0.0
176
     1
173
     0
176
     1
  0
VISUALSTYLE
  5
31
102
{ACAD_REACTORS
330
2A
102
}
330
2A
100
AcDbVisualStyle
  2
3D Hidden
 70
     6
177
     2
291
     0
 71
     1
176
     1
 72
     2
176
     1
 73
     2
176
     1
 90
        0
176
     1
 40
-0.6
176
     1
 41
-30.0
176
     1
 62
     5
 63
     7
421
 16777215
176
     1
 74
     2
176
     1
 91
        2
176
     1
 64
     7
176
     1
 65
   257
176
     1
 75
     2
176
     1
175
     1
176
     1
 42
40.0
176
     1
 92
        0
176
     1
 66
   257
176
     1
 43
1.0
176
     1
 76
     1
176
     1
 77
     6
176
     1
 78
     2
176
     1
 67
     7
176
     1
 79
     3
176
     1
170
     0
176
     1
171
     0
176
     1
290
     0
176
     1
 93
        1
176
     1
 44
0.0
176
     1
173
     0
176
     1
  0
VISUALSTYLE
  5
30
102
{ACAD_REACTORS
330
2A
102
}
330
2A
100
AcDbVisualStyle
  2
3dWireframe
 70
     5
177
     2
291
     0
 71
     0
176
     1
 72
     2
176
     1
 73
     0
176
     1
 90
        0
176
     1
 40
-0.6
176
     1
 41
-30.0
176
     1
 62
     5
 63
     7
421
 16777215
176
     1
 74
     1
176
     1
 91
        4
176
     1
 64
     7
176
     1
 65
   257
176
     1
 75
     1
176
     1
175
     1
176
     1
 42
1.0
176
     1
 92
        0
176
     1
 66
   257
176
     1
 43
1.0
176
     1
 76
     1
176
     1
 77
     6
176
     1
 78
     2
176
     1
 67
     7
176
     1
 79
     5
176
     1
170
     0
176
     1
171
     0
176
     1
290
     0
176
     1
 93
        1
176
     1
 44
0.0
176
     1
173
     0
176
     1
  0
VISUALSTYLE
  5
32
102
{ACAD_REACTORS
330
2A
102
}
330
2A
100
AcDbVisualStyle
  2
Basic
 70
     7
177
     2
291
     1
 71
     1
176
     1
 72
     0
176
     1
 73
     1
176
     1
 90
        0
176
     1
 40
-0.6
176
     1
 41
-30.0
176
     1
 62
     5
 63
     7
421
 16777215
176
     1
 74
     0
176
     1
 91
        4
176
     1
 64
     7
176
     1
 65
   257
176
     1
 75
     1
176
     1
175
     1
176
     1
 42
1.0
176
     1
 92
        8
176
     1
 66
     7
176
     1
 43
1.0
176
     1
 76
     1
176
     1
 77
     6
176
     1
 78
     2
176
     1
 67
     7
176
     1
 79
     5
176
     1
170
     0
176
     1
171
     0
176
     1
290
     0
176
     1
 93
        1
176
     1
 44
0.0
176
     1
173
     0
176
     1
  0
VISUALSTYLE
  5
36
102
{ACAD_REACTORS
330
2A
102
}
330
2A
100
AcDbVisualStyle
  2
Brighten
 70
    12
177
     2
291
     1
 71
     2
176
     1
 72
     2
176
     1
 73
     0
176
     1
 90
        0
176
     1
 40
-0.6
176
     1
 41
-30.0
176
     1
 62
     5
 63
     7
421
 16777215
176
     1
 74
     1
176
     1
 91
        4
176
     1
 64
     7
176
     1
 65
   257
176
     1
 75
     1
176
     1
175
     1
176
     1
 42
1.0
176
     1
 92
        8
176
     1
 66
     7
176
     1
 43
1.0
176
     1
 76
     1
176
     1
 77
     6
176
     1
 78
     2
176
     1
 67
     7
176
     1
 79
     5
176
     1
170
     0
176
     1
171
     0
176
     1
290
     0
176
     1
 93
        1
176
     1
 44
50.0
176
     1
173
     0
176
     1
  0
VISUALSTYLE
  5
3A
102
{ACAD_REACTORS
330
2A
102
}
330
2A
100
AcDbVisualStyle
  2
ColorChange
 70
    16
177
     2
291
     1
 71
     2
176
     1
 72
     2
176
     1
 73
     3
176
     1
 90
        0
176
     1
 40
-0.6
176
     1
 41
-30.0
176
     1
 62
     5
 63
     8
421
  8421504
176
     1
 74
     1
176
     1
 91
        4
176
     1
 64
     7
176
     1
 65
   257
176
     1
 75
     1
176
     1
175
     1
176
     1
 42
1.0
176
     1
 92
        8
176
     1
 66
     8
424
  8421504
176
     1
 43
1.0
176
     1
 76
     1
176
     1
 77
     6
176
     1
 78
     2
176
     1
 67
     7
176
     1
 79
     5
176
     1
170
     0
176
     1
171
     0
176
     1
290
     0
176
     1
 93
        1
176
     1
 44
0.0
176
     1
173
     0
176
     1
  0
VISUALSTYLE
  5
34
102
{ACAD_REACTORS
330
2A
102
}
330
2A
100
AcDbVisualStyle
  2
Conceptual
 70
     9
177
     2
291
     0
 71
     3
176
     1
 72
     2
176
     1
 73
     0
176
     1
 90
        0
176
     1
 40
-0.6
176
     1
 41
-30.0
176
     1
 62
     5
 63
     7
421
 16777215
176
     1
 74
     2
176
     1
 91
        2
176
     1
 64
     7
176
     1
 65
   257
176
     1
 75
     1
176
     1
175
     1
176
     1
 42
40.0
176
     1
 92
        8
176
     1
 66
     7
176
     1
 43
1.0
176
     1
 76
     1
176
     1
 77
     6
176
     1
 78
     2
176
     1
 67
     7
176
     1
 79
     3
176
     1
170
     0
176
     1
171
     0
176
     1
290
     0
176
     1
 93
        1
176
     1
 44
0.0
176
     1
173
     0
176
     1
  0
VISUALSTYLE
  5
35
102
{ACAD_REACTORS
330
2A
102
}
330
2A
100
AcDbVisualStyle
  2
Dim
 70
    11
177
     2
291
     1
 71
     2
176
     1
 72
     2
176
     1
 73
     0
176
     1
 90
        0
176
     1
 40
-0.6
176
     1
 41
-30.0
176
     1
 62
     5
 63
     7
421
 16777215
176
     1
 74
     1
176
     1
 91
        4
176
     1
 64
     7
176
     1
 65
   257
176
     1
 75
     1
176
     1
175
     1
176
     1
 42
1.0
176
     1
 92
        8
176
     1
 66
     7
176
     1
 43
1.0
176
     1
 76
     1
176
     1
 77
     6
176
     1
 78
     2
176
     1
 67
     7
176
     1
 79
     5
176
     1
170
     0
176
     1
171
     0
176
     1
290
     0
176
     1
 93
        1
176
     1
 44
-50.0
176
     1
173
     0
176
     1
  0
VISUALSTYLE
  5
39
102
{ACAD_REACTORS
330
2A
102
}
330
2A
100
AcDbVisualStyle
  2
Facepattern
 70
    15
177
     2
291
     1
 71
     2
176
     1
 72
     2
176
     1
 73
     0
176
     1
 90
        0
176
     1
 40
-0.6
176
     1
 41
-30.0
176
     1
 62
     5
 63
     7
421
 16777215
176
     1
 74
     1
176
     1
 91
        4
176
     1
 64
     7
176
     1
 65
   257
176
     1
 75
     1
176
     1
175
     1
176
     1
 42
1.0
176
     1
 92
        8
176
     1
 66
     7
176
     1
 43
1.0
176
     1
 76
     1
176
     1
 77
     6
176
     1
 78
     2
176
     1
 67
     7
176
     1
 79
     5
176
     1
170
     0
176
     1
171
     0
176
     1
290
     0
176
     1
 93
        1
176
     1
 44
0.0
176
     1
173
     0
176
     1
  0
VISUALSTYLE
  5
2B
102
{ACAD_REACTORS
330
2A
102
}
330
2A
100
AcDbVisualStyle
  2
Flat
 70
     0
177
     2
291
     1
 71
     2
176
     1
 72
     1
176
     1
 73
     1
176
     1
 90
        2
176
     1
 40
-0.6
176
     1
 41
30.0
176
     1
 62
     5
 63
     7
421
 16777215
176
     1
 74
     0
176
     1
 91
        4
176
     1
 64
     7
176
     1
 65
   257
176
     1
 75
     1
176
     1
175
     1
176
     1
 42
1.0
176
     1
 92
        8
176
     1
 66
     7
176
     1
 43
1.0
176
     1
 76
     1
176
     1
 77
     6
176
     1
 78
     2
176
     1
 67
     7
176
     1
 79
     5
176
     1
170
     0
176
     1
171
     0
176
     1
290
     0
176
     1
 93
       13
176
     1
 44
0.0
176
     1
173
     0
176
     1
  0
VISUALSTYLE
  5
2C
102
{ACAD_REACTORS
330
2A
102
}
330
2A
100
AcDbVisualStyle
  2
FlatWithEdges
 70
     1
177
     2
291
     1
 71
     2
176
     1
 72
     1
176
     1
 73
     1
176
     1
 90
        2
176
     1
 40
-0.6
176
     1
 41
30.0
176
     1
 62
     5
 63
     7
421
 16777215
176
     1
 74
     1
176
     1
 91
        4
176
     1
 64
     7
176
     1
 65
   257
176
     1
 75
     1
176
     1
175
     1
176
     1
 42
1.0
176
     1
 92
        0
176
     1
 66
   257
176
     1
 43
1.0
176
     1
 76
     1
176
     1
 77
     6
176
     1
 78
     2
176
     1
 67
     7
176
     1
 79
     5
176
     1
170
     0
176
     1
171
     0
176
     1
290
     0
176
     1
 93
       13
176
     1
 44
0.0
176
     1
173
     0
176
     1
  0
VISUALSTYLE
  5
2D
102
{ACAD_REACTORS
330
2A
102
}
330
2A
100
AcDbVisualStyle
  2
Gouraud
 70
     2
177
     2
291
     1
 71
     2
176
     1
 72
     2
176
     1
 73
     1
176
     1
 90
        2
176
     1
 40
-0.6
176
     1
 41
30.0
176
     1
 62
     5
 63
     7
421
 16777215
176
     1
 74
     0
176
     1
 91
        4
176
     1
 64
     7
176
     1
 65
   257
176
     1
 75
     1
176
     1
175
     1
176
     1
 42
1.0
176
     1
 92
        0
176
     1
 66
     7
176
     1
 43
1.0
176
     1
 76
     1
176
     1
 77
     6
176
     1
 78
     2
176
     1
 67
     7
176
     1
 79
     5
176
     1
170
     0
176
     1
171
     0
176
     1
290
     0
176
     1
 93
       13
176
     1
 44
0.0
176
     1
173
     0
176
     1
  0
VISUALSTYLE
  5
2E
102
{ACAD_REACTORS
330
2A
102
}
330
2A
100
AcDbVisualStyle
  2
GouraudWithEdges
 70
     3
177
     2
291
     1
 71
     2
176
     1
 72
     2
176
     1
 73
     1
176
     1
 90
        2
176
     1
 40
-0.6
176
     1
 41
30.0
176
     1
 62
     5
 63
     7
421
 16777215
176
     1
 74
     1
176
     1
 91
        4
176
     1
 64
     7
176
     1
 65
   257
176
     1
 75
     1
176
     1
175
     1
176
     1
 42
1.0
176
     1
 92
        0
176
     1
 66
   257
176
     1
 43
1.0
176
     1
 76
     1
176
     1
 77
     6
176
     1
 78
     2
176
     1
 67
     7
176
     1
 79
     5
176
     1
170
     0
176
     1
171
     0
176
     1
290
     0
176
     1
 93
       13
176
     1
 44
0.0
176
     1
173
     0
176
     1
  0
VISUALSTYLE
  5
38
102
{ACAD_REACTORS
330
2A
102
}
330
2A
100
AcDbVisualStyle
  2
Linepattern
 70
    14
177
     2
291
     1
 71
     2
176
     1
 72
     2
176
     1
 73
     0
176
     1
 90
        0
176
     1
 40
-0.6
176
     1
 41
-30.0
176
     1
 62
     5
 63
     7
421
 16777215
176
     1
 74
     1
176
     1
 91
        4
176
     1
 64
     7
176
     1
 65
   257
176
     1
 75
     7
176
     1
175
     7
176
     1
 42
1.0
176
     1
 92
        8
176
     1
 66
     7
176
     1
 43
1.0
176
     1
 76
     1
176
     1
 77
     6
176
     1
 78
     2
176
     1
 67
     7
176
     1
 79
     5
176
     1
170
     0
176
     1
171
     0
176
     1
290
     0
176
     1
 93
        1
176
     1
 44
0.0
176
     1
173
     0
176
     1
  0
VISUALSTYLE
  5
33
102
{ACAD_REACTORS
330
2A
102
}
330
2A
100
AcDbVisualStyle
  2
Realistic
 70
     8
177
     2
291
     0
 71
     2
176
     1
 72
     2
176
     1
 73
     0
176
     1
 90
        0
176
     1
 40
-0.6
176
     1
 41
-30.0
176
     1
 62
     5
 63
     7
421
 16777215
176
     1
 74
     1
176
     1
 91
        0
176
     1
 64
     7
176
     1
 65
   257
176
     1
 75
     1
176
     1
175
     1
176
     1
 42
1.0
176
     1
 92
        8
176
     1
 66
     8
424
  7895160
176
     1
 43
1.0
176
     1
 76
     1
176
     1
 77
     6
176
     1
 78
     2
176
     1
 67
     7
176
     1
 79
     5
176
     1
170
     0
176
     1
171
     0
176
     1
290
     0
176
     1
 93
       13
176
     1
 44
0.0
176
     1
173
     0
176
     1
  0
VISUALSTYLE
  5
37
102
{ACAD_REACTORS
330
2A
102
}
330
2A
100
AcDbVisualStyle
  2
Thicken
 70
    13
177
     2
291
     1
 71
     2
176
     1
 72
     2
176
     1
 73
     0
176
     1
 90
        0
176
     1
 40
-0.6
176
     1
 41
-30.0
176
     1
 62
     5
 63
     7
421
 16777215
176
     1
 74
     1
176
     1
 91
        4
176
     1
 64
     7
176
     1
 65
   257
176
     1
 75
     1
176
     1
175
     1
176
     1
 42
1.0
176
     1
 92
       12
176
     1
 66
     7
176
     1
 43
1.0
176
     1
 76
     1
176
     1
 77
     6
176
     1
 78
     2
176
     1
 67
     7
176
     1
 79
     5
176
     1
170
     0
176
     1
171
     0
176
     1
290
     0
176
     1
 93
        1
176
     1
 44
0.0
176
     1
173
     0
176
     1
  0
ENDSEC
  0
EOF
