0
SECTION
2
HEADER
9
$INSUNITS
70
4
9
$ACADVER
1
AC1014
9
$HANDSEED
5
FFFF
0
ENDSEC
0
SECTION
2
TABLES
0
TABLE
2
VPORT
5
8
100
AcDbSymbolTable
0
ENDTAB
0
TABLE
2
LTYPE
5
5
100
AcDbSymbolTable
0
LTYPE
5
14
100
AcDbSymbolTableRecord
100
AcDbLinetypeTableRecord
2
BYBLOCK
70
0
0
LTYPE
5
15
100
AcDbSymbolTableRecord
100
AcDbLinetypeTableRecord
2
BYLAYER
70
0
0
ENDTAB
0
TABLE
2
LAYER
5
2
100
AcDbSymbolTable
70
2
0
LAYER
5
50
100
AcDbSymbolTableRecord
100
AcDbLayerTableRecord
2
0
70
0
6
CONTINUOUS
0
ENDTAB
0
TABLE
2
STYLE
5
3
100
AcDbSymbolTable
70
1
0
STYLE
5
11
100
AcDbSymbolTableRecord
100
AcDbTextStyleTableRecord
2
STANDARD
70
0
0
ENDTAB
0
TABLE
2
VIEW
5
6
100
AcDbSymbolTable
70
0
0
ENDTAB
0
TABLE
2
UCS
5
7
100
AcDbSymbolTable
70
0
0
ENDTAB
0
TABLE
2
APPID
5
9
100
AcDbSymbolTable
70
2
0
APPID
5
12
100
AcDbSymbolTableRecord
100
AcDbRegAppTableRecord
2
ACAD
70
0
0
ENDTAB
0
TABLE
2
DIMSTYLE
5
A
100
AcDbSymbolTable
70
1
0
ENDTAB
0
TABLE
2
BLOCK_RECORD
5
1
100
AcDbSymbolTable
70
1
0
BLOCK_RECORD
5
1F
100
AcDbSymbolTableRecord
100
AcDbBlockTableRecord
2
*MODEL_SPACE
0
BLOCK_RECORD
5
1B
100
AcDbSymbolTableRecord
100
AcDbBlockTableRecord
2
*PAPER_SPACE
0
ENDTAB
0
ENDSEC
0
SECTION
2
BLOCKS
0
BLOCK
5
20
100
AcDbEntity
100
AcDbBlockBegin
2
*MODEL_SPACE
0
ENDBLK
5
21
100
AcDbEntity
100
AcDbBlockEnd
0
BLOCK
5
1C
100
AcDbEntity
100
AcDbBlockBegin
2
*PAPER_SPACE
0
ENDBLK
5
1D
100
AcDbEntity
100
AcDbBlockEnd
0
ENDSEC
0
SECTION
2
ENTITIES
0
CIRCLE
5
100
100
AcDbEntity
8
0
100
AcDbCircle
10
-2.1457802210793577
20
-334.82662667756273
30
0
40
46.000000000000007
0
CIRCLE
5
101
100
AcDbEntity
8
0
100
AcDbCircle
10
-33.00835298399673
20
-204.4057655380054
30
0
40
46.000000000000007
0
CIRCLE
5
102
100
AcDbEntity
8
0
100
AcDbCircle
10
-260.08638217628067
20
-204.58714231861947
30
0
40
46.000000000000007
0
CIRCLE
5
103
100
AcDbEntity
8
0
100
AcDbCircle
10
-146.50466081535711
20
-115.33410853819824
30
0
40
46.000000000000007
0
CIRCLE
5
104
100
AcDbEntity
8
0
100
AcDbCircle
10
-290.86334959633899
20
-334.82662667756273
30
0
40
46
0
LINE
5
105
100
AcDbEntity
8
0
100
AcDbLine
10
63.495501059641867
20
-362.5218451840301
30
0
11
63.495501059641867
21
-379.8656094444467
31
0
0
LINE
5
106
100
AcDbEntity
8
0
100
AcDbLine
10
63.495501059641867
20
-379.8656094444467
30
0
11
63.495501059641867
21
-379.86560944332723
31
0
0
LINE
5
107
100
AcDbEntity
8
0
100
AcDbLine
10
63.495501059641867
20
-397.20988842912038
30
0
11
63.495501059641867
21
-379.8656094444467
31
0
0
LINE
5
108
100
AcDbEntity
8
0
100
AcDbLine
10
-356.50482269035615
20
-379.86560944444676
30
0
11
-356.50482269035831
21
-397.20988842912038
31
0
0
ARC
5
109
100
AcDbEntity
8
0
100
AcDbCircle
10
-290.86334959633899
20
-334.82662667756273
30
0
40
62.383553559027575
100
AcDbArc
50
269.99974529255684
51
352.69638812325422
0
ELLIPSE
5
110
100
AcDbEntity
8
0
100
AcDbEllipse
10
-146.50523123692764
20
-397.21058181262742
30
0
11
0.0003483655396330223
21
213.75147789961005
31
0.0
40
0.39903792394724807
41
0
42
1.301082538350246
0
ELLIPSE
5
111
100
AcDbEntity
8
0
100
AcDbEllipse
10
-146.50523123692764
20
-397.21058181262742
30
0
11
0.0003483655396330223
21
213.75147789961005
31
0.0
40
0.39903792394724807
41
4.9691629637352133
42
6.2831853071795862
0
ARC
5
112
100
AcDbEntity
8
0
100
AcDbCircle
10
-2.1457802210793577
20
-334.82662667756273
30
0
40
62.388845951489841
100
AcDbArc
50
184.83634958687929
51
270.73767240519607
0
LINE
5
113
100
AcDbEntity
8
0
100
AcDbLine
10
63.495501059641867
20
-397.20988842912038
30
0
11
-1.3425577493899943
21
-397.21030057615872
31
0
0
LINE
5
114
100
AcDbEntity
8
0
100
AcDbLine
10
-356.50482269035831
20
-397.20988842912038
30
0
11
-290.86362692139778
21
-397.21018023597389
31
0
0
ELLIPSE
5
115
100
AcDbEntity
8
0
100
AcDbEllipse
10
-146.50523123692764
20
-397.21058181262742
30
0
11
0.00057042157049380659
21
350.00147789942901
31
0.0
40
0.59999955873370214
41
4.7123889803846897
42
4.7123916966684103
0
ELLIPSE
5
116
100
AcDbEntity
8
0
100
AcDbEllipse
10
-146.50456490870917
20
-334.82662667756273
30
0
11
-9.5906647974430812e-05
21
287.61752276436431
31
0.0
40
0.7301392227931327
41
4.7096830408168975
42
7.8563248601876783
0
LINE
5
117
100
AcDbEntity
8
0
100
AcDbLine
10
-356.50482269035615
20
-402.20910391319842
30
0
11
63.495501059641867
21
-402.20910391319842
31
0
0
ELLIPSE
5
118
100
AcDbEntity
8
0
100
AcDbEllipse
10
-146.50523123692764
20
-752.21058181262742
30
0
11
0.00057042157049380659
21
350.00147789942901
31
0.0
40
0.59999955873370214
41
4.7123889803846897
42
4.7123916966684103
0
ELLIPSE
5
119
100
AcDbEntity
8
0
100
AcDbEllipse
10
-146.50523123692764
20
-752.21058181262742
30
0
11
0.0003483655396330223
21
213.75147789961005
31
0.0
40
0.39903792394724807
41
6.2831853071795862
42
7.5842678455298316
0
LINE
5
120
100
AcDbEntity
8
0
100
AcDbLine
10
-356.50482269035615
20
-419.55286817361497
30
0
11
-356.50482269035615
21
-402.20910391319842
31
0
0
ARC
5
121
100
AcDbEntity
8
0
100
AcDbCircle
10
-290.86334959633899
20
-689.82662667756267
30
0
40
62.383553559027646
100
AcDbArc
50
269.99974529255684
51
352.69638812325422
0
LINE
5
122
100
AcDbEntity
8
0
100
AcDbLine
10
63.495501059641867
20
-752.20988842912038
30
0
11
-1.3425577493899943
21
-752.21030057615872
31
0
0
ARC
5
123
100
AcDbEntity
8
0
100
AcDbCircle
10
-2.1457802210793577
20
-689.82662667756267
30
0
40
62.388845951489841
100
AcDbArc
50
184.83634958687929
51
270.73767240519607
0
LINE
5
124
100
AcDbEntity
8
0
100
AcDbLine
10
63.495501059641867
20
-717.5218451840301
30
0
11
63.495501059641867
21
-402.20910391319842
31
0
0
ELLIPSE
5
125
100
AcDbEntity
8
0
100
AcDbEllipse
10
-146.50523123692764
20
-752.21058181262742
30
0
11
0.0003483655396330223
21
213.75147789961005
31
0.0
40
0.39903792394724807
41
4.9691629637352133
42
6.2831853071795862
0
LINE
5
126
100
AcDbEntity
8
0
100
AcDbLine
10
-356.50482269035615
20
-734.86560944444682
30
0
11
-356.50482269035831
21
-752.20988842912038
31
0
0
LINE
5
127
100
AcDbEntity
8
0
100
AcDbLine
10
63.495501059641867
20
-752.20988842912038
30
0
11
63.495501059641867
21
-734.86560944444682
31
0
0
LINE
5
128
100
AcDbEntity
8
0
100
AcDbLine
10
63.495501059641867
20
-734.86560944444682
30
0
11
63.495501059641867
21
-734.86560944332723
31
0
0
LINE
5
129
100
AcDbEntity
8
0
100
AcDbLine
10
-356.50482269035831
20
-752.20988842912038
30
0
11
-290.86362692139778
21
-752.21018023597389
31
0
0
LINE
5
130
100
AcDbEntity
8
0
100
AcDbLine
10
63.495501059641867
20
-717.5218451840301
30
0
11
63.495501059641867
21
-734.86560944444682
31
0
0
LINE
5
131
100
AcDbEntity
8
0
100
AcDbLine
10
-356.50482269035615
20
-419.55286817361497
30
0
11
-356.50482269035615
21
-734.86560944444682
31
0
0
LINE
5
132
100
AcDbEntity
8
0
100
AcDbLine
10
63.495501059641896
20
-335.60483133808248
30
0
11
63.495501059641867
21
-362.5218451840301
31
0
0
LINE
5
133
100
AcDbEntity
8
0
100
AcDbLine
10
-356.50482269035621
20
-335.50064900454521
30
0
11
-356.50482269035615
21
-379.86560944444676
31
0
0
LINE
5
134
100
AcDbEntity
8
0
100
AcDbLine
10
-228.7164372992122
20
-340.25517020239431
30
0
11
-228.98594902625808
21
-342.75726924658017
31
0
0
LINE
5
135
100
AcDbEntity
8
0
100
AcDbLine
10
-228.7164372992122
20
-695.25517020239431
30
0
11
-228.98594902625808
21
-697.75726924658011
31
0
0
ENDSEC
0
SECTION
2
OBJECTS
0
DICTIONARY
5
C
100
AcDbDictionary
3
ACAD_GROUP
350
D
3
ACAD_MLINESTYLE
350
17
0
DICTIONARY
5
D
100
AcDbDictionary
0
DICTIONARY
5
1A
330
C
100
AcDbDictionary
0
DICTIONARY
5
17
100
AcDbDictionary
0
ENDSEC
0
EOF
