  0
SECTION
  2
HEADER
  9
$ACADVER
  1
AC1009
  9
$EXTMAX
 10
380.142852783203
 20
300.0
 30
0.0
  9
$EXTMIN
 10
0.0
 20
0.0
 30
0.0
  9
$INSUNITS
 70
     4
  9
$LUNITS
 70
     2
  9
$LUPREC
 70
     4
  9
$MEASUREMENT
 70
     1
  0
ENDSEC
  0
SECTION
  2
TABLES
  0
TABLE
  2
LAYER
 70
     1
  0
LAYER
  2
0
 70
     0
 62
     7
  6
Continuous
  0
LAYER
  2
ABCDE_FGHIJK_LMN1
 70
     0
 62
    70
  6
Continuous
  0
LAYER
  2
Layer0
 70
     0
 62
    70
  6
Continuous
  0
ENDTAB
  0
TABLE
  2
APPID
 70
     1
  0
APPID
  2
ACAD
 70
     0
  0
ENDTAB
  0
ENDSEC
  0
SECTION
  2
ENTITIES
  0
POLYLINE
  8
ABCDE_FGHIJK_LMN1
 66
     1
 10
0.0
 20
0.0
 30
0.0
 70
     1
  0
VERTEX
  8
ABCDE_FGHIJK_LMN1
 10
154.626928236083
 20
279.413145539906
 42
0.0
  0
VERTEX
  8
ABCDE_FGHIJK_LMN1
 10
153.85814889336
 20
281.044600938967
 42
0.0
  0
VERTEX
  8
ABCDE_FGHIJK_LMN1
 10
151.896378269618
 20
283.415492957746
 42
0.0
  0
VERTEX
  8
ABCDE_FGHIJK_LMN1
 10
149.525486250838
 20
284.733400402414
 42
0.0
  0
VERTEX
  8
ABCDE_FGHIJK_LMN1
 10
146.681757209926
 20
285.326961770624
 42
0.0
  0
VERTEX
  8
ABCDE_FGHIJK_LMN1
 10
143.301475519786
 20
285.524815560027
 42
0.0
  0
VERTEX
  8
ABCDE_FGHIJK_LMN1
 10
138.043259557344
 20
285.524815560027
 42
0.0
  0
VERTEX
  8
ABCDE_FGHIJK_LMN1
 10
138.043259557344
 20
258.831321260899
 42
0.0
  0
VERTEX
  8
ABCDE_FGHIJK_LMN1
 10
144.079476861167
 20
258.831321260899
 42
0.0
  0
VERTEX
  8
ABCDE_FGHIJK_LMN1
 10
147.191482226694
 20
258.938631790744
 42
0.0
  0
VERTEX
  8
ABCDE_FGHIJK_LMN1
 10
149.525486250838
 20
259.475184439973
 42
0.0
  0
VERTEX
  8
ABCDE_FGHIJK_LMN1
 10
151.61804158283
 20
260.682427900738
 42
0.0
  0
VERTEX
  8
ABCDE_FGHIJK_LMN1
 10
153.36686787391
 20
262.677733065057
 42
0.0
  0
VERTEX
  8
ABCDE_FGHIJK_LMN1
 10
154.616029510396
 20
265.283366867874
 42
0.0
  0
VERTEX
  8
ABCDE_FGHIJK_LMN1
 10
155.365526492287
 20
268.499329309188
 42
0.0
  0
VERTEX
  8
ABCDE_FGHIJK_LMN1
 10
155.615358819584
 20
272.325620389001
 42
0.0
  0
VERTEX
  8
ABCDE_FGHIJK_LMN1
 10
155.176056338028
 20
277.416163648558
 42
0.0
  0
SEQEND
  0
POLYLINE
  8
ABCDE_FGHIJK_LMN1
 66
     1
 10
0.0
 20
0.0
 30
0.0
 70
     1
  0
VERTEX
  8
ABCDE_FGHIJK_LMN1
 10
144.039235412475
 20
154.210261569417
 42
0.0
  0
VERTEX
  8
ABCDE_FGHIJK_LMN1
 10
146.135144198525
 20
153.546277665996
 42
0.0
  0
VERTEX
  8
ABCDE_FGHIJK_LMN1
 10
148.42555331992
 20
153.324949698189
 42
0.0
  0
VERTEX
  8
ABCDE_FGHIJK_LMN1
 10
151.359825620389
 20
153.707243460765
 42
0.0
  0
VERTEX
  8
ABCDE_FGHIJK_LMN1
 10
154.04594232059
 20
154.854124748491
 42
0.0
  0
VERTEX
  8
ABCDE_FGHIJK_LMN1
 10
156.346411804158
 20
156.799128101945
 42
0.0
  0
VERTEX
  8
ABCDE_FGHIJK_LMN1
 10
158.123742454728
 20
159.575788061704
 42
0.0
  0
VERTEX
  8
ABCDE_FGHIJK_LMN1
 10
159.260563380282
 20
163.137156270959
 42
0.0
  0
VERTEX
  8
ABCDE_FGHIJK_LMN1
 10
159.639503688799
 20
167.436284372904
 42
0.0
  0
VERTEX
  8
ABCDE_FGHIJK_LMN1
 10
159.290744466801
 20
171.467136150235
 42
0.0
  0
VERTEX
  8
ABCDE_FGHIJK_LMN1
 10
158.244466800805
 20
174.921193829645
 42
0.0
  0
VERTEX
  8
ABCDE_FGHIJK_LMN1
 10
156.550972501677
 20
177.701207243461
 42
0.0
  0
VERTEX
  8
ABCDE_FGHIJK_LMN1
 10
154.260563380282
 20
179.709926224011
 42
0.0
  0
VERTEX
  8
ABCDE_FGHIJK_LMN1
 10
151.480549966465
 20
180.927230046948
 42
0.0
  0
VERTEX
  8
ABCDE_FGHIJK_LMN1
 10
148.318242790074
 20
181.332997987928
 42
0.0
  0
VERTEX
  8
ABCDE_FGHIJK_LMN1
 10
146.021126760563
 20
181.108316566063
 42
0.0
  0
VERTEX
  8
ABCDE_FGHIJK_LMN1
 10
143.905097250168
 20
180.43427230047
 42
0.0
  0
VERTEX
  8
ABCDE_FGHIJK_LMN1
 10
142.020456069752
 20
179.330985915493
 42
0.0
  0
VERTEX
  8
ABCDE_FGHIJK_LMN1
 10
140.417505030181
 20
177.81857813548
 42
0.0
  0
VERTEX
  8
ABCDE_FGHIJK_LMN1
 10
139.109657947686
 20
175.863514419852
 42
0.0
  0
VERTEX
  8
ABCDE_FGHIJK_LMN1
 10
138.110328638498
 20
173.432260228035
 42
0.0
  0
VERTEX
  8
ABCDE_FGHIJK_LMN1
 10
137.476525821596
 20
170.598591549296
 42
0.0
  0
VERTEX
  8
ABCDE_FGHIJK_LMN1
 10
137.265258215963
 20
167.436284372904
 42
0.0
  0
VERTEX
  8
ABCDE_FGHIJK_LMN1
 10
137.476525821596
 20
164.243796109993
 42
0.0
  0
VERTEX
  8
ABCDE_FGHIJK_LMN1
 10
138.110328638498
 20
161.37323943662
 42
0.0
  0
VERTEX
  8
ABCDE_FGHIJK_LMN1
 10
139.129778672032
 20
158.895036887995
 42
0.0
  0
VERTEX
  8
ABCDE_FGHIJK_LMN1
 10
140.497987927566
 20
156.879610999329
 42
0.0
  0
VERTEX
  8
ABCDE_FGHIJK_LMN1
 10
142.154594232059
 20
155.320254862508
 42
0.0
  0
SEQEND
  0
POLYLINE
  8
ABCDE_FGHIJK_LMN1
 66
     1
 10
0.0
 20
0.0
 30
0.0
 70
     1
  0
VERTEX
  8
ABCDE_FGHIJK_LMN1
 10
76.9030851777331
 20
126.138497652582
 42
0.0
  0
VERTEX
  8
ABCDE_FGHIJK_LMN1
 10
75.91046277666
 20
127.228370221328
 42
0.0
  0
VERTEX
  8
ABCDE_FGHIJK_LMN1
 10
74.5959087860497
 20
128.003018108652
 42
0.0
  0
VERTEX
  8
ABCDE_FGHIJK_LMN1
 10
72.5234741784038
 20
128.445674044266
 42
0.0
  0
VERTEX
  8
ABCDE_FGHIJK_LMN1
 10
69.0962441314554
 20
128.593226022804
 42
0.0
  0
VERTEX
  8
ABCDE_FGHIJK_LMN1
 10
61.7454728370221
 20
128.593226022804
 42
0.0
  0
VERTEX
  8
ABCDE_FGHIJK_LMN1
 10
61.7454728370221
 20
117.781690140845
 42
0.0
  0
VERTEX
  8
ABCDE_FGHIJK_LMN1
 10
68.8816230717639
 20
117.781690140845
 42
0.0
  0
VERTEX
  8
ABCDE_FGHIJK_LMN1
 10
73.7105969148223
 20
118.278001341382
 42
0.0
  0
VERTEX
  8
ABCDE_FGHIJK_LMN1
 10
75.4376257545272
 20
118.948692152918
 42
0.0
  0
VERTEX
  8
ABCDE_FGHIJK_LMN1
 10
76.7018779342723
 20
119.968142186452
 42
0.0
  0
VERTEX
  8
ABCDE_FGHIJK_LMN1
 10
77.4765258215963
 20
121.38665325285
 42
0.0
  0
VERTEX
  8
ABCDE_FGHIJK_LMN1
 10
77.7347417840376
 20
123.254527162978
 42
0.0
  0
VERTEX
  8
ABCDE_FGHIJK_LMN1
 10
77.5268276324614
 20
124.793762575453
 42
0.0
  0
SEQEND
  0
POLYLINE
  8
ABCDE_FGHIJK_LMN1
 66
     1
 10
0.0
 20
0.0
 30
0.0
 70
     1
  0
VERTEX
  8
ABCDE_FGHIJK_LMN1
 10
71.6063044936285
 20
284.253018108652
 42
0.0
  0
VERTEX
  8
ABCDE_FGHIJK_LMN1
 10
70.6790744466801
 20
284.867538564722
 42
0.0
  0
VERTEX
  8
ABCDE_FGHIJK_LMN1
 10
68.003018108652
 20
285.601945003353
 42
0.0
  0
VERTEX
  8
ABCDE_FGHIJK_LMN1
 10
64.2136150234743
 20
285.846747149564
 42
0.0
  0
VERTEX
  8
ABCDE_FGHIJK_LMN1
 10
57.7481556002683
 20
285.846747149564
 42
0.0
  0
VERTEX
  8
ABCDE_FGHIJK_LMN1
 10
57.7481556002683
 20
275.67907444668
 42
0.0
  0
VERTEX
  8
ABCDE_FGHIJK_LMN1
 10
65.0452716297788
 20
275.67907444668
 42
0.0
  0
VERTEX
  8
ABCDE_FGHIJK_LMN1
 10
67.6844399731725
 20
275.819919517103
 42
0.0
  0
VERTEX
  8
ABCDE_FGHIJK_LMN1
 10
69.646210596915
 20
276.24245472837
 42
0.0
  0
VERTEX
  8
ABCDE_FGHIJK_LMN1
 10
71.078135479544
 20
277.060697518444
 42
0.0
  0
VERTEX
  8
ABCDE_FGHIJK_LMN1
 10
72.1277665995977
 20
278.388665325285
 42
0.0
  0
VERTEX
  8
ABCDE_FGHIJK_LMN1
 10
72.6307847082496
 20
279.582494969819
 42
0.0
  0
VERTEX
  8
ABCDE_FGHIJK_LMN1
 10
72.7984574111336
 20
280.91046277666
 42
0.0
  0
VERTEX
  8
ABCDE_FGHIJK_LMN1
 10
72.6659959758551
 20
282.274480214621
 42
0.0
  0
VERTEX
  8
ABCDE_FGHIJK_LMN1
 10
72.2686116700203
 20
283.388665325285
 42
0.0
  0
SEQEND
  0
POLYLINE
  8
ABCDE_FGHIJK_LMN1
 66
     1
 10
0.0
 20
0.0
 30
0.0
 70
     1
  0
VERTEX
  8
ABCDE_FGHIJK_LMN1
 10
25.5348759221999
 20
107.271965124078
 42
0.0
  0
VERTEX
  8
ABCDE_FGHIJK_LMN1
 10
26.0378940308519
 20
107.935949027498
 42
0.0
  0
VERTEX
  8
ABCDE_FGHIJK_LMN1
 10
26.7421193829645
 20
108.398725687458
 42
0.0
  0
VERTEX
  8
ABCDE_FGHIJK_LMN1
 10
27.5134138162308
 20
108.552984574111
 42
0.0
  0
VERTEX
  8
ABCDE_FGHIJK_LMN1
 10
28.9403085177734
 20
108.298122065728
 42
0.0
  0
VERTEX
  8
ABCDE_FGHIJK_LMN1
 10
30.7796780684105
 20
107.533534540577
 42
0.0
  0
VERTEX
  8
ABCDE_FGHIJK_LMN1
 10
35.6958417169685
 20
104.475184439973
 42
0.0
  0
VERTEX
  8
ABCDE_FGHIJK_LMN1
 10
37.1411804158283
 20
106.554325955734
 42
0.0
  0
VERTEX
  8
ABCDE_FGHIJK_LMN1
 10
38.1505700871898
 20
108.982226693494
 42
0.0
  0
VERTEX
  8
ABCDE_FGHIJK_LMN1
 10
38.7441314553991
 20
111.79242119383
 42
0.0
  0
VERTEX
  8
ABCDE_FGHIJK_LMN1
 10
38.9419852448022
 20
115.018443997317
 42
0.0
  0
VERTEX
  8
ABCDE_FGHIJK_LMN1
 10
38.5932260228035
 20
119.049295774648
 42
0.0
  0
VERTEX
  8
ABCDE_FGHIJK_LMN1
 10
37.5469483568076
 20
122.503353454058
 42
0.0
  0
VERTEX
  8
ABCDE_FGHIJK_LMN1
 10
35.8534540576794
 20
125.283366867874
 42
0.0
  0
VERTEX
  8
ABCDE_FGHIJK_LMN1
 10
33.5630449362844
 20
127.292085848424
 42
0.0
  0
VERTEX
  8
ABCDE_FGHIJK_LMN1
 10
30.7830315224682
 20
128.509389671362
 42
0.0
  0
VERTEX
  8
ABCDE_FGHIJK_LMN1
 10
27.6207243460765
 20
128.915157612341
 42
0.0
  0
VERTEX
  8
ABCDE_FGHIJK_LMN1
 10
25.3236083165661
 20
128.690476190476
 42
0.0
  0
VERTEX
  8
ABCDE_FGHIJK_LMN1
 10
23.2075788061704
 20
128.016431924883
 42
0.0
  0
VERTEX
  8
ABCDE_FGHIJK_LMN1
 10
21.3229376257545
 20
126.913145539906
 42
0.0
  0
VERTEX
  8
ABCDE_FGHIJK_LMN1
 10
19.7199865861838
 20
125.400737759893
 42
0.0
  0
VERTEX
  8
ABCDE_FGHIJK_LMN1
 10
18.4121395036888
 20
123.445674044266
 42
0.0
  0
VERTEX
  8
ABCDE_FGHIJK_LMN1
 10
17.4128101945004
 20
121.014419852448
 42
0.0
  0
VERTEX
  8
ABCDE_FGHIJK_LMN1
 10
16.779007377599
 20
118.180751173709
 42
0.0
  0
VERTEX
  8
ABCDE_FGHIJK_LMN1
 10
16.5677397719652
 20
115.018443997317
 42
0.0
  0
VERTEX
  8
ABCDE_FGHIJK_LMN1
 10
16.7655935613682
 20
111.820087189806
 42
0.0
  0
VERTEX
  8
ABCDE_FGHIJK_LMN1
 10
17.3591549295775
 20
109.012407780013
 42
0.0
  0
VERTEX
  8
ABCDE_FGHIJK_LMN1
 10
18.348423876593
 20
106.595405767941
 42
0.0
  0
VERTEX
  8
ABCDE_FGHIJK_LMN1
 10
19.7334004024145
 20
104.569081153588
 42
0.0
  0
VERTEX
  8
ABCDE_FGHIJK_LMN1
 10
21.4201877934273
 20
102.966968477532
 42
0.0
  0
VERTEX
  8
ABCDE_FGHIJK_LMN1
 10
23.3148893360162
 20
101.822602280349
 42
0.0
  0
VERTEX
  8
ABCDE_FGHIJK_LMN1
 10
25.4175050301811
 20
101.135982562039
 42
0.0
  0
VERTEX
  8
ABCDE_FGHIJK_LMN1
 10
27.7280348759223
 20
100.907109322602
 42
0.0
  0
VERTEX
  8
ABCDE_FGHIJK_LMN1
 10
29.7401073105299
 20
101.115023474178
 42
0.0
  0
VERTEX
  8
ABCDE_FGHIJK_LMN1
 10
31.8058350100604
 20
101.738765928907
 42
0.0
  0
VERTEX
  8
ABCDE_FGHIJK_LMN1
 10
28.6535881958418
 20
103.616700201207
 42
0.0
  0
VERTEX
  8
ABCDE_FGHIJK_LMN1
 10
26.0647216633133
 20
105.065392354125
 42
0.0
  0
VERTEX
  8
ABCDE_FGHIJK_LMN1
 10
25.5415828303153
 20
105.682427900738
 42
0.0
  0
VERTEX
  8
ABCDE_FGHIJK_LMN1
 10
25.3672032193159
 20
106.514084507042
 42
0.0
  0
SEQEND
  0
POLYLINE
  8
ABCDE_FGHIJK_LMN1
 66
     1
 10
0.0
 20
0.0
 30
0.0
 70
     1
  0
VERTEX
  8
ABCDE_FGHIJK_LMN1
 10
73.2042253521128
 20
267.850435949027
 42
0.0
  0
VERTEX
  8
ABCDE_FGHIJK_LMN1
 10
72.2887323943662
 20
268.623407109323
 42
0.0
  0
VERTEX
  8
ABCDE_FGHIJK_LMN1
 10
69.6797451374917
 20
269.629443326626
 42
0.0
  0
VERTEX
  8
ABCDE_FGHIJK_LMN1
 10
66.0378940308518
 20
269.964788732394
 42
0.0
  0
VERTEX
  8
ABCDE_FGHIJK_LMN1
 10
57.7481556002683
 20
269.964788732394
 42
0.0
  0
VERTEX
  8
ABCDE_FGHIJK_LMN1
 10
57.7481556002683
 20
258.4825620389
 42
0.0
  0
VERTEX
  8
ABCDE_FGHIJK_LMN1
 10
66.3061703554663
 20
258.4825620389
 42
0.0
  0
VERTEX
  8
ABCDE_FGHIJK_LMN1
 10
69.8390342052315
 20
258.846411804158
 42
0.0
  0
VERTEX
  8
ABCDE_FGHIJK_LMN1
 10
72.3625083836352
 20
259.937961099933
 42
0.0
  0
VERTEX
  8
ABCDE_FGHIJK_LMN1
 10
73.2457243460765
 20
260.756623071764
 42
0.0
  0
VERTEX
  8
ABCDE_FGHIJK_LMN1
 10
73.8765928906776
 20
261.757209926224
 42
0.0
  0
VERTEX
  8
ABCDE_FGHIJK_LMN1
 10
74.3812877263582
 20
264.304158283031
 42
0.0
  0
VERTEX
  8
ABCDE_FGHIJK_LMN1
 10
73.8581488933603
 20
266.872904091214
 42
0.0
  0
SEQEND
  0
POLYLINE
  8
ABCDE_FGHIJK_LMN1
 66
     1
 10
0.0
 20
0.0
 30
0.0
 70
     1
  0
VERTEX
  8
ABCDE_FGHIJK_LMN1
 10
316.598208731111
 20
33.8882047935694
 42
0.0
  0
VERTEX
  8
ABCDE_FGHIJK_LMN1
 10
316.020711312111
 20
33.5
 42
0.0
  0
VERTEX
  8
ABCDE_FGHIJK_LMN1
 10
280.14285725
 20
33.5
 42
0.0
  0
VERTEX
  8
ABCDE_FGHIJK_LMN1
 10
280.14285725
 20
8.5
 42
0.0
  0
VERTEX
  8
ABCDE_FGHIJK_LMN1
 10
315.86411334162
 20
8.5060990489116
 42
0.0
  0
VERTEX
  8
ABCDE_FGHIJK_LMN1
 10
320.970163339346
 20
6.3448907892332
 42
0.0
  0
VERTEX
  8
ABCDE_FGHIJK_LMN1
 10
326.701317271897
 20
5.1824040035554
 42
0.0
  0
VERTEX
  8
ABCDE_FGHIJK_LMN1
 10
332.66700646995
 20
5.0978602452221
 42
0.0
  0
VERTEX
  8
ABCDE_FGHIJK_LMN1
 10
338.460679073424
 20
6.0970210316484
 42
0.0
  0
VERTEX
  8
ABCDE_FGHIJK_LMN1
 10
343.687505868889
 20
8.1117952064306
 42
0.0
  0
VERTEX
  8
ABCDE_FGHIJK_LMN1
 10
344.265003287889
 20
8.5
 42
0.0
  0
VERTEX
  8
ABCDE_FGHIJK_LMN1
 10
380.14285735
 20
8.5
 42
0.0
  0
VERTEX
  8
ABCDE_FGHIJK_LMN1
 10
380.14285735
 20
33.5
 42
0.0
  0
VERTEX
  8
ABCDE_FGHIJK_LMN1
 10
344.42160125838
 20
33.4939009510885
 42
0.0
  0
VERTEX
  8
ABCDE_FGHIJK_LMN1
 10
339.315551260654
 20
35.6551092107669
 42
0.0
  0
VERTEX
  8
ABCDE_FGHIJK_LMN1
 10
333.584397328103
 20
36.8175959964446
 42
0.0
  0
VERTEX
  8
ABCDE_FGHIJK_LMN1
 10
327.61870813005
 20
36.9021397547779
 42
0.0
  0
VERTEX
  8
ABCDE_FGHIJK_LMN1
 10
321.825035526576
 20
35.9029789683516
 42
0.0
  0
SEQEND
  0
POLYLINE
  8
ABCDE_FGHIJK_LMN1
 66
     1
 10
0.0
 20
0.0
 30
0.0
 70
     1
  0
VERTEX
  8
ABCDE_FGHIJK_LMN1
 10
19.7065727699532
 20
267.872233400402
 42
0.0
  0
VERTEX
  8
ABCDE_FGHIJK_LMN1
 10
31.4570757880618
 20
267.872233400402
 42
0.0
  0
VERTEX
  8
ABCDE_FGHIJK_LMN1
 10
25.5281690140847
 20
284.102951039571
 42
0.0
  0
SEQEND
  0
POLYLINE
  8
ABCDE_FGHIJK_LMN1
 66
     1
 10
0.0
 20
0.0
 30
0.0
 70
     1
  0
VERTEX
  8
ABCDE_FGHIJK_LMN1
 10
193.832997987928
 20
180.030181086519
 42
0.0
  0
VERTEX
  8
ABCDE_FGHIJK_LMN1
 10
192.295439302482
 20
180.575117370892
 42
0.0
  0
VERTEX
  8
ABCDE_FGHIJK_LMN1
 10
187.862173038229
 20
181.01106639839
 42
0.0
  0
VERTEX
  8
ABCDE_FGHIJK_LMN1
 10
182.496646545942
 20
181.01106639839
 42
0.0
  0
VERTEX
  8
ABCDE_FGHIJK_LMN1
 10
182.496646545942
 20
168.992287055667
 42
0.0
  0
VERTEX
  8
ABCDE_FGHIJK_LMN1
 10
187.862173038229
 20
168.992287055667
 42
0.0
  0
VERTEX
  8
ABCDE_FGHIJK_LMN1
 10
190.4476861167
 20
169.139839034205
 42
0.0
  0
VERTEX
  8
ABCDE_FGHIJK_LMN1
 10
192.570422535211
 20
169.582494969819
 42
0.0
  0
VERTEX
  8
ABCDE_FGHIJK_LMN1
 10
194.237089201878
 20
170.360496311201
 42
0.0
  0
VERTEX
  8
ABCDE_FGHIJK_LMN1
 10
195.454393024816
 20
171.514084507042
 42
0.0
  0
VERTEX
  8
ABCDE_FGHIJK_LMN1
 10
196.19885982562
 20
173.06338028169
 42
0.0
  0
VERTEX
  8
ABCDE_FGHIJK_LMN1
 10
196.447015425889
 20
175.02850435949
 42
0.0
  0
VERTEX
  8
ABCDE_FGHIJK_LMN1
 10
196.064721663313
 20
177.389336016097
 42
0.0
  0
VERTEX
  8
ABCDE_FGHIJK_LMN1
 10
194.917840375587
 20
179.267270288397
 42
0.0
  0
SEQEND
  0
POLYLINE
  8
Layer0
 66
     1
 10
0.0
 20
0.0
 30
0.0
 70
     1
  0
VERTEX
  8
Layer0
 10
203.896325636632
 20
240.437812620986
 42
0.0
  0
VERTEX
  8
Layer0
 10
205.080094918993
 20
240.578657691408
 42
-0.0698672407324
  0
VERTEX
  8
Layer0
 10
205.219119702281
 20
240.575726013273
 42
0.0
  0
VERTEX
  8
Layer0
 10
206.771768930986
 20
240.324216958947
 42
-0.0982712279204
  0
VERTEX
  8
Layer0
 10
206.954191517123
 20
240.256279414237
 42
0.0
  0
VERTEX
  8
Layer0
 10
208.178202248176
 20
239.501752251259
 42
-0.1002928553513
  0
VERTEX
  8
Layer0
 10
208.323190382644
 20
239.366047769991
 42
0.0
  0
VERTEX
  8
Layer0
 10
209.117958994314
 20
238.249347568783
 42
-0.1061652089356
  0
VERTEX
  8
Layer0
 10
209.201075459205
 20
238.056535499151
 42
0.0
  0
VERTEX
  8
Layer0
 10
209.465998329762
 20
236.718507330137
 42
-0.1126238290831
  0
VERTEX
  8
Layer0
 10
209.459585428961
 20
236.496173422525
 42
0.0
  0
VERTEX
  8
Layer0
 10
209.010222585232
 20
234.759084220647
 42
-0.1030103719895
  0
VERTEX
  8
Layer0
 10
208.920006438313
 20
234.576275683923
 42
0.0
  0
VERTEX
  8
Layer0
 10
207.571917907126
 20
232.852600298276
 42
-0.0371889496577
  0
VERTEX
  8
Layer0
 10
207.521940734418
 20
232.79765410741
 42
0.0
  0
VERTEX
  8
Layer0
 10
198.149719926005
 20
223.918708078386
 42
0.0
  0
VERTEX
  8
Layer0
 10
209.06359160501
 20
208.282488076735
 42
-0.015720543555
  0
VERTEX
  8
Layer0
 10
209.080763482133
 20
208.256159761783
 42
0.0
  0
VERTEX
  8
Layer0
 10
210.851387224588
 20
205.345361639717
 42
-0.0771595967137
  0
VERTEX
  8
Layer0
 10
210.910062395953
 20
205.203620372045
 42
0.0
  0
VERTEX
  8
Layer0
 10
211.500270310104
 20
202.775719634285
 42
-0.1119205477547
  0
VERTEX
  8
Layer0
 10
211.503708924445
 20
202.554674475838
 42
0.0
  0
VERTEX
  8
Layer0
 10
211.245492962004
 20
201.327310290727
 42
-0.1071339187193
  0
VERTEX
  8
Layer0
 10
211.158957365649
 20
201.133954993583
 42
0.0
  0
VERTEX
  8
Layer0
 10
210.384309478325
 20
200.080970419472
 42
-0.1002753372279
  0
VERTEX
  8
Layer0
 10
210.237235499405
 20
199.947579982831
 42
0.0
  0
VERTEX
  8
Layer0
 10
209.019931676467
 20
199.223233906372
 42
-0.0967262673148
  0
VERTEX
  8
Layer0
 10
208.839495382341
 20
199.158611465756
 42
0.0
  0
VERTEX
  8
Layer0
 10
207.253311613059
 20
198.917162773603
 42
-0.0671752552978
  0
VERTEX
  8
Layer0
 10
207.1195837625
 20
198.914901047156
 42
0.0
  0
VERTEX
  8
Layer0
 10
205.610529436544
 20
199.092634112213
 42
-0.075323834186
  0
VERTEX
  8
Layer0
 10
205.466063289033
 20
199.132243483092
 42
0.0
  0
VERTEX
  8
Layer0
 10
204.265526736384
 20
199.665442678263
 42
-0.1004326831498
  0
VERTEX
  8
Layer0
 10
204.103466832542
 20
199.780688929064
 42
0.0
  0
VERTEX
  8
Layer0
 10
202.332843090087
 20
201.672037017595
 42
-0.0530555894495
  0
VERTEX
  8
Layer0
 10
202.269107326547
 20
201.756501283922
 42
0.0
  0
VERTEX
  8
Layer0
 10
200.986006233096
 20
203.895003106342
 42
0.0
  0
VERTEX
  8
Layer0
 10
191.903635286555
 20
217.867881485635
 42
0.0
  0
VERTEX
  8
Layer0
 10
185.974513749162
 20
212.182756719328
 42
0.0
  0
VERTEX
  8
Layer0
 10
185.974513749162
 20
204.267270288397
 42
-0.032587212017
  0
VERTEX
  8
Layer0
 10
185.970275050765
 20
204.202303128749
 42
0.0
  0
VERTEX
  8
Layer0
 10
185.68858490992
 20
202.052739077776
 42
-0.0950950628258
  0
VERTEX
  8
Layer0
 10
185.629307470439
 20
201.873817250163
 42
0.0
  0
VERTEX
  8
Layer0
 10
184.784237047903
 20
200.36140947015
 42
-0.1139090416611
  0
VERTEX
  8
Layer0
 10
184.633191454314
 20
200.194780498173
 42
0.0
  0
VERTEX
  8
Layer0
 10
183.345465096166
 20
199.299408264773
 42
-0.106459084017
  0
VERTEX
  8
Layer0
 10
183.151181483268
 20
199.218305609354
 42
0.0
  0
VERTEX
  8
Layer0
 10
181.541523535581
 20
198.91984819822
 42
-0.1131657598885
  0
VERTEX
  8
Layer0
 10
181.318251306407
 20
198.929239669459
 42
0.0
  0
VERTEX
  8
Layer0
 10
179.359834136723
 20
199.465792318688
 42
-0.1302255930685
  0
VERTEX
  8
Layer0
 10
179.138398319669
 20
199.594468071513
 42
0.0
  0
VERTEX
  8
Layer0
 10
177.689706166751
 20
201.04316022443
 42
-0.1331764638198
  0
VERTEX
  8
Layer0
 10
177.559530046003
 20
201.270199742826
 42
0.0
  0
VERTEX
  8
Layer0
 10
177.103460294159
 20
203.01399585282
 42
-0.0570062623867
  0
VERTEX
  8
Layer0
 10
177.087386213425
 20
203.126496540192
 42
0.0
  0
VERTEX
  8
Layer0
 10
177.00690331604
 20
205.997053213565
 42
-0.007007624694
  0
VERTEX
  8
Layer0
 10
177.006706908115
 20
206.01106639839
 42
0.0
  0
VERTEX
  8
Layer0
 10
177.006706908115
 20
235.253185781355
 42
-0.0311965384602
  0
VERTEX
  8
Layer0
 10
177.01059223789
 20
235.315396986034
 42
0.0
  0
VERTEX
  8
Layer0
 10
177.275515108447
 20
237.428073042372
 42
-0.0902455436946
  0
VERTEX
  8
Layer0
 10
177.329234660334
 20
237.598856600018
 42
0.0
  0
VERTEX
  8
Layer0
 10
178.124003272004
 20
239.107910925974
 42
-0.1153786143316
  0
VERTEX
  8
Layer0
 10
178.27321717828
 20
239.279940578831
 42
0.0
  0
VERTEX
  8
Layer0
 10
179.524055541795
 20
240.185373174404
 42
-0.1114120184849
  0
VERTEX
  8
Layer0
 10
179.726372893568
 20
240.272023203233
 42
0.0
  0
VERTEX
  8
Layer0
 10
181.359505019657
 20
240.573834068424
 42
-0.0913097891272
  0
VERTEX
  8
Layer0
 10
181.540614565058
 20
240.573947908453
 42
0.0
  0
VERTEX
  8
Layer0
 10
183.167039783033
 20
240.27549049732
 42
-0.1072356890416
  0
VERTEX
  8
Layer0
 10
183.362734111817
 20
240.193870847445
 42
0.0
  0
VERTEX
  8
Layer0
 10
184.647107015908
 20
239.298498614044
 42
-0.114409994818
  0
VERTEX
  8
Layer0
 10
184.798429261733
 20
239.130820631706
 42
0.0
  0
VERTEX
  8
Layer0
 10
185.633439322095
 20
237.625119759808
 42
-0.0943711572366
  0
VERTEX
  8
Layer0
 10
185.691959835263
 20
237.447432210579
 42
0.0
  0
VERTEX
  8
Layer0
 10
185.970296522051
 20
235.317988883953
 42
-0.0325043963222
  0
VERTEX
  8
Layer0
 10
185.974513749162
 20
235.253185781355
 42
0.0
  0
VERTEX
  8
Layer0
 10
185.974513749162
 20
222.707650354715
 42
0.0
  0
VERTEX
  8
Layer0
 10
200.754128226443
 20
238.121039037713
 42
-0.0171443757572
  0
VERTEX
  8
Layer0
 10
200.77868707718
 20
238.144953269428
 42
0.0
  0
VERTEX
  8
Layer0
 10
202.696862798173
 20
239.888749379421
 42
-0.0771973045193
  0
VERTEX
  8
Layer0
 10
202.824928757712
 20
239.973337837177
 42
0.0
  0
VERTEX
  8
Layer0
 10
203.747128623574
 20
240.395873048445
 42
-0.0779607739371
  0
SEQEND
  0
POLYLINE
  8
Layer0
 66
     1
 10
0.0
 20
0.0
 30
0.0
 70
     1
  0
VERTEX
  8
Layer0
 10
149.254972279213
 20
215.151141904455
 42
0.0
  0
VERTEX
  8
Layer0
 10
149.965904539441
 20
213.984139892383
 42
-0.0612574798316
  0
VERTEX
  8
Layer0
 10
150.016207950743
 20
213.872930790759
 42
0.0
  0
VERTEX
  8
Layer0
 10
150.539346783741
 20
212.196203761919
 42
-0.0081853892513
  0
VERTEX
  8
Layer0
 10
150.543965873388
 20
212.180499288334
 42
0.0
  0
VERTEX
  8
Layer0
 10
151.441435564813
 20
208.933770698774
 42
0.0
  0
VERTEX
  8
Layer0
 10
151.994233507729
 20
207.894996542304
 42
0.0
  0
VERTEX
  8
Layer0
 10
152.807510477204
 20
207.034228946874
 42
0.0
  0
VERTEX
  8
Layer0
 10
153.953810360161
 20
206.449261480831
 42
0.0
  0
VERTEX
  8
Layer0
 10
155.541104196805
 20
206.249335157893
 42
0.0
  0
VERTEX
  8
Layer0
 10
157.642429634436
 20
206.689714455556
 42
0.0
  0
VERTEX
  8
Layer0
 10
159.107094682899
 20
207.978917092119
 42
0.0
  0
VERTEX
  8
Layer0
 10
160.025891206738
 20
210.225382366146
 42
0.0
  0
VERTEX
  8
Layer0
 10
160.346747149564
 20
213.520263443983
 42
0.0
  0
VERTEX
  8
Layer0
 10
160.346747149564
 20
235.253185781355
 42
-0.0311965384602
  0
VERTEX
  8
Layer0
 10
160.350632479339
 20
235.315396986034
 42
0.0
  0
VERTEX
  8
Layer0
 10
160.615555349896
 20
237.428073042372
 42
-0.0902455436946
  0
VERTEX
  8
Layer0
 10
160.669274901783
 20
237.598856600018
 42
0.0
  0
VERTEX
  8
Layer0
 10
161.464043513453
 20
239.107910925974
 42
-0.1153786143315
  0
VERTEX
  8
Layer0
 10
161.613257419729
 20
239.279940578831
 42
0.0
  0
VERTEX
  8
Layer0
 10
162.864095783243
 20
240.185373174404
 42
-0.111412018485
  0
VERTEX
  8
Layer0
 10
163.066413135016
 20
240.272023203233
 42
0.0
  0
VERTEX
  8
Layer0
 10
164.699545261106
 20
240.573834068424
 42
-0.0908982758149
  0
VERTEX
  8
Layer0
 10
164.879851840495
 20
240.574094579463
 42
0.0
  0
VERTEX
  8
Layer0
 10
166.539811599046
 20
240.272283714272
 42
-0.1096011907856
  0
VERTEX
  8
Layer0
 10
166.739466668
 20
240.188297860143
 42
0.0
  0
VERTEX
  8
Layer0
 10
168.017132663976
 20
239.28286526457
 42
-0.1152937393883
  0
VERTEX
  8
Layer0
 10
168.167987574751
 20
239.112490621016
 42
0.0
  0
VERTEX
  8
Layer0
 10
168.982876910767
 20
237.60343629506
 42
-0.0920747162436
  0
VERTEX
  8
Layer0
 10
169.038842099592
 20
237.429622708963
 42
0.0
  0
VERTEX
  8
Layer0
 10
169.310471878264
 20
235.316946652625
 42
-0.0319783734927
  0
VERTEX
  8
Layer0
 10
169.31455399061
 20
235.253185781355
 42
0.0
  0
VERTEX
  8
Layer0
 10
169.31455399061
 20
214.649564050972
 42
-0.0124902483888
  0
VERTEX
  8
Layer0
 10
169.313930160049
 20
214.6245952425
 42
0.0
  0
VERTEX
  8
Layer0
 10
169.085895284127
 20
210.063897724056
 42
-0.0537525154661
  0
VERTEX
  8
Layer0
 10
169.069096553038
 20
209.958026874947
 42
0.0
  0
VERTEX
  8
Layer0
 10
168.036232703273
 20
206.148503065424
 42
-0.071879117479
  0
VERTEX
  8
Layer0
 10
167.97945046017
 20
206.017238828138
 42
0.0
  0
VERTEX
  8
Layer0
 10
166.2021198096
 20
203.129914884476
 42
-0.0833924883925
  0
VERTEX
  8
Layer0
 10
166.093130122569
 20
203.005192888322
 42
0.0
  0
VERTEX
  8
Layer0
 10
163.443901417002
 20
200.835508113003
 42
-0.0772137835153
  0
VERTEX
  8
Layer0
 10
163.311612382742
 20
200.757625847394
 42
0.0
  0
VERTEX
  8
Layer0
 10
159.891089243909
 20
199.399476954034
 42
-0.0670403990321
  0
VERTEX
  8
Layer0
 10
159.761564981827
 20
199.36721845521
 42
0.0
  0
VERTEX
  8
Layer0
 10
155.670351031458
 20
198.914502157423
 42
-0.0490387809701
  0
VERTEX
  8
Layer0
 10
155.572516052079
 20
198.9133076971
 42
0.0
  0
VERTEX
  8
Layer0
 10
151.907190767036
 20
199.228532378522
 42
-0.054916687929
  0
VERTEX
  8
Layer0
 10
151.799773892965
 20
199.24980562476
 42
0.0
  0
VERTEX
  8
Layer0
 10
148.798432511342
 20
200.195479669026
 42
-0.0738495684746
  0
VERTEX
  8
Layer0
 10
148.666329621428
 20
200.259727985431
 42
0.0
  0
VERTEX
  8
Layer0
 10
146.255196153956
 20
201.909627381809
 42
-0.0771599725287
  0
VERTEX
  8
Layer0
 10
146.143381472266
 20
202.014656264436
 42
0.0
  0
VERTEX
  8
Layer0
 10
144.248679929677
 20
204.442557002196
 42
-0.0699864576813
  0
VERTEX
  8
Layer0
 10
144.179116299374
 20
204.563233379206
 42
0.0
  0
VERTEX
  8
Layer0
 10
142.78407941138
 20
208.023997966731
 42
-0.0601404734772
  0
VERTEX
  8
Layer0
 10
142.752916968127
 20
208.139723154223
 42
0.0
  0
VERTEX
  8
Layer0
 10
142.216364318898
 20
211.868764066363
 42
-0.0750167410998
  0
VERTEX
  8
Layer0
 10
142.217386122969
 20
212.017954459105
 42
0.0
  0
VERTEX
  8
Layer0
 10
142.478955539468
 20
213.674560763598
 42
-0.1046911487239
  0
VERTEX
  8
Layer0
 10
142.552927502944
 20
213.868012701972
 42
0.0
  0
VERTEX
  8
Layer0
 10
143.337635752441
 20
215.081963070852
 42
-0.1102841508899
  0
VERTEX
  8
Layer0
 10
143.492974435121
 20
215.234796592575
 42
0.0
  0
VERTEX
  8
Layer0
 10
144.686804079655
 20
215.97926339338
 42
-0.0984260118188
  0
VERTEX
  8
Layer0
 10
144.869175422511
 20
216.048193608462
 42
0.0
  0
VERTEX
  8
Layer0
 10
146.35810902412
 20
216.29634920873
 42
-0.0821707597726
  0
VERTEX
  8
Layer0
 10
146.52134823346
 20
216.296541104087
 42
0.0
  0
VERTEX
  8
Layer0
 10
147.90967821334
 20
216.068506228165
 42
-0.1098115204326
  0
VERTEX
  8
Layer0
 10
148.111079714448
 20
215.987703069936
 42
0.0
  0
VERTEX
  8
Layer0
 10
149.110409023636
 20
215.303598442169
 42
-0.1062350045988
  0
SEQEND
  0
POLYLINE
  8
Layer0
 66
     1
 10
0.0
 20
0.0
 30
0.0
 70
     1
  0
VERTEX
  8
Layer0
 10
180.192018189254
 20
146.811535967669
 42
0.0
  0
VERTEX
  8
Layer0
 10
178.62260169026
 20
146.503018194362
 42
-0.0952749673921
  0
VERTEX
  8
Layer0
 10
178.433767488621
 20
146.502238379424
 42
0.0
  0
VERTEX
  8
Layer0
 10
176.810695724705
 20
146.807402698673
 42
-0.1097210234995
  0
VERTEX
  8
Layer0
 10
176.611355236379
 20
146.8927217759
 42
0.0
  0
VERTEX
  8
Layer0
 10
175.337042694461
 20
147.808214733647
 42
-0.1121153952461
  0
VERTEX
  8
Layer0
 10
175.190273490723
 20
147.974038966641
 42
0.0
  0
VERTEX
  8
Layer0
 10
174.365323792534
 20
149.479739838539
 42
-0.0926417895764
  0
VERTEX
  8
Layer0
 10
174.308153216701
 20
149.654324361441
 42
0.0
  0
VERTEX
  8
Layer0
 10
174.033169983971
 20
151.730112423144
 42
-0.0329381245109
  0
VERTEX
  8
Layer0
 10
174.028839704896
 20
151.795774647887
 42
0.0
  0
VERTEX
  8
Layer0
 10
174.028839704896
 20
182.110999329309
 42
-0.0332963783729
  0
VERTEX
  8
Layer0
 10
174.033264483657
 20
182.177371010725
 42
0.0
  0
VERTEX
  8
Layer0
 10
174.335075348848
 20
184.430892137486
 42
-0.1026710952128
  0
VERTEX
  8
Layer0
 10
174.402410997257
 20
184.622611270053
 42
0.0
  0
VERTEX
  8
Layer0
 10
175.307843592831
 20
186.124958687893
 42
-0.1339624472859
  0
VERTEX
  8
Layer0
 10
175.49824569113
 20
186.306678441892
 42
0.0
  0
VERTEX
  8
Layer0
 10
177.060955282008
 20
187.151748864427
 42
-0.0933864435776
  0
VERTEX
  8
Layer0
 10
177.237315882079
 20
187.208144497441
 42
0.0
  0
VERTEX
  8
Layer0
 10
179.510957733186
 20
187.489834638286
 42
-0.03082617625
  0
VERTEX
  8
Layer0
 10
179.572434607646
 20
187.49362843729
 42
0.0
  0
VERTEX
  8
Layer0
 10
189.793762575453
 20
187.49362843729
 42
-0.0108631511307
  0
VERTEX
  8
Layer0
 10
189.815481187591
 20
187.493156516468
 42
0.0
  0
VERTEX
  8
Layer0
 10
193.826212240575
 20
187.318776905469
 42
-0.0328170992204
  0
VERTEX
  8
Layer0
 10
193.891386295392
 20
187.3116406057
 42
0.0
  0
VERTEX
  8
Layer0
 10
196.855839682381
 20
186.788501772702
 42
-0.0507301953992
  0
VERTEX
  8
Layer0
 10
196.953208272497
 20
186.760919404926
 42
0.0
  0
VERTEX
  8
Layer0
 10
199.2033759452
 20
185.868900625583
 42
-0.0574798280945
  0
VERTEX
  8
Layer0
 10
199.304352883706
 20
185.814748214115
 42
0.0
  0
VERTEX
  8
Layer0
 10
201.225882058756
 20
184.480073499159
 42
-0.0587042498146
  0
VERTEX
  8
Layer0
 10
201.313510105825
 20
184.402539246784
 42
0.0
  0
VERTEX
  8
Layer0
 10
202.859452426415
 20
182.672156953021
 42
-0.0585115756886
  0
VERTEX
  8
Layer0
 10
202.92647954201
 20
182.576718519765
 42
0.0
  0
VERTEX
  8
Layer0
 10
204.049886651333
 20
180.497577004004
 42
-0.054324175439
  0
VERTEX
  8
Layer0
 10
204.090755266912
 20
180.397253253419
 42
0.0
  0
VERTEX
  8
Layer0
 10
204.774859894679
 20
178.002887056236
 42
-0.0483606443237
  0
VERTEX
  8
Layer0
 10
204.792292432293
 20
177.907979157422
 42
0.0
  0
VERTEX
  8
Layer0
 10
205.020327308215
 20
175.231922819394
 42
-0.041723409082
  0
VERTEX
  8
Layer0
 10
205.020461359842
 20
175.148621124439
 42
0.0
  0
VERTEX
  8
Layer0
 10
204.789073029862
 20
172.325851171387
 42
-0.0483765484428
  0
VERTEX
  8
Layer0
 10
204.771937418395
 20
172.230857117702
 42
0.0
  0
VERTEX
  8
Layer0
 10
204.077772428455
 20
169.771936929909
 42
-0.0574134695473
  0
VERTEX
  8
Layer0
 10
204.034276322048
 20
169.666074672734
 42
0.0
  0
VERTEX
  8
Layer0
 10
202.877334672149
 20
167.571004250199
 42
-0.0619763623604
  0
VERTEX
  8
Layer0
 10
202.804753614822
 20
167.471109735119
 42
0.0
  0
VERTEX
  8
Layer0
 10
201.185035304963
 20
165.739889077842
 42
-0.0601976675499
  0
VERTEX
  8
Layer0
 10
201.093161644644
 20
165.662754244644
 42
0.0
  0
VERTEX
  8
Layer0
 10
199.015696855911
 20
164.307120441827
 42
-0.053213367196
  0
VERTEX
  8
Layer0
 10
198.921166387435
 20
164.25888388658
 42
0.0
  0
VERTEX
  8
Layer0
 10
196.390985300916
 20
163.290574027425
 42
-0.0433129423272
  0
VERTEX
  8
Layer0
 10
196.307863529654
 20
163.266767752432
 42
0.0
  0
VERTEX
  8
Layer0
 10
193.324966145348
 20
162.685781836939
 42
-0.0340267684214
  0
VERTEX
  8
Layer0
 10
193.257516066681
 20
162.677351833015
 42
0.0
  0
VERTEX
  8
Layer0
 10
189.821902384589
 20
162.483689861184
 42
-0.0140782726502
  0
VERTEX
  8
Layer0
 10
189.793762575453
 20
162.482897384306
 42
0.0
  0
VERTEX
  8
Layer0
 10
182.996646545942
 20
162.482897384306
 42
0.0
  0
VERTEX
  8
Layer0
 10
182.996646545942
 20
151.84942991281
 42
-0.0333594983399
  0
VERTEX
  8
Layer0
 10
182.9922050125
 20
151.782933249566
 42
0.0
  0
VERTEX
  8
Layer0
 10
182.710514871655
 20
149.683671009459
 42
-0.0936059319705
  0
VERTEX
  8
Layer0
 10
182.652125854864
 20
149.507509740233
 42
0.0
  0
VERTEX
  8
Layer0
 10
181.807055432329
 20
147.985041598046
 42
-0.1094088992342
  0
VERTEX
  8
Layer0
 10
181.663718569009
 20
147.823147418741
 42
0.0
  0
VERTEX
  8
Layer0
 10
180.389406027091
 20
146.897594098822
 42
-0.1089439710288
  0
SEQEND
  0
POLYLINE
  8
Layer0
 66
     1
 10
0.0
 20
0.0
 30
0.0
 70
     1
  0
VERTEX
  8
Layer0
 10
130.489511441577
 20
253.726219691194
 42
0.0
  0
VERTEX
  8
Layer0
 10
129.963019154522
 20
254.785911173421
 42
-0.0885572272179
  0
VERTEX
  8
Layer0
 10
129.913700816586
 20
254.95458522546
 42
0.0
  0
VERTEX
  8
Layer0
 10
129.578355410818
 20
258.053176774756
 42
-0.0269579069854
  0
VERTEX
  8
Layer0
 10
129.575452716298
 20
258.10697518444
 42
0.0
  0
VERTEX
  8
Layer0
 10
129.575452716298
 20
286.946680080483
 42
-0.0323077024691
  0
VERTEX
  8
Layer0
 10
129.57961916454
 20
287.011093502615
 42
0.0
  0
VERTEX
  8
Layer0
 10
129.8680162135
 20
289.231080088799
 42
-0.0981622204744
  0
VERTEX
  8
Layer0
 10
129.930084550917
 20
289.415358722889
 42
0.0
  0
VERTEX
  8
Layer0
 10
130.795275697799
 20
290.924413048844
 42
-0.1331879288942
  0
VERTEX
  8
Layer0
 10
130.980348855918
 20
291.109486206963
 42
0.0
  0
VERTEX
  8
Layer0
 10
132.489403181873
 20
291.974677353845
 42
-0.0981622204744
  0
VERTEX
  8
Layer0
 10
132.673681815963
 20
292.036745691262
 42
0.0
  0
VERTEX
  8
Layer0
 10
134.893668402147
 20
292.325142740222
 42
-0.0323077024691
  0
VERTEX
  8
Layer0
 10
134.958081824279
 20
292.329309188464
 42
0.0
  0
VERTEX
  8
Layer0
 10
145.340375586854
 20
292.329309188464
 42
-0.0124680187541
  0
VERTEX
  8
Layer0
 10
145.365299998342
 20
292.328687575774
 42
0.0
  0
VERTEX
  8
Layer0
 10
149.127875451059
 20
292.140894148544
 42
-0.0313009618128
  0
VERTEX
  8
Layer0
 10
149.190021096736
 20
292.133876203537
 42
0.0
  0
VERTEX
  8
Layer0
 10
152.375802451531
 20
291.570495921847
 42
-0.0494145570884
  0
VERTEX
  8
Layer0
 10
152.470718950563
 20
291.543840207203
 42
0.0
  0
VERTEX
  8
Layer0
 10
155.233965094091
 20
290.46402800063
 42
-0.058984674124
  0
VERTEX
  8
Layer0
 10
155.337672355364
 20
290.408663427793
 42
0.0
  0
VERTEX
  8
Layer0
 10
157.832642174278
 20
288.671574225915
 42
-0.0568698783311
  0
VERTEX
  8
Layer0
 10
157.917741031941
 20
288.596663336464
 42
0.0
  0
VERTEX
  8
Layer0
 10
160.605534459171
 20
285.625503041361
 42
-0.0630179956542
  0
VERTEX
  8
Layer0
 10
160.677398943603
 20
285.522570311632
 42
0.0
  0
VERTEX
  8
Layer0
 10
162.597251391624
 20
281.867305388762
 42
-0.0560975016404
  0
VERTEX
  8
Layer0
 10
162.637857059624
 20
281.763093846371
 42
0.0
  0
VERTEX
  8
Layer0
 10
163.789768528437
 20
277.423724295734
 42
-0.04582824336
  0
VERTEX
  8
Layer0
 10
163.805051483067
 20
277.333545772483
 42
0.0
  0
VERTEX
  8
Layer0
 10
164.189021972671
 20
272.310071594079
 42
-0.0304594184372
  0
VERTEX
  8
Layer0
 10
164.189958419239
 20
272.249216428511
 42
0.0
  0
VERTEX
  8
Layer0
 10
164.035699532586
 20
268.862227830255
 42
-0.0259299180887
  0
VERTEX
  8
Layer0
 10
164.030661750875
 20
268.810648275612
 42
0.0
  0
VERTEX
  8
Layer0
 10
163.567885090915
 20
265.732177450661
 42
-0.0314856099914
  0
VERTEX
  8
Layer0
 10
163.554638252281
 20
265.670679114177
 42
0.0
  0
VERTEX
  8
Layer0
 10
162.769930002784
 20
262.890665700361
 42
-0.036854606154
  0
VERTEX
  8
Layer0
 10
162.744773503552
 20
262.821488612132
 42
0.0
  0
VERTEX
  8
Layer0
 10
161.624719848287
 20
260.329872247276
 42
-0.040359899445
  0
VERTEX
  8
Layer0
 10
161.585861902689
 20
260.259270755305
 42
0.0
  0
VERTEX
  8
Layer0
 10
160.117049025426
 20
258.035930715063
 42
-0.0409520362896
  0
VERTEX
  8
Layer0
 10
160.06655072762
 20
257.971620879043
 42
0.0
  0
VERTEX
  8
Layer0
 10
158.235564812127
 20
255.99643643907
 42
-0.0412812578388
  0
VERTEX
  8
Layer0
 10
158.174740405667
 20
255.940814617627
 42
0.0
  0
VERTEX
  8
Layer0
 10
156.518134101173
 20
254.659795167594
 42
-0.0381182224051
  0
VERTEX
  8
Layer0
 10
156.454542698493
 20
254.617946916539
 42
0.0
  0
VERTEX
  8
Layer0
 10
154.650384415462
 20
253.61861760735
 42
-0.0538752646718
  0
VERTEX
  8
Layer0
 10
154.551351211377
 20
253.576958331432
 42
0.0
  0
VERTEX
  8
Layer0
 10
150.513792525931
 20
252.369714870668
 42
-0.0548145315379
  0
VERTEX
  8
Layer0
 10
150.406277834596
 20
252.350036855706
 42
0.0
  0
VERTEX
  8
Layer0
 10
145.537062542845
 20
252.001277633707
 42
-0.017877713313
  0
VERTEX
  8
Layer0
 10
145.501341381623
 20
252.0
 42
0.0
  0
VERTEX
  8
Layer0
 10
135.119047619048
 20
252.0
 42
-0.0215169577454
  0
VERTEX
  8
Layer0
 10
135.076073428924
 20
252.001850204273
 42
0.0
  0
VERTEX
  8
Layer0
 10
133.171311524162
 20
252.166169453099
 42
-0.0650317884427
  0
VERTEX
  8
Layer0
 10
133.044803506407
 20
252.193919651449
 42
0.0
  0
VERTEX
  8
Layer0
 10
131.676594250874
 20
252.686877397928
 42
-0.0929306553809
  0
VERTEX
  8
Layer0
 10
131.517711609394
 20
252.780213969134
 42
0.0
  0
VERTEX
  8
Layer0
 10
130.608925559762
 20
253.571629126746
 42
-0.0986202684845
  0
SEQEND
  0
POLYLINE
  8
Layer0
 66
     1
 10
0.0
 20
0.0
 30
0.0
 70
     1
  0
VERTEX
  8
Layer0
 10
131.167174336043
 20
199.311662071355
 42
0.0
  0
VERTEX
  8
Layer0
 10
129.902922156298
 20
200.227155029102
 42
-0.1108164239701
  0
VERTEX
  8
Layer0
 10
129.758007856149
 20
200.39127811559
 42
0.0
  0
VERTEX
  8
Layer0
 10
128.922997795787
 20
201.910392803718
 42
-0.0932192585132
  0
VERTEX
  8
Layer0
 10
128.865437180642
 20
202.086033844287
 42
0.0
  0
VERTEX
  8
Layer0
 10
128.587100493855
 20
204.202063354683
 42
-0.0327082567873
  0
VERTEX
  8
Layer0
 10
128.582830315225
 20
204.267270288397
 42
0.0
  0
VERTEX
  8
Layer0
 10
128.582830315225
 20
235.253185781355
 42
-0.0323690711394
  0
VERTEX
  8
Layer0
 10
128.58701257372
 20
235.317720788979
 42
0.0
  0
VERTEX
  8
Layer0
 10
128.861995806449
 20
237.430396845317
 42
-0.092978888965
  0
VERTEX
  8
Layer0
 10
128.919089506488
 20
237.605697647028
 42
0.0
  0
VERTEX
  8
Layer0
 10
129.744039204678
 20
239.114751972984
 42
-0.1124086763726
  0
VERTEX
  8
Layer0
 10
129.891123304135
 20
239.281051786594
 42
0.0
  0
VERTEX
  8
Layer0
 10
131.152022029822
 20
240.186484382167
 42
-0.1090149434954
  0
VERTEX
  8
Layer0
 10
131.350010287013
 20
240.271499817381
 42
0.0
  0
VERTEX
  8
Layer0
 10
132.932840602238
 20
240.573310682572
 42
-0.0927400666167
  0
VERTEX
  8
Layer0
 10
133.116737972168
 20
240.573947908453
 42
0.0
  0
VERTEX
  8
Layer0
 10
134.743163190142
 20
240.27549049732
 42
-0.1072356890416
  0
VERTEX
  8
Layer0
 10
134.938857518926
 20
240.193870847445
 42
0.0
  0
VERTEX
  8
Layer0
 10
136.223230423017
 20
239.298498614044
 42
-0.1144099948179
  0
VERTEX
  8
Layer0
 10
136.374552668842
 20
239.130820631707
 42
0.0
  0
VERTEX
  8
Layer0
 10
137.209562729205
 20
237.625119759809
 42
-0.0943711572369
  0
VERTEX
  8
Layer0
 10
137.268083242373
 20
237.447432210579
 42
0.0
  0
VERTEX
  8
Layer0
 10
137.54641992916
 20
235.317988883953
 42
-0.0325043963221
  0
VERTEX
  8
Layer0
 10
137.550637156271
 20
235.253185781355
 42
0.0
  0
VERTEX
  8
Layer0
 10
137.550637156271
 20
204.267270288397
 42
-0.032453825563
  0
VERTEX
  8
Layer0
 10
137.546433013793
 20
204.202567369884
 42
0.0
  0
VERTEX
  8
Layer0
 10
137.268096327006
 20
202.0697705892
 42
-0.0937110371725
  0
VERTEX
  8
Layer0
 10
137.210244669279
 20
201.893216636587
 42
0.0
  0
VERTEX
  8
Layer0
 10
136.375234608916
 20
200.377455402516
 42
-0.1137939717492
  0
VERTEX
  8
Layer0
 10
136.225380604434
 20
200.210050996587
 42
0.0
  0
VERTEX
  8
Layer0
 10
134.941007700343
 20
199.304618401013
 42
-0.1080595954248
  0
VERTEX
  8
Layer0
 10
134.744143613218
 20
199.221672317276
 42
0.0
  0
VERTEX
  8
Layer0
 10
133.117718395244
 20
198.919861452085
 42
-0.0942599718381
  0
VERTEX
  8
Layer0
 10
132.930860568308
 20
198.920699443041
 42
0.0
  0
VERTEX
  8
Layer0
 10
131.364797523371
 20
199.22586376229
 42
-0.1090020780792
  0
SEQEND
  0
POLYLINE
  8
Layer0
 66
     1
 10
0.0
 20
0.0
 30
0.0
 70
     1
  0
VERTEX
  8
Layer0
 10
101.365774579675
 20
81.2840005480455
 42
0.0
  0
VERTEX
  8
Layer0
 10
102.120301742653
 20
82.239734954484
 42
-0.0901031332242
  0
VERTEX
  8
Layer0
 10
102.254361901967
 20
82.3579772251685
 42
0.0
  0
VERTEX
  8
Layer0
 10
103.371062103174
 20
83.0320214907621
 42
-0.0944537215574
  0
VERTEX
  8
Layer0
 10
103.546642679182
 20
83.0970534687811
 42
0.0
  0
VERTEX
  8
Layer0
 10
104.884670848196
 20
83.3217348906456
 42
-0.082791645863
  0
VERTEX
  8
Layer0
 10
105.049126772292
 20
83.3219258538609
 42
0.0
  0
VERTEX
  8
Layer0
 10
106.528000011728
 20
83.0771237076503
 42
-0.1055046786341
  0
VERTEX
  8
Layer0
 10
106.722239532204
 20
83.0008280311174
 42
0.0
  0
VERTEX
  8
Layer0
 10
107.832232825296
 20
82.2664215924856
 42
-0.0933572007256
  0
VERTEX
  8
Layer0
 10
107.965030825942
 20
82.1374753902071
 42
0.0
  0
VERTEX
  8
Layer0
 10
110.527069726009
 20
78.5023311916827
 42
-0.0151023247195
  0
VERTEX
  8
Layer0
 10
110.543713071784
 20
78.4771338928828
 42
0.0
  0
VERTEX
  8
Layer0
 10
116.034348507168
 20
69.5922874610795
 42
0.0
  0
VERTEX
  8
Layer0
 10
121.905998136465
 20
78.4872120058873
 42
0.0
  0
VERTEX
  8
Layer0
 10
123.232328267342
 20
80.550392209473
 42
-0.0172862013668
  0
VERTEX
  8
Layer0
 10
123.252011624585
 20
80.5788017586766
 42
0.0
  0
VERTEX
  8
Layer0
 10
124.311703106812
 20
82.0006662791326
 42
-0.0732533155167
  0
VERTEX
  8
Layer0
 10
124.414882205834
 20
82.1035727980973
 42
0.0
  0
VERTEX
  8
Layer0
 10
125.555056585445
 20
82.9486432206326
 42
-0.1123444846825
  0
VERTEX
  8
Layer0
 10
125.758192610795
 20
83.0379194240462
 42
0.0
  0
VERTEX
  8
Layer0
 10
127.220298579943
 20
83.3196095648912
 42
-0.0886018626185
  0
VERTEX
  8
Layer0
 10
127.396105812756
 20
83.3219982891902
 42
0.0
  0
VERTEX
  8
Layer0
 10
128.760961614232
 20
83.0973168673257
 42
-0.0979938323167
  0
VERTEX
  8
Layer0
 10
128.942742242086
 20
83.0292011503797
 42
0.0
  0
VERTEX
  8
Layer0
 10
130.032614810831
 20
82.3551568847861
 42
-0.0973859616915
  0
VERTEX
  8
Layer0
 10
130.174045428682
 20
82.223916581119
 42
0.0
  0
VERTEX
  8
Layer0
 10
130.888331142968
 20
81.241354542219
 42
-0.1065198896714
  0
VERTEX
  8
Layer0
 10
130.973523861993
 20
81.0487007752139
 42
0.0
  0
VERTEX
  8
Layer0
 10
131.211619100088
 20
79.8984660334298
 42
-0.1112372854692
  0
VERTEX
  8
Layer0
 10
131.20778471137
 20
79.6787441115931
 42
0.0
  0
VERTEX
  8
Layer0
 10
130.691352786488
 20
77.5593611471398
 42
-0.0681031214715
  0
VERTEX
  8
Layer0
 10
130.64169332666
 20
77.4332057763057
 42
0.0
  0
VERTEX
  8
Layer0
 10
129.092397552012
 20
74.6699596327778
 42
-0.0196520088414
  0
VERTEX
  8
Layer0
 10
129.071851576791
 20
74.6364711842234
 42
0.0
  0
VERTEX
  8
Layer0
 10
121.501900619322
 20
63.3208351509141
 42
0.0
  0
VERTEX
  8
Layer0
 10
129.665840643588
 20
50.7467924768832
 42
-0.0118729311796
  0
VERTEX
  8
Layer0
 10
129.678293368384
 20
50.7265777128349
 42
0.0
  0
VERTEX
  8
Layer0
 10
131.314778948532
 20
47.9230901206149
 42
-0.0728536334227
  0
VERTEX
  8
Layer0
 10
131.36893242744
 20
47.7886489786868
 42
0.0
  0
VERTEX
  8
Layer0
 10
131.878657444207
 20
45.6826798304641
 42
-0.124918991481
  0
VERTEX
  8
Layer0
 10
131.875932033617
 20
45.4366957027992
 42
0.0
  0
VERTEX
  8
Layer0
 10
131.419862281773
 20
43.7197272252674
 42
-0.1376195374753
  0
VERTEX
  8
Layer0
 10
131.282572399928
 20
43.4870944286295
 42
0.0
  0
VERTEX
  8
Layer0
 10
129.994846041779
 20
42.2530233354034
 42
-0.1322327369607
  0
VERTEX
  8
Layer0
 10
129.766892024211
 20
42.128140585989
 42
0.0
  0
VERTEX
  8
Layer0
 10
127.88895775191
 20
41.6720708341446
 42
-0.120555669059
  0
VERTEX
  8
Layer0
 10
127.651300793378
 20
41.6724768913601
 42
0.0
  0
VERTEX
  8
Layer0
 10
125.746538888617
 20
42.1419604594353
 42
-0.1269457685376
  0
VERTEX
  8
Layer0
 10
125.526571019327
 20
42.2604788473576
 42
0.0
  0
VERTEX
  8
Layer0
 10
124.265672293639
 20
43.42748085943
 42
-0.0596552790185
  0
VERTEX
  8
Layer0
 10
124.188639732731
 20
43.5180358944466
 42
0.0
  0
VERTEX
  8
Layer0
 10
122.391188357815
 20
46.2276267730516
 42
-0.0049057432324
  0
VERTEX
  8
Layer0
 10
122.385845226908
 20
46.2358554780182
 42
0.0
  0
VERTEX
  8
Layer0
 10
115.879798340047
 20
56.4740532922254
 42
0.0
  0
VERTEX
  8
Layer0
 10
108.9542427256
 20
45.9087896176348
 42
0.0
  0
VERTEX
  8
Layer0
 10
107.734111144166
 20
44.0316641077339
 42
-0.0295994036164
  0
VERTEX
  8
Layer0
 10
107.698999975815
 20
43.9840660831993
 42
0.0
  0
VERTEX
  8
Layer0
 10
106.827101920818
 20
42.9377884172033
 42
-0.0721386084164
  0
VERTEX
  8
Layer0
 10
106.720341379132
 20
42.8418554698668
 42
0.0
  0
VERTEX
  8
Layer0
 10
105.513097918368
 20
42.0370264960237
 42
-0.1027574267455
  0
VERTEX
  8
Layer0
 10
105.324480584123
 20
41.96098813447
 42
0.0
  0
VERTEX
  8
Layer0
 10
103.687995003975
 20
41.6658841773941
 42
-0.086205012906
  0
VERTEX
  8
Layer0
 10
103.516860291591
 20
41.6647845093885
 42
0.0
  0
VERTEX
  8
Layer0
 10
102.192245938807
 20
41.8861124771954
 42
-0.0970878391365
  0
VERTEX
  8
Layer0
 10
102.012155513864
 20
41.9537198363446
 42
0.0
  0
VERTEX
  8
Layer0
 10
100.935696761349
 20
42.6177037397651
 42
-0.1095688918438
  0
VERTEX
  8
Layer0
 10
100.78038712977
 20
42.7685934244018
 42
0.0
  0
VERTEX
  8
Layer0
 10
100.066101415484
 20
43.8551125390899
 42
-0.1061453434615
  0
VERTEX
  8
Layer0
 10
99.9901761673226
 20
44.0508267914528
 42
0.0
  0
VERTEX
  8
Layer0
 10
99.7520809292274
 20
45.5397603930625
 42
-0.0945085083781
  0
VERTEX
  8
Layer0
 10
99.757679767664
 20
45.7270204021457
 42
0.0
  0
VERTEX
  8
Layer0
 10
100.247284060085
 20
47.9335931720987
 42
-0.0720973324744
  0
VERTEX
  8
Layer0
 10
100.298125119898
 20
48.0677304378589
 42
0.0
  0
VERTEX
  8
Layer0
 10
101.766937997162
 20
50.7169591434257
 42
-0.0235508614887
  0
VERTEX
  8
Layer0
 10
101.791677377727
 20
50.7570100656513
 42
0.0
  0
VERTEX
  8
Layer0
 10
110.402951157542
 20
63.3326202501972
 42
0.0
  0
VERTEX
  8
Layer0
 10
103.179635800248
 20
74.4816504755842
 42
-0.0181485479272
  0
VERTEX
  8
Layer0
 10
103.161024031108
 20
74.5127987302681
 42
0.0
  0
VERTEX
  8
Layer0
 10
101.591607532114
 20
77.369941587411
 42
-0.0696291061134
  0
VERTEX
  8
Layer0
 10
101.542363464351
 20
77.499483815519
 42
0.0
  0
VERTEX
  8
Layer0
 10
101.019224631353
 20
79.7932463909717
 42
-0.1142813217052
  0
VERTEX
  8
Layer0
 10
101.019978320953
 20
80.0188611801623
 42
0.0
  0
VERTEX
  8
Layer0
 10
101.271487375279
 20
81.0886130245621
 42
-0.109781234234
  0
SEQEND
  0
POLYLINE
  8
Layer0
 66
     1
 10
0.0
 20
0.0
 30
0.0
 70
     1
  0
VERTEX
  8
Layer0
 10
163.063719157438
 20
182.491779611377
 42
0.0
  0
VERTEX
  8
Layer0
 10
164.590379117197
 20
180.597078068788
 42
-0.037365095807
  0
VERTEX
  8
Layer0
 10
164.632734088812
 20
180.535636253813
 42
0.0
  0
VERTEX
  8
Layer0
 10
165.892794450985
 20
178.379365294725
 42
-0.0342954781882
  0
VERTEX
  8
Layer0
 10
165.923226910811
 20
178.317985029259
 42
0.0
  0
VERTEX
  8
Layer0
 10
166.909142403769
 20
175.931164103706
 42
-0.0314801240268
  0
VERTEX
  8
Layer0
 10
166.929451427627
 20
175.871635191162
 42
0.0
  0
VERTEX
  8
Layer0
 10
167.633676779739
 20
173.285283749177
 42
-0.0421577564754
  0
VERTEX
  8
Layer0
 10
167.648875367916
 20
173.202501467515
 42
0.0
  0
VERTEX
  8
Layer0
 10
168.212255649607
 20
167.431207034248
 42
-0.0420420669578
  0
VERTEX
  8
Layer0
 10
168.213369839626
 20
167.347278655166
 42
0.0
  0
VERTEX
  8
Layer0
 10
167.904852066319
 20
162.994495288298
 42
-0.0400566064443
  0
VERTEX
  8
Layer0
 10
167.892833610832
 20
162.915418509812
 42
0.0
  0
VERTEX
  8
Layer0
 10
166.967280290913
 20
158.978463446097
 42
-0.0465962858857
  0
VERTEX
  8
Layer0
 10
166.937673401965
 20
158.890311890953
 42
0.0
  0
VERTEX
  8
Layer0
 10
165.395084535432
 20
155.409426579082
 42
-0.0523567115685
  0
VERTEX
  8
Layer0
 10
165.343036512142
 20
155.318894617816
 42
0.0
  0
VERTEX
  8
Layer0
 10
163.183412098996
 20
152.334320506481
 42
-0.0560223024899
  0
VERTEX
  8
Layer0
 10
163.108237273395
 20
152.251711141667
 42
0.0
  0
VERTEX
  8
Layer0
 10
160.358404946098
 20
149.837224220138
 42
-0.0575024148756
  0
VERTEX
  8
Layer0
 10
160.264169052623
 20
149.77196570233
 42
0.0
  0
VERTEX
  8
Layer0
 10
156.950956443636
 20
148.001341959875
 42
-0.0540968827385
  0
VERTEX
  8
Layer0
 10
156.85088267033
 20
147.961056522922
 42
0.0
  0
VERTEX
  8
Layer0
 10
152.994410503999
 20
146.874537408234
 42
-0.0480652509499
  0
VERTEX
  8
Layer0
 10
152.900026553544
 20
146.857502382931
 42
0.0
  0
VERTEX
  8
Layer0
 10
148.520415554214
 20
146.495329344701
 42
-0.0418808383864
  0
VERTEX
  8
Layer0
 10
148.436800599295
 20
146.495430120591
 42
0.0
  0
VERTEX
  8
Layer0
 10
144.063896508082
 20
146.867663520994
 42
-0.0486968527071
  0
VERTEX
  8
Layer0
 10
143.968342127756
 20
146.885272214831
 42
0.0
  0
VERTEX
  8
Layer0
 10
140.078335420847
 20
148.001972416038
 42
-0.0531839449862
  0
VERTEX
  8
Layer0
 10
139.980064556303
 20
148.041887713749
 42
0.0
  0
VERTEX
  8
Layer0
 10
136.63331740674
 20
149.835985634608
 42
-0.0569634009181
  0
VERTEX
  8
Layer0
 10
136.539973031973
 20
149.900656499453
 42
0.0
  0
VERTEX
  8
Layer0
 10
133.796847612792
 20
152.305083058809
 42
-0.0571650721876
  0
VERTEX
  8
Layer0
 10
133.720268894833
 20
152.389475406207
 42
0.0
  0
VERTEX
  8
Layer0
 10
131.577411751975
 20
155.374049517541
 42
-0.0526432758817
  0
VERTEX
  8
Layer0
 10
131.525469459767
 20
155.465296814817
 42
0.0
  0
VERTEX
  8
Layer0
 10
129.979527139177
 20
158.999837391611
 42
-0.0451589139013
  0
VERTEX
  8
Layer0
 10
129.950998281917
 20
159.085337362185
 42
0.0
  0
VERTEX
  8
Layer0
 10
129.015384599825
 20
163.049120058363
 42
-0.0397530962586
  0
VERTEX
  8
Layer0
 10
129.003338964457
 20
163.127581549385
 42
0.0
  0
VERTEX
  8
Layer0
 10
128.691467737092
 20
167.399882018868
 42
-0.0369106404391
  0
VERTEX
  8
Layer0
 10
128.691535457381
 20
167.473602831705
 42
0.0
  0
VERTEX
  8
Layer0
 10
129.016820500976
 20
171.819679290458
 42
-0.0415974127296
  0
VERTEX
  8
Layer0
 10
129.029876015428
 20
171.901697835975
 42
0.0
  0
VERTEX
  8
Layer0
 10
130.005731146213
 20
175.872187440267
 42
-0.046530562796
  0
VERTEX
  8
Layer0
 10
130.036172455503
 20
175.95991611399
 42
0.0
  0
VERTEX
  8
Layer0
 10
131.629063132901
 20
179.460922150207
 42
-0.0527093385202
  0
VERTEX
  8
Layer0
 10
131.682417474785
 20
179.551503150384
 42
0.0
  0
VERTEX
  8
Layer0
 10
133.858809158219
 20
182.489128904912
 42
-0.056269828278
  0
VERTEX
  8
Layer0
 10
133.935282677672
 20
182.571209055492
 42
0.0
  0
VERTEX
  8
Layer0
 10
136.671701188738
 20
184.915273441809
 42
-0.0561575782471
  0
VERTEX
  8
Layer0
 10
136.76435167564
 20
184.978133534123
 42
0.0
  0
VERTEX
  8
Layer0
 10
140.037322835935
 20
186.698455465713
 42
-0.0529521021849
  0
VERTEX
  8
Layer0
 10
140.135470668968
 20
186.737443553037
 42
0.0
  0
VERTEX
  8
Layer0
 10
143.918166846031
 20
187.793781581206
 42
-0.0475251292194
  0
VERTEX
  8
Layer0
 10
144.011515549047
 20
187.810511720644
 42
0.0
  0
VERTEX
  8
Layer0
 10
148.277109110415
 20
188.1626243967
 42
-0.033733747375
  0
VERTEX
  8
Layer0
 10
148.344492417553
 20
188.163629730448
 42
0.0
  0
VERTEX
  8
Layer0
 10
151.294693624796
 20
188.008532480281
 42
-0.0290217728543
  0
VERTEX
  8
Layer0
 10
151.352334294876
 20
188.002134179453
 42
0.0
  0
VERTEX
  8
Layer0
 10
154.086237715399
 20
187.53684242895
 42
-0.0325678037581
  0
VERTEX
  8
Layer0
 10
154.149535695977
 20
187.521775004096
 42
0.0
  0
VERTEX
  8
Layer0
 10
156.66714132978
 20
186.746288753257
 42
-0.0355159138223
  0
VERTEX
  8
Layer0
 10
156.733287814541
 20
186.720647799755
 42
0.0
  0
VERTEX
  8
Layer0
 10
159.034595661624
 20
185.634967048582
 42
-0.0366743744597
  0
VERTEX
  8
Layer0
 10
159.098376418284
 20
185.598944683524
 42
0.0
  0
VERTEX
  8
Layer0
 10
161.158235573213
 20
184.227381973933
 42
-0.0378329708265
  0
VERTEX
  8
Layer0
 10
161.217783201095
 20
184.180873263645
 42
0.0
  0
VERTEX
  8
Layer0
 10
163.011042758439
 20
182.547741137555
 42
-0.0384837739452
  0
SEQEND
  0
POLYLINE
  8
Layer0
 66
     1
 10
0.0
 20
0.0
 30
0.0
 70
     1
  0
VERTEX
  8
Layer0
 10
117.866598780081
 20
276.874169513435
 42
0.0
  0
VERTEX
  8
Layer0
 10
116.910864373643
 20
277.417429070779
 42
-0.1142012344176
  0
VERTEX
  8
Layer0
 10
116.745021979444
 20
277.570168779564
 42
0.0
  0
VERTEX
  8
Layer0
 10
115.041467318143
 20
280.065138598478
 42
-0.0034534801633
  0
VERTEX
  8
Layer0
 10
115.037612104089
 20
280.070869417585
 42
0.0
  0
VERTEX
  8
Layer0
 10
113.377418256766
 20
282.57595399513
 42
0.0
  0
VERTEX
  8
Layer0
 10
111.511120713289
 20
284.299179324884
 42
0.0
  0
VERTEX
  8
Layer0
 10
109.301892212096
 20
285.320277804752
 42
0.0
  0
VERTEX
  8
Layer0
 10
106.594450747006
 20
285.665500565354
 42
0.0
  0
VERTEX
  8
Layer0
 10
104.377334713079
 20
285.443709180887
 42
0.0
  0
VERTEX
  8
Layer0
 10
102.408597527403
 20
284.781908772643
 42
0.0
  0
VERTEX
  8
Layer0
 10
100.679526333512
 20
283.6809426895
 42
0.0
  0
VERTEX
  8
Layer0
 10
99.1778640629791
 20
282.130685512598
 42
0.0
  0
VERTEX
  8
Layer0
 10
97.9590466184033
 20
280.158431872856
 42
0.0
  0
VERTEX
  8
Layer0
 10
97.0811534091041
 20
277.79095212133
 42
0.0
  0
VERTEX
  8
Layer0
 10
96.5494853836406
 20
275.019091478591
 42
0.0
  0
VERTEX
  8
Layer0
 10
96.3712962969361
 20
271.847818423976
 42
0.0
  0
VERTEX
  8
Layer0
 10
96.6868988798218
 20
267.728547211944
 42
0.0
  0
VERTEX
  8
Layer0
 10
97.6218698583828
 20
264.407452381849
 42
0.0
  0
VERTEX
  8
Layer0
 10
99.1063926702712
 20
261.870326110669
 42
0.0
  0
VERTEX
  8
Layer0
 10
101.081591618329
 20
260.088215521315
 42
0.0
  0
VERTEX
  8
Layer0
 10
103.503394956789
 20
259.023129236338
 42
0.0
  0
VERTEX
  8
Layer0
 10
106.331090510982
 20
258.664869166124
 42
0.0
  0
VERTEX
  8
Layer0
 10
109.356138254441
 20
259.071409973975
 42
0.0
  0
VERTEX
  8
Layer0
 10
111.846210153617
 20
260.276895861633
 42
0.0
  0
VERTEX
  8
Layer0
 10
113.814597424436
 20
262.264301366954
 42
0.0
  0
VERTEX
  8
Layer0
 10
115.276701857313
 20
265.093653345565
 42
0.0
  0
VERTEX
  8
Layer0
 10
116.535881741155
 20
267.625408643927
 42
-0.1169706953659
  0
VERTEX
  8
Layer0
 10
116.683568075117
 20
267.802749832327
 42
0.0
  0
VERTEX
  8
Layer0
 10
117.66277665996
 20
268.537156270959
 42
-0.1192013116049
  0
VERTEX
  8
Layer0
 10
117.878710306004
 20
268.630038455799
 42
0.0
  0
VERTEX
  8
Layer0
 10
119.313988642691
 20
268.87484060201
 42
-0.0888803199224
  0
VERTEX
  8
Layer0
 10
119.490349868509
 20
268.873366248434
 42
0.0
  0
VERTEX
  8
Layer0
 10
120.811610767234
 20
268.625210648165
 42
-0.1005783723548
  0
VERTEX
  8
Layer0
 10
120.996090313603
 20
268.550211175862
 42
0.0
  0
VERTEX
  8
Layer0
 10
122.116143968868
 20
267.805744375058
 42
-0.0958925646689
  0
VERTEX
  8
Layer0
 10
122.251535351099
 20
267.672389638101
 42
0.0
  0
VERTEX
  8
Layer0
 10
123.01612287625
 20
266.559042890951
 42
-0.104333661279
  0
VERTEX
  8
Layer0
 10
123.095338004208
 20
266.368427265383
 42
0.0
  0
VERTEX
  8
Layer0
 10
123.350200512592
 20
265.01363182608
 42
-0.0760840559951
  0
VERTEX
  8
Layer0
 10
123.355354070835
 20
264.862427312355
 42
0.0
  0
VERTEX
  8
Layer0
 10
123.123965740855
 20
262.907363596728
 42
-0.0500729871697
  0
VERTEX
  8
Layer0
 10
123.10237350166
 20
262.809829565168
 42
0.0
  0
VERTEX
  8
Layer0
 10
122.40820851172
 20
260.700506962888
 42
-0.0461718847794
  0
VERTEX
  8
Layer0
 10
122.371460119776
 20
260.616004386797
 42
0.0
  0
VERTEX
  8
Layer0
 10
121.1809839293
 20
258.449673065536
 42
-0.0444812303229
  0
VERTEX
  8
Layer0
 10
121.131483885353
 20
258.375965267229
 42
0.0
  0
VERTEX
  8
Layer0
 10
119.411161953764
 20
256.24987539466
 42
-0.047379613035
  0
VERTEX
  8
Layer0
 10
119.345007075569
 20
256.182327897697
 42
0.0
  0
VERTEX
  8
Layer0
 10
117.084779040693
 20
254.274212538878
 42
-0.0518958436504
  0
VERTEX
  8
Layer0
 10
116.999196019644
 20
254.215984807125
 42
0.0
  0
VERTEX
  8
Layer0
 10
114.189001519308
 20
252.703577027111
 42
-0.0517206102951
  0
VERTEX
  8
Layer0
 10
114.093597905118
 20
252.664318658836
 42
0.0
  0
VERTEX
  8
Layer0
 10
110.75355766367
 20
251.678403165879
 42
-0.0505104410381
  0
VERTEX
  8
Layer0
 10
110.654533614969
 20
251.659759621226
 42
0.0
  0
VERTEX
  8
Layer0
 10
106.804768356753
 20
251.331121123573
 42
-0.0337077643554
  0
VERTEX
  8
Layer0
 10
106.73743997043
 20
251.329924614002
 42
0.0
  0
VERTEX
  8
Layer0
 10
103.766279675326
 20
251.47747659254
 42
-0.0283839669483
  0
VERTEX
  8
Layer0
 10
103.709878051328
 20
251.483498953177
 42
0.0
  0
VERTEX
  8
Layer0
 10
101.020407897069
 20
251.926154888791
 42
-0.034462185179
  0
VERTEX
  8
Layer0
 10
100.953410050512
 20
251.94198503421
 42
0.0
  0
VERTEX
  8
Layer0
 10
98.5221558586941
 20
252.696512197188
 42
-0.0393242769504
  0
VERTEX
  8
Layer0
 10
98.4492167680584
 20
252.725605110061
 42
0.0
  0
VERTEX
  8
Layer0
 10
96.2527043602782
 20
253.808770770691
 42
-0.0422147053546
  0
VERTEX
  8
Layer0
 10
96.1805265771566
 20
253.852283461467
 42
0.0
  0
VERTEX
  8
Layer0
 10
94.1852214128374
 20
255.297622160327
 42
-0.0405620975674
  0
VERTEX
  8
Layer0
 10
94.1236941755255
 20
255.350290288863
 42
0.0
  0
VERTEX
  8
Layer0
 10
92.2960617140904
 20
257.191336566529
 42
-0.0369874378785
  0
VERTEX
  8
Layer0
 10
92.2480315969052
 20
257.247465416687
 42
0.0
  0
VERTEX
  8
Layer0
 10
90.8060463521031
 20
259.209236040429
 42
-0.0316029759927
  0
VERTEX
  8
Layer0
 10
90.7719365713535
 20
259.26237310076
 42
0.0
  0
VERTEX
  8
Layer0
 10
89.5579862024735
 20
261.44547169231
 42
-0.0304775875792
  0
VERTEX
  8
Layer0
 10
89.5316865630222
 20
261.500398637928
 42
0.0
  0
VERTEX
  8
Layer0
 10
88.5692452484681
 20
263.871290656707
 42
-0.0299626003546
  0
VERTEX
  8
Layer0
 10
88.5500875016908
 20
263.928014296785
 42
0.0
  0
VERTEX
  8
Layer0
 10
87.8626294198667
 20
266.453165202218
 42
-0.0416777345348
  0
VERTEX
  8
Layer0
 10
87.8475279714887
 20
266.534994322611
 42
0.0
  0
VERTEX
  8
Layer0
 10
87.2975615060292
 20
272.061486609666
 42
-0.0439755495603
  0
VERTEX
  8
Layer0
 10
87.2965701659798
 20
272.149262355004
 42
0.0
  0
VERTEX
  8
Layer0
 10
87.6419759339208
 20
276.64959770041
 42
-0.0441880068008
  0
VERTEX
  8
Layer0
 10
87.656456607953
 20
276.736604702498
 42
0.0
  0
VERTEX
  8
Layer0
 10
88.6926739117759
 20
280.740628847367
 42
-0.0490552636712
  0
VERTEX
  8
Layer0
 10
88.7263517729128
 20
280.832527253866
 42
0.0
  0
VERTEX
  8
Layer0
 10
90.4064322558102
 20
284.316766019795
 42
-0.0524297334852
  0
VERTEX
  8
Layer0
 10
90.4614526972592
 20
284.405693274259
 42
0.0
  0
VERTEX
  8
Layer0
 10
92.7384480024235
 20
287.346672482844
 42
-0.053299944078
  0
VERTEX
  8
Layer0
 10
92.8120883955285
 20
287.423329757615
 42
0.0
  0
VERTEX
  8
Layer0
 10
95.6088690796332
 20
289.774101052048
 42
-0.0531506739238
  0
VERTEX
  8
Layer0
 10
95.6967868045946
 20
289.833319925583
 42
0.0
  0
VERTEX
  8
Layer0
 10
98.936223424313
 20
291.546934949057
 42
-0.0505018165025
  0
VERTEX
  8
Layer0
 10
99.0295707440892
 20
291.584831815509
 42
0.0
  0
VERTEX
  8
Layer0
 10
102.604352769576
 20
292.631109481505
 42
-0.0483565168706
  0
VERTEX
  8
Layer0
 10
102.699138400673
 20
292.649151234151
 42
0.0
  0
VERTEX
  8
Layer0
 10
106.501955302081
 20
292.99791045615
 42
-0.0491805693413
  0
VERTEX
  8
Layer0
 10
106.600076819252
 20
292.997240567729
 42
0.0
  0
VERTEX
  8
Layer0
 10
111.113825980889
 20
292.521050091539
 42
-0.0597359122765
  0
VERTEX
  8
Layer0
 10
111.229887196178
 20
292.494555050657
 42
0.0
  0
VERTEX
  8
Layer0
 10
115.220497524816
 20
291.065983622085
 42
-0.0576237009259
  0
VERTEX
  8
Layer0
 10
115.323480067996
 20
291.0151034536
 42
0.0
  0
VERTEX
  8
Layer0
 10
118.616571952637
 20
288.885660126974
 42
-0.0607999996472
  0
VERTEX
  8
Layer0
 10
118.70958762941
 20
288.808033290541
 42
0.0
  0
VERTEX
  8
Layer0
 10
121.130781459055
 20
286.229227120185
 42
-0.0635911296239
  0
VERTEX
  8
Layer0
 10
121.205088213625
 20
286.12664153661
 42
0.0
  0
VERTEX
  8
Layer0
 10
122.694021815234
 20
283.400283387717
 42
-0.0774661017186
  0
VERTEX
  8
Layer0
 10
122.746141628778
 20
283.255362755358
 42
0.0
  0
VERTEX
  8
Layer0
 10
123.242452829315
 20
280.683263493118
 42
-0.0942689661165
  0
VERTEX
  8
Layer0
 10
123.242945147793
 20
280.496386919598
 42
0.0
  0
VERTEX
  8
Layer0
 10
123.00149645564
 20
279.208660561449
 42
-0.0967980219677
  0
VERTEX
  8
Layer0
 10
122.930649599861
 20
279.030426033317
 42
0.0
  0
VERTEX
  8
Layer0
 10
122.206303523402
 20
277.903665469937
 42
-0.0915232784606
  0
VERTEX
  8
Layer0
 10
122.082054549538
 20
277.771325445526
 42
0.0
  0
VERTEX
  8
Layer0
 10
121.015656159196
 20
276.986617196029
 42
-0.1081410618881
  0
VERTEX
  8
Layer0
 10
120.820361659736
 20
276.899652696487
 42
0.0
  0
VERTEX
  8
Layer0
 10
119.552756025933
 20
276.638083279988
 42
-0.0847052303581
  0
VERTEX
  8
Layer0
 10
119.384652433201
 20
276.632283756651
 42
0.0
  0
VERTEX
  8
Layer0
 10
118.046624264187
 20
276.813370275765
 42
-0.0958809480025
  0
SEQEND
  0
POLYLINE
  8
Layer0
 66
     1
 10
0.0
 20
0.0
 30
0.0
 70
     1
  0
VERTEX
  8
Layer0
 10
81.2265747783595
 20
94.2798145389515
 42
0.0
  0
VERTEX
  8
Layer0
 10
80.2071247448249
 20
94.7526515610843
 42
-0.0901401995066
  0
VERTEX
  8
Layer0
 10
80.0609682271425
 20
94.8556928366858
 42
0.0
  0
VERTEX
  8
Layer0
 10
78.4915517281486
 20
96.4519369681412
 42
-0.0542105807341
  0
VERTEX
  8
Layer0
 10
78.4245389484486
 20
96.5367641290959
 42
0.0
  0
VERTEX
  8
Layer0
 10
76.6405013897631
 20
99.3804931700081
 42
-0.0047829415881
  0
VERTEX
  8
Layer0
 10
76.6354956061231
 20
99.3886444928793
 42
0.0
  0
VERTEX
  8
Layer0
 10
73.4510792502671
 20
104.687085152203
 42
0.0
  0
VERTEX
  8
Layer0
 10
70.4182243526246
 20
109.084062558391
 42
0.0
  0
VERTEX
  8
Layer0
 10
69.1338073483366
 20
110.295895800766
 42
0.0
  0
VERTEX
  8
Layer0
 10
67.8562533442263
 20
111.038300064656
 42
0.0
  0
VERTEX
  8
Layer0
 10
66.3902419371504
 20
111.431315888681
 42
0.0
  0
VERTEX
  8
Layer0
 10
64.5174044396806
 20
111.567404426559
 42
0.0
  0
VERTEX
  8
Layer0
 10
62.2454728370221
 20
111.567404426559
 42
0.0
  0
VERTEX
  8
Layer0
 10
62.2454728370221
 20
99.4315895372234
 42
-0.0315754259098
  0
VERTEX
  8
Layer0
 10
62.2414927472517
 20
99.3686272575968
 42
0.0
  0
VERTEX
  8
Layer0
 10
61.9665095145221
 20
97.2022959363359
 42
-0.0937786369351
  0
VERTEX
  8
Layer0
 10
61.9092136457589
 20
97.0254224066275
 42
0.0
  0
VERTEX
  8
Layer0
 10
61.0842639475698
 20
95.5163680806717
 42
-0.1157265233018
  0
VERTEX
  8
Layer0
 10
60.9318342247998
 20
95.3462824791459
 42
0.0
  0
VERTEX
  8
Layer0
 10
59.6642285909969
 20
94.4609706079186
 42
-0.1073085813541
  0
VERTEX
  8
Layer0
 10
59.4684631194762
 20
94.3791557807116
 42
0.0
  0
VERTEX
  8
Layer0
 10
57.8655120799054
 20
94.0840518236358
 42
-0.0909025596527
  0
VERTEX
  8
Layer0
 10
57.6851970055256
 20
94.0839156865854
 42
0.0
  0
VERTEX
  8
Layer0
 10
55.9950561604552
 20
94.3924334598919
 42
-0.1136500701108
  0
VERTEX
  8
Layer0
 10
55.7889746940225
 20
94.4812397016498
 42
0.0
  0
VERTEX
  8
Layer0
 10
54.528075968335
 20
95.4067930215693
 42
-0.1159353451056
  0
VERTEX
  8
Layer0
 10
54.3795047013063
 20
95.5807870915029
 42
0.0
  0
VERTEX
  8
Layer0
 10
53.5947964518094
 20
97.1032552336894
 42
-0.0882138628373
  0
VERTEX
  8
Layer0
 10
53.5430721249979
 20
97.2705050344592
 42
0.0
  0
VERTEX
  8
Layer0
 10
53.2815027084989
 20
99.3697672745665
 42
-0.0310003645194
  0
VERTEX
  8
Layer0
 10
53.2776659959759
 20
99.4315895372234
 42
0.0
  0
VERTEX
  8
Layer0
 10
53.2776659959759
 20
129.693158953722
 42
-0.0323077024691
  0
VERTEX
  8
Layer0
 10
53.2818324442176
 20
129.757572375854
 42
0.0
  0
VERTEX
  8
Layer0
 10
53.570229493178
 20
131.977558962038
 42
-0.0981622204742
  0
VERTEX
  8
Layer0
 10
53.6322978305955
 20
132.161837596128
 42
0.0
  0
VERTEX
  8
Layer0
 10
54.4974889774768
 20
133.670891922084
 42
-0.1331879288945
  0
VERTEX
  8
Layer0
 10
54.6825621355956
 20
133.855965080203
 42
0.0
  0
VERTEX
  8
Layer0
 10
56.1916164615513
 20
134.721156227084
 42
-0.0981622204741
  0
VERTEX
  8
Layer0
 10
56.3758950956414
 20
134.783224564501
 42
0.0
  0
VERTEX
  8
Layer0
 10
58.5958816818252
 20
135.071621613462
 42
-0.0323077024692
  0
VERTEX
  8
Layer0
 10
58.6602951039571
 20
135.075788061704
 42
0.0
  0
VERTEX
  8
Layer0
 10
71.6180415828303
 20
135.075788061704
 42
-0.0124173188958
  0
VERTEX
  8
Layer0
 10
71.6428647358292
 20
135.075171492622
 42
0.0
  0
VERTEX
  8
Layer0
 10
76.2303898867347
 20
134.847136616699
 42
-0.0534528615509
  0
VERTEX
  8
Layer0
 10
76.3356887245995
 20
134.830524630145
 42
0.0
  0
VERTEX
  8
Layer0
 10
79.7696256796633
 20
133.904971310226
 42
-0.0584773572775
  0
VERTEX
  8
Layer0
 10
79.8778630690565
 20
133.861727801087
 42
0.0
  0
VERTEX
  8
Layer0
 10
81.6216591790498
 20
132.916053756821
 42
-0.0501426874496
  0
VERTEX
  8
Layer0
 10
81.7043830343103
 20
132.859808427345
 42
0.0
  0
VERTEX
  8
Layer0
 10
83.2335580846121
 20
131.578788977312
 42
-0.0499209451488
  0
VERTEX
  8
Layer0
 10
83.3031539842027
 20
131.507547736435
 42
0.0
  0
VERTEX
  8
Layer0
 10
84.5539923477171
 20
129.941484691498
 42
-0.0516939666277
  0
VERTEX
  8
Layer0
 10
84.6096924716922
 20
129.854711071899
 42
0.0
  0
VERTEX
  8
Layer0
 10
85.5184785213233
 20
128.053906242926
 42
-0.0485958038111
  0
VERTEX
  8
Layer0
 10
85.5535642890642
 20
127.963514099395
 42
0.0
  0
VERTEX
  8
Layer0
 10
86.1068842085813
 20
125.988329659421
 42
-0.0463031558332
  0
VERTEX
  8
Layer0
 10
86.1234820475311
 20
125.897424294625
 42
0.0
  0
VERTEX
  8
Layer0
 10
86.3079220207035
 20
123.808222416691
 42
-0.0405611839986
  0
VERTEX
  8
Layer0
 10
86.308487020094
 20
123.727235263591
 42
0.0
  0
VERTEX
  8
Layer0
 10
86.1533897699263
 20
121.638033385657
 42
-0.0425336197578
  0
VERTEX
  8
Layer0
 10
86.1399354578382
 20
121.554192437378
 42
0.0
  0
VERTEX
  8
Layer0
 10
85.6746437073353
 20
119.68631852725
 42
-0.0490461910124
  0
VERTEX
  8
Layer0
 10
85.6418116271147
 20
119.594133691891
 42
0.0
  0
VERTEX
  8
Layer0
 10
84.8663253762763
 20
117.947587749571
 42
-0.0527555597276
  0
VERTEX
  8
Layer0
 10
84.81172661597
 20
117.857644088921
 42
0.0
  0
VERTEX
  8
Layer0
 10
83.7260458647962
 20
116.432426114407
 42
-0.0509787865081
  0
VERTEX
  8
Layer0
 10
83.6565154413559
 20
116.358216646031
 42
0.0
  0
VERTEX
  8
Layer0
 10
82.2556100087604
 20
115.139236096065
 42
-0.0444617248468
  0
VERTEX
  8
Layer0
 10
82.1837532945096
 20
115.087151341536
 42
0.0
  0
VERTEX
  8
Layer0
 10
80.4625929994056
 20
114.059317672857
 42
-0.0534562566849
  0
VERTEX
  8
Layer0
 10
80.365758147235
 20
114.014727874102
 42
0.0
  0
VERTEX
  8
Layer0
 10
76.9225097662724
 20
112.855614557739
 42
0.0
  0
VERTEX
  8
Layer0
 10
78.1547928042123
 20
112.026116590453
 42
-0.0452612931677
  0
VERTEX
  8
Layer0
 10
78.224870002369
 20
111.96910734358
 42
0.0
  0
VERTEX
  8
Layer0
 10
80.2034078963999
 20
110.037517806357
 42
-0.0406901834892
  0
VERTEX
  8
Layer0
 10
80.2567396376865
 20
109.976226588848
 42
0.0
  0
VERTEX
  8
Layer0
 10
83.704090408981
 20
105.294804724327
 42
-0.0374580196641
  0
VERTEX
  8
Layer0
 10
83.7438196631224
 20
105.231414797604
 42
0.0
  0
VERTEX
  8
Layer0
 10
86.1046513197286
 20
100.751200176544
 42
-0.0467378064203
  0
VERTEX
  8
Layer0
 10
86.1402470616239
 20
100.664987738592
 42
0.0
  0
VERTEX
  8
Layer0
 10
86.9853174841591
 20
97.9151554112955
 42
-0.1535489277661
  0
VERTEX
  8
Layer0
 10
86.9833487972246
 20
97.6151377651621
 42
0.0
  0
VERTEX
  8
Layer0
 10
86.487037596688
 20
96.0725488986296
 42
-0.1336998470163
  0
VERTEX
  8
Layer0
 10
86.3437068819063
 20
95.8523909154696
 42
0.0
  0
VERTEX
  8
Layer0
 10
84.9889114426038
 20
94.645147454705
 42
-0.1278106690276
  0
VERTEX
  8
Layer0
 10
84.7650852971619
 20
94.5304281780762
 42
0.0
  0
VERTEX
  8
Layer0
 10
82.7798404950157
 20
94.0877722424626
 42
-0.0868206480139
  0
VERTEX
  8
Layer0
 10
82.6076819980042
 20
94.0798167747035
 42
0.0
  0
VERTEX
  8
Layer0
 10
81.3736109047782
 20
94.2374291154144
 42
-0.0769649008189
  0
SEQEND
  0
POLYLINE
  8
Layer0
 66
     1
 10
0.0
 20
0.0
 30
0.0
 70
     1
  0
VERTEX
  8
Layer0
 10
90.1576337426017
 20
186.402779032082
 42
0.0
  0
VERTEX
  8
Layer0
 10
91.170376868021
 20
187.278030541136
 42
-0.0690159028889
  0
VERTEX
  8
Layer0
 10
91.285671254158
 20
187.352728388178
 42
0.0
  0
VERTEX
  8
Layer0
 10
92.5130354392687
 20
187.926169032042
 42
-0.0734824685329
  0
VERTEX
  8
Layer0
 10
92.653091683057
 20
187.968020737545
 42
0.0
  0
VERTEX
  8
Layer0
 10
93.9743525817827
 20
188.159167618832
 42
-0.0829957429083
  0
VERTEX
  8
Layer0
 10
94.1391688203207
 20
188.155551189713
 42
0.0
  0
VERTEX
  8
Layer0
 10
95.9768616439288
 20
187.806791967715
 42
-0.1061903122178
  0
VERTEX
  8
Layer0
 10
96.1703663163803
 20
187.725175987087
 42
0.0
  0
VERTEX
  8
Layer0
 10
97.5117479394522
 20
186.786208850936
 42
-0.0758150753075
  0
VERTEX
  8
Layer0
 10
97.6208119277569
 20
186.682118979474
 42
0.0
  0
VERTEX
  8
Layer0
 10
98.80122775606
 20
185.152943929173
 42
-0.0225580304642
  0
VERTEX
  8
Layer0
 10
98.827144362404
 20
185.116042458974
 42
0.0
  0
VERTEX
  8
Layer0
 10
100.072370998711
 20
183.161170535309
 42
0.0
  0
VERTEX
  8
Layer0
 10
114.47149564051
 20
161.373353213919
 42
0.0
  0
VERTEX
  8
Layer0
 10
114.47149564051
 20
183.103621730382
 42
-0.0305292243133
  0
VERTEX
  8
Layer0
 10
114.47521683487
 20
183.164509718301
 42
0.0
  0
VERTEX
  8
Layer0
 10
114.72001898108
 20
185.159814882621
 42
-0.0886634764311
  0
VERTEX
  8
Layer0
 10
114.771836314607
 20
185.327955276803
 42
0.0
  0
VERTEX
  8
Layer0
 10
115.506242753239
 20
186.753173251316
 42
-0.1144201415421
  0
VERTEX
  8
Layer0
 10
115.652391475487
 20
186.925404764131
 42
0.0
  0
VERTEX
  8
Layer0
 10
116.802626217271
 20
187.78053554884
 42
-0.1131167512548
  0
VERTEX
  8
Layer0
 10
117.007129353528
 20
187.870396572227
 42
0.0
  0
VERTEX
  8
Layer0
 10
118.499416409196
 20
188.155440167129
 42
-0.0933294421599
  0
VERTEX
  8
Layer0
 10
118.684462828319
 20
188.155924624427
 42
0.0
  0
VERTEX
  8
Layer0
 10
120.220344786736
 20
187.870881029525
 42
-0.1120006908735
  0
VERTEX
  8
Layer0
 10
120.423536990562
 20
187.783393902038
 42
0.0
  0
VERTEX
  8
Layer0
 10
121.597245910749
 20
186.928263117329
 42
-0.1154543036515
  0
VERTEX
  8
Layer0
 10
121.745997712679
 20
186.755641669455
 42
0.0
  0
VERTEX
  8
Layer0
 10
122.490464513484
 20
185.330423694942
 42
-0.0896478178946
  0
VERTEX
  8
Layer0
 10
122.543461033248
 20
185.160636344276
 42
0.0
  0
VERTEX
  8
Layer0
 10
122.791616633517
 20
183.165331179956
 42
-0.0309434680783
  0
VERTEX
  8
Layer0
 10
122.795439302482
 20
183.103621730382
 42
0.0
  0
VERTEX
  8
Layer0
 10
122.795439302482
 20
152.171361502347
 42
-0.0294789616805
  0
VERTEX
  8
Layer0
 10
122.791969299305
 20
152.112557061568
 42
0.0
  0
VERTEX
  8
Layer0
 10
122.52369297469
 20
149.847298845606
 42
-0.0861348783615
  0
VERTEX
  8
Layer0
 10
122.474839524412
 20
149.683424796912
 42
0.0
  0
VERTEX
  8
Layer0
 10
121.670010550569
 20
148.065383214082
 42
-0.1212730945624
  0
VERTEX
  8
Layer0
 10
121.515485822475
 20
147.883016013122
 42
0.0
  0
VERTEX
  8
Layer0
 10
120.174104199403
 20
146.912191063423
 42
-0.1144566282516
  0
VERTEX
  8
Layer0
 10
119.965861641221
 20
146.824499077683
 42
0.0
  0
VERTEX
  8
Layer0
 10
118.087927368921
 20
146.500890761117
 42
-0.0824435091407
  0
VERTEX
  8
Layer0
 10
117.924156588054
 20
146.499886743113
 42
0.0
  0
VERTEX
  8
Layer0
 10
115.992567050831
 20
146.80840451642
 42
-0.0973407113191
  0
VERTEX
  8
Layer0
 10
115.811568036541
 20
146.874978208041
 42
0.0
  0
VERTEX
  8
Layer0
 10
114.201910088854
 20
147.854186792883
 42
-0.0745450115129
  0
VERTEX
  8
Layer0
 10
114.0880659644
 20
147.949172876024
 42
0.0
  0
VERTEX
  8
Layer0
 10
112.693029076406
 20
149.518589375018
 42
-0.0288646774773
  0
VERTEX
  8
Layer0
 10
112.657258241422
 20
149.563839561182
 42
0.0
  0
VERTEX
  8
Layer0
 10
111.369531883273
 20
151.401532384791
 42
-0.0083196982579
  0
VERTEX
  8
Layer0
 10
111.360211835274
 20
151.415315269008
 42
0.0
  0
VERTEX
  8
Layer0
 10
97.3360160965796
 20
172.917403529052
 42
0.0
  0
VERTEX
  8
Layer0
 10
97.3360160965796
 20
151.554325955734
 42
-0.0328721230826
  0
VERTEX
  8
Layer0
 10
97.331703116721
 20
151.488794451376
 42
0.0
  0
VERTEX
  8
Layer0
 10
97.070133700222
 20
149.510256557346
 42
-0.0929818849098
  0
VERTEX
  8
Layer0
 10
97.0126848890799
 20
149.335065665212
 42
0.0
  0
VERTEX
  8
Layer0
 10
96.227976639583
 20
147.90649423664
 42
-0.1107924907004
  0
VERTEX
  8
Layer0
 10
96.0831476684388
 20
147.742357374696
 42
0.0
  0
VERTEX
  8
Layer0
 10
94.8893180239048
 20
146.877166227815
 42
-0.1093830207218
  0
VERTEX
  8
Layer0
 10
94.6909884904907
 20
146.791148872627
 42
0.0
  0
VERTEX
  8
Layer0
 10
93.2020548888811
 20
146.502751823666
 42
-0.0954531148477
  0
VERTEX
  8
Layer0
 10
93.0128724510781
 20
146.502563598828
 42
0.0
  0
VERTEX
  8
Layer0
 10
91.4904043088916
 20
146.794314101847
 42
-0.1119595937489
  0
VERTEX
  8
Layer0
 10
91.2877911980725
 20
146.882936760845
 42
0.0
  0
VERTEX
  8
Layer0
 10
90.100668461654
 20
147.758188269899
 42
-0.1117206542576
  0
VERTEX
  8
Layer0
 10
89.9563222604818
 20
147.925121909924
 42
0.0
  0
VERTEX
  8
Layer0
 10
89.191734735331
 20
149.357046792553
 42
-0.0905594634587
  0
VERTEX
  8
Layer0
 10
89.1369635560651
 20
149.5281393917
 42
0.0
  0
VERTEX
  8
Layer0
 10
88.8821010476813
 20
151.489910015442
 42
-0.0323089734552
  0
VERTEX
  8
Layer0
 10
88.8779342723005
 20
151.554325955734
 42
0.0
  0
VERTEX
  8
Layer0
 10
88.8779342723005
 20
181.896378269618
 42
-0.0351789757352
  0
VERTEX
  8
Layer0
 10
88.8828722838982
 20
181.966475542312
 42
0.0
  0
VERTEX
  8
Layer0
 10
89.3121144032812
 20
184.997998010454
 42
-0.1035430546958
  0
VERTEX
  8
Layer0
 10
89.3817944997934
 20
185.190674872811
 42
0.0
  0
VERTEX
  8
Layer0
 10
90.0591922194446
 20
186.287254349672
 42
-0.0763307097516
  0
VERTEX
  8
Layer0
 10
90.1576327466228
 20
186.402778171317
 42
-0.0000006581966
  0
SEQEND
  0
POLYLINE
  8
Layer0
 66
     1
 10
0.0
 20
0.0
 30
0.0
 70
     1
  0
VERTEX
  8
Layer0
 10
114.486437586162
 20
240.271679586096
 42
0.0
  0
VERTEX
  8
Layer0
 10
116.086035171675
 20
240.573490451287
 42
-0.0922536130585
  0
VERTEX
  8
Layer0
 10
116.268984786386
 20
240.573947908453
 42
0.0
  0
VERTEX
  8
Layer0
 10
117.895410004361
 20
240.27549049732
 42
-0.1072356890416
  0
VERTEX
  8
Layer0
 10
118.091104333145
 20
240.193870847445
 42
0.0
  0
VERTEX
  8
Layer0
 10
119.375477237236
 20
239.298498614044
 42
-0.114409994818
  0
VERTEX
  8
Layer0
 10
119.526799483061
 20
239.130820631706
 42
0.0
  0
VERTEX
  8
Layer0
 10
120.361809543423
 20
237.625119759808
 42
-0.0943711572366
  0
VERTEX
  8
Layer0
 10
120.420330056591
 20
237.447432210579
 42
0.0
  0
VERTEX
  8
Layer0
 10
120.698666743379
 20
235.317988883953
 42
-0.0325043963222
  0
VERTEX
  8
Layer0
 10
120.70288397049
 20
235.253185781355
 42
0.0
  0
VERTEX
  8
Layer0
 10
120.70288397049
 20
204.267270288397
 42
-0.0328406584253
  0
VERTEX
  8
Layer0
 10
120.698579225525
 20
204.20180110377
 42
0.0
  0
VERTEX
  8
Layer0
 10
120.41688908468
 20
202.069004323086
 42
-0.0946018490562
  0
VERTEX
  8
Layer0
 10
120.357907378624
 20
201.890996042353
 42
0.0
  0
VERTEX
  8
Layer0
 10
119.512836956088
 20
200.375234808282
 42
-0.1128190664333
  0
VERTEX
  8
Layer0
 10
119.363711783104
 20
200.209697694449
 42
0.0
  0
VERTEX
  8
Layer0
 10
118.075985424956
 20
199.304265098875
 42
-0.1072767692243
  0
VERTEX
  8
Layer0
 10
117.880541316486
 20
199.221843584601
 42
0.0
  0
VERTEX
  8
Layer0
 10
116.270883368799
 20
198.92003271941
 42
-0.093255999181
  0
VERTEX
  8
Layer0
 10
116.085979457406
 20
198.9201485014
 42
0.0
  0
VERTEX
  8
Layer0
 10
114.469614601605
 20
199.225312820649
 42
-0.1114436000177
  0
VERTEX
  8
Layer0
 10
114.267582582626
 20
199.312779352255
 42
0.0
  0
VERTEX
  8
Layer0
 10
113.013390765054
 20
200.228272310002
 42
-0.1137493223637
  0
VERTEX
  8
Layer0
 10
112.866359662629
 20
200.398047803636
 42
0.0
  0
VERTEX
  8
Layer0
 10
112.061530688786
 20
201.917162491764
 42
-0.0905193722649
  0
VERTEX
  8
Layer0
 10
112.007324124486
 20
202.088352748895
 42
0.0
  0
VERTEX
  8
Layer0
 10
111.739047799871
 20
204.204382259291
 42
-0.0315379658432
  0
VERTEX
  8
Layer0
 10
111.735077129443
 20
204.267270288397
 42
0.0
  0
VERTEX
  8
Layer0
 10
111.735077129443
 20
216.993293091885
 42
0.0
  0
VERTEX
  8
Layer0
 10
95.5385647216635
 20
216.993293091885
 42
0.0
  0
VERTEX
  8
Layer0
 10
95.5385647216634
 20
204.267270288397
 42
-0.0328406584253
  0
VERTEX
  8
Layer0
 10
95.5342599766984
 20
204.20180110377
 42
0.0
  0
VERTEX
  8
Layer0
 10
95.2525698358534
 20
202.069004323086
 42
-0.0946018490561
  0
VERTEX
  8
Layer0
 10
95.1935881297974
 20
201.890996042353
 42
0.0
  0
VERTEX
  8
Layer0
 10
94.348517707262
 20
200.375234808282
 42
-0.1128190664334
  0
VERTEX
  8
Layer0
 10
94.1993925342783
 20
200.209697694449
 42
0.0
  0
VERTEX
  8
Layer0
 10
92.9116661761295
 20
199.304265098875
 42
-0.1072767692242
  0
VERTEX
  8
Layer0
 10
92.7162220676592
 20
199.221843584601
 42
0.0
  0
VERTEX
  8
Layer0
 10
91.106564119973
 20
198.92003271941
 42
-0.093255999181
  0
VERTEX
  8
Layer0
 10
90.92166020858
 20
198.9201485014
 42
0.0
  0
VERTEX
  8
Layer0
 10
89.3052953527785
 20
199.225312820649
 42
-0.1114436000177
  0
VERTEX
  8
Layer0
 10
89.1032633337996
 20
199.312779352255
 42
0.0
  0
VERTEX
  8
Layer0
 10
87.8490715162276
 20
200.228272310002
 42
-0.1137493223637
  0
VERTEX
  8
Layer0
 10
87.7020404138028
 20
200.398047803636
 42
0.0
  0
VERTEX
  8
Layer0
 10
86.8972114399597
 20
201.917162491764
 42
-0.090519372265
  0
VERTEX
  8
Layer0
 10
86.84300487566
 20
202.088352748895
 42
0.0
  0
VERTEX
  8
Layer0
 10
86.5747285510457
 20
204.204382259291
 42
-0.0315379658431
  0
VERTEX
  8
Layer0
 10
86.5707578806172
 20
204.267270288397
 42
0.0
  0
VERTEX
  8
Layer0
 10
86.5707578806172
 20
235.253185781355
 42
-0.0311965384601
  0
VERTEX
  8
Layer0
 10
86.5746432103923
 20
235.315396986034
 42
0.0
  0
VERTEX
  8
Layer0
 10
86.8395660809489
 20
237.428073042372
 42
-0.0902455436947
  0
VERTEX
  8
Layer0
 10
86.8932856328358
 20
237.598856600018
 42
0.0
  0
VERTEX
  8
Layer0
 10
87.6880542445059
 20
239.107910925974
 42
-0.1153786143315
  0
VERTEX
  8
Layer0
 10
87.8372681507818
 20
239.279940578831
 42
0.0
  0
VERTEX
  8
Layer0
 10
89.088106514296
 20
240.185373174404
 42
-0.111412018485
  0
VERTEX
  8
Layer0
 10
89.2904238660688
 20
240.272023203233
 42
0.0
  0
VERTEX
  8
Layer0
 10
90.9235559921586
 20
240.573834068424
 42
-0.0913097891272
  0
VERTEX
  8
Layer0
 10
91.1046655375603
 20
240.573947908453
 42
0.0
  0
VERTEX
  8
Layer0
 10
92.7310907555349
 20
240.27549049732
 42
-0.1072356890416
  0
VERTEX
  8
Layer0
 10
92.9267850843187
 20
240.193870847445
 42
0.0
  0
VERTEX
  8
Layer0
 10
94.21115798841
 20
239.298498614044
 42
-0.114409994818
  0
VERTEX
  8
Layer0
 10
94.3624802342349
 20
239.130820631706
 42
0.0
  0
VERTEX
  8
Layer0
 10
95.1974902945971
 20
237.625119759808
 42
-0.0943711572367
  0
VERTEX
  8
Layer0
 10
95.2560108077653
 20
237.447432210579
 42
0.0
  0
VERTEX
  8
Layer0
 10
95.5343474945526
 20
235.317988883953
 42
-0.0325043963222
  0
VERTEX
  8
Layer0
 10
95.5385647216634
 20
235.253185781355
 42
0.0
  0
VERTEX
  8
Layer0
 10
95.5385647216634
 20
224.485580147552
 42
0.0
  0
VERTEX
  8
Layer0
 10
111.735077129443
 20
224.485580147552
 42
0.0
  0
VERTEX
  8
Layer0
 10
111.735077129443
 20
235.253185781355
 42
-0.0319783734927
  0
VERTEX
  8
Layer0
 10
111.739159241789
 20
235.316946652625
 42
0.0
  0
VERTEX
  8
Layer0
 10
112.010789020461
 20
237.429622708963
 42
-0.0920747162437
  0
VERTEX
  8
Layer0
 10
112.066754209287
 20
237.603436295061
 42
0.0
  0
VERTEX
  8
Layer0
 10
112.881643545303
 20
239.112490621017
 42
-0.1133922794968
  0
VERTEX
  8
Layer0
 10
113.029443881209
 20
239.280683334375
 42
0.0
  0
VERTEX
  8
Layer0
 10
114.286989152838
 20
240.186115929948
 42
-0.1098223910639
  0
SEQEND
  0
POLYLINE
  8
Layer0
 66
     1
 10
0.0
 20
0.0
 30
0.0
 70
     1
  0
VERTEX
  8
Layer0
 10
78.2494605443199
 20
220.318106477632
 42
0.0
  0
VERTEX
  8
Layer0
 10
79.0710567884514
 20
219.479742963212
 42
-0.0950377032016
  0
VERTEX
  8
Layer0
 10
79.1752010212975
 20
219.322775655543
 42
0.0
  0
VERTEX
  8
Layer0
 10
79.7084002164684
 20
218.048463113625
 42
-0.0743838912673
  0
VERTEX
  8
Layer0
 10
79.7446866438982
 20
217.905032794084
 42
0.0
  0
VERTEX
  8
Layer0
 10
79.9224197089553
 20
216.120995235399
 42
-0.0248292056731
  0
VERTEX
  8
Layer0
 10
79.9248826291081
 20
216.071428571429
 42
0.0
  0
VERTEX
  8
Layer0
 10
79.9248826291081
 20
208.532863849765
 42
-0.0305824600476
  0
VERTEX
  8
Layer0
 10
79.9211484699444
 20
208.471870282735
 42
0.0
  0
VERTEX
  8
Layer0
 10
79.6260445128685
 20
206.070797177437
 42
-0.1174393940259
  0
VERTEX
  8
Layer0
 10
79.5452747795662
 20
205.853648722068
 42
0.0
  0
VERTEX
  8
Layer0
 10
78.4587556648782
 20
204.230576958151
 42
-0.0947215005356
  0
VERTEX
  8
Layer0
 10
78.3268710767621
 20
204.096936870626
 42
0.0
  0
VERTEX
  8
Layer0
 10
76.3013848259236
 20
202.701899982631
 42
-0.0395310192589
  0
VERTEX
  8
Layer0
 10
76.2330420759038
 20
202.662395756708
 42
0.0
  0
VERTEX
  8
Layer0
 10
72.7320360396864
 20
200.992375635984
 42
-0.0292029129751
  0
VERTEX
  8
Layer0
 10
72.6779890494877
 20
200.970367625877
 42
0.0
  0
VERTEX
  8
Layer0
 10
69.3111211755776
 20
199.823486338151
 42
-0.0345219250511
  0
VERTEX
  8
Layer0
 10
69.2444648031614
 20
199.805804733737
 42
0.0
  0
VERTEX
  8
Layer0
 10
65.7971140318668
 20
199.141820830316
 42
-0.0328132509674
  0
VERTEX
  8
Layer0
 10
65.7320669422477
 20
199.133668872276
 42
0.0
  0
VERTEX
  8
Layer0
 10
61.9896122138775
 20
198.912340904469
 42
-0.0348624019983
  0
VERTEX
  8
Layer0
 10
61.9199759809005
 20
198.913080858738
 42
0.0
  0
VERTEX
  8
Layer0
 10
57.5873133383788
 20
199.261840080737
 42
-0.0449941564587
  0
VERTEX
  8
Layer0
 10
57.4988052166943
 20
199.277055868379
 42
0.0
  0
VERTEX
  8
Layer0
 10
53.568557061094
 20
200.323333534375
 42
-0.0499362167618
  0
VERTEX
  8
Layer0
 10
53.4753181111055
 20
200.358425432027
 42
0.0
  0
VERTEX
  8
Layer0
 10
50.0212604316958
 20
202.068687001443
 42
-0.0547132495465
  0
VERTEX
  8
Layer0
 10
49.9293546430237
 20
202.127475734252
 42
0.0
  0
VERTEX
  8
Layer0
 10
47.0252634290732
 20
204.468186666513
 42
-0.0558371122034
  0
VERTEX
  8
Layer0
 10
46.9469023932343
 20
204.547264337579
 42
0.0
  0
VERTEX
  8
Layer0
 10
44.6229587312626
 20
207.484890092106
 42
-0.0535774170316
  0
VERTEX
  8
Layer0
 10
44.5660002512327
 20
207.575290605327
 42
0.0
  0
VERTEX
  8
Layer0
 10
42.8523852277585
 20
211.076296641544
 42
-0.0493502613644
  0
VERTEX
  8
Layer0
 10
42.8180170171398
 20
211.168564408424
 42
0.0
  0
VERTEX
  8
Layer0
 10
41.7616789889707
 20
215.172588553293
 42
-0.0447601955396
  0
VERTEX
  8
Layer0
 10
41.7466977446019
 20
215.260664927426
 42
0.0
  0
VERTEX
  8
Layer0
 10
41.3945850685457
 20
219.707345007909
 42
-0.039201675138
  0
VERTEX
  8
Layer0
 10
41.3945336045872
 20
219.785628038125
 42
0.0
  0
VERTEX
  8
Layer0
 10
41.7365859184704
 20
224.178652853685
 42
-0.0433210615601
  0
VERTEX
  8
Layer0
 10
41.7507301851295
 20
224.263968150587
 42
0.0
  0
VERTEX
  8
Layer0
 10
42.7768871267793
 20
228.267992295456
 42
-0.0491991871949
  0
VERTEX
  8
Layer0
 10
42.8104725423591
 20
228.360228712866
 42
0.0
  0
VERTEX
  8
Layer0
 10
44.5006133874297
 20
231.88135547343
 42
-0.0557477548984
  0
VERTEX
  8
Layer0
 10
44.5595511670185
 20
231.97559282051
 42
0.0
  0
VERTEX
  8
Layer0
 10
46.8935551911633
 20
234.919925483152
 42
-0.0570970937729
  0
VERTEX
  8
Layer0
 10
46.9739559429904
 20
235.000494836394
 42
0.0
  0
VERTEX
  8
Layer0
 10
49.918288605633
 20
237.344559222712
 42
-0.054532011755
  0
VERTEX
  8
Layer0
 10
50.0102216508024
 20
237.402635428668
 42
0.0
  0
VERTEX
  8
Layer0
 10
53.5313484113658
 20
239.122957360258
 42
-0.0500887526437
  0
VERTEX
  8
Layer0
 10
53.6250663174917
 20
239.157631840124
 42
0.0
  0
VERTEX
  8
Layer0
 10
57.6894526353991
 20
240.213969868293
 42
-0.0443909641859
  0
VERTEX
  8
Layer0
 10
57.7768484829879
 20
240.228572040397
 42
0.0
  0
VERTEX
  8
Layer0
 10
62.3509598176625
 20
240.580684716453
 42
-0.0368913720024
  0
VERTEX
  8
Layer0
 10
62.4246419326135
 20
240.580911559005
 42
0.0
  0
VERTEX
  8
Layer0
 10
66.1670966609836
 20
240.315988688448
 42
-0.0416766829959
  0
VERTEX
  8
Layer0
 10
66.2493210646835
 20
240.303227107495
 42
0.0
  0
VERTEX
  8
Layer0
 10
69.5357060412095
 20
239.508458495825
 42
-0.0426947064914
  0
VERTEX
  8
Layer0
 10
69.6165427305968
 20
239.481434948721
 42
0.0
  0
VERTEX
  8
Layer0
 10
72.3864957822399
 20
238.28425185013
 42
-0.0458359287306
  0
VERTEX
  8
Layer0
 10
72.4667958610248
 20
238.240429179828
 42
0.0
  0
VERTEX
  8
Layer0
 10
74.6599548147471
 20
236.768262848507
 42
-0.0475844461557
  0
VERTEX
  8
Layer0
 10
74.7334126358347
 20
236.708094835592
 42
0.0
  0
VERTEX
  8
Layer0
 10
76.4034327565591
 20
235.051488531098
 42
-0.0471053422003
  0
VERTEX
  8
Layer0
 10
76.4636512187633
 20
234.979307287208
 42
0.0
  0
VERTEX
  8
Layer0
 10
77.6641877714125
 20
233.228804269099
 42
-0.0494623785952
  0
VERTEX
  8
Layer0
 10
77.7116984857169
 20
233.142310738629
 42
0.0
  0
VERTEX
  8
Layer0
 10
78.4360445621756
 20
231.445462985444
 42
-0.0609266450282
  0
VERTEX
  8
Layer0
 10
78.4697998070227
 20
231.328847447741
 42
0.0
  0
VERTEX
  8
Layer0
 10
78.7112484991756
 20
229.833206938016
 42
-0.0896010511329
  0
VERTEX
  8
Layer0
 10
78.7079295061889
 20
229.655463059192
 42
0.0
  0
VERTEX
  8
Layer0
 10
78.4295928194017
 20
228.263779625255
 42
-0.1059719452466
  0
VERTEX
  8
Layer0
 10
78.3463267598562
 20
228.071439282232
 42
0.0
  0
VERTEX
  8
Layer0
 10
77.511316699494
 20
226.901083816101
 42
-0.094074951881
  0
VERTEX
  8
Layer0
 10
77.3765846470731
 20
226.772129220592
 42
0.0
  0
VERTEX
  8
Layer0
 10
76.1525739160199
 20
225.977360608922
 42
-0.0989740952738
  0
VERTEX
  8
Layer0
 10
75.9704272248899
 20
225.904906963416
 42
0.0
  0
VERTEX
  8
Layer0
 10
74.5250885260302
 20
225.63998409286
 42
-0.1055175036355
  0
VERTEX
  8
Layer0
 10
74.3164649011857
 20
225.646030575075
 42
0.0
  0
VERTEX
  8
Layer0
 10
72.6665655048075
 20
226.048445061996
 42
-0.1166199585258
  0
VERTEX
  8
Layer0
 10
72.4615548708052
 20
226.152950663702
 42
0.0
  0
VERTEX
  8
Layer0
 10
71.1335870639641
 20
227.279711227083
 42
-0.0616292952059
  0
VERTEX
  8
Layer0
 10
71.0504205193468
 20
227.370050871765
 42
0.0
  0
VERTEX
  8
Layer0
 10
68.5865275184109
 20
230.81420237845
 42
0.0
  0
VERTEX
  8
Layer0
 10
67.4683406690752
 20
231.829027418183
 42
0.0
  0
VERTEX
  8
Layer0
 10
66.0111568977791
 20
232.672494482344
 42
0.0
  0
VERTEX
  8
Layer0
 10
64.1489000956241
 20
233.243544268355
 42
0.0
  0
VERTEX
  8
Layer0
 10
61.8013002181455
 20
233.436762365266
 42
0.0
  0
VERTEX
  8
Layer0
 10
59.2806887424664
 20
233.207322089916
 42
0.0
  0
VERTEX
  8
Layer0
 10
57.0642291654904
 20
232.525088144981
 42
0.0
  0
VERTEX
  8
Layer0
 10
55.1477282224984
 20
231.415367133064
 42
0.0
  0
VERTEX
  8
Layer0
 10
53.5302272490237
 20
229.89676661359
 42
0.0
  0
VERTEX
  8
Layer0
 10
52.2285650362861
 20
227.969921810989
 42
0.0
  0
VERTEX
  8
Layer0
 10
51.2651733390857
 20
225.632565444963
 42
0.0
  0
VERTEX
  8
Layer0
 10
50.669052065297
 20
222.941875979666
 42
0.0
  0
VERTEX
  8
Layer0
 10
50.4691621400826
 20
219.959911521551
 42
0.0
  0
VERTEX
  8
Layer0
 10
50.6637086307539
 20
216.766722286479
 42
0.0
  0
VERTEX
  8
Layer0
 10
51.2433084829376
 20
213.9836647684
 42
0.0
  0
VERTEX
  8
Layer0
 10
52.2004043598636
 20
211.610713134301
 42
0.0
  0
VERTEX
  8
Layer0
 10
53.5300939085753
 20
209.637418577985
 42
0.0
  0
VERTEX
  8
Layer0
 10
55.1914425421445
 20
208.085337713402
 42
0.0
  0
VERTEX
  8
Layer0
 10
57.1496807236574
 20
206.97750251914
 42
0.0
  0
VERTEX
  8
Layer0
 10
59.4199732995845
 20
206.308684430718
 42
0.0
  0
VERTEX
  8
Layer0
 10
62.0185234998171
 20
206.083287564676
 42
0.0
  0
VERTEX
  8
Layer0
 10
64.6230808770659
 20
206.259315222213
 42
0.0
  0
VERTEX
  8
Layer0
 10
67.0540352542657
 20
206.785102417282
 42
0.0
  0
VERTEX
  8
Layer0
 10
71.6277665995977
 20
208.704324834669
 42
0.0
  0
VERTEX
  8
Layer0
 10
71.6277665995977
 20
214.256874580818
 42
0.0
  0
VERTEX
  8
Layer0
 10
65.9574111334676
 20
214.256874580818
 42
-0.0213917480185
  0
VERTEX
  8
Layer0
 10
65.9146863267309
 20
214.258703334268
 42
0.0
  0
VERTEX
  8
Layer0
 10
63.9596226111038
 20
214.426376037152
 42
-0.0642676230317
  0
VERTEX
  8
Layer0
 10
63.8345336248958
 20
214.453549904837
 42
0.0
  0
VERTEX
  8
Layer0
 10
62.4227294666128
 20
214.956568013489
 42
-0.1184722678663
  0
VERTEX
  8
Layer0
 10
62.2270366832825
 20
215.084253625872
 42
0.0
  0
VERTEX
  8
Layer0
 10
61.3719058985742
 20
215.989686221446
 42
-0.1389880685731
  0
VERTEX
  8
Layer0
 10
61.2458231528011
 20
216.231497762625
 42
0.0
  0
VERTEX
  8
Layer0
 10
60.9607795578983
 20
217.606413926273
 42
-0.1003863701288
  0
VERTEX
  8
Layer0
 10
60.9599211061666
 20
217.805181726823
 42
0.0
  0
VERTEX
  8
Layer0
 10
61.1980163442618
 20
219.005718279472
 42
-0.1098669745896
  0
VERTEX
  8
Layer0
 10
61.2854826214251
 20
219.204433665533
 42
0.0
  0
VERTEX
  8
Layer0
 10
61.9997683357109
 20
220.17693534226
 42
-0.1045963056639
  0
VERTEX
  8
Layer0
 10
62.1541227507667
 20
220.314754840966
 42
0.0
  0
VERTEX
  8
Layer0
 10
63.2775298600893
 20
220.958618020041
 42
-0.0940285915755
  0
VERTEX
  8
Layer0
 10
63.453703286068
 20
221.019538177049
 42
0.0
  0
VERTEX
  8
Layer0
 10
64.9191627092738
 20
221.23415923674
 42
-0.0363708484407
  0
VERTEX
  8
Layer0
 10
64.9916163648558
 20
221.239436619718
 42
0.0
  0
VERTEX
  8
Layer0
 10
74.0325285043595
 20
221.239436619718
 42
-0.0261012131693
  0
VERTEX
  8
Layer0
 10
74.0846243593647
 20
221.236715235678
 42
0.0
  0
VERTEX
  8
Layer0
 10
76.9015257678156
 20
220.941611278603
 42
-0.0811627265824
  0
VERTEX
  8
Layer0
 10
77.0571023970684
 20
220.899164652813
 42
0.0
  0
VERTEX
  8
Layer0
 10
78.1000266090066
 20
220.422974176622
 42
-0.0920529050831
  0
SEQEND
  0
POLYLINE
  8
Layer0
 66
     1
 10
0.0
 20
0.0
 30
0.0
 70
     1
  0
VERTEX
  8
Layer0
 10
57.9840343262375
 20
41.8281725217194
 42
0.0
  0
VERTEX
  8
Layer0
 10
56.900868665607
 20
42.240647370814
 42
-0.1068733670711
  0
VERTEX
  8
Layer0
 10
56.7237255727429
 20
42.3558945935982
 42
0.0
  0
VERTEX
  8
Layer0
 10
55.1811367062104
 20
43.9118972763614
 42
-0.099500010672
  0
VERTEX
  8
Layer0
 10
55.0727007838548
 20
44.0764270060377
 42
0.0
  0
VERTEX
  8
Layer0
 10
54.1069060152431
 20
46.4640862951055
 42
-0.032096041024
  0
VERTEX
  8
Layer0
 10
54.0867216485
 20
46.5249528546346
 42
0.0
  0
VERTEX
  8
Layer0
 10
53.4160308369641
 20
49.0869917547016
 42
-0.0034200384164
  0
VERTEX
  8
Layer0
 10
53.4143439324026
 20
49.0936204732507
 42
0.0
  0
VERTEX
  8
Layer0
 10
46.8684016118124
 20
75.5724937126873
 42
-0.0189943645059
  0
VERTEX
  8
Layer0
 10
46.8606945508554
 20
75.6096784403989
 42
0.0
  0
VERTEX
  8
Layer0
 10
46.2704866367038
 20
79.124098292847
 42
-0.0888849274303
  0
VERTEX
  8
Layer0
 10
46.2724122057224
 20
79.3004641693039
 42
0.0
  0
VERTEX
  8
Layer0
 10
46.5406885303368
 20
80.7089148735292
 42
-0.1042572564807
  0
VERTEX
  8
Layer0
 10
46.6202514205904
 20
80.899225297486
 42
0.0
  0
VERTEX
  8
Layer0
 10
47.4250803944335
 20
82.0662273095584
 42
-0.097336480152
  0
VERTEX
  8
Layer0
 10
47.5631251053574
 20
82.2008868238278
 42
0.0
  0
VERTEX
  8
Layer0
 10
48.7636616580066
 20
82.9855950733248
 42
-0.1006121022183
  0
VERTEX
  8
Layer0
 10
48.9487786425538
 20
83.0591844492194
 42
0.0
  0
VERTEX
  8
Layer0
 10
50.4041777035866
 20
83.3207538657184
 42
-0.0921098685213
  0
VERTEX
  8
Layer0
 10
50.5868444735203
 20
83.3196804521369
 42
0.0
  0
VERTEX
  8
Layer0
 10
52.4044165727826
 20
82.9709212301383
 42
-0.1429087346804
  0
VERTEX
  8
Layer0
 10
52.6537001915376
 20
82.8432026028871
 42
0.0
  0
VERTEX
  8
Layer0
 10
53.7603400305718
 20
81.7969249368911
 42
-0.1255651406389
  0
VERTEX
  8
Layer0
 10
53.8924207624702
 20
81.5879309787436
 42
0.0
  0
VERTEX
  8
Layer0
 10
55.2069747530805
 20
77.5369584770669
 42
-0.0232880618172
  0
VERTEX
  8
Layer0
 10
55.2192663352486
 20
77.4920596886023
 42
0.0
  0
VERTEX
  8
Layer0
 10
59.9257724665697
 20
56.5088865197959
 42
0.0
  0
VERTEX
  8
Layer0
 10
65.1673280469884
 20
76.0367284728908
 42
-0.0089411045827
  0
VERTEX
  8
Layer0
 10
65.1722714809202
 20
76.0539123241533
 42
0.0
  0
VERTEX
  8
Layer0
 10
66.325859676762
 20
79.8097808687543
 42
-0.0529168401376
  0
VERTEX
  8
Layer0
 10
66.3673206576955
 20
79.9068338895108
 42
0.0
  0
VERTEX
  8
Layer0
 10
67.0380114692314
 20
81.10737044216
 42
-0.0649213170856
  0
VERTEX
  8
Layer0
 10
67.1151369575817
 20
81.2111468718384
 42
0.0
  0
VERTEX
  8
Layer0
 10
68.1077593586548
 20
82.2373038134882
 42
-0.0813443441726
  0
VERTEX
  8
Layer0
 10
68.2374246907979
 20
82.3337801830804
 42
0.0
  0
VERTEX
  8
Layer0
 10
69.5989270382157
 20
83.0380055351931
 42
-0.0867239279968
  0
VERTEX
  8
Layer0
 10
69.7631693130253
 20
83.0895919686501
 42
0.0
  0
VERTEX
  8
Layer0
 10
71.5404999635954
 20
83.3243337526876
 42
-0.0669570865549
  0
VERTEX
  8
Layer0
 10
71.6738160617178
 20
83.3240139071444
 42
0.0
  0
VERTEX
  8
Layer0
 10
73.4612070744609
 20
83.0792117609338
 42
-0.0917217180788
  0
VERTEX
  8
Layer0
 10
73.633939912264
 20
83.0221528846292
 42
0.0
  0
VERTEX
  8
Layer0
 10
74.9719680812782
 20
82.2877464459974
 42
-0.0812666990949
  0
VERTEX
  8
Layer0
 10
75.0991134477466
 20
82.188219283605
 42
0.0
  0
VERTEX
  8
Layer0
 10
76.0414340379545
 20
81.1654157960128
 42
-0.062261311071
  0
VERTEX
  8
Layer0
 10
76.113517102066
 20
81.0644683120946
 42
0.0
  0
VERTEX
  8
Layer0
 10
76.7137853783905
 20
79.9544750190028
 42
-0.0504683138583
  0
VERTEX
  8
Layer0
 10
76.7525177327652
 20
79.8615432945125
 42
0.0
  0
VERTEX
  8
Layer0
 10
77.906105928607
 20
76.0520194849887
 42
-0.0073696393065
  0
VERTEX
  8
Layer0
 10
77.9101690753982
 20
76.0378521431024
 42
0.0
  0
VERTEX
  8
Layer0
 10
83.2034657135724
 20
56.4990014187819
 42
0.0
  0
VERTEX
  8
Layer0
 10
87.9121890638125
 20
77.4920596886023
 42
-0.0066428773041
  0
VERTEX
  8
Layer0
 10
87.9152686313248
 20
77.504982999415
 42
0.0
  0
VERTEX
  8
Layer0
 10
88.6262008915528
 20
80.3218844078658
 42
-0.079328544248
  0
VERTEX
  8
Layer0
 10
88.6884026174863
 20
80.4667607900847
 42
0.0
  0
VERTEX
  8
Layer0
 10
89.841990813328
 20
82.2910397974623
 42
-0.1167849465117
  0
VERTEX
  8
Layer0
 10
90.0067078689904
 20
82.4521762859873
 42
0.0
  0
VERTEX
  8
Layer0
 10
91.0093906322366
 20
83.0557980163696
 42
-0.099383633769
  0
VERTEX
  8
Layer0
 10
91.1946974070239
 20
83.1221363955531
 42
0.0
  0
VERTEX
  8
Layer0
 10
92.5662601166148
 20
83.3233436390138
 42
-0.0809905062822
  0
VERTEX
  8
Layer0
 10
92.7271650293849
 20
83.3207741011496
 42
0.0
  0
VERTEX
  8
Layer0
 10
94.1657968201293
 20
83.0625581387083
 42
-0.0988610854162
  0
VERTEX
  8
Layer0
 10
94.348021148971
 20
82.9908975712532
 42
0.0
  0
VERTEX
  8
Layer0
 10
95.551911155678
 20
82.2162496839293
 42
-0.0973349659712
  0
VERTEX
  8
Layer0
 10
95.6909152981909
 20
82.0825850287768
 42
0.0
  0
VERTEX
  8
Layer0
 10
96.505804634207
 20
80.918936470762
 42
-0.1060422511907
  0
VERTEX
  8
Layer0
 10
96.5874032965343
 20
80.7257352483935
 42
0.0
  0
VERTEX
  8
Layer0
 10
96.8590330752063
 20
79.3005172738798
 42
-0.0889121709957
  0
VERTEX
  8
Layer0
 10
96.8609687623572
 20
79.124098292847
 42
0.0
  0
VERTEX
  8
Layer0
 10
96.2707608482057
 20
75.6096784403989
 42
-0.0189943645059
  0
VERTEX
  8
Layer0
 10
96.2630537872487
 20
75.5724937126873
 42
0.0
  0
VERTEX
  8
Layer0
 10
89.7171114666585
 20
49.0936204732507
 42
-0.0084226340424
  0
VERTEX
  8
Layer0
 10
89.7127942150281
 20
49.0773390685584
 42
0.0
  0
VERTEX
  8
Layer0
 10
88.5994474678785
 20
45.1470909129582
 42
-0.0489374963211
  0
VERTEX
  8
Layer0
 10
88.5637894909733
 20
45.0561936983405
 42
0.0
  0
VERTEX
  8
Layer0
 10
87.9668746687064
 20
43.8858382322103
 42
-0.0641457081069
  0
VERTEX
  8
Layer0
 10
87.8947586485815
 20
43.780370918228
 42
0.0
  0
VERTEX
  8
Layer0
 10
86.989326053008
 20
42.7642743387511
 42
-0.0849979821415
  0
VERTEX
  8
Layer0
 10
86.8573858628453
 20
42.6590254399657
 42
0.0
  0
VERTEX
  8
Layer0
 10
85.5797198668695
 20
41.954800087853
 42
-0.0921622652494
  0
VERTEX
  8
Layer0
 10
85.4062229250657
 20
41.8973157724403
 42
0.0
  0
VERTEX
  8
Layer0
 10
83.6926079015915
 20
41.6625739884027
 42
-0.0686158183527
  0
VERTEX
  8
Layer0
 10
83.5560193942915
 20
41.6626939014031
 42
0.0
  0
VERTEX
  8
Layer0
 10
81.9128269060287
 20
41.8907287773254
 42
-0.088380511238
  0
VERTEX
  8
Layer0
 10
81.7460222151178
 20
41.9449339990493
 42
0.0
  0
VERTEX
  8
Layer0
 10
80.4650027650841
 20
42.6290386268158
 42
-0.078735957904
  0
VERTEX
  8
Layer0
 10
80.34019190731
 20
42.7234580846003
 42
0.0
  0
VERTEX
  8
Layer0
 10
79.4079316792752
 20
43.6926063072697
 42
-0.0656755524898
  0
VERTEX
  8
Layer0
 10
79.3303688917922
 20
43.7979118117246
 42
0.0
  0
VERTEX
  8
Layer0
 10
78.7334540695253
 20
44.881077472355
 42
-0.0509759872762
  0
VERTEX
  8
Layer0
 10
78.6936854502902
 20
44.9746662116443
 42
0.0
  0
VERTEX
  8
Layer0
 10
77.4864419895255
 20
48.8780867347832
 42
-0.0091465732313
  0
VERTEX
  8
Layer0
 10
77.481357919767
 20
48.8956576043553
 42
0.0
  0
VERTEX
  8
Layer0
 10
71.6029342222455
 20
70.6979125837711
 42
0.0
  0
VERTEX
  8
Layer0
 10
65.6496812581793
 20
48.8941236028787
 42
-0.0085402616599
  0
VERTEX
  8
Layer0
 10
65.6449019000762
 20
48.8777266684002
 42
0.0
  0
VERTEX
  8
Layer0
 10
64.4510722555423
 20
45.0279614101842
 42
-0.0502868663442
  0
VERTEX
  8
Layer0
 10
64.4118958491371
 20
44.935607087571
 42
0.0
  0
VERTEX
  8
Layer0
 10
63.8049206646972
 20
43.8289672485368
 42
-0.0644758546925
  0
VERTEX
  8
Layer0
 10
63.7292169930442
 20
43.7252363438695
 42
0.0
  0
VERTEX
  8
Layer0
 10
62.7936033109517
 20
42.7393208509118
 42
-0.0789078615477
  0
VERTEX
  8
Layer0
 10
62.6691345628352
 20
42.6438951911875
 42
0.0
  0
VERTEX
  8
Layer0
 10
61.3881151128016
 20
41.9497302012478
 42
-0.0894108517277
  0
VERTEX
  8
Layer0
 10
61.2196197025596
 20
41.8942207982877
 42
0.0
  0
VERTEX
  8
Layer0
 10
59.5764272142967
 20
41.6628324683078
 42
-0.0605204299309
  0
VERTEX
  8
Layer0
 10
59.4558498501572
 20
41.6605408509648
 42
0.0
  0
VERTEX
  8
Layer0
 10
58.1111147730278
 20
41.7980324673297
 42
-0.065583759386
  0
SEQEND
  0
POLYLINE
  8
Layer0
 66
     1
 10
0.0
 20
0.0
 30
0.0
 70
     1
  0
VERTEX
  8
Layer0
 10
37.0658238560433
 20
83.1600373204936
 42
0.0
  0
VERTEX
  8
Layer0
 10
38.3133087655
 20
83.3243565693198
 42
-0.0988742057358
  0
VERTEX
  8
Layer0
 10
38.5087144850176
 20
83.3114133026181
 42
0.0
  0
VERTEX
  8
Layer0
 10
40.4000625735489
 20
82.8016882858509
 42
-0.1300312757748
  0
VERTEX
  8
Layer0
 10
40.6217605313685
 20
82.6742042029841
 42
0.0
  0
VERTEX
  8
Layer0
 10
41.9899697869016
 20
81.3194087636816
 42
-0.127390608647
  0
VERTEX
  8
Layer0
 10
42.1182046196712
 20
81.1039728885302
 42
0.0
  0
VERTEX
  8
Layer0
 10
42.6145158202078
 20
79.4004182272291
 42
-0.1026437267112
  0
VERTEX
  8
Layer0
 10
42.6305316965253
 20
79.1979033985371
 42
0.0
  0
VERTEX
  8
Layer0
 10
42.4695659017567
 20
77.9235908566189
 42
-0.0414753735216
  0
VERTEX
  8
Layer0
 10
42.452420855555
 20
77.8425768955804
 42
0.0
  0
VERTEX
  8
Layer0
 10
42.0500063686334
 20
76.5011952725086
 42
-0.0127356368546
  0
VERTEX
  8
Layer0
 10
42.0420695898907
 20
76.4769964519329
 42
0.0
  0
VERTEX
  8
Layer0
 10
41.5591722055849
 20
75.1222010126304
 42
-0.003119770022
  0
VERTEX
  8
Layer0
 10
41.5570406978363
 20
75.116336903419
 42
0.0
  0
VERTEX
  8
Layer0
 10
32.03376147481
 20
49.4168960705764
 42
0.0
  0
VERTEX
  8
Layer0
 10
31.0148329961171
 20
46.6148427541709
 42
-0.0298748153485
  0
VERTEX
  8
Layer0
 10
30.9911194663486
 20
46.5600584235657
 42
0.0
  0
VERTEX
  8
Layer0
 10
29.8107036380455
 20
44.2260543994209
 42
-0.0892876672378
  0
VERTEX
  8
Layer0
 10
29.7040042604824
 20
44.084626147855
 42
0.0
  0
VERTEX
  8
Layer0
 10
27.9199667017969
 20
42.4347267514767
 42
-0.0938459946892
  0
VERTEX
  8
Layer0
 10
27.7622541402106
 20
42.3360220554487
 42
0.0
  0
VERTEX
  8
Layer0
 10
26.5248295929269
 20
41.8531246711429
 42
-0.0661303179127
  0
VERTEX
  8
Layer0
 10
26.3969191768015
 20
41.8218229344584
 42
0.0
  0
VERTEX
  8
Layer0
 10
24.9113390292495
 20
41.6608571396897
 42
-0.0534584588318
  0
VERTEX
  8
Layer0
 10
24.8047268551452
 20
41.6607381776124
 42
0.0
  0
VERTEX
  8
Layer0
 10
23.3191467075933
 20
41.8183505183234
 42
-0.0649143023818
  0
VERTEX
  8
Layer0
 10
23.1934267649127
 20
41.8484968634164
 42
0.0
  0
VERTEX
  8
Layer0
 10
21.956002217629
 20
42.3213338855492
 42
-0.0957068867242
  0
VERTEX
  8
Layer0
 10
21.7948787300963
 20
42.4214155957296
 42
0.0
  0
VERTEX
  8
Layer0
 10
19.9974273551801
 20
44.0847288083386
 42
-0.0886454149022
  0
VERTEX
  8
Layer0
 10
19.8913470082849
 20
44.2250526268177
 42
0.0
  0
VERTEX
  8
Layer0
 10
18.6975173637511
 20
46.5724704671933
 42
-0.0300507917357
  0
VERTEX
  8
Layer0
 10
18.6735600263676
 20
46.6275316254833
 42
0.0
  0
VERTEX
  8
Layer0
 10
17.654260056559
 20
49.4171947007482
 42
0.0
  0
VERTEX
  8
Layer0
 10
8.2915671093523
 20
74.9030351014547
 42
-0.0010199103702
  0
VERTEX
  8
Layer0
 10
8.2908676151402
 20
74.9049512350208
 42
0.0
  0
VERTEX
  8
Layer0
 10
7.7945564146037
 20
76.273160490554
 42
-0.0149831598445
  0
VERTEX
  8
Layer0
 10
7.7851884687968
 20
76.3016178069853
 42
0.0
  0
VERTEX
  8
Layer0
 10
7.3559463494138
 20
77.7503099599028
 42
-0.0390629416808
  0
VERTEX
  8
Layer0
 10
7.3396873937963
 20
77.82660357214
 42
0.0
  0
VERTEX
  8
Layer0
 10
7.165307782797
 20
79.1411575627504
 42
-0.0849839213938
  0
VERTEX
  8
Layer0
 10
7.1716642953983
 20
79.3097868921496
 42
0.0
  0
VERTEX
  8
Layer0
 10
7.4466475281281
 20
80.6176339746445
 42
-0.1003517077649
  0
VERTEX
  8
Layer0
 10
7.525354633134
 20
80.8000835058019
 42
0.0
  0
VERTEX
  8
Layer0
 10
8.3503043313231
 20
81.9872062422204
 42
-0.0916492103274
  0
VERTEX
  8
Layer0
 10
8.4794382921463
 20
82.1151333327256
 42
0.0
  0
VERTEX
  8
Layer0
 10
9.7202162934876
 20
82.9602037552609
 42
-0.1041143838079
  0
VERTEX
  8
Layer0
 10
9.9107096562022
 20
83.0386037157993
 42
0.0
  0
VERTEX
  8
Layer0
 10
11.4331777983888
 20
83.3202938566443
 42
-0.0903098337335
  0
VERTEX
  8
Layer0
 10
11.6123355599267
 20
83.3207994490413
 42
0.0
  0
VERTEX
  8
Layer0
 10
13.3527782158622
 20
83.0089282216771
 42
-0.1277940776558
  0
VERTEX
  8
Layer0
 10
13.5812064202795
 20
82.9037459198901
 42
0.0
  0
VERTEX
  8
Layer0
 10
14.7247342539482
 20
81.9681322377976
 42
-0.1193896754292
  0
VERTEX
  8
Layer0
 10
14.8667240028856
 20
81.7803472416791
 42
0.0
  0
VERTEX
  8
Layer0
 10
16.5971062966482
 20
77.796443821156
 42
-0.0210143894351
  0
VERTEX
  8
Layer0
 10
16.6122091033269
 20
77.7572422344553
 42
0.0
  0
VERTEX
  8
Layer0
 10
25.0443030910675
 20
52.7911326261754
 42
0.0
  0
VERTEX
  8
Layer0
 10
33.5049641776988
 20
77.9444493702146
 42
-0.005147695791
  0
VERTEX
  8
Layer0
 10
33.508346665276
 20
77.9541729625734
 42
0.0
  0
VERTEX
  8
Layer0
 10
34.554624331272
 20
80.8649710846391
 42
-0.0797911349434
  0
VERTEX
  8
Layer0
 10
34.6312473222714
 20
81.0038027001673
 42
0.0
  0
VERTEX
  8
Layer0
 10
35.7848355181131
 20
82.4793224855463
 42
-0.1078168538707
  0
VERTEX
  8
Layer0
 10
35.9489000460702
 20
82.6154043028779
 42
0.0
  0
VERTEX
  8
Layer0
 10
36.9012809984512
 20
83.1083620493568
 42
-0.086884201446
  0
SEQEND
  0
POLYLINE
  8
Layer0
 66
     1
 10
0.0
 20
0.0
 30
0.0
 70
     1
  0
VERTEX
  8
Layer0
 10
55.104086870956
 20
186.312681429488
 42
0.0
  0
VERTEX
  8
Layer0
 10
55.7177689635112
 20
185.42736955826
 42
-0.0735982478045
  0
VERTEX
  8
Layer0
 10
55.7826600305388
 20
185.296132650638
 42
0.0
  0
VERTEX
  8
Layer0
 10
56.8825929614578
 20
181.889023328036
 42
-0.013247752114
  0
VERTEX
  8
Layer0
 10
56.8900608443541
 20
181.863606874232
 42
0.0
  0
VERTEX
  8
Layer0
 10
62.1210596914824
 20
162.142986807359
 42
0.0
  0
VERTEX
  8
Layer0
 10
67.3520585386106
 20
181.863606874232
 42
-0.013247752114
  0
VERTEX
  8
Layer0
 10
67.3595264215069
 20
181.889023328036
 42
0.0
  0
VERTEX
  8
Layer0
 10
68.4594593524257
 20
185.296132650638
 42
-0.0735982478046
  0
VERTEX
  8
Layer0
 10
68.5243504194533
 20
185.42736955826
 42
0.0
  0
VERTEX
  8
Layer0
 10
69.1380325120087
 20
186.312681429488
 42
-0.0985024379434
  0
VERTEX
  8
Layer0
 10
69.2783374345962
 20
186.448265821076
 42
0.0
  0
VERTEX
  8
Layer0
 10
70.1535889436505
 20
187.011646102766
 42
-0.1124893875765
  0
VERTEX
  8
Layer0
 10
70.3624479697306
 20
187.087384497849
 42
0.0
  0
VERTEX
  8
Layer0
 10
73.5951776813336
 20
187.48979898477
 42
-0.0309709641011
  0
VERTEX
  8
Layer0
 10
73.6569416498995
 20
187.49362843729
 42
0.0
  0
VERTEX
  8
Layer0
 10
76.1250838363515
 20
187.49362843729
 42
-0.027356208393
  0
VERTEX
  8
Layer0
 10
76.179673572081
 20
187.490639464082
 42
0.0
  0
VERTEX
  8
Layer0
 10
78.2252805472654
 20
187.265958042218
 42
-0.0738145308018
  0
VERTEX
  8
Layer0
 10
78.3672962494705
 20
187.22867117378
 42
0.0
  0
VERTEX
  8
Layer0
 10
79.9434196565798
 20
186.554626908186
 42
-0.1293845919946
  0
VERTEX
  8
Layer0
 10
80.1442513341932
 20
186.398289860937
 42
0.0
  0
VERTEX
  8
Layer0
 10
81.1502875514971
 20
185.080382416269
 42
-0.1250738975082
  0
VERTEX
  8
Layer0
 10
81.246911263481
 20
184.853832136817
 42
0.0
  0
VERTEX
  8
Layer0
 10
81.5822566692489
 20
182.697561177729
 42
-0.0385903974266
  0
VERTEX
  8
Layer0
 10
81.5881958417171
 20
182.620724346076
 42
0.0
  0
VERTEX
  8
Layer0
 10
81.5881958417171
 20
151.500670690812
 42
-0.0317271329094
  0
VERTEX
  8
Layer0
 10
81.5841774917684
 20
151.437407725244
 42
0.0
  0
VERTEX
  8
Layer0
 10
81.3326684374425
 20
149.465576739328
 42
-0.0914897940774
  0
VERTEX
  8
Layer0
 10
81.2774267724055
 20
149.292728998638
 42
0.0
  0
VERTEX
  8
Layer0
 10
80.5228996094275
 20
147.884278294413
 42
-0.1145765568648
  0
VERTEX
  8
Layer0
 10
80.3737630159591
 20
147.714227133875
 42
0.0
  0
VERTEX
  8
Layer0
 10
79.1967006417137
 20
146.869156711339
 42
-0.1102744717493
  0
VERTEX
  8
Layer0
 10
78.9962584631837
 20
146.783699179371
 42
0.0
  0
VERTEX
  8
Layer0
 10
77.4771437750549
 20
146.502009038526
 42
-0.094345254364
  0
VERTEX
  8
Layer0
 10
77.2901201296092
 20
146.502904080804
 42
0.0
  0
VERTEX
  8
Layer0
 10
75.848134884807
 20
146.784594221649
 42
-0.109576433948
  0
VERTEX
  8
Layer0
 10
75.6496337171651
 20
146.871152682799
 42
0.0
  0
VERTEX
  8
Layer0
 10
74.4893386132081
 20
147.716223105335
 42
-0.1114506114476
  0
VERTEX
  8
Layer0
 10
74.344275497447
 20
147.881843069219
 42
0.0
  0
VERTEX
  8
Layer0
 10
73.579687972296
 20
149.290293773444
 42
-0.0924630698273
  0
VERTEX
  8
Layer0
 10
73.5232395772129
 20
149.464747003485
 42
0.0
  0
VERTEX
  8
Layer0
 10
73.2683770688293
 20
151.436577989401
 42
-0.0321458334588
  0
VERTEX
  8
Layer0
 10
73.2642521797452
 20
151.500670690812
 42
0.0
  0
VERTEX
  8
Layer0
 10
73.2642521797452
 20
174.613830345189
 42
0.0
  0
VERTEX
  8
Layer0
 10
67.9446460177487
 20
153.471225428998
 42
-0.0068382115422
  0
VERTEX
  8
Layer0
 10
67.9411280482206
 20
153.458009871985
 42
0.0
  0
VERTEX
  8
Layer0
 10
66.9350918309167
 20
149.876520938384
 42
-0.049024334534
  0
VERTEX
  8
Layer0
 10
66.8995557186332
 20
149.785390909313
 42
0.0
  0
VERTEX
  8
Layer0
 10
66.346235799116
 20
148.695518340567
 42
-0.064672623735
  0
VERTEX
  8
Layer0
 10
66.2736180646248
 20
148.589133279825
 42
0.0
  0
VERTEX
  8
Layer0
 10
65.3916596474553
 20
147.59986433281
 42
-0.0823764293152
  0
VERTEX
  8
Layer0
 10
65.2642411813366
 20
147.497183418893
 42
0.0
  0
VERTEX
  8
Layer0
 10
64.0167562718798
 20
146.79295806678
 42
-0.0934182834646
  0
VERTEX
  8
Layer0
 10
63.8413880387231
 20
146.733355309552
 42
0.0
  0
VERTEX
  8
Layer0
 10
62.1914886423449
 20
146.498613525514
 42
-0.0645854116316
  0
VERTEX
  8
Layer0
 10
62.0628641758093
 20
146.497026703548
 42
0.0
  0
VERTEX
  8
Layer0
 10
60.7751378176604
 20
146.647932136144
 42
-0.0707590733042
  0
VERTEX
  8
Layer0
 10
60.6389830806313
 20
146.683851789407
 42
0.0
  0
VERTEX
  8
Layer0
 10
59.5658777821737
 20
147.136568087194
 42
-0.1001812663255
  0
VERTEX
  8
Layer0
 10
59.4020334120917
 20
147.24839975244
 42
0.0
  0
VERTEX
  8
Layer0
 10
57.8996859942513
 20
148.790988618972
 42
-0.0968328034943
  0
VERTEX
  8
Layer0
 10
57.7946798996112
 20
148.95157035551
 42
0.0
  0
VERTEX
  8
Layer0
 10
56.9496094770761
 20
151.030711871271
 42
-0.0316376847386
  0
VERTEX
  8
Layer0
 10
56.9295570479266
 20
151.090659092966
 42
0.0
  0
VERTEX
  8
Layer0
 10
56.2991076850829
 20
153.464904565803
 42
-0.0032643996921
  0
VERTEX
  8
Layer0
 10
56.297473365216
 20
153.471225428998
 42
0.0
  0
VERTEX
  8
Layer0
 10
50.9778672032193
 20
174.61383034519
 42
0.0
  0
VERTEX
  8
Layer0
 10
50.9778672032193
 20
151.500670690812
 42
-0.0317271329094
  0
VERTEX
  8
Layer0
 10
50.9738488532706
 20
151.437407725244
 42
0.0
  0
VERTEX
  8
Layer0
 10
50.7223397989447
 20
149.465576739328
 42
-0.0914897940774
  0
VERTEX
  8
Layer0
 10
50.6670981339078
 20
149.292728998638
 42
0.0
  0
VERTEX
  8
Layer0
 10
49.91257097093
 20
147.884278294413
 42
-0.1138903103998
  0
VERTEX
  8
Layer0
 10
49.7645338528227
 20
147.715018760391
 42
0.0
  0
VERTEX
  8
Layer0
 10
48.5941783866926
 20
146.869948337855
 42
-0.1103515087857
  0
VERTEX
  8
Layer0
 10
48.3938189029448
 20
146.783919860609
 42
0.0
  0
VERTEX
  8
Layer0
 10
46.8948249391621
 20
146.502229719764
 42
-0.0937404469628
  0
VERTEX
  8
Layer0
 10
46.7089772699972
 20
146.502449296346
 42
0.0
  0
VERTEX
  8
Layer0
 10
45.2468713008489
 20
146.780785983134
 42
-0.1086617588482
  0
VERTEX
  8
Layer0
 10
45.0494249918908
 20
146.8653353769
 42
0.0
  0
VERTEX
  8
Layer0
 10
43.8824229798184
 20
147.700345437262
 42
-0.1133287131919
  0
VERTEX
  8
Layer0
 10
43.734185662215
 20
147.867989876408
 42
0.0
  0
VERTEX
  8
Layer0
 10
42.9695981370642
 20
149.273087126576
 42
-0.0929855765613
  0
VERTEX
  8
Layer0
 10
42.9128425129191
 20
149.448511374254
 42
0.0
  0
VERTEX
  8
Layer0
 10
42.6579800045353
 20
151.437109630458
 42
-0.0318775455978
  0
VERTEX
  8
Layer0
 10
42.6539235412475
 20
151.500670690812
 42
0.0
  0
VERTEX
  8
Layer0
 10
42.6539235412475
 20
182.620724346076
 42
-0.0385903974266
  0
VERTEX
  8
Layer0
 10
42.6598627137157
 20
182.697561177729
 42
0.0
  0
VERTEX
  8
Layer0
 10
42.9952081194837
 20
184.853832136817
 42
-0.1250738975082
  0
VERTEX
  8
Layer0
 10
43.0918318314675
 20
185.080382416269
 42
0.0
  0
VERTEX
  8
Layer0
 10
44.0978680487713
 20
186.398289860937
 42
-0.1293845919947
  0
VERTEX
  8
Layer0
 10
44.2986997263847
 20
186.554626908186
 42
0.0
  0
VERTEX
  8
Layer0
 10
45.8748231334941
 20
187.22867117378
 42
-0.0738145308018
  0
VERTEX
  8
Layer0
 10
46.0168388356992
 20
187.265958042218
 42
0.0
  0
VERTEX
  8
Layer0
 10
48.0624458108836
 20
187.490639464082
 42
-0.027356208393
  0
VERTEX
  8
Layer0
 10
48.1170355466131
 20
187.49362843729
 42
0.0
  0
VERTEX
  8
Layer0
 10
50.5851777330651
 20
187.49362843729
 42
-0.0309709641011
  0
VERTEX
  8
Layer0
 10
50.646941701631
 20
187.48979898477
 42
0.0
  0
VERTEX
  8
Layer0
 10
53.879671413234
 20
187.087384497849
 42
-0.1124893875765
  0
VERTEX
  8
Layer0
 10
54.0885304393141
 20
187.011646102766
 42
0.0
  0
VERTEX
  8
Layer0
 10
54.9637819483685
 20
186.448265821076
 42
-0.0985024379434
  0
SEQEND
  0
POLYLINE
  8
Layer0
 66
     1
 10
0.0
 20
0.0
 30
0.0
 70
     1
  0
VERTEX
  8
Layer0
 10
166.639355091192
 20
135.435998834922
 42
0.0
  0
VERTEX
  8
Layer0
 10
168.238952676706
 20
135.737809700113
 42
-0.0918420291989
  0
VERTEX
  8
Layer0
 10
168.421099325405
 20
135.738413828289
 42
0.0
  0
VERTEX
  8
Layer0
 10
170.081059083956
 20
135.436602963098
 42
-0.1096011907856
  0
VERTEX
  8
Layer0
 10
170.28071415291
 20
135.352617108969
 42
0.0
  0
VERTEX
  8
Layer0
 10
171.558380148886
 20
134.447184513396
 42
-0.1152937393883
  0
VERTEX
  8
Layer0
 10
171.709235059661
 20
134.276809869842
 42
0.0
  0
VERTEX
  8
Layer0
 10
172.524124395677
 20
132.767755543886
 42
-0.0920747162436
  0
VERTEX
  8
Layer0
 10
172.580089584502
 20
132.593941957789
 42
0.0
  0
VERTEX
  8
Layer0
 10
172.851719363174
 20
130.481265901451
 42
-0.0319783734927
  0
VERTEX
  8
Layer0
 10
172.85580147552
 20
130.417505030181
 42
0.0
  0
VERTEX
  8
Layer0
 10
172.85580147552
 20
111.089994950375
 42
0.0
  0
VERTEX
  8
Layer0
 10
173.03690609766
 20
108.116586335957
 42
0.0
  0
VERTEX
  8
Layer0
 10
173.567356467025
 20
105.7343819499
 42
0.0
  0
VERTEX
  8
Layer0
 10
174.519546609807
 20
103.904928101801
 42
0.0
  0
VERTEX
  8
Layer0
 10
175.981501987044
 20
102.556851353948
 42
0.0
  0
VERTEX
  8
Layer0
 10
178.084582630575
 20
101.702474842514
 42
0.0
  0
VERTEX
  8
Layer0
 10
180.974907093212
 20
101.408926264277
 42
0.0
  0
VERTEX
  8
Layer0
 10
183.050036860736
 20
101.557724329001
 42
0.0
  0
VERTEX
  8
Layer0
 10
184.770948820406
 20
101.997460119797
 42
0.0
  0
VERTEX
  8
Layer0
 10
186.135773515683
 20
102.713142003657
 42
0.0
  0
VERTEX
  8
Layer0
 10
187.173436373486
 20
103.70412533762
 42
0.0
  0
VERTEX
  8
Layer0
 10
187.957375696855
 20
105.003691418323
 42
0.0
  0
VERTEX
  8
Layer0
 10
188.524984400563
 20
106.622164569312
 42
0.0
  0
VERTEX
  8
Layer0
 10
188.998658618377
 20
110.941152402578
 42
0.0
  0
VERTEX
  8
Layer0
 10
188.998658618377
 20
130.417505030181
 42
-0.0313412524793
  0
VERTEX
  8
Layer0
 10
189.002580007264
 20
130.48000312292
 42
0.0
  0
VERTEX
  8
Layer0
 10
189.270856331878
 20
132.609446449547
 42
-0.0916446969568
  0
VERTEX
  8
Layer0
 10
189.325976148115
 20
132.782650162532
 42
0.0
  0
VERTEX
  8
Layer0
 10
190.130805121958
 20
134.28835103443
 42
-0.1154889231681
  0
VERTEX
  8
Layer0
 10
190.281247755335
 20
134.459589469906
 42
0.0
  0
VERTEX
  8
Layer0
 10
191.535439572907
 20
135.354961703306
 42
-0.1097894088792
  0
VERTEX
  8
Layer0
 10
191.735166818134
 20
135.439709750234
 42
0.0
  0
VERTEX
  8
Layer0
 10
193.351531673936
 20
135.738167161367
 42
-0.0912713655651
  0
VERTEX
  8
Layer0
 10
193.53256627532
 20
135.738267157279
 42
0.0
  0
VERTEX
  8
Layer0
 10
195.158991493294
 20
135.439809746146
 42
-0.1072356890414
  0
VERTEX
  8
Layer0
 10
195.354685822078
 20
135.358190096272
 42
0.0
  0
VERTEX
  8
Layer0
 10
196.63905872617
 20
134.462817862872
 42
-0.1144099948182
  0
VERTEX
  8
Layer0
 10
196.790380971995
 20
134.295139880533
 42
0.0
  0
VERTEX
  8
Layer0
 10
197.625391032357
 20
132.789439008635
 42
-0.0943711572368
  0
VERTEX
  8
Layer0
 10
197.683911545525
 20
132.611751459406
 42
0.0
  0
VERTEX
  8
Layer0
 10
197.962248232312
 20
130.482308132779
 42
-0.0325043963221
  0
VERTEX
  8
Layer0
 10
197.966465459423
 20
130.417505030181
 42
0.0
  0
VERTEX
  8
Layer0
 10
197.966465459423
 20
111.504024144869
 42
-0.0132609115227
  0
VERTEX
  8
Layer0
 10
197.965762299651
 20
111.477516309453
 42
0.0
  0
VERTEX
  8
Layer0
 10
197.741080877787
 20
107.245457288662
 42
-0.0347529080314
  0
VERTEX
  8
Layer0
 10
197.732596672577
 20
107.176555704698
 42
0.0
  0
VERTEX
  8
Layer0
 10
197.058552406983
 20
103.709084209057
 42
-0.057343687927
  0
VERTEX
  8
Layer0
 10
197.024055594768
 20
103.60010216614
 42
0.0
  0
VERTEX
  8
Layer0
 10
195.726268874446
 20
100.702717860305
 42
-0.068182560326
  0
VERTEX
  8
Layer0
 10
195.65448249522
 20
100.587520356863
 42
0.0
  0
VERTEX
  8
Layer0
 10
193.558573709171
 20
98.0657229054884
 42
-0.0601653998589
  0
VERTEX
  8
Layer0
 10
193.471435741999
 20
97.9833687038991
 42
0.0
  0
VERTEX
  8
Layer0
 10
191.150845534084
 20
96.2664002263672
 42
-0.0552154689736
  0
VERTEX
  8
Layer0
 10
191.055670104525
 20
96.2110593786697
 42
0.0
  0
VERTEX
  8
Layer0
 10
188.386320674613
 20
95.0306435503666
 42
-0.0495778726235
  0
VERTEX
  8
Layer0
 10
188.292345124426
 20
94.9997841490863
 42
0.0
  0
VERTEX
  8
Layer0
 10
185.207167391361
 20
94.3156795213197
 42
-0.038615568366
  0
VERTEX
  8
Layer0
 10
185.130816721936
 20
94.3048409350255
 42
0.0
  0
VERTEX
  8
Layer0
 10
181.562741604565
 20
94.0768060591033
 42
-0.0304560587991
  0
VERTEX
  8
Layer0
 10
181.501886196115
 20
94.0766277717117
 42
0.0
  0
VERTEX
  8
Layer0
 10
177.283240991554
 20
94.3214299179223
 42
-0.0359957973542
  0
VERTEX
  8
Layer0
 10
177.211948535265
 20
94.3307450018382
 42
0.0
  0
VERTEX
  8
Layer0
 10
173.623752693548
 20
95.06515144047
 42
-0.0489460781477
  0
VERTEX
  8
Layer0
 10
173.530447567114
 20
95.0939833044766
 42
0.0
  0
VERTEX
  8
Layer0
 10
170.55928727201
 20
96.3414682139333
 42
-0.0621424801576
  0
VERTEX
  8
Layer0
 10
170.451946228684
 20
96.4031613110234
 42
0.0
  0
VERTEX
  8
Layer0
 10
168.084407663962
 20
98.1871988697089
 42
-0.0680983420968
  0
VERTEX
  8
Layer0
 10
167.988197558584
 20
98.282709597566
 42
0.0
  0
VERTEX
  8
Layer0
 10
166.197453091784
 20
100.623420529826
 42
-0.0628187593502
  0
VERTEX
  8
Layer0
 10
166.134449554424
 20
100.731547742923
 42
0.0
  0
VERTEX
  8
Layer0
 10
164.893671553082
 20
103.649052773105
 42
-0.0498015866304
  0
VERTEX
  8
Layer0
 10
164.864063593626
 20
103.743895444295
 42
0.0
  0
VERTEX
  8
Layer0
 10
164.139717517167
 20
107.261668750801
 42
-0.0362254424808
  0
VERTEX
  8
Layer0
 10
164.130290877416
 20
107.333407997932
 42
0.0
  0
VERTEX
  8
Layer0
 10
163.888842185264
 20
111.474923759166
 42
-0.0145594484093
  0
VERTEX
  8
Layer0
 10
163.887994634474
 20
111.504024144869
 42
0.0
  0
VERTEX
  8
Layer0
 10
163.887994634474
 20
130.417505030181
 42
-0.0319783734927
  0
VERTEX
  8
Layer0
 10
163.89207674682
 20
130.481265901451
 42
0.0
  0
VERTEX
  8
Layer0
 10
164.163706525492
 20
132.593941957789
 42
-0.0920747162436
  0
VERTEX
  8
Layer0
 10
164.219671714317
 20
132.767755543886
 42
0.0
  0
VERTEX
  8
Layer0
 10
165.034561050333
 20
134.276809869842
 42
-0.113392279497
  0
VERTEX
  8
Layer0
 10
165.182361386239
 20
134.445002583201
 42
0.0
  0
VERTEX
  8
Layer0
 10
166.439906657868
 20
135.350435178774
 42
-0.109822391064
  0
SEQEND
  0
POLYLINE
  8
Layer0
 66
     1
 10
0.0
 20
0.0
 30
0.0
 70
     1
  0
VERTEX
  8
Layer0
 10
100.752639181315
 20
124.026265716012
 42
0.0
  0
VERTEX
  8
Layer0
 10
101.151015142964
 20
123.251645790587
 42
0.0
  0
VERTEX
  8
Layer0
 10
102.786669502829
 20
121.8886004907
 42
0.0
  0
VERTEX
  8
Layer0
 10
104.966735912549
 20
120.965278246583
 42
0.0
  0
VERTEX
  8
Layer0
 10
108.742601438625
 20
119.954835359324
 42
-0.0040581310282
  0
VERTEX
  8
Layer0
 10
108.750424403007
 20
119.9526737006
 42
0.0
  0
VERTEX
  8
Layer0
 10
114.773227890599
 20
118.235705223068
 42
-0.0292783289403
  0
VERTEX
  8
Layer0
 10
114.82845792705
 20
118.216400969922
 42
0.0
  0
VERTEX
  8
Layer0
 10
117.323427745963
 20
117.176830212041
 42
-0.0351213005567
  0
VERTEX
  8
Layer0
 10
117.3861345953
 20
117.145370328846
 42
0.0
  0
VERTEX
  8
Layer0
 10
119.478689927292
 20
115.904592327505
 42
-0.0497699371033
  0
VERTEX
  8
Layer0
 10
119.558647705693
 20
115.84571927822
 42
0.0
  0
VERTEX
  8
Layer0
 10
121.242081642648
 20
114.326604590091
 42
-0.0605948391426
  0
VERTEX
  8
Layer0
 10
121.321301591856
 20
114.235478985502
 42
0.0
  0
VERTEX
  8
Layer0
 10
122.588907225659
 20
112.360898167259
 42
-0.0650091142076
  0
VERTEX
  8
Layer0
 10
122.646935283572
 20
112.245159237707
 42
0.0
  0
VERTEX
  8
Layer0
 10
123.441703895242
 20
109.961457024427
 42
-0.0597575029231
  0
VERTEX
  8
Layer0
 10
123.467173585986
 20
109.845122758954
 42
0.0
  0
VERTEX
  8
Layer0
 10
123.732096456543
 20
107.098643885715
 42
-0.0578098488152
  0
VERTEX
  8
Layer0
 10
123.729869160996
 20
106.983430826604
 42
0.0
  0
VERTEX
  8
Layer0
 10
123.270445955094
 20
103.596442228348
 42
-0.0733122214954
  0
VERTEX
  8
Layer0
 10
123.229976255671
 20
103.456329120733
 42
0.0
  0
VERTEX
  8
Layer0
 10
121.851706637965
 20
100.431513560706
 42
-0.0754699993133
  0
VERTEX
  8
Layer0
 10
121.769682445837
 20
100.305825113334
 42
0.0
  0
VERTEX
  8
Layer0
 10
119.506100956903
 20
97.7706138457279
 42
-0.0726389601217
  0
VERTEX
  8
Layer0
 10
119.39528311423
 20
97.6778555276168
 42
0.0
  0
VERTEX
  8
Layer0
 10
116.279924294646
 20
95.7596798066242
 42
-0.0624569719584
  0
VERTEX
  8
Layer0
 10
116.166675273697
 20
95.7081324812275
 42
0.0
  0
VERTEX
  8
Layer0
 10
112.296789291135
 20
94.5008890204629
 42
-0.0534847877135
  0
VERTEX
  8
Layer0
 10
112.192157219086
 20
94.4801662282788
 42
0.0
  0
VERTEX
  8
Layer0
 10
107.664994241218
 20
94.0777517413573
 42
-0.0479927076867
  0
VERTEX
  8
Layer0
 10
107.569231921935
 20
94.0784465992695
 42
0.0
  0
VERTEX
  8
Layer0
 10
102.257360694571
 20
94.6284130647289
 42
-0.0476491754835
  0
VERTEX
  8
Layer0
 10
102.164143326638
 20
94.6471533611824
 42
0.0
  0
VERTEX
  8
Layer0
 10
99.8905014755322
 20
95.3346114430067
 42
-0.0378305461429
  0
VERTEX
  8
Layer0
 10
99.8200407853024
 20
95.3618794022041
 42
0.0
  0
VERTEX
  8
Layer0
 10
97.8012614425791
 20
96.3243207167581
 42
-0.05129491162
  0
VERTEX
  8
Layer0
 10
97.7138902911159
 20
96.3775728264797
 42
0.0
  0
VERTEX
  8
Layer0
 10
95.2826360992983
 20
98.225326012261
 42
-0.0599498312263
  0
VERTEX
  8
Layer0
 10
95.1968360709385
 20
98.3084614736063
 42
0.0
  0
VERTEX
  8
Layer0
 10
93.2685999877728
 20
100.686060400501
 42
-0.0580053190574
  0
VERTEX
  8
Layer0
 10
93.2066423623054
 20
100.783680125216
 42
0.0
  0
VERTEX
  8
Layer0
 10
91.9490970906758
 20
103.389313928033
 42
-0.0715158174044
  0
VERTEX
  8
Layer0
 10
91.906111409295
 20
103.524970142184
 42
0.0
  0
VERTEX
  8
Layer0
 10
91.486929652085
 20
106.056827955732
 42
-0.0874647127431
  0
VERTEX
  8
Layer0
 10
91.4887369525627
 20
106.230419909782
 42
0.0
  0
VERTEX
  8
Layer0
 10
91.7402460068887
 20
107.575154986912
 42
-0.1006027019813
  0
VERTEX
  8
Layer0
 10
91.8151322211904
 20
107.759731482497
 42
0.0
  0
VERTEX
  8
Layer0
 10
92.5696593841682
 20
108.89655240805
 42
-0.0976659770834
  0
VERTEX
  8
Layer0
 10
92.7058267657788
 20
109.034013000509
 42
0.0
  0
VERTEX
  8
Layer0
 10
93.8493545994476
 20
109.808660887833
 42
-0.1042118983787
  0
VERTEX
  8
Layer0
 10
94.0402336176628
 20
109.88661788023
 42
0.0
  0
VERTEX
  8
Layer0
 10
95.4587446840612
 20
110.144833842671
 42
-0.0880462701585
  0
VERTEX
  8
Layer0
 10
95.6334809220084
 20
110.145606516721
 42
0.0
  0
VERTEX
  8
Layer0
 10
96.7971294800231
 20
109.94439927326
 42
-0.0967564933874
  0
VERTEX
  8
Layer0
 10
96.9762774225875
 20
109.876121414097
 42
0.0
  0
VERTEX
  8
Layer0
 10
97.9454256452568
 20
109.272499683715
 42
-0.083622932211
  0
VERTEX
  8
Layer0
 10
98.06986081601
 20
109.162499959213
 42
0.0
  0
VERTEX
  8
Layer0
 10
98.8780432439109
 20
108.163170650025
 42
-0.056096244736
  0
VERTEX
  8
Layer0
 10
98.9382040950083
 20
108.068889258334
 42
0.0
  0
VERTEX
  8
Layer0
 10
99.6166063030414
 20
106.685349779881
 42
0.0
  0
VERTEX
  8
Layer0
 10
101.206913872678
 20
103.609878942732
 42
0.0
  0
VERTEX
  8
Layer0
 10
102.170229278236
 20
102.554232987119
 42
0.0
  0
VERTEX
  8
Layer0
 10
103.468873651825
 20
101.695701981192
 42
0.0
  0
VERTEX
  8
Layer0
 10
105.181564297886
 20
101.121668303116
 42
0.0
  0
VERTEX
  8
Layer0
 10
107.396006677724
 20
100.927027114109
 42
0.0
  0
VERTEX
  8
Layer0
 10
110.470393833789
 20
101.322167783071
 42
0.0
  0
VERTEX
  8
Layer0
 10
112.853627424667
 20
102.480814943853
 42
0.0
  0
VERTEX
  8
Layer0
 10
114.364598241358
 20
104.168828805733
 42
0.0
  0
VERTEX
  8
Layer0
 10
114.863746274847
 20
106.210798033643
 42
0.0
  0
VERTEX
  8
Layer0
 10
114.599226876574
 20
107.783053782924
 42
0.0
  0
VERTEX
  8
Layer0
 10
113.804101302893
 20
109.030835113909
 42
0.0
  0
VERTEX
  8
Layer0
 10
112.549354233001
 20
110.018025823309
 42
0.0
  0
VERTEX
  8
Layer0
 10
110.924150508626
 20
110.76396893899
 42
0.0
  0
VERTEX
  8
Layer0
 10
105.907310541262
 20
112.12131025642
 42
-0.0013790179628
  0
VERTEX
  8
Layer0
 10
105.904650228544
 20
112.122037902953
 42
0.0
  0
VERTEX
  8
Layer0
 10
102.011290067578
 20
113.198496655468
 42
-0.0252029617616
  0
VERTEX
  8
Layer0
 10
101.963475607178
 20
113.21434941082
 42
0.0
  0
VERTEX
  8
Layer0
 10
98.7609269820943
 20
114.458480866219
 42
-0.044797451129
  0
VERTEX
  8
Layer0
 10
98.6808089144368
 20
114.498182505071
 42
0.0
  0
VERTEX
  8
Layer0
 10
96.1187700143697
 20
116.067599004065
 42
-0.064034280691
  0
VERTEX
  8
Layer0
 10
96.0193939895914
 20
116.147550735597
 42
0.0
  0
VERTEX
  8
Layer0
 10
94.0475630036759
 20
118.199864618897
 42
-0.0778210722633
  0
VERTEX
  8
Layer0
 10
93.9589283136416
 20
118.32666209632
 42
0.0
  0
VERTEX
  8
Layer0
 10
92.7013830420119
 20
120.89876135856
 42
-0.0805634539909
  0
VERTEX
  8
Layer0
 10
92.6549979863188
 20
121.051981952235
 42
0.0
  0
VERTEX
  8
Layer0
 10
92.2358162291088
 20
124.18075458805
 42
-0.069263389009
  0
VERTEX
  8
Layer0
 10
92.236522449298
 20
124.318618159511
 42
0.0
  0
VERTEX
  8
Layer0
 10
92.6791783849117
 20
127.38367516823
 42
-0.0784722730781
  0
VERTEX
  8
Layer0
 10
92.7252825656523
 20
127.532689988622
 42
0.0
  0
VERTEX
  8
Layer0
 10
94.0532503724934
 20
130.235573959112
 42
-0.0787197047815
  0
VERTEX
  8
Layer0
 10
94.1433723820051
 20
130.363483385392
 42
0.0
  0
VERTEX
  8
Layer0
 10
96.309703703266
 20
132.593530333748
 42
-0.0731112073693
  0
VERTEX
  8
Layer0
 10
96.425143523408
 20
132.682005690381
 42
0.0
  0
VERTEX
  8
Layer0
 10
99.3828900022812
 20
134.328551632702
 42
-0.0591573851604
  0
VERTEX
  8
Layer0
 10
99.4919483045645
 20
134.373353486705
 42
0.0
  0
VERTEX
  8
Layer0
 10
103.14050631932
 20
135.389450066182
 42
-0.0480055099839
  0
VERTEX
  8
Layer0
 10
103.234822292991
 20
135.406191411795
 42
0.0
  0
VERTEX
  8
Layer0
 10
107.473588221898
 20
135.74489027162
 42
-0.036559273593
  0
VERTEX
  8
Layer0
 10
107.546607556298
 20
135.74537583216
 42
0.0
  0
VERTEX
  8
Layer0
 10
110.923535792381
 20
135.520694410296
 42
-0.0407489657042
  0
VERTEX
  8
Layer0
 10
111.004010490952
 20
135.50870553927
 42
0.0
  0
VERTEX
  8
Layer0
 10
113.891334434614
 20
134.834661273676
 42
-0.0447948351996
  0
VERTEX
  8
Layer0
 10
113.976237496277
 20
134.806631556668
 42
0.0
  0
VERTEX
  8
Layer0
 10
116.394077871864
 20
133.760353890672
 42
-0.0474738223576
  0
VERTEX
  8
Layer0
 10
116.47706556561
 20
133.714663637049
 42
0.0
  0
VERTEX
  8
Layer0
 10
118.445543097468
 20
132.373282013978
 42
-0.0482294505877
  0
VERTEX
  8
Layer0
 10
118.519485202027
 20
132.311688587643
 42
0.0
  0
VERTEX
  8
Layer0
 10
120.028539527982
 20
130.785866991399
 42
-0.0509369420132
  0
VERTEX
  8
Layer0
 10
120.09228011702
 20
130.706735581748
 42
0.0
  0
VERTEX
  8
Layer0
 10
121.131850874901
 20
129.107137996234
 42
-0.0547786266007
  0
VERTEX
  8
Layer0
 10
121.181012759933
 20
129.009597285665
 42
0.0
  0
VERTEX
  8
Layer0
 10
121.784634490315
 20
127.393232429864
 42
-0.0576720641689
  0
VERTEX
  8
Layer0
 10
121.812205607441
 20
127.281625802534
 42
0.0
  0
VERTEX
  8
Layer0
 10
122.013412850902
 20
125.705502395425
 42
-0.0779000106037
  0
VERTEX
  8
Layer0
 10
122.008997884182
 20
125.550705076783
 42
0.0
  0
VERTEX
  8
Layer0
 10
121.757488829856
 20
124.199263091538
 42
-0.093610538887
  0
VERTEX
  8
Layer0
 10
121.690257905679
 20
124.026273484104
 42
0.0
  0
VERTEX
  8
Layer0
 10
120.935730742701
 20
122.815676569282
 42
-0.091676176944
  0
VERTEX
  8
Layer0
 10
120.813102745833
 20
122.681428972816
 42
0.0
  0
VERTEX
  8
Layer0
 10
119.682988728395
 20
121.826298188107
 42
-0.1114133120594
  0
VERTEX
  8
Layer0
 10
119.482551133872
 20
121.735378408582
 42
0.0
  0
VERTEX
  8
Layer0
 10
118.104281516166
 20
121.45033481368
 42
-0.0864782498787
  0
VERTEX
  8
Layer0
 10
117.932693547674
 20
121.444943419602
 42
0.0
  0
VERTEX
  8
Layer0
 10
116.728803540967
 20
121.615969576543
 42
-0.0975826692436
  0
VERTEX
  8
Layer0
 10
116.546268352089
 20
121.67965034426
 42
0.0
  0
VERTEX
  8
Layer0
 10
115.671016843035
 20
122.192728815085
 42
-0.1098211399535
  0
VERTEX
  8
Layer0
 10
115.512071598261
 20
122.340499510419
 42
0.0
  0
VERTEX
  8
Layer0
 10
113.969482731728
 20
124.580606820949
 42
-0.0164692194941
  0
VERTEX
  8
Layer0
 10
113.951709757023
 20
124.608328181382
 42
0.0
  0
VERTEX
  8
Layer0
 10
112.798846844737
 20
126.543958809681
 42
0.0
  0
VERTEX
  8
Layer0
 10
111.505078103393
 20
127.927918160396
 42
0.0
  0
VERTEX
  8
Layer0
 10
109.708736402462
 20
128.786101952451
 42
0.0
  0
VERTEX
  8
Layer0
 10
106.980063823102
 20
129.082558202312
 42
0.0
  0
VERTEX
  8
Layer0
 10
104.328912585967
 20
128.760336451469
 42
0.0
  0
VERTEX
  8
Layer0
 10
102.297144565848
 20
127.817571198641
 42
0.0
  0
VERTEX
  8
Layer0
 10
101.031931454467
 20
126.486555041279
 42
0.0
  0
VERTEX
  8
Layer0
 10
100.618648059605
 20
124.941871714375
 42
0.0
  0
SEQEND
  0
POLYLINE
  8
Layer0
 66
     1
 10
0.0
 20
0.0
 30
0.0
 70
     1
  0
VERTEX
  8
Layer0
 10
38.4187633968879
 20
149.302396299598
 42
0.0
  0
VERTEX
  8
Layer0
 10
37.6541758717371
 20
148.266178995775
 42
-0.1109427815442
  0
VERTEX
  8
Layer0
 10
37.4885431149321
 20
148.122620461235
 42
0.0
  0
VERTEX
  8
Layer0
 10
36.2343512973599
 20
147.448576195642
 42
-0.0911321440851
  0
VERTEX
  8
Layer0
 10
36.0622809363252
 20
147.39319508799
 42
0.0
  0
VERTEX
  8
Layer0
 10
34.338605550678
 20
147.168513666125
 42
-0.0324161880666
  0
VERTEX
  8
Layer0
 10
34.2739771965125
 20
147.164319248826
 42
0.0
  0
VERTEX
  8
Layer0
 10
15.0385647216633
 20
147.164319248826
 42
-0.0320680068598
  0
VERTEX
  8
Layer0
 10
14.9746262334746
 20
147.168424229968
 42
0.0
  0
VERTEX
  8
Layer0
 10
12.7378723770026
 20
147.456821278929
 42
-0.0986464333123
  0
VERTEX
  8
Layer0
 10
12.5527022984372
 20
147.519190148668
 42
0.0
  0
VERTEX
  8
Layer0
 10
11.0470014265391
 20
148.384381295549
 42
-0.1342239601707
  0
VERTEX
  8
Layer0
 10
10.8610989003689
 20
148.571401158678
 42
0.0
  0
VERTEX
  8
Layer0
 10
10.0059681156607
 20
150.080455484634
 42
-0.0972672467777
  0
VERTEX
  8
Layer0
 10
9.945050499361
 20
150.263285123669
 42
0.0
  0
VERTEX
  8
Layer0
 10
9.6600069044581
 20
152.483271709852
 42
-0.0319358717945
  0
VERTEX
  8
Layer0
 10
9.6559356136821
 20
152.546948356807
 42
0.0
  0
VERTEX
  8
Layer0
 10
9.6559356136821
 20
182.835345405768
 42
-0.0319783734927
  0
VERTEX
  8
Layer0
 10
9.6600177260284
 20
182.899106277038
 42
0.0
  0
VERTEX
  8
Layer0
 10
9.9316475047004
 20
185.011782333376
 42
-0.0920747162436
  0
VERTEX
  8
Layer0
 10
9.9876126935255
 20
185.185595919473
 42
0.0
  0
VERTEX
  8
Layer0
 10
10.8025020295418
 20
186.694650245429
 42
-0.113392279497
  0
VERTEX
  8
Layer0
 10
10.9503023654479
 20
186.862842958788
 42
0.0
  0
VERTEX
  8
Layer0
 10
12.2078476370776
 20
187.768275554361
 42
-0.1098223910639
  0
VERTEX
  8
Layer0
 10
12.4072960704012
 20
187.853839210509
 42
0.0
  0
VERTEX
  8
Layer0
 10
14.0068936559142
 20
188.1556500757
 42
-0.0922536130585
  0
VERTEX
  8
Layer0
 10
14.1898432706254
 20
188.156107532866
 42
0.0
  0
VERTEX
  8
Layer0
 10
15.8162684886
 20
187.857650121733
 42
-0.1072356890416
  0
VERTEX
  8
Layer0
 10
16.0119628173839
 20
187.776030471858
 42
0.0
  0
VERTEX
  8
Layer0
 10
17.296335721475
 20
186.880658238457
 42
-0.114409994818
  0
VERTEX
  8
Layer0
 10
17.4476579672998
 20
186.712980256119
 42
0.0
  0
VERTEX
  8
Layer0
 10
18.282668027662
 20
185.207279384221
 42
-0.0943711572367
  0
VERTEX
  8
Layer0
 10
18.3411885408301
 20
185.029591834992
 42
0.0
  0
VERTEX
  8
Layer0
 10
18.6195252276177
 20
182.900148508366
 42
-0.0325043963222
  0
VERTEX
  8
Layer0
 10
18.6237424547285
 20
182.835345405768
 42
0.0
  0
VERTEX
  8
Layer0
 10
18.6237424547285
 20
154.710261569417
 42
0.0
  0
VERTEX
  8
Layer0
 10
34.2739771965125
 20
154.710261569417
 42
-0.0341801175028
  0
VERTEX
  8
Layer0
 10
34.3420983054987
 20
154.705599347615
 42
0.0
  0
VERTEX
  8
Layer0
 10
36.0490064208574
 20
154.470857563577
 42
-0.0937282940803
  0
VERTEX
  8
Layer0
 10
36.2251869963372
 20
154.411772793354
 42
0.0
  0
VERTEX
  8
Layer0
 10
37.482732267967
 20
153.707547441241
 42
-0.107680807768
  0
VERTEX
  8
Layer0
 10
37.6420793314101
 20
153.566366777466
 42
0.0
  0
VERTEX
  8
Layer0
 10
38.4167272187341
 20
152.50667529524
 42
-0.1092641972648
  0
VERTEX
  8
Layer0
 10
38.5035141135905
 20
152.30893167396
 42
0.0
  0
VERTEX
  8
Layer0
 10
38.7617300760318
 20
151.00779149958
 42
-0.0972770493684
  0
VERTEX
  8
Layer0
 10
38.762108660003
 20
150.815061545888
 42
0.0
  0
VERTEX
  8
Layer0
 10
38.5072461516194
 20
149.503861009335
 42
-0.1113845340077
  0
SEQEND
  0
POLYLINE
  8
Layer0
 66
     1
 10
0.0
 20
0.0
 30
0.0
 70
     1
  0
VERTEX
  8
Layer0
 10
50.6719289160001
 20
291.122956099679
 42
0.0
  0
VERTEX
  8
Layer0
 10
52.1642159716675
 20
291.978086884387
 42
-0.0981396423192
  0
VERTEX
  8
Layer0
 10
52.3484642455515
 20
292.040107906049
 42
0.0
  0
VERTEX
  8
Layer0
 10
54.5449766533315
 20
292.325151500952
 42
-0.0322736472205
  0
VERTEX
  8
Layer0
 10
54.6093226022804
 20
292.329309188464
 42
0.0
  0
VERTEX
  8
Layer0
 10
67.3524480214622
 20
292.329309188464
 42
-0.0178287548789
  0
VERTEX
  8
Layer0
 10
67.3880715464562
 20
292.328038538379
 42
0.0
  0
VERTEX
  8
Layer0
 10
72.2707006544375
 20
291.97927931638
 42
-0.0458614128028
  0
VERTEX
  8
Layer0
 10
72.3610182265075
 20
291.964428918343
 42
0.0
  0
VERTEX
  8
Layer0
 10
74.3194353961922
 20
291.454703901576
 42
-0.0476338675219
  0
VERTEX
  8
Layer0
 10
74.4087305615689
 20
291.4221267903
 42
0.0
  0
VERTEX
  8
Layer0
 10
76.1525266715622
 20
290.590470183996
 42
-0.0654351278834
  0
VERTEX
  8
Layer0
 10
76.261834095538
 20
290.519525275245
 42
0.0
  0
VERTEX
  8
Layer0
 10
78.72997628199
 20
288.413556127022
 42
-0.0847309157889
  0
VERTEX
  8
Layer0
 10
78.8377693805215
 20
288.28436627976
 42
0.0
  0
VERTEX
  8
Layer0
 10
80.4742549606691
 20
285.467464871309
 42
-0.0890209286971
  0
VERTEX
  8
Layer0
 10
80.5346130722469
 20
285.301454929329
 42
0.0
  0
VERTEX
  8
Layer0
 10
81.097993353937
 20
282.041897585265
 42
-0.0762317428671
  0
VERTEX
  8
Layer0
 10
81.100870132523
 20
281.890342288865
 42
0.0
  0
VERTEX
  8
Layer0
 10
80.7319901861783
 20
279.13715650751
 42
-0.0765724681592
  0
VERTEX
  8
Layer0
 10
80.6890319290089
 20
278.991090325709
 42
0.0
  0
VERTEX
  8
Layer0
 10
79.5823920899747
 20
276.63361212316
 42
-0.0790862291522
  0
VERTEX
  8
Layer0
 10
79.4940614292116
 20
276.503588396447
 42
0.0
  0
VERTEX
  8
Layer0
 10
77.649661697488
 20
274.541817772705
 42
-0.0678651354823
  0
VERTEX
  8
Layer0
 10
77.5446651404172
 20
274.456788974017
 42
0.0
  0
VERTEX
  8
Layer0
 10
75.775838444123
 20
273.384007068603
 42
0.0
  0
VERTEX
  8
Layer0
 10
78.3003548259156
 20
272.248411464336
 42
-0.0735360691644
  0
VERTEX
  8
Layer0
 10
78.423547078426
 20
272.169532863708
 42
0.0
  0
VERTEX
  8
Layer0
 10
80.8464176350995
 20
270.060210261427
 42
-0.0901059129226
  0
VERTEX
  8
Layer0
 10
80.9580888371496
 20
269.920622141114
 42
0.0
  0
VERTEX
  8
Layer0
 10
82.4118111711536
 20
267.227798532798
 42
-0.0872655918437
  0
VERTEX
  8
Layer0
 10
82.4664503709686
 20
267.06343005093
 42
0.0
  0
VERTEX
  8
Layer0
 10
82.9510244823033
 20
263.787105436577
 42
-0.0703129352042
  0
VERTEX
  8
Layer0
 10
82.951925990316
 20
263.647174291312
 42
0.0
  0
VERTEX
  8
Layer0
 10
82.5293907790484
 20
260.511694747382
 42
-0.072688118601
  0
VERTEX
  8
Layer0
 10
82.489555185812
 20
260.372677463737
 42
0.0
  0
VERTEX
  8
Layer0
 10
81.2219495520091
 20
257.565836417459
 42
-0.0722516230099
  0
VERTEX
  8
Layer0
 10
81.1445639743343
 20
257.444690456752
 42
0.0
  0
VERTEX
  8
Layer0
 10
79.1593191721881
 20
255.147574427242
 42
-0.0752501359984
  0
VERTEX
  8
Layer0
 10
79.0456215684935
 20
255.050266511214
 42
0.0
  0
VERTEX
  8
Layer0
 10
76.4701688521957
 20
253.443962017585
 42
-0.0767958480595
  0
VERTEX
  8
Layer0
 10
76.3297922410116
 20
253.383887024635
 42
0.0
  0
VERTEX
  8
Layer0
 10
72.1983368419505
 20
252.324195542408
 42
-0.0486611133839
  0
VERTEX
  8
Layer0
 10
72.1023911157273
 20
252.309318159941
 42
0.0
  0
VERTEX
  8
Layer0
 10
66.6563817260561
 20
252.000800386635
 42
-0.0141483842263
  0
VERTEX
  8
Layer0
 10
66.6281019450035
 20
252.0
 42
0.0
  0
VERTEX
  8
Layer0
 10
54.6093226022804
 20
252.0
 42
-0.0325335309788
  0
VERTEX
  8
Layer0
 10
54.5444617833127
 20
252.004224774557
 42
0.0
  0
VERTEX
  8
Layer0
 10
52.3144148349559
 20
252.295975277575
 42
-0.1009220841441
  0
VERTEX
  8
Layer0
 10
52.1254681686352
 20
252.360958487758
 42
0.0
  0
VERTEX
  8
Layer0
 10
50.6398880210832
 20
253.236209996812
 42
-0.1342791877279
  0
VERTEX
  8
Layer0
 10
50.45597746164
 20
253.425335064981
 42
0.0
  0
VERTEX
  8
Layer0
 10
49.6209674012779
 20
254.937742844995
 42
-0.094982319005
  0
VERTEX
  8
Layer0
 10
49.5626282454152
 20
255.116741987445
 42
0.0
  0
VERTEX
  8
Layer0
 10
49.2842915586277
 20
257.31996130334
 42
-0.0314268652848
  0
VERTEX
  8
Layer0
 10
49.280348759222
 20
257.382629107981
 42
0.0
  0
VERTEX
  8
Layer0
 10
49.280348759222
 20
286.946680080483
 42
-0.0316988786856
  0
VERTEX
  8
Layer0
 10
49.2843599697314
 20
287.00988704766
 42
0.0
  0
VERTEX
  8
Layer0
 10
49.5694035646343
 20
289.246640904131
 42
-0.0977472175612
  0
VERTEX
  8
Layer0
 10
49.6306168206147
 20
289.430355453759
 42
0.0
  0
VERTEX
  8
Layer0
 10
50.4857476053228
 20
290.936056325657
 42
-0.1342828090967
  0
SEQEND
  0
POLYLINE
  8
Layer0
 66
     1
 10
0.0
 20
0.0
 30
0.0
 70
     1
  0
VERTEX
  8
Layer0
 10
49.3767289469659
 20
93.0573626493154
 42
0.0
  0
VERTEX
  8
Layer0
 10
48.7831675787567
 20
92.1988784105494
 42
-0.0830952595034
  0
VERTEX
  8
Layer0
 10
48.6681816507938
 20
92.0804722166749
 42
0.0
  0
VERTEX
  8
Layer0
 10
47.7929301417395
 20
91.4366090376005
 42
-0.1082416884555
  0
VERTEX
  8
Layer0
 10
47.597428573952
 20
91.3496318832782
 42
0.0
  0
VERTEX
  8
Layer0
 10
46.5545043620136
 20
91.1350108235867
 42
-0.1164108321228
  0
VERTEX
  8
Layer0
 10
46.3248910087238
 20
91.1416310211451
 42
0.0
  0
VERTEX
  8
Layer0
 10
44.1116113306555
 20
91.7318389352967
 42
-0.0628208788114
  0
VERTEX
  8
Layer0
 10
43.9956752775819
 20
91.7789645124046
 42
0.0
  0
VERTEX
  8
Layer0
 10
40.9373251769782
 20
93.4959329899364
 42
-0.0219083030817
  0
VERTEX
  8
Layer0
 10
40.9001117322532
 20
93.5190243916923
 42
0.0
  0
VERTEX
  8
Layer0
 10
37.2756301503447
 20
95.9942801061665
 42
0.0
  0
VERTEX
  8
Layer0
 10
35.4712593360181
 20
95.2319113607985
 42
-0.0334521711939
  0
VERTEX
  8
Layer0
 10
35.4080984237984
 20
95.2100735759755
 42
0.0
  0
VERTEX
  8
Layer0
 10
33.1311031186341
 20
94.5896845753048
 42
-0.04281924217
  0
VERTEX
  8
Layer0
 10
33.0470088162658
 20
94.5743457787208
 42
0.0
  0
VERTEX
  8
Layer0
 10
27.8290343025166
 20
94.0780345781843
 42
-0.0446980988584
  0
VERTEX
  8
Layer0
 10
27.7398177014327
 20
94.077544447778
 42
0.0
  0
VERTEX
  8
Layer0
 10
23.3903877886225
 20
94.443070940065
 42
-0.0480503206616
  0
VERTEX
  8
Layer0
 10
23.2960553384344
 20
94.4602238888879
 42
0.0
  0
VERTEX
  8
Layer0
 10
19.4228159018147
 20
95.5568033657491
 42
-0.0536185193906
  0
VERTEX
  8
Layer0
 10
19.3236348197334
 20
95.5967665613655
 42
0.0
  0
VERTEX
  8
Layer0
 10
15.980241124227
 20
97.3808041200509
 42
-0.0578957927539
  0
VERTEX
  8
Layer0
 10
15.8853748503339
 20
97.4465205424265
 42
0.0
  0
VERTEX
  8
Layer0
 10
13.1254821608638
 20
99.8744212801863
 42
-0.0565350686851
  0
VERTEX
  8
Layer0
 10
13.0497870515014
 20
99.9579303831113
 42
0.0
  0
VERTEX
  8
Layer0
 10
10.8868091842981
 20
102.96597867285
 42
-0.0521604404039
  0
VERTEX
  8
Layer0
 10
10.8351889426821
 20
103.056307070695
 42
0.0
  0
VERTEX
  8
Layer0
 10
9.2825397139766
 20
106.580787285316
 42
-0.0456306924955
  0
VERTEX
  8
Layer0
 10
9.2535671667849
 20
106.667127639717
 42
0.0
  0
VERTEX
  8
Layer0
 10
8.3179534846923
 20
110.617496519663
 42
-0.0400000711004
  0
VERTEX
  8
Layer0
 10
8.3058122601818
 20
110.696440691847
 42
0.0
  0
VERTEX
  8
Layer0
 10
7.9939410328177
 20
114.982154977561
 42
-0.0368537456985
  0
VERTEX
  8
Layer0
 10
7.994017013384
 20
115.055762456118
 42
0.0
  0
VERTEX
  8
Layer0
 10
8.3193020569789
 20
119.401838914871
 42
-0.0415974127296
  0
VERTEX
  8
Layer0
 10
8.332357571431
 20
119.483857460388
 42
0.0
  0
VERTEX
  8
Layer0
 10
9.3082127022157
 20
123.45434706468
 42
-0.046530562796
  0
VERTEX
  8
Layer0
 10
9.3386540115062
 20
123.542075738403
 42
0.0
  0
VERTEX
  8
Layer0
 10
10.931544688904
 20
127.04308177462
 42
-0.0527093385202
  0
VERTEX
  8
Layer0
 10
10.9848990307871
 20
127.133662774797
 42
0.0
  0
VERTEX
  8
Layer0
 10
13.161290714221
 20
130.071288529325
 42
-0.056269828278
  0
VERTEX
  8
Layer0
 10
13.237764233674
 20
130.153368679905
 42
0.0
  0
VERTEX
  8
Layer0
 10
15.9741827447404
 20
132.497433066223
 42
-0.0561575782472
  0
VERTEX
  8
Layer0
 10
16.0668332316432
 20
132.560293158537
 42
0.0
  0
VERTEX
  8
Layer0
 10
19.3398043919383
 20
134.280615090126
 42
-0.0529521021849
  0
VERTEX
  8
Layer0
 10
19.437952224971
 20
134.31960317745
 42
0.0
  0
VERTEX
  8
Layer0
 10
23.2206484020334
 20
135.375941205619
 42
-0.0475251292194
  0
VERTEX
  8
Layer0
 10
23.3139971050489
 20
135.392671345057
 42
0.0
  0
VERTEX
  8
Layer0
 10
27.5795906664171
 20
135.744784021113
 42
-0.033733747375
  0
VERTEX
  8
Layer0
 10
27.6469739735558
 20
135.745789354861
 42
0.0
  0
VERTEX
  8
Layer0
 10
30.5971751807993
 20
135.590692104694
 42
-0.0290217728543
  0
VERTEX
  8
Layer0
 10
30.6548158508793
 20
135.584293803866
 42
0.0
  0
VERTEX
  8
Layer0
 10
33.3887192714024
 20
135.119002053363
 42
-0.0325678037581
  0
VERTEX
  8
Layer0
 10
33.4520172519799
 20
135.103934628509
 42
0.0
  0
VERTEX
  8
Layer0
 10
35.9696228857827
 20
134.32844837767
 42
-0.0355159138224
  0
VERTEX
  8
Layer0
 10
36.0357693705444
 20
134.302807424168
 42
0.0
  0
VERTEX
  8
Layer0
 10
38.3370772176269
 20
133.217126672995
 42
-0.0366743744596
  0
VERTEX
  8
Layer0
 10
38.4008579742866
 20
133.181104307937
 42
0.0
  0
VERTEX
  8
Layer0
 10
40.4607171292162
 20
131.809541598346
 42
-0.0378329708265
  0
VERTEX
  8
Layer0
 10
40.5202647570984
 20
131.763032888058
 42
0.0
  0
VERTEX
  8
Layer0
 10
42.3135243144425
 20
130.129900761968
 42
-0.0384837739453
  0
VERTEX
  8
Layer0
 10
42.366200713441
 20
130.07393923579
 42
0.0
  0
VERTEX
  8
Layer0
 10
43.8928606731995
 20
128.179237693201
 42
-0.037365095807
  0
VERTEX
  8
Layer0
 10
43.9352156448147
 20
128.117795878226
 42
0.0
  0
VERTEX
  8
Layer0
 10
45.1952760069877
 20
125.961524919138
 42
-0.0342954781882
  0
VERTEX
  8
Layer0
 10
45.2257084668141
 20
125.900144653672
 42
0.0
  0
VERTEX
  8
Layer0
 10
46.2116239597719
 20
123.513323728119
 42
-0.0314801240268
  0
VERTEX
  8
Layer0
 10
46.2319329836294
 20
123.453794815575
 42
0.0
  0
VERTEX
  8
Layer0
 10
46.936158335742
 20
120.86744337359
 42
-0.0421577564755
  0
VERTEX
  8
Layer0
 10
46.9513569239187
 20
120.784661091928
 42
0.0
  0
VERTEX
  8
Layer0
 10
47.5147372056089
 20
115.013366658661
 42
-0.0421724670839
  0
VERTEX
  8
Layer0
 10
47.5158329218431
 20
114.929178597199
 42
0.0
  0
VERTEX
  8
Layer0
 10
47.1989315133924
 20
110.490882151861
 42
-0.0412217820383
  0
VERTEX
  8
Layer0
 10
47.1863330086236
 20
110.409548404416
 42
0.0
  0
VERTEX
  8
Layer0
 10
46.2356287832715
 20
106.457502797441
 42
-0.048221795481
  0
VERTEX
  8
Layer0
 10
46.2042270892546
 20
106.36655120284
 42
0.0
  0
VERTEX
  8
Layer0
 10
44.6197200470011
 20
102.900756434228
 42
-0.052841095306
  0
VERTEX
  8
Layer0
 10
44.5660436965603
 20
102.810062085691
 42
0.0
  0
VERTEX
  8
Layer0
 10
42.677122013139
 20
100.272939008261
 42
0.0
  0
VERTEX
  8
Layer0
 10
46.0141168680675
 20
98.263692106173
 42
-0.0080835109173
  0
VERTEX
  8
Layer0
 10
46.0278295290853
 20
98.2551304843441
 42
0.0
  0
VERTEX
  8
Layer0
 10
48.7642480401517
 20
96.4845067418894
 42
-0.1084783559423
  0
VERTEX
  8
Layer0
 10
48.9151124998178
 20
96.3321204599872
 42
0.0
  0
VERTEX
  8
Layer0
 10
49.4181306084698
 20
95.5373518483171
 42
-0.1025556323103
  0
VERTEX
  8
Layer0
 10
49.4896095661282
 20
95.3473776686343
 42
0.0
  0
VERTEX
  8
Layer0
 10
49.6572822690121
 20
94.2776258242345
 42
-0.0957884609198
  0
VERTEX
  8
Layer0
 10
49.6505408675886
 20
94.0879104586349
 42
0.0
  0
VERTEX
  8
Layer0
 10
49.4526870781855
 20
93.229426219869
 42
-0.0948886315921
  0
SEQEND
  0
POLYLINE
  8
Layer0
 66
     1
 10
0.0
 20
0.0
 30
0.0
 70
     1
  0
VERTEX
  8
Layer0
 10
11.0375056112439
 20
238.684128159762
 42
0.0
  0
VERTEX
  8
Layer0
 10
11.9798262014517
 20
239.327991338837
 42
-0.1060286686047
  0
VERTEX
  8
Layer0
 10
12.1739271476567
 20
239.407356697459
 42
0.0
  0
VERTEX
  8
Layer0
 10
14.9505871074152
 20
239.903667897995
 42
-0.0442478563967
  0
VERTEX
  8
Layer0
 10
15.0385647216633
 20
239.911468812877
 42
0.0
  0
VERTEX
  8
Layer0
 10
33.8179074446681
 20
239.911468812877
 42
-0.0316586022559
  0
VERTEX
  8
Layer0
 10
33.8810345845051
 20
239.907467768739
 42
0.0
  0
VERTEX
  8
Layer0
 10
35.5409943430565
 20
239.696200163105
 42
-0.0926987400929
  0
VERTEX
  8
Layer0
 10
35.7159681925205
 20
239.639869171614
 42
0.0
  0
VERTEX
  8
Layer0
 10
36.8863236586504
 20
239.006066354713
 42
-0.1145393646969
  0
VERTEX
  8
Layer0
 10
37.0556562432592
 20
238.856222272814
 42
0.0
  0
VERTEX
  8
Layer0
 10
37.749821233199
 20
237.880367142029
 42
-0.108785949423
  0
VERTEX
  8
Layer0
 10
37.8338689288138
 20
237.682446261175
 42
0.0
  0
VERTEX
  8
Layer0
 10
38.0652572587936
 20
236.445021713892
 42
-0.0919633746412
  0
VERTEX
  8
Layer0
 10
38.065521017925
 20
236.262637627001
 42
0.0
  0
VERTEX
  8
Layer0
 10
37.8341326879452
 20
235.005092355371
 42
-0.1087001491661
  0
VERTEX
  8
Layer0
 10
37.7507556805443
 20
234.807067705491
 42
0.0
  0
VERTEX
  8
Layer0
 10
37.0565906906045
 20
233.824505666591
 42
-0.1153579235022
  0
VERTEX
  8
Layer0
 10
36.8863236586506
 20
233.673343437373
 42
0.0
  0
VERTEX
  8
Layer0
 10
35.7159681925207
 20
233.039540620471
 42
-0.0926987400932
  0
VERTEX
  8
Layer0
 10
35.5409943430562
 20
232.98320962898
 42
0.0
  0
VERTEX
  8
Layer0
 10
33.8810345845048
 20
232.771942023347
 42
-0.0316586022558
  0
VERTEX
  8
Layer0
 10
33.8179074446681
 20
232.767940979209
 42
0.0
  0
VERTEX
  8
Layer0
 10
18.6237424547285
 20
232.767940979209
 42
0.0
  0
VERTEX
  8
Layer0
 10
18.6237424547285
 20
223.70757880617
 42
0.0
  0
VERTEX
  8
Layer0
 10
31.2424547283703
 20
223.70757880617
 42
-0.0319413523742
  0
VERTEX
  8
Layer0
 10
31.3061422361383
 20
223.703506120758
 42
0.0
  0
VERTEX
  8
Layer0
 10
32.8990329135361
 20
223.49894542324
 42
-0.0927021123704
  0
VERTEX
  8
Layer0
 10
33.0739488818891
 20
223.442413581072
 42
0.0
  0
VERTEX
  8
Layer0
 10
34.2040628993269
 20
222.828731488517
 42
-0.1152748425128
  0
VERTEX
  8
Layer0
 10
34.3740625186009
 20
222.677508725481
 42
0.0
  0
VERTEX
  8
Layer0
 10
35.0481067841946
 20
221.721774319042
 42
-0.108846021125
  0
VERTEX
  8
Layer0
 10
35.1313741847689
 20
221.523398130721
 42
0.0
  0
VERTEX
  8
Layer0
 10
35.3560556066334
 20
220.292680491553
 42
-0.0913202233145
  0
VERTEX
  8
Layer0
 10
35.3557725880712
 20
220.111550777966
 42
0.0
  0
VERTEX
  8
Layer0
 10
35.1277377121489
 20
218.884186592855
 42
-0.1110946014094
  0
VERTEX
  8
Layer0
 10
35.0412624401368
 20
218.682459892115
 42
0.0
  0
VERTEX
  8
Layer0
 10
34.3571578123701
 20
217.736785847849
 42
-0.1142917859747
  0
VERTEX
  8
Layer0
 10
34.187068604085
 20
217.588524779873
 42
0.0
  0
VERTEX
  8
Layer0
 10
33.0536011325894
 20
216.984903049491
 42
-0.0908411717545
  0
VERTEX
  8
Layer0
 10
32.8818940788586
 20
216.930249120929
 42
0.0
  0
VERTEX
  8
Layer0
 10
31.3057706717493
 20
216.729041877468
 42
-0.0317538635081
  0
VERTEX
  8
Layer0
 10
31.2424547283703
 20
216.72501676727
 42
0.0
  0
VERTEX
  8
Layer0
 10
18.6237424547285
 20
216.72501676727
 42
0.0
  0
VERTEX
  8
Layer0
 10
18.6237424547285
 20
204.267270288397
 42
-0.0322033017641
  0
VERTEX
  8
Layer0
 10
18.6196028346105
 20
204.203063718147
 42
0.0
  0
VERTEX
  8
Layer0
 10
18.341266147823
 20
202.053499667174
 42
-0.0941997275298
  0
VERTEX
  8
Layer0
 10
18.2831238126725
 20
201.876039290333
 42
0.0
  0
VERTEX
  8
Layer0
 10
17.4481137523103
 20
200.36363151032
 42
-0.1136372214679
  0
VERTEX
  8
Layer0
 10
17.2983560931202
 20
200.196545700406
 42
0.0
  0
VERTEX
  8
Layer0
 10
16.0273970052598
 20
199.301173467006
 42
-0.1073454651739
  0
VERTEX
  8
Layer0
 10
15.831894484303
 20
199.218549033579
 42
0.0
  0
VERTEX
  8
Layer0
 10
14.2457107150207
 20
198.920091622445
 42
-0.093196469755
  0
VERTEX
  8
Layer0
 10
14.0609227679485
 20
198.920067596082
 42
0.0
  0
VERTEX
  8
Layer0
 10
12.4546182743201
 20
199.221878461273
 42
-0.1081156503943
  0
VERTEX
  8
Layer0
 10
12.2578505687534
 20
199.305330577147
 42
0.0
  0
VERTEX
  8
Layer0
 10
10.9801845727775
 20
200.210763172721
 42
-0.1131690910721
  0
VERTEX
  8
Layer0
 10
10.8313381610365
 20
200.377455402516
 42
0.0
  0
VERTEX
  8
Layer0
 10
9.9963281006743
 20
201.893216636587
 42
-0.0937110371724
  0
VERTEX
  8
Layer0
 10
9.9384764429477
 20
202.0697705892
 42
0.0
  0
VERTEX
  8
Layer0
 10
9.6601397561602
 20
204.202567369884
 42
-0.032453825563
  0
VERTEX
  8
Layer0
 10
9.6559356136821
 20
204.267270288397
 42
0.0
  0
VERTEX
  8
Layer0
 10
9.6559356136821
 20
234.528839704896
 42
-0.0203876339573
  0
VERTEX
  8
Layer0
 10
9.6575968548601
 20
234.569564162606
 42
0.0
  0
VERTEX
  8
Layer0
 10
9.785028109052
 20
236.128920299427
 42
-0.0541981827659
  0
VERTEX
  8
Layer0
 10
9.8054216891856
 20
236.235057702554
 42
0.0
  0
VERTEX
  8
Layer0
 10
10.1877154517611
 20
237.479189157953
 42
-0.0777070784706
  0
VERTEX
  8
Layer0
 10
10.2553574226221
 20
237.618074173996
 42
0.0
  0
VERTEX
  8
Layer0
 10
10.9092809638696
 20
238.557041310146
 42
-0.091014888599
  0
SEQEND
  0
POLYLINE
  8
Layer0
 66
     1
 10
0.0
 20
0.0
 30
0.0
 70
     1
  0
VERTEX
  8
Layer0
 10
167.916441246033
 20
80.8947982304494
 42
0.0
  0
VERTEX
  8
Layer0
 10
168.167950300359
 20
79.6842013156272
 42
-0.1114021157879
  0
VERTEX
  8
Layer0
 10
168.16419887402
 20
79.4641602615513
 42
0.0
  0
VERTEX
  8
Layer0
 10
167.654473857252
 20
77.3716049295593
 42
-0.0758558950658
  0
VERTEX
  8
Layer0
 10
167.597074808347
 20
77.2321086702252
 42
0.0
  0
VERTEX
  8
Layer0
 10
165.853278698354
 20
74.3347243643902
 42
-0.0089765256274
  0
VERTEX
  8
Layer0
 10
165.843747120872
 20
74.3195122263485
 42
0.0
  0
VERTEX
  8
Layer0
 10
156.079141515761
 20
59.3400218839036
 42
0.0
  0
VERTEX
  8
Layer0
 10
156.079141515761
 20
47.0137491616365
 42
-0.0328406584253
  0
VERTEX
  8
Layer0
 10
156.074836770796
 20
46.9482799770092
 42
0.0
  0
VERTEX
  8
Layer0
 10
155.793146629951
 20
44.8154831963251
 42
-0.0946018490561
  0
VERTEX
  8
Layer0
 10
155.734164923895
 20
44.6374749155924
 42
0.0
  0
VERTEX
  8
Layer0
 10
154.88909450136
 20
43.1217136815213
 42
-0.1121964979931
  0
VERTEX
  8
Layer0
 10
154.740974284273
 20
42.9568850254633
 42
0.0
  0
VERTEX
  8
Layer0
 10
153.459954834239
 20
42.0514524298899
 42
-0.1073190818197
  0
VERTEX
  8
Layer0
 10
153.264631810851
 20
41.9685349265182
 42
0.0
  0
VERTEX
  8
Layer0
 10
151.675094587511
 20
41.666724061327
 42
-0.0931995253489
  0
VERTEX
  8
Layer0
 10
151.490300976624
 20
41.6663955676991
 42
0.0
  0
VERTEX
  8
Layer0
 10
149.887349937054
 20
41.9648529788326
 42
-0.1081411064998
  0
VERTEX
  8
Layer0
 10
149.690404401074
 20
42.0480110114781
 42
0.0
  0
VERTEX
  8
Layer0
 10
148.422798767271
 20
42.9433832448785
 42
-0.1146167692736
  0
VERTEX
  8
Layer0
 10
148.272319819177
 20
43.1123512653103
 42
0.0
  0
VERTEX
  8
Layer0
 10
147.447370120988
 20
44.6247590453237
 42
-0.0932974590189
  0
VERTEX
  8
Layer0
 10
147.390359577487
 20
44.8007395832747
 42
0.0
  0
VERTEX
  8
Layer0
 10
147.115376344757
 20
46.9503036342472
 42
-0.0318192484235
  0
VERTEX
  8
Layer0
 10
147.111334674715
 20
47.0137491616365
 42
0.0
  0
VERTEX
  8
Layer0
 10
147.111334674715
 20
59.3413272207488
 42
0.0
  0
VERTEX
  8
Layer0
 10
137.586871680594
 20
74.10690532616
 42
-0.0140114385706
  0
VERTEX
  8
Layer0
 10
137.572350247729
 20
74.1308657390941
 42
0.0
  0
VERTEX
  8
Layer0
 10
135.788312689044
 20
77.269698737082
 42
-0.0640406636144
  0
VERTEX
  8
Layer0
 10
135.739942184234
 20
77.3877300243057
 42
0.0
  0
VERTEX
  8
Layer0
 10
135.216803351236
 20
79.3461471939905
 42
-0.1170308577268
  0
VERTEX
  8
Layer0
 10
135.210332825178
 20
79.5769557818049
 42
0.0
  0
VERTEX
  8
Layer0
 10
135.475255695734
 20
80.8512683237231
 42
-0.1070482446186
  0
VERTEX
  8
Layer0
 10
135.561230141304
 20
81.0446926179663
 42
0.0
  0
VERTEX
  8
Layer0
 10
136.355998752974
 20
82.1312117326544
 42
-0.0947463286635
  0
VERTEX
  8
Layer0
 10
136.493373355226
 20
82.2592726193718
 42
0.0
  0
VERTEX
  8
Layer0
 10
137.677142637587
 20
83.0037394201766
 42
-0.0977590715699
  0
VERTEX
  8
Layer0
 10
137.857948199489
 20
83.0731394960552
 42
0.0
  0
VERTEX
  8
Layer0
 10
139.289873082118
 20
83.3212950963235
 42
-0.0829573004332
  0
VERTEX
  8
Layer0
 10
139.454650649303
 20
83.3222940218066
 42
0.0
  0
VERTEX
  8
Layer0
 10
140.893282440048
 20
83.0909056918267
 42
-0.1073563228915
  0
VERTEX
  8
Layer0
 10
141.090924468451
 20
83.0134811022174
 42
0.0
  0
VERTEX
  8
Layer0
 10
142.133848680389
 20
82.3193161122778
 42
-0.0956408019901
  0
VERTEX
  8
Layer0
 10
142.268872189319
 20
82.1862859925078
 42
0.0
  0
VERTEX
  8
Layer0
 10
144.804083456925
 20
78.4974865290605
 42
-0.0125574844986
  0
VERTEX
  8
Layer0
 10
144.817782223245
 20
78.4764411831151
 42
0.0
  0
VERTEX
  8
Layer0
 10
151.745104726896
 20
67.225862664411
 42
0.0
  0
VERTEX
  8
Layer0
 10
158.748243625393
 20
78.4763926637998
 42
0.0
  0
VERTEX
  8
Layer0
 10
159.873705551167
 20
80.3253658275726
 42
-0.0183672262807
  0
VERTEX
  8
Layer0
 10
159.893938093371
 20
80.3560114509844
 42
0.0
  0
VERTEX
  8
Layer0
 10
160.899974310675
 20
81.7644621552097
 42
-0.065402361822
  0
VERTEX
  8
Layer0
 10
160.988838823816
 20
81.8596857549369
 42
0.0
  0
VERTEX
  8
Layer0
 10
162.209496100811
 20
82.8657219722408
 42
-0.1204109105632
  0
VERTEX
  8
Layer0
 10
162.423281326006
 20
82.9688974935976
 42
0.0
  0
VERTEX
  8
Layer0
 10
164.059766906154
 20
83.3176567155962
 42
-0.0967390669083
  0
VERTEX
  8
Layer0
 10
164.251423162929
 20
83.3209335066632
 42
0.0
  0
VERTEX
  8
Layer0
 10
165.629692780635
 20
83.0761313604526
 42
-0.1004580351483
  0
VERTEX
  8
Layer0
 10
165.814703966789
 20
83.0030865806114
 42
0.0
  0
VERTEX
  8
Layer0
 10
166.944817984227
 20
82.2686801419796
 42
-0.0938430120393
  0
VERTEX
  8
Layer0
 10
167.079234274168
 20
82.1400490096698
 42
0.0
  0
VERTEX
  8
Layer0
 10
167.833761437146
 20
81.0837109815008
 42
-0.1042267857274
  0
SEQEND
  0
POLYLINE
  8
Layer0
 66
     1
 10
0.0
 20
0.0
 30
0.0
 70
     1
  0
VERTEX
  8
Layer0
 10
125.942067679558
 20
129.853047073974
 42
0.0
  0
VERTEX
  8
Layer0
 10
125.69391207929
 20
131.184368334873
 42
-0.0929701568814
  0
VERTEX
  8
Layer0
 10
125.694119322683
 20
131.368715138742
 42
0.0
  0
VERTEX
  8
Layer0
 10
125.952335285124
 20
132.736924394275
 42
-0.1131763536857
  0
VERTEX
  8
Layer0
 10
126.041814937356
 20
132.941719886543
 42
0.0
  0
VERTEX
  8
Layer0
 10
126.81646282468
 20
133.987997552539
 42
-0.1129452684792
  0
VERTEX
  8
Layer0
 10
126.985823877407
 20
134.133138893096
 42
0.0
  0
VERTEX
  8
Layer0
 10
128.250076057152
 20
134.797122796517
 42
-0.0892716122138
  0
VERTEX
  8
Layer0
 10
128.419004173946
 20
134.850404040127
 42
0.0
  0
VERTEX
  8
Layer0
 10
130.146033013651
 20
135.071732007934
 42
-0.0318759331934
  0
VERTEX
  8
Layer0
 10
130.209590878605
 20
135.075788061704
 42
0.0
  0
VERTEX
  8
Layer0
 10
155.5348759222
 20
135.075788061704
 42
-0.0315001691365
  0
VERTEX
  8
Layer0
 10
155.597689031917
 20
135.071826884023
 42
0.0
  0
VERTEX
  8
Layer0
 10
157.398493860891
 20
134.8437920081
 42
-0.0922163187974
  0
VERTEX
  8
Layer0
 10
157.572661385871
 20
134.788026031615
 42
0.0
  0
VERTEX
  8
Layer0
 10
158.843620473731
 20
134.103921403849
 42
-0.1143085427687
  0
VERTEX
  8
Layer0
 10
159.013068830331
 20
133.954879523116
 42
0.0
  0
VERTEX
  8
Layer0
 10
159.767595993309
 20
132.901894949004
 42
-0.1093062668482
  0
VERTEX
  8
Layer0
 10
159.852519035555
 20
132.70325544751
 42
0.0
  0
VERTEX
  8
Layer0
 10
160.104028089881
 20
131.368580732554
 42
-0.0941278565007
  0
VERTEX
  8
Layer0
 10
160.103758513135
 20
131.18197852155
 42
0.0
  0
VERTEX
  8
Layer0
 10
159.848896004751
 20
129.850657260651
 42
-0.1113219913488
  0
VERTEX
  8
Layer0
 10
159.761057263465
 20
129.649042390246
 42
0.0
  0
VERTEX
  8
Layer0
 10
158.996469738315
 20
128.606118178308
 42
-0.1133949286578
  0
VERTEX
  8
Layer0
 10
158.827009548136
 20
128.459764991999
 42
0.0
  0
VERTEX
  8
Layer0
 10
157.552697006217
 20
127.785720726405
 42
-0.0905603947413
  0
VERTEX
  8
Layer0
 10
157.381389890543
 20
127.731618188157
 42
0.0
  0
VERTEX
  8
Layer0
 10
155.597352331858
 20
127.506936766293
 42
-0.0313303145394
  0
VERTEX
  8
Layer0
 10
155.5348759222
 20
127.503018108652
 42
0.0
  0
VERTEX
  8
Layer0
 10
147.342723004695
 20
127.503018108652
 42
0.0
  0
VERTEX
  8
Layer0
 10
147.342723004695
 20
99.4315895372234
 42
-0.0318192484235
  0
VERTEX
  8
Layer0
 10
147.338681334653
 20
99.3681440098341
 42
0.0
  0
VERTEX
  8
Layer0
 10
147.063698101923
 20
97.2185799588616
 42
-0.0932974590189
  0
VERTEX
  8
Layer0
 10
147.006687558422
 20
97.0425994209106
 42
0.0
  0
VERTEX
  8
Layer0
 10
146.181737860233
 20
95.5301916408972
 42
-0.1139830623578
  0
VERTEX
  8
Layer0
 10
146.032279866618
 20
95.361946687105
 42
0.0
  0
VERTEX
  8
Layer0
 10
144.771381140931
 20
94.4665744537045
 42
-0.1081956287741
  0
VERTEX
  8
Layer0
 10
144.574538379341
 20
94.3829039138374
 42
0.0
  0
VERTEX
  8
Layer0
 10
142.991708064116
 20
94.084446502704
 42
-0.0932935531778
  0
VERTEX
  8
Layer0
 10
142.806730950376
 20
94.0843868449084
 42
0.0
  0
VERTEX
  8
Layer0
 10
141.200426456747
 20
94.3861977100995
 42
-0.1081156503944
  0
VERTEX
  8
Layer0
 10
141.003658751181
 20
94.4696498259739
 42
0.0
  0
VERTEX
  8
Layer0
 10
139.725992755206
 20
95.3750824215474
 42
-0.113169091072
  0
VERTEX
  8
Layer0
 10
139.577146343465
 20
95.5417746513418
 42
0.0
  0
VERTEX
  8
Layer0
 10
138.742136283102
 20
97.0575358854129
 42
-0.0937110371725
  0
VERTEX
  8
Layer0
 10
138.684284625375
 20
97.2340898380263
 42
0.0
  0
VERTEX
  8
Layer0
 10
138.405947938588
 20
99.3668866187104
 42
-0.032453825563
  0
VERTEX
  8
Layer0
 10
138.40174379611
 20
99.4315895372234
 42
0.0
  0
VERTEX
  8
Layer0
 10
138.40174379611
 20
127.503018108652
 42
0.0
  0
VERTEX
  8
Layer0
 10
130.209590878605
 20
127.503018108652
 42
-0.0314473790213
  0
VERTEX
  8
Layer0
 10
130.146882410415
 20
127.506966046851
 42
0.0
  0
VERTEX
  8
Layer0
 10
128.369551759845
 20
127.731647468715
 42
-0.0921080904375
  0
VERTEX
  8
Layer0
 10
128.195561512835
 20
127.787275055467
 42
0.0
  0
VERTEX
  8
Layer0
 10
126.941369695263
 20
128.461319321061
 42
-0.1149288642747
  0
VERTEX
  8
Layer0
 10
126.771113278999
 20
128.611248493264
 42
0.0
  0
VERTEX
  8
Layer0
 10
126.026646478194
 20
129.654172705202
 42
-0.1093482537932
  0
SEQEND
  0
POLYLINE
  8
Layer0
 66
     1
 10
0.0
 20
0.0
 30
0.0
 70
     1
  0
VERTEX
  8
Layer0
 10
172.040758114718
 20
77.8168173903763
 42
0.0
  0
VERTEX
  8
Layer0
 10
171.809369784738
 20
79.0039401267948
 42
-0.0946205401424
  0
VERTEX
  8
Layer0
 10
171.808652868637
 20
79.1915005871316
 42
0.0
  0
VERTEX
  8
Layer0
 10
172.040041198617
 20
80.4289251344153
 42
-0.1087859494231
  0
VERTEX
  8
Layer0
 10
172.124088894232
 20
80.6268460152688
 42
0.0
  0
VERTEX
  8
Layer0
 10
172.818253884172
 20
81.6027011460535
 42
-0.1126918562484
  0
VERTEX
  8
Layer0
 10
172.984385081258
 20
81.7507963918909
 42
0.0
  0
VERTEX
  8
Layer0
 10
174.134619823042
 20
82.3845992087923
 42
-0.0933474407424
  0
VERTEX
  8
Layer0
 10
174.310453015239
 20
82.4423753355179
 42
0.0
  0
VERTEX
  8
Layer0
 10
175.910050600752
 20
82.6536429411517
 42
-0.0328406584253
  0
VERTEX
  8
Layer0
 10
175.975519785379
 20
82.6579476861167
 42
0.0
  0
VERTEX
  8
Layer0
 10
198.349765258216
 20
82.6579476861167
 42
-0.0331066480911
  0
VERTEX
  8
Layer0
 10
198.415761232228
 20
82.6535730803553
 42
0.0
  0
VERTEX
  8
Layer0
 10
200.317169682932
 20
82.4003872990006
 42
-0.0946677930612
  0
VERTEX
  8
Layer0
 10
200.495229273214
 20
82.3411526488633
 42
0.0
  0
VERTEX
  8
Layer0
 10
201.853378166574
 20
81.5815953047989
 42
-0.1228455079209
  0
VERTEX
  8
Layer0
 10
202.029748928528
 20
81.4158366064677
 42
0.0
  0
VERTEX
  8
Layer0
 10
202.844638264544
 20
80.1499076996937
 42
-0.1053519903508
  0
VERTEX
  8
Layer0
 10
202.918440951308
 20
79.9550231469305
 42
0.0
  0
VERTEX
  8
Layer0
 10
203.190070729981
 20
78.1827226774469
 42
-0.0640755895833
  0
VERTEX
  8
Layer0
 10
203.193146797691
 20
78.0551325698472
 42
0.0
  0
VERTEX
  8
Layer0
 10
203.012060278576
 20
76.3180433679693
 42
-0.0699148716711
  0
VERTEX
  8
Layer0
 10
202.978514645022
 20
76.1829978471364
 42
0.0
  0
VERTEX
  8
Layer0
 10
202.435255087678
 20
74.8349093159493
 42
-0.0706015258874
  0
VERTEX
  8
Layer0
 10
202.364949299383
 20
74.7132618483737
 42
0.0
  0
VERTEX
  8
Layer0
 10
199.440737361086
 20
70.9842209362342
 42
-0.0084253121583
  0
VERTEX
  8
Layer0
 10
199.430118134565
 20
70.9711390686196
 42
0.0
  0
VERTEX
  8
Layer0
 10
181.233701993068
 20
49.3112005365526
 42
0.0
  0
VERTEX
  8
Layer0
 10
200.978873239437
 20
49.3112005365527
 42
-0.029436141102
  0
VERTEX
  8
Layer0
 10
201.037592706283
 20
49.3077405895326
 42
0.0
  0
VERTEX
  8
Layer0
 10
202.653957562084
 20
49.1165937082449
 42
-0.0867005262404
  0
VERTEX
  8
Layer0
 10
202.818844892988
 20
49.0672672507649
 42
0.0
  0
VERTEX
  8
Layer0
 10
203.965726180714
 20
48.4938266069017
 42
-0.1168799516584
  0
VERTEX
  8
Layer0
 10
204.142646931244
 20
48.3459083222048
 42
0.0
  0
VERTEX
  8
Layer0
 10
204.826751559011
 20
47.4304153644583
 42
-0.1146379956873
  0
VERTEX
  8
Layer0
 10
204.917675424124
 20
47.2231825773762
 42
0.0
  0
VERTEX
  8
Layer0
 10
205.145710300046
 20
46.0058787544386
 42
-0.0908121022546
  0
VERTEX
  8
Layer0
 10
205.146440621595
 20
45.825741604465
 42
0.0
  0
VERTEX
  8
Layer0
 10
204.918405745673
 20
44.5514290625468
 42
-0.1086072414573
  0
VERTEX
  8
Layer0
 10
204.83610357967
 20
44.3531494694033
 42
0.0
  0
VERTEX
  8
Layer0
 10
204.151998951903
 20
43.3739408845609
 42
-0.1162377042424
  0
VERTEX
  8
Layer0
 10
203.981005356419
 20
43.2210531527657
 42
0.0
  0
VERTEX
  8
Layer0
 10
202.834124068693
 20
42.5973106980374
 42
-0.0928122492
  0
VERTEX
  8
Layer0
 10
202.65902788458
 20
42.5406384804701
 42
0.0
  0
VERTEX
  8
Layer0
 10
201.042663028779
 20
42.3327243288939
 42
-0.0319929665169
  0
VERTEX
  8
Layer0
 10
200.978873239437
 20
42.3286384976526
 42
0.0
  0
VERTEX
  8
Layer0
 10
175.43896713615
 20
42.3286384976526
 42
-0.0318232026372
  0
VERTEX
  8
Layer0
 10
175.375513772203
 20
42.3326811702505
 42
0.0
  0
VERTEX
  8
Layer0
 10
173.095165012981
 20
42.6244316732686
 42
-0.0912209378535
  0
VERTEX
  8
Layer0
 10
172.922808589133
 20
42.6794879414977
 42
0.0
  0
VERTEX
  8
Layer0
 10
171.286323008986
 20
43.5547394505521
 42
-0.1140139720729
  0
VERTEX
  8
Layer0
 10
171.116819444104
 20
43.7028588741302
 42
0.0
  0
VERTEX
  8
Layer0
 10
170.130903951146
 20
45.0677146756057
 42
-0.1107069653272
  0
VERTEX
  8
Layer0
 10
170.04470717944
 20
45.268747754649
 42
0.0
  0
VERTEX
  8
Layer0
 10
169.716068681787
 20
47.0293111349307
 42
-0.0894206029994
  0
VERTEX
  8
Layer0
 10
169.71497292876
 20
47.2067302788581
 42
0.0
  0
VERTEX
  8
Layer0
 10
169.929593988452
 20
48.4408013720841
 42
-0.0817485258754
  0
VERTEX
  8
Layer0
 10
169.983039806797
 20
48.5941672725541
 42
0.0
  0
VERTEX
  8
Layer0
 10
170.559833904718
 20
49.6538587547808
 42
-0.0437736343711
  0
VERTEX
  8
Layer0
 10
170.608154242527
 20
49.7266624700651
 42
0.0
  0
VERTEX
  8
Layer0
 10
171.614190459831
 20
50.9875611957526
 42
-0.0075430283354
  0
VERTEX
  8
Layer0
 10
171.623775613401
 20
50.99920971672
 42
0.0
  0
VERTEX
  8
Layer0
 10
172.749329882363
 20
52.3257558194241
 42
0.0
  0
VERTEX
  8
Layer0
 10
192.263504422127
 20
75.6753856472168
 42
0.0
  0
VERTEX
  8
Layer0
 10
175.975519785379
 20
75.6753856472167
 42
-0.0312924550956
  0
VERTEX
  8
Layer0
 10
175.913118428309
 20
75.6792948585138
 42
0.0
  0
VERTEX
  8
Layer0
 10
174.313520842796
 20
75.8805021019745
 42
-0.0897766820814
  0
VERTEX
  8
Layer0
 10
174.143581145034
 20
75.9338541028583
 42
0.0
  0
VERTEX
  8
Layer0
 10
172.99334640325
 20
76.5374758332406
 42
-0.1123394932341
  0
VERTEX
  8
Layer0
 10
172.824651200376
 20
76.6816012924801
 42
0.0
  0
VERTEX
  8
Layer0
 10
172.130486210436
 20
77.613861520515
 42
-0.1123535302236
  0
SEQEND
  0
POLYLINE
  8
Layer0
 66
     1
 10
0.0
 20
0.0
 30
0.0
 70
     1
  0
VERTEX
  8
Layer0
 10
171.574058260473
 20
291.101968535349
 42
0.0
  0
VERTEX
  8
Layer0
 10
172.516378850681
 20
291.745831714424
 42
-0.1060286686047
  0
VERTEX
  8
Layer0
 10
172.710479796886
 20
291.825197073046
 42
0.0
  0
VERTEX
  8
Layer0
 10
175.487139756644
 20
292.321508273582
 42
-0.0442478563967
  0
VERTEX
  8
Layer0
 10
175.575117370892
 20
292.329309188464
 42
0.0
  0
VERTEX
  8
Layer0
 10
196.607981220657
 20
292.329309188464
 42
-0.0316586022559
  0
VERTEX
  8
Layer0
 10
196.671108360494
 20
292.325308144326
 42
0.0
  0
VERTEX
  8
Layer0
 10
198.331068119046
 20
292.114040538692
 42
-0.0926987400929
  0
VERTEX
  8
Layer0
 10
198.50604196851
 20
292.057709547201
 42
0.0
  0
VERTEX
  8
Layer0
 10
199.67639743464
 20
291.4239067303
 42
-0.114539364697
  0
VERTEX
  8
Layer0
 10
199.845730019249
 20
291.274062648401
 42
0.0
  0
VERTEX
  8
Layer0
 10
200.539895009188
 20
290.298207517616
 42
-0.1087859494229
  0
VERTEX
  8
Layer0
 10
200.623942704803
 20
290.100286636762
 42
0.0
  0
VERTEX
  8
Layer0
 10
200.855331034783
 20
288.862862089478
 42
-0.0919633746413
  0
VERTEX
  8
Layer0
 10
200.855594793914
 20
288.680478002587
 42
0.0
  0
VERTEX
  8
Layer0
 10
200.624206463934
 20
287.422932730958
 42
-0.1087001491659
  0
VERTEX
  8
Layer0
 10
200.540829456533
 20
287.224908081078
 42
0.0
  0
VERTEX
  8
Layer0
 10
199.846664466594
 20
286.242346042178
 42
-0.1153579235023
  0
VERTEX
  8
Layer0
 10
199.67639743464
 20
286.09118381296
 42
0.0
  0
VERTEX
  8
Layer0
 10
198.50604196851
 20
285.457380996058
 42
-0.0926987400931
  0
VERTEX
  8
Layer0
 10
198.331068119046
 20
285.401050004567
 42
0.0
  0
VERTEX
  8
Layer0
 10
196.671108360494
 20
285.189782398933
 42
-0.0316586022559
  0
VERTEX
  8
Layer0
 10
196.607981220657
 20
285.185781354795
 42
0.0
  0
VERTEX
  8
Layer0
 10
179.160295103956
 20
285.185781354795
 42
0.0
  0
VERTEX
  8
Layer0
 10
179.160295103957
 20
276.527833668679
 42
0.0
  0
VERTEX
  8
Layer0
 10
195.186116700201
 20
276.527833668679
 42
-0.0319413523744
  0
VERTEX
  8
Layer0
 10
195.249804207969
 20
276.523760983267
 42
0.0
  0
VERTEX
  8
Layer0
 10
196.842694885367
 20
276.319200285748
 42
-0.0927021123703
  0
VERTEX
  8
Layer0
 10
197.01761085372
 20
276.26266844358
 42
0.0
  0
VERTEX
  8
Layer0
 10
198.147724871158
 20
275.648986351025
 42
-0.114433699757
  0
VERTEX
  8
Layer0
 10
198.316765285427
 20
275.499118871427
 42
0.0
  0
VERTEX
  8
Layer0
 10
198.990809551021
 20
274.550091373104
 42
-0.1089436534608
  0
VERTEX
  8
Layer0
 10
199.074770502778
 20
274.351803060126
 42
0.0
  0
VERTEX
  8
Layer0
 10
199.299451924642
 20
273.141206145303
 42
-0.0910909633537
  0
VERTEX
  8
Layer0
 10
199.299782037545
 20
272.960523746359
 42
0.0
  0
VERTEX
  8
Layer0
 10
199.078454069738
 20
271.743219923422
 42
-0.105594025477
  0
VERTEX
  8
Layer0
 10
198.998997624533
 20
271.550064909134
 42
0.0
  0
VERTEX
  8
Layer0
 10
198.335013721113
 20
270.580916686464
 42
-0.1149363150365
  0
VERTEX
  8
Layer0
 10
198.167665831084
 20
270.42772665129
 42
0.0
  0
VERTEX
  8
Layer0
 10
197.040905267703
 20
269.793923834389
 42
-0.0957624850776
  0
VERTEX
  8
Layer0
 10
196.860841600966
 20
269.733963389019
 42
0.0
  0
VERTEX
  8
Layer0
 10
195.25118365328
 20
269.522695783385
 42
-0.03263758953
  0
VERTEX
  8
Layer0
 10
195.186116700201
 20
269.518443997317
 42
0.0
  0
VERTEX
  8
Layer0
 10
179.160295103957
 20
269.518443997317
 42
0.0
  0
VERTEX
  8
Layer0
 10
179.160295103957
 20
259.331321260899
 42
0.0
  0
VERTEX
  8
Layer0
 10
197.22501676727
 20
259.331321260899
 42
-0.0329162744811
  0
VERTEX
  8
Layer0
 10
197.290635717089
 20
259.326996712606
 42
0.0
  0
VERTEX
  8
Layer0
 10
198.93718165941
 20
259.109022198857
 42
-0.093539502617
  0
VERTEX
  8
Layer0
 10
199.113330779747
 20
259.051008945944
 42
0.0
  0
VERTEX
  8
Layer0
 10
200.297100062108
 20
258.397085404696
 42
-0.1138353289132
  0
VERTEX
  8
Layer0
 10
200.464376343089
 20
258.246969234919
 42
0.0
  0
VERTEX
  8
Layer0
 10
201.178662057374
 20
257.230872655442
 42
-0.1084685632621
  0
VERTEX
  8
Layer0
 10
201.261491854044
 20
257.033103141835
 42
0.0
  0
VERTEX
  8
Layer0
 10
201.49958709214
 20
255.728609513398
 42
-0.0919278144246
  0
VERTEX
  8
Layer0
 10
201.499075105879
 20
255.546295296476
 42
0.0
  0
VERTEX
  8
Layer0
 10
201.260979867783
 20
254.282043116731
 42
-0.1086328969209
  0
VERTEX
  8
Layer0
 10
201.176852220422
 20
254.084477301449
 42
0.0
  0
VERTEX
  8
Layer0
 10
200.462566506137
 20
253.081794538203
 42
-0.1122487628574
  0
VERTEX
  8
Layer0
 10
200.297100062108
 20
252.934235856203
 42
0.0
  0
VERTEX
  8
Layer0
 10
199.113330779747
 20
252.280312314955
 42
-0.093539502617
  0
VERTEX
  8
Layer0
 10
198.93718165941
 20
252.222299062042
 42
0.0
  0
VERTEX
  8
Layer0
 10
197.290635717089
 20
252.004324548293
 42
-0.0329162744811
  0
VERTEX
  8
Layer0
 10
197.22501676727
 20
252.0
 42
0.0
  0
VERTEX
  8
Layer0
 10
175.575117370892
 20
252.0
 42
-0.0320680068597
  0
VERTEX
  8
Layer0
 10
175.511178882704
 20
252.004104981142
 42
0.0
  0
VERTEX
  8
Layer0
 10
173.274425026232
 20
252.292502030102
 42
-0.0986464333125
  0
VERTEX
  8
Layer0
 10
173.089254947666
 20
252.354870899841
 42
0.0
  0
VERTEX
  8
Layer0
 10
171.583554075768
 20
253.220062046723
 42
-0.1342239601705
  0
VERTEX
  8
Layer0
 10
171.397651549598
 20
253.407081909852
 42
0.0
  0
VERTEX
  8
Layer0
 10
170.54252076489
 20
254.916136235807
 42
-0.0972672467777
  0
VERTEX
  8
Layer0
 10
170.48160314859
 20
255.098965874842
 42
0.0
  0
VERTEX
  8
Layer0
 10
170.196559553687
 20
257.318952461026
 42
-0.0319358717945
  0
VERTEX
  8
Layer0
 10
170.192488262911
 20
257.382629107981
 42
0.0
  0
VERTEX
  8
Layer0
 10
170.192488262911
 20
286.946680080483
 42
-0.0203876339573
  0
VERTEX
  8
Layer0
 10
170.194149504089
 20
286.987404538193
 42
0.0
  0
VERTEX
  8
Layer0
 10
170.321580758281
 20
288.546760675014
 42
-0.0541981827658
  0
VERTEX
  8
Layer0
 10
170.341974338415
 20
288.652898078141
 42
0.0
  0
VERTEX
  8
Layer0
 10
170.72426810099
 20
289.89702953354
 42
-0.0777070784708
  0
VERTEX
  8
Layer0
 10
170.791910071851
 20
290.035914549583
 42
0.0
  0
VERTEX
  8
Layer0
 10
171.445833613099
 20
290.974881685733
 42
-0.0910148885989
  0
SEQEND
  0
POLYLINE
  8
Layer0
 66
     1
 10
0.0
 20
0.0
 30
0.0
 70
     1
  0
VERTEX
  8
Layer0
 10
35.0138963684608
 20
256.775600574374
 42
0.0
  0
VERTEX
  8
Layer0
 10
33.258543351619
 20
261.389671361502
 42
0.0
  0
VERTEX
  8
Layer0
 10
17.9613819926859
 20
261.389671361502
 42
0.0
  0
VERTEX
  8
Layer0
 10
16.2046561907623
 20
256.671607779194
 42
-0.0210166019603
  0
VERTEX
  8
Layer0
 10
16.1883543775845
 20
256.632884641685
 42
0.0
  0
VERTEX
  8
Layer0
 10
14.310420105284
 20
252.648981221161
 42
-0.1215113843395
  0
VERTEX
  8
Layer0
 10
14.1593993739883
 20
252.463113959995
 42
0.0
  0
VERTEX
  8
Layer0
 10
13.1332424323385
 20
251.688466072671
 42
-0.1202309072071
  0
VERTEX
  8
Layer0
 10
12.9155997354454
 20
251.59456497148
 42
0.0
  0
VERTEX
  8
Layer0
 10
11.3931315932589
 20
251.336349009039
 42
-0.0902251277965
  0
VERTEX
  8
Layer0
 10
11.2141512422769
 20
251.338489391169
 42
0.0
  0
VERTEX
  8
Layer0
 10
9.7989936299363
 20
251.613472623899
 42
-0.0990300870337
  0
VERTEX
  8
Layer0
 10
9.617535697011
 20
251.687921343699
 42
0.0
  0
VERTEX
  8
Layer0
 10
8.3767576956695
 20
252.512871041888
 42
-0.087426865046
  0
VERTEX
  8
Layer0
 10
8.2511180902109
 20
252.632564155804
 42
0.0
  0
VERTEX
  8
Layer0
 10
7.3859269433296
 20
253.806273075992
 42
-0.1054680010453
  0
VERTEX
  8
Layer0
 10
7.2998985599439
 20
253.996324465826
 42
0.0
  0
VERTEX
  8
Layer0
 10
7.0115015109835
 20
255.317585364551
 42
-0.0939793775223
  0
VERTEX
  8
Layer0
 10
7.0063794396437
 20
255.503828157708
 42
0.0
  0
VERTEX
  8
Layer0
 10
7.2746557642582
 20
257.167141370317
 42
-0.0488283570215
  0
VERTEX
  8
Layer0
 10
7.2994655164979
 20
257.26135387751
 42
0.0
  0
VERTEX
  8
Layer0
 10
8.1847773877252
 20
259.649013166578
 42
-0.0050429721346
  0
VERTEX
  8
Layer0
 10
8.1883789498107
 20
259.658433880374
 42
0.0
  0
VERTEX
  8
Layer0
 10
18.248499380553
 20
285.197726280556
 42
0.0
  0
VERTEX
  8
Layer0
 10
19.281123108069
 20
287.839633739261
 42
-0.0232879041958
  0
VERTEX
  8
Layer0
 10
19.3000693974205
 20
287.882154240384
 42
0.0
  0
VERTEX
  8
Layer0
 10
20.5877957555694
 20
290.444193140451
 42
-0.0908572679828
  0
VERTEX
  8
Layer0
 10
20.696429385209
 20
290.588000018603
 42
0.0
  0
VERTEX
  8
Layer0
 10
22.4938807601251
 20
292.237899414981
 42
-0.0951426821171
  0
VERTEX
  8
Layer0
 10
22.6543610549301
 20
292.336934060599
 42
0.0
  0
VERTEX
  8
Layer0
 10
23.8984925103291
 20
292.809771082732
 42
-0.0648147548159
  0
VERTEX
  8
Layer0
 10
24.0240692860471
 20
292.839670645606
 42
0.0
  0
VERTEX
  8
Layer0
 10
25.5297701579452
 20
292.997282986317
 42
-0.051853616585
  0
VERTEX
  8
Layer0
 10
25.6331992670053
 20
292.997353607213
 42
0.0
  0
VERTEX
  8
Layer0
 10
27.1590208632496
 20
292.839741266502
 42
-0.0647102581511
  0
VERTEX
  8
Layer0
 10
27.2844436922173
 20
292.81008684885
 42
0.0
  0
VERTEX
  8
Layer0
 10
28.5352820557316
 20
292.337249826717
 42
-0.0935337349894
  0
VERTEX
  8
Layer0
 10
28.6935781668041
 20
292.240646392173
 42
0.0
  0
VERTEX
  8
Layer0
 10
30.4910295417204
 20
290.617574628256
 42
-0.0853361791148
  0
VERTEX
  8
Layer0
 10
30.5957263119115
 20
290.484353087376
 42
0.0
  0
VERTEX
  8
Layer0
 10
31.749314507753
 20
288.351556306692
 42
-0.0305501926621
  0
VERTEX
  8
Layer0
 10
31.775024073987
 20
288.296191006816
 42
0.0
  0
VERTEX
  8
Layer0
 10
32.9678463264736
 20
285.253824138114
 42
0.0
  0
VERTEX
  8
Layer0
 10
43.2417938646575
 20
259.877441968084
 42
-0.0093572369838
  0
VERTEX
  8
Layer0
 10
43.2484904779702
 20
259.859968399959
 42
0.0
  0
VERTEX
  8
Layer0
 10
44.1539230735436
 20
257.35829167293
 42
-0.0431745864424
  0
VERTEX
  8
Layer0
 10
44.1761610617698
 20
257.275021439591
 42
0.0
  0
VERTEX
  8
Layer0
 10
44.4779719269611
 20
255.564759870174
 42
-0.0974903324265
  0
VERTEX
  8
Layer0
 10
44.4741683295135
 20
255.371652381053
 42
0.0
  0
VERTEX
  8
Layer0
 10
44.1891247346106
 20
254.060451844501
 42
-0.1018976923175
  0
VERTEX
  8
Layer0
 10
44.1074032882526
 20
253.876047569808
 42
0.0
  0
VERTEX
  8
Layer0
 10
43.2522725035445
 20
252.678864471216
 42
-0.0885730857441
  0
VERTEX
  8
Layer0
 10
43.1265607786447
 20
252.55602031704
 42
0.0
  0
VERTEX
  8
Layer0
 10
41.8690155070149
 20
251.700889532332
 42
-0.1024660877411
  0
VERTEX
  8
Layer0
 10
41.6816701099198
 20
251.623231865064
 42
0.0
  0
VERTEX
  8
Layer0
 10
40.1893830542524
 20
251.338188270161
 42
-0.0988534127399
  0
VERTEX
  8
Layer0
 10
39.9935963135879
 20
251.339818978595
 42
0.0
  0
VERTEX
  8
Layer0
 10
38.3839383659018
 20
251.675164384363
 42
-0.1193432602584
  0
VERTEX
  8
Layer0
 10
38.1713163786238
 20
251.776032158878
 42
0.0
  0
VERTEX
  8
Layer0
 10
37.0445558152436
 20
252.688171662567
 42
-0.0965756651768
  0
VERTEX
  8
Layer0
 10
36.9216080387451
 20
252.834817408294
 42
0.0
  0
VERTEX
  8
Layer0
 10
35.9423994539027
 20
254.605441150749
 42
-0.0254588572332
  0
VERTEX
  8
Layer0
 10
35.9200713591115
 20
254.651165457976
 42
0.0
  0
VERTEX
  8
Layer0
 10
35.0213456716534
 20
256.757134606198
 42
-0.0099569412729
  0
SEQEND
  0
TEXT
  8
Layer0
 10
291.0
 20
18.0
 30
0.0
 40
12.0
  1
MOSSES
 72
     0
 73
     1
  0
POLYLINE
  8
Layer0
 66
     1
 10
0.0
 20
0.0
 30
0.0
 70
     0
  0
VERTEX
  8
Layer0
 10
286.0
 20
13.0
 42
0.0
  0
VERTEX
  8
Layer0
 10
374.0
 20
13.0
 42
0.0
  0
SEQEND
  0
ENDSEC
  0
EOF
