0
SECTION
2
HEADER
9
$INSUNITS
70
1
0
ENDSEC
0
SECTION
2
TABLES
0
TABLE
2
LAYER
0
ENDTAB
0
ENDSEC
0
SECTION
2
ENTITIES
0
LINE
8
front_outsideCutPath
10
0
20
91
11
0
21
60.86205
0
LINE
8
front_outsideCutPath
10
0
20
60.86205
11
4
21
60.86205
0
LINE
8
front_outsideCutPath
10
4
20
60.86205
11
4
21
33.13795
0
LINE
8
front_outsideCutPath
10
4
20
33.13795
11
0
21
33.13795
0
LINE
8
front_outsideCutPath
10
0
20
33.13795
11
0
21
5.41385
0
LINE
8
front_outsideCutPath
10
0
20
5.41385
11
0
21
3
0
LINE
8
front_outsideCutPath
10
0
20
3
11
22.41385
21
3
0
LINE
8
front_outsideCutPath
10
22.41385
20
3
11
22.41385
21
7
0
LINE
8
front_outsideCutPath
10
22.41385
20
7
11
50.13795
21
7
0
LINE
8
front_outsideCutPath
10
50.13795
20
7
11
50.13795
21
3
0
LINE
8
front_outsideCutPath
10
50.13795
20
3
11
77.86205
21
3
0
LINE
8
front_outsideCutPath
10
77.86205
20
3
11
77.86205
21
7
0
LINE
8
front_outsideCutPath
10
77.86205
20
7
11
105.58615
21
7
0
LINE
8
front_outsideCutPath
10
105.58615
20
7
11
105.58615
21
3
0
LINE
8
front_outsideCutPath
10
105.58615
20
3
11
128
21
3
0
LINE
8
front_outsideCutPath
10
128
20
3
11
128
21
33.13795
0
LINE
8
front_outsideCutPath
10
128
20
33.13795
11
124
21
33.13795
0
LINE
8
front_outsideCutPath
10
124
20
33.13795
11
124
21
60.86205
0
LINE
8
front_outsideCutPath
10
124
20
60.86205
11
128
21
60.86205
0
LINE
8
front_outsideCutPath
10
128
20
60.86205
11
128
21
88.58615
0
LINE
8
front_outsideCutPath
10
128
20
88.58615
11
128
21
91
0
LINE
8
front_outsideCutPath
10
128
20
91
11
105.58615
21
91
0
LINE
8
front_outsideCutPath
10
105.58615
20
91
11
105.58615
21
87
0
LINE
8
front_outsideCutPath
10
105.58615
20
87
11
77.86205
21
87
0
LINE
8
front_outsideCutPath
10
77.86205
20
87
11
77.86205
21
91
0
LINE
8
front_outsideCutPath
10
77.86205
20
91
11
50.13795
21
91
0
LINE
8
front_outsideCutPath
10
50.13795
20
91
11
50.13795
21
87
0
LINE
8
front_outsideCutPath
10
50.13795
20
87
11
22.41385
21
87
0
LINE
8
front_outsideCutPath
10
22.41385
20
87
11
22.41385
21
91
0
LINE
8
front_outsideCutPath
10
22.41385
20
91
11
0
21
91
0
LINE
8
left_outsideCutPath
10
135
20
91
11
135
21
60.86205
0
LINE
8
left_outsideCutPath
10
135
20
60.86205
11
131
21
60.86205
0
LINE
8
left_outsideCutPath
10
131
20
60.86205
11
131
21
33.13795
0
LINE
8
left_outsideCutPath
10
131
20
33.13795
11
135
21
33.13795
0
LINE
8
left_outsideCutPath
10
135
20
33.13795
11
135
21
5.41385
0
LINE
8
left_outsideCutPath
10
135
20
5.41385
11
135
21
3
0
LINE
8
left_outsideCutPath
10
135
20
3
11
161.13795
21
3
0
LINE
8
left_outsideCutPath
10
161.13795
20
3
11
161.13795
21
7
0
LINE
8
left_outsideCutPath
10
161.13795
20
7
11
188.86205
21
7
0
LINE
8
left_outsideCutPath
10
188.86205
20
7
11
188.86205
21
3
0
LINE
8
left_outsideCutPath
10
188.86205
20
3
11
215
21
3
0
LINE
8
left_outsideCutPath
10
215
20
3
11
215
21
33.13795
0
LINE
8
left_outsideCutPath
10
215
20
33.13795
11
219
21
33.13795
0
LINE
8
left_outsideCutPath
10
219
20
33.13795
11
219
21
60.86205
0
LINE
8
left_outsideCutPath
10
219
20
60.86205
11
215
21
60.86205
0
LINE
8
left_outsideCutPath
10
215
20
60.86205
11
215
21
88.58615
0
LINE
8
left_outsideCutPath
10
215
20
88.58615
11
215
21
91
0
LINE
8
left_outsideCutPath
10
215
20
91
11
188.86205
21
91
0
LINE
8
left_outsideCutPath
10
188.86205
20
91
11
188.86205
21
87
0
LINE
8
left_outsideCutPath
10
188.86205
20
87
11
161.13795
21
87
0
LINE
8
left_outsideCutPath
10
161.13795
20
87
11
161.13795
21
91
0
LINE
8
left_outsideCutPath
10
161.13795
20
91
11
135
21
91
0
LINE
8
top_outsideCutPath
10
226
20
87
11
226
21
60.86205
0
LINE
8
top_outsideCutPath
10
226
20
60.86205
11
222
21
60.86205
0
LINE
8
top_outsideCutPath
10
222
20
60.86205
11
222
21
33.13795
0
LINE
8
top_outsideCutPath
10
222
20
33.13795
11
226
21
33.13795
0
LINE
8
top_outsideCutPath
10
226
20
33.13795
11
226
21
7
0
LINE
8
top_outsideCutPath
10
226
20
7
11
244.41385
21
7
0
LINE
8
top_outsideCutPath
10
244.41385
20
7
11
244.41385
21
3
0
LINE
8
top_outsideCutPath
10
244.41385
20
3
11
272.13795
21
3
0
LINE
8
top_outsideCutPath
10
272.13795
20
3
11
272.13795
21
7
0
LINE
8
top_outsideCutPath
10
272.13795
20
7
11
299.86205
21
7
0
LINE
8
top_outsideCutPath
10
299.86205
20
7
11
299.86205
21
3
0
LINE
8
top_outsideCutPath
10
299.86205
20
3
11
327.58615
21
3
0
LINE
8
top_outsideCutPath
10
327.58615
20
3
11
327.58615
21
7
0
LINE
8
top_outsideCutPath
10
327.58615
20
7
11
346
21
7
0
LINE
8
top_outsideCutPath
10
346
20
7
11
346
21
33.13795
0
LINE
8
top_outsideCutPath
10
346
20
33.13795
11
350
21
33.13795
0
LINE
8
top_outsideCutPath
10
350
20
33.13795
11
350
21
60.86205
0
LINE
8
top_outsideCutPath
10
350
20
60.86205
11
346
21
60.86205
0
LINE
8
top_outsideCutPath
10
346
20
60.86205
11
346
21
87
0
LINE
8
top_outsideCutPath
10
346
20
87
11
327.58615
21
87
0
LINE
8
top_outsideCutPath
10
327.58615
20
87
11
327.58615
21
91
0
LINE
8
top_outsideCutPath
10
327.58615
20
91
11
299.86205
21
91
0
LINE
8
top_outsideCutPath
10
299.86205
20
91
11
299.86205
21
87
0
LINE
8
top_outsideCutPath
10
299.86205
20
87
11
272.13795
21
87
0
LINE
8
top_outsideCutPath
10
272.13795
20
87
11
272.13795
21
91
0
LINE
8
top_outsideCutPath
10
272.13795
20
91
11
244.41385
21
91
0
LINE
8
top_outsideCutPath
10
244.41385
20
91
11
244.41385
21
87
0
LINE
8
top_outsideCutPath
10
244.41385
20
87
11
226
21
87
0
LINE
8
back_outsideCutPath
10
0
20
182
11
0
21
151.86205
0
LINE
8
back_outsideCutPath
10
0
20
151.86205
11
4
21
151.86205
0
LINE
8
back_outsideCutPath
10
4
20
151.86205
11
4
21
124.13795
0
LINE
8
back_outsideCutPath
10
4
20
124.13795
11
0
21
124.13795
0
LINE
8
back_outsideCutPath
10
0
20
124.13795
11
0
21
96.41385
0
LINE
8
back_outsideCutPath
10
0
20
96.41385
11
0
21
94
0
LINE
8
back_outsideCutPath
10
0
20
94
11
22.41385
21
94
0
LINE
8
back_outsideCutPath
10
22.41385
20
94
11
22.41385
21
98
0
LINE
8
back_outsideCutPath
10
22.41385
20
98
11
50.13795
21
98
0
LINE
8
back_outsideCutPath
10
50.13795
20
98
11
50.13795
21
94
0
LINE
8
back_outsideCutPath
10
50.13795
20
94
11
77.86205
21
94
0
LINE
8
back_outsideCutPath
10
77.86205
20
94
11
77.86205
21
98
0
LINE
8
back_outsideCutPath
10
77.86205
20
98
11
105.58615
21
98
0
LINE
8
back_outsideCutPath
10
105.58615
20
98
11
105.58615
21
94
0
LINE
8
back_outsideCutPath
10
105.58615
20
94
11
128
21
94
0
LINE
8
back_outsideCutPath
10
128
20
94
11
128
21
124.13795
0
LINE
8
back_outsideCutPath
10
128
20
124.13795
11
124
21
124.13795
0
LINE
8
back_outsideCutPath
10
124
20
124.13795
11
124
21
151.86205
0
LINE
8
back_outsideCutPath
10
124
20
151.86205
11
128
21
151.86205
0
LINE
8
back_outsideCutPath
10
128
20
151.86205
11
128
21
179.58615
0
LINE
8
back_outsideCutPath
10
128
20
179.58615
11
128
21
182
0
LINE
8
back_outsideCutPath
10
128
20
182
11
105.58615
21
182
0
LINE
8
back_outsideCutPath
10
105.58615
20
182
11
105.58615
21
178
0
LINE
8
back_outsideCutPath
10
105.58615
20
178
11
77.86205
21
178
0
LINE
8
back_outsideCutPath
10
77.86205
20
178
11
77.86205
21
182
0
LINE
8
back_outsideCutPath
10
77.86205
20
182
11
50.13795
21
182
0
LINE
8
back_outsideCutPath
10
50.13795
20
182
11
50.13795
21
178
0
LINE
8
back_outsideCutPath
10
50.13795
20
178
11
22.41385
21
178
0
LINE
8
back_outsideCutPath
10
22.41385
20
178
11
22.41385
21
182
0
LINE
8
back_outsideCutPath
10
22.41385
20
182
11
0
21
182
0
LINE
8
right_outsideCutPath
10
135
20
182
11
135
21
151.86205
0
LINE
8
right_outsideCutPath
10
135
20
151.86205
11
131
21
151.86205
0
LINE
8
right_outsideCutPath
10
131
20
151.86205
11
131
21
124.13795
0
LINE
8
right_outsideCutPath
10
131
20
124.13795
11
135
21
124.13795
0
LINE
8
right_outsideCutPath
10
135
20
124.13795
11
135
21
96.41385
0
LINE
8
right_outsideCutPath
10
135
20
96.41385
11
135
21
94
0
LINE
8
right_outsideCutPath
10
135
20
94
11
161.13795
21
94
0
LINE
8
right_outsideCutPath
10
161.13795
20
94
11
161.13795
21
98
0
LINE
8
right_outsideCutPath
10
161.13795
20
98
11
188.86205
21
98
0
LINE
8
right_outsideCutPath
10
188.86205
20
98
11
188.86205
21
94
0
LINE
8
right_outsideCutPath
10
188.86205
20
94
11
215
21
94
0
LINE
8
right_outsideCutPath
10
215
20
94
11
215
21
124.13795
0
LINE
8
right_outsideCutPath
10
215
20
124.13795
11
219
21
124.13795
0
LINE
8
right_outsideCutPath
10
219
20
124.13795
11
219
21
151.86205
0
LINE
8
right_outsideCutPath
10
219
20
151.86205
11
215
21
151.86205
0
LINE
8
right_outsideCutPath
10
215
20
151.86205
11
215
21
179.58615
0
LINE
8
right_outsideCutPath
10
215
20
179.58615
11
215
21
182
0
LINE
8
right_outsideCutPath
10
215
20
182
11
188.86205
21
182
0
LINE
8
right_outsideCutPath
10
188.86205
20
182
11
188.86205
21
178
0
LINE
8
right_outsideCutPath
10
188.86205
20
178
11
161.13795
21
178
0
LINE
8
right_outsideCutPath
10
161.13795
20
178
11
161.13795
21
182
0
LINE
8
right_outsideCutPath
10
161.13795
20
182
11
135
21
182
0
LINE
8
bottom_outsideCutPath
10
226
20
178
11
226
21
151.86205
0
LINE
8
bottom_outsideCutPath
10
226
20
151.86205
11
222
21
151.86205
0
LINE
8
bottom_outsideCutPath
10
222
20
151.86205
11
222
21
124.13795
0
LINE
8
bottom_outsideCutPath
10
222
20
124.13795
11
226
21
124.13795
0
LINE
8
bottom_outsideCutPath
10
226
20
124.13795
11
226
21
98
0
LINE
8
bottom_outsideCutPath
10
226
20
98
11
244.41385
21
98
0
LINE
8
bottom_outsideCutPath
10
244.41385
20
98
11
244.41385
21
94
0
LINE
8
bottom_outsideCutPath
10
244.41385
20
94
11
272.13795
21
94
0
LINE
8
bottom_outsideCutPath
10
272.13795
20
94
11
272.13795
21
98
0
LINE
8
bottom_outsideCutPath
10
272.13795
20
98
11
299.86205
21
98
0
LINE
8
bottom_outsideCutPath
10
299.86205
20
98
11
299.86205
21
94
0
LINE
8
bottom_outsideCutPath
10
299.86205
20
94
11
327.58615
21
94
0
LINE
8
bottom_outsideCutPath
10
327.58615
20
94
11
327.58615
21
98
0
LINE
8
bottom_outsideCutPath
10
327.58615
20
98
11
346
21
98
0
LINE
8
bottom_outsideCutPath
10
346
20
98
11
346
21
124.13795
0
LINE
8
bottom_outsideCutPath
10
346
20
124.13795
11
350
21
124.13795
0
LINE
8
bottom_outsideCutPath
10
350
20
124.13795
11
350
21
151.86205
0
LINE
8
bottom_outsideCutPath
10
350
20
151.86205
11
346
21
151.86205
0
LINE
8
bottom_outsideCutPath
10
346
20
151.86205
11
346
21
178
0
LINE
8
bottom_outsideCutPath
10
346
20
178
11
327.58615
21
178
0
LINE
8
bottom_outsideCutPath
10
327.58615
20
178
11
327.58615
21
182
0
LINE
8
bottom_outsideCutPath
10
327.58615
20
182
11
299.86205
21
182
0
LINE
8
bottom_outsideCutPath
10
299.86205
20
182
11
299.86205
21
178
0
LINE
8
bottom_outsideCutPath
10
299.86205
20
178
11
272.13795
21
178
0
LINE
8
bottom_outsideCutPath
10
272.13795
20
178
11
272.13795
21
182
0
LINE
8
bottom_outsideCutPath
10
272.13795
20
182
11
244.41385
21
182
0
LINE
8
bottom_outsideCutPath
10
244.41385
20
182
11
244.41385
21
178
0
LINE
8
bottom_outsideCutPath
10
244.41385
20
178
11
226
21
178
0
ENDSEC
0
EOF