  0
SECTION
  2
HEADER
  9
$ACADVER
  1
AC1015
  9
$ACADMAINTVER
 70
           6
  9
$DWGCODEPAGE
  3
ANSI_1252
  9
$INSBASE
 10
0.0
 20
0.0
 30
0.0
  9
$EXTMIN
 10
-0.0
 20
0.0
 30
-88.771768723989
  9
$EXTMAX
 10
2438.4
 20
1219.2
 30
0.000000015821
  9
$LIMMIN
 10
0.0
 20
0.0
  9
$LIMMAX
 10
297.0
 20
210.0
  9
$ORTHOMODE
 70
           0
  9
$REGENMODE
 70
           1
  9
$FILLMODE
 70
           1
  9
$QTEXTMODE
 70
           0
  9
$MIRRTEXT
 70
           1
  9
$LTSCALE
 40
1.0
  9
$ATTMODE
 70
           1
  9
$TEXTSIZE
 40
5.0440917015
  9
$TRACEWID
 40
1.0
  9
$TEXTSTYLE
  7
STANDARD
  9
$CLAYER
  8
0
  9
$CELTYPE
  6
Continuous
  9
$CECOLOR
 62
           7
  9
$CELTSCALE
 40
1.0
  9
$DISPSILH
 70
           0
  9
$DIMSCALE
 40
1.0
  9
$DIMASZ
 40
50.0
  9
$DIMEXO
 40
0.0625
  9
$DIMDLI
 40
0.375
  9
$DIMRND
 40
0.01
  9
$DIMDLE
 40
0.0
  9
$DIMEXE
 40
0.125
  9
$DIMTP
 40
0.0
  9
$DIMTM
 40
0.0
  9
$DIMTXT
 40
30.0
  9
$DIMCEN
 40
0.09
  9
$DIMTSZ
 40
0.0
  9
$DIMTOL
 70
           0
  9
$DIMLIM
 70
           0
  9
$DIMTIH
 70
           1
  9
$DIMTOH
 70
           1
  9
$DIMSE1
 70
           0
  9
$DIMSE2
 70
           0
  9
$DIMTAD
 70
           1
  9
$DIMZIN
 70
           0
  9
$DIMBLK
  1

  9
$DIMASO
 70
           0
  9
$DIMSHO
 70
           1
  9
$DIMPOST
  1
<>mm
  9
$DIMAPOST
  1

  9
$DIMALT
 70
           0
  9
$DIMALTD
 70
           2
  9
$DIMALTF
 40
1.0
  9
$DIMLFAC
 40
1.0
  9
$DIMTOFL
 70
           1
  9
$DIMTVP
 40
0.0
  9
$DIMTIX
 70
           0
  9
$DIMSOXD
 70
           0
  9
$DIMSAH
 70
           0
  9
$DIMBLK1
  1

  9
$DIMBLK2
  1

  9
$DIMSTYLE
  2
STANDARD
  9
$DIMCLRD
 70
           7
  9
$DIMCLRE
 70
           7
  9
$DIMCLRT
 70
           7
  9
$DIMTFAC
 40
1.0
  9
$DIMGAP
 40
0.0625
  9
$DIMJUST
 70
           0
  9
$DIMSD1
 70
           0
  9
$DIMSD2
 70
           0
  9
$DIMTOLJ
 70
           1
  9
$DIMTZIN
 70
           0
  9
$DIMALTZ
 70
           0
  9
$DIMALTTZ
 70
           0
  9
$DIMUPT
 70
           0
  9
$DIMDEC
 70
           2
  9
$DIMTDEC
 70
           2
  9
$DIMALTU
 70
           2
  9
$DIMALTTD
 70
           2
  9
$DIMTXSTY
  7
STANDARD
  9
$DIMAUNIT
 70
           0
  9
$DIMADEC
 70
           2
  9
$DIMALTRND
 40
0.0
  9
$DIMAZIN
 70
           0
  9
$DIMDSEP
 70
           0
  9
$DIMATFIT
 70
           0
  9
$DIMFRAC
 70
           0
  9
$DIMLDRBLK
  1

  9
$DIMLUNIT
 70
           2
  9
$DIMLWD
 70
           0
  9
$DIMLWE
 70
           0
  9
$DIMTMOVE
 70
           0
  9
$LUNITS
 70
           2
  9
$LUPREC
 70
           2
  9
$SKETCHINC
 40
1.0
  9
$FILLETRAD
 40
1.0
  9
$AUNITS
 70
           0
  9
$AUPREC
 70
           2
  9
$MENU
  1
acad
  9
$ELEVATION
 40
0.0
  9
$PELEVATION
 40
0.0
  9
$THICKNESS
 40
0.0
  9
$LIMCHECK
 70
           0
  9
$CHAMFERA
 40
0.0
  9
$CHAMFERB
 40
0.0
  9
$CHAMFERC
 40
0.0
  9
$CHAMFERD
 40
0.0
  9
$SKPOLY
 70
           0
  9
$TDCREATE
 40
0.000000000
  9
$TDUCREATE
 40
0.000000000
  9
$TDUPDATE
 40
0.000000000
  9
$TDUUPDATE
 40
0.000000000
  9
$TDINDWG
 40
0.0000000000
  9
$TDUSRTIMER
 40
0.0000000000
  9
$USRTIMER
 70
           1
  9
$ANGBASE
 50
0.0
  9
$ANGDIR
 70
           0
  9
$PDMODE
 70
           0
  9
$PDSIZE
 40
0.0
  9
$PLINEWID
 40
0.0
  9
$SPLFRAME
 70
           0
  9
$SPLINETYPE
 70
           6
  9
$SPLINESEGS
 70
          20
  9
$HANDSEED
  5
150
  9
$SURFTAB1
 70
           6
  9
$SURFTAB2
 70
           6
  9
$SURFTYPE
 70
           6
  9
$SURFU
 70
           6
  9
$SURFV
 70
           6
  9
$UCSBASE
  2

  9
$UCSNAME
  2

  9
$UCSORG
 10
0.0
 20
0.0
 30
0.0
  9
$UCSXDIR
 10
1.0
 20
0.0
 30
0.0
  9
$UCSYDIR
 10
0.0
 20
1.0
 30
0.0
  9
$UCSORTHOREF
  2

  9
$UCSORTHOVIEW
 70
           0
  9
$UCSORGTOP
 10
0.0
 20
0.0
 30
0.0
  9
$UCSORGBOTTOM
 10
0.0
 20
0.0
 30
0.0
  9
$UCSORGLEFT
 10
0.0
 20
0.0
 30
0.0
  9
$UCSORGRIGHT
 10
0.0
 20
0.0
 30
0.0
  9
$UCSORGFRONT
 10
0.0
 20
0.0
 30
0.0
  9
$UCSORGBACK
 10
0.0
 20
0.0
 30
0.0
  9
$PUCSBASE
  2

  9
$PUCSNAME
  2

  9
$PUCSORG
 10
0.0
 20
0.0
 30
0.0
  9
$PUCSXDIR
 10
1.0
 20
0.0
 30
0.0
  9
$PUCSYDIR
 10
0.0
 20
1.0
 30
0.0
  9
$PUCSORTHOREF
  2

  9
$PUCSORTHOVIEW
 70
           0
  9
$PUCSORGTOP
 10
0.0
 20
0.0
 30
0.0
  9
$PUCSORGBOTTOM
 10
0.0
 20
0.0
 30
0.0
  9
$PUCSORGLEFT
 10
0.0
 20
0.0
 30
0.0
  9
$PUCSORGRIGHT
 10
0.0
 20
0.0
 30
0.0
  9
$PUCSORGFRONT
 10
0.0
 20
0.0
 30
0.0
  9
$PUCSORGBACK
 10
0.0
 20
0.0
 30
0.0
  9
$USERI1
 70
           0
  9
$USERI2
 70
           0
  9
$USERI3
 70
           0
  9
$USERI4
 70
           0
  9
$USERI5
 70
           0
  9
$USERR1
 40
0.0
  9
$USERR2
 40
0.0
  9
$USERR3
 40
0.0
  9
$USERR4
 40
0.0
  9
$USERR5
 40
0.0
  9
$WORLDVIEW
 70
           1
  9
$SHADEDGE
 70
           3
  9
$SHADEDIF
 70
          70
  9
$TILEMODE
 70
           1
  9
$MAXACTVP
 70
          16
  9
$PINSBASE
 10
0.0
 20
0.0
 30
0.0
  9
$PLIMCHECK
 70
           0
  9
$PEXTMIN
 10
0.0
 20
0.0
 30
0.0
  9
$PEXTMAX
 10
297.0
 20
210.0
 30
0.0
  9
$PLIMMIN
 10
0.0
 20
0.0
  9
$PLIMMAX
 10
297.0
 20
210.0
  9
$UNITMODE
 70
           0
  9
$VISRETAIN
 70
           0
  9
$PLINEGEN
 70
           1
  9
$PSLTSCALE
 70
           1
  9
$TREEDEPTH
 70
        3020
  9
$CMLSTYLE
  2
STANDARD
  9
$CMLJUST
 70
           0
  9
$CMLSCALE
 40
1.0
  9
$PROXYGRAPHICS
 70
           0
  9
$MEASUREMENT
 70
           0
  9
$CELWEIGHT
370
           0
  9
$ENDCAPS
280
           0
  9
$JOINSTYLE
280
           0
  9
$LWDISPLAY
290
           0
  9
$INSUNITS
 70
           0
  9
$HYPERLINKBASE
  1

  9
$STYLESHEET
  1

  9
$XEDIT
290
           1
  9
$CEPSNTYPE
380
           0
  9
$PSTYLEMODE
290
           1
  9
$FINGERPRINTGUID
  2

  9
$VERSIONGUID
  2

  9
$EXTNAMES
290
           1
  9
$PSVPSCALE
 40
0.0
  0
ENDSEC
  0
SECTION
  2
CLASSES
  0
CLASS
  1
LWPOLYLINE
  2
AcDbPolyline
  3
AutoCAD 2000
 90
        0
280
           0
281
           1
  0
CLASS
  1
IMAGE
  2
AcDbRasterImage
  3
ISM
 90
    32895
280
           0
281
           1
  0
CLASS
  1
OLE2FRAME
  2
AcDbOle2Frame
  3
AutoCAD 2000
 90
    32768
280
           0
281
           1
  0
CLASS
  1
HATCH
  2
AcDbHatch
  3
AutoCAD 2000
 90
    32768
280
           0
281
           1
  0
CLASS
  1
DICTIONARYVAR
  2
AcDbDictionaryVar
  3
AutoCAD 2000
 90
    32768
280
           0
281
           0
  0
CLASS
  1
RASTERVARIABLES
  2
AcDbRasterVariables
  3
ISM
 90
    32768
280
           0
281
           0
  0
CLASS
  1
IMAGEDEF
  2
AcDbRasterImageDef
  3
ISM
 90
    32768
280
           0
281
           0
  0
CLASS
  1
IMAGEDEF_REACTOR
  2
AcDbRasterImageDefReactor
  3
ISM
 90
    32769
280
           0
281
           0
  0
CLASS
  1
IDBUFFER
  2
AcDbIdBuffer
  3
AutoCAD 2000
 90
    32768
280
           0
281
           0
  0
CLASS
  1
SPATIAL_FILTER
  2
AcDbSpatialFilter
  3
AutoCAD 2000
 90
    32768
280
           0
281
           0
  0
CLASS
  1
XRECORD
  2
AcDbXrecord
  3
AutoCAD 2000
 90
    32768
280
           0
281
           0
  0
CLASS
  1
SORTENTSTABLE
  2
AcDbSortentsTable
  3
AutoCAD 2000
 90
    32768
280
           0
281
           0
  0
CLASS
  1
LAYER_INDEX
  2
AcDbLayerIndex
  3
AutoCAD 2000
 90
    32768
280
           0
281
           0
  0
CLASS
  1
SPATIAL_INDEX
  2
AcDbSpatialIndex
  3
AutoCAD 2000
 90
    32768
280
           0
281
           0
  0
CLASS
  1
OBJECT_PTR
  2
CAseDLPNTableRecord
  3
"ASE-LPNTableRecord"
 90
    32769
280
           0
281
           0
  0
CLASS
  1
LAYOUT
  2
AcDbLayout
  3
AutoCAD 2000
 90
        0
280
           0
281
           0
  0
CLASS
  1
PLOTSETTINGS
  2
AcDbPlotSettings
  3
AutoCAD 2000
 90
    32768
280
           0
281
           0
  0
CLASS
  1
ACDBDICTIONARYWDFLT
  2
AcDbDictionaryWithDefault
  3
AutoCAD 2000
 90
        0
280
           0
281
           0
  0
CLASS
  1
ACDBPLACEHOLDER
  2
AcDbPlaceHolder
  3
AutoCAD 2000
 90
        0
280
           0
281
           0
  0
ENDSEC
  0
SECTION
  2
TABLES
  0
TABLE
  2
VPORT
  5
7
100
AcDbSymbolTable
 70
           1
  0
VPORT
  5
15
100
AcDbSymbolTableRecord
100
AcDbViewportTableRecord
  2
*ACTIVE
 70
           0
 10
0.0
 20
0.0
 11
1.0
 21
1.0
 12
0.0
 22
0.0
 13
0.0
 23
0.0
 14
5.0
 24
5.0
 15
5.0
 25
5.0
 16
0.0
 26
0.0
 36
1.0
 17
-36.557982321195
 27
-81.741298034447
 37
0.0
 40
3681.851147080799
 41
1.836693548387
 42
50.0
 43
0.0
 44
0.0
 50
0.0
 51
0.0
 71
           0
 72
         100
 73
           1
 74
           1
 75
           0
 76
           1
 77
           0
 78
           0
281
           0
 65
           0
110
0.0
120
0.0
130
0.0
111
1.0
121
0.0
131
0.0
112
0.0
122
1.0
132
0.0
345
0
346
0
 79
           0
146
0.0
  0
ENDTAB
  0
TABLE
  2
LTYPE
  5
4
100
AcDbSymbolTable
 70
          15
  0
LTYPE
  5
11
100
AcDbSymbolTableRecord
100
AcDbLinetypeTableRecord
  2
ByBlock
 70
          64
  3

 72
          65
 73
           0
 40
0.0
  0
LTYPE
  5
12
100
AcDbSymbolTableRecord
100
AcDbLinetypeTableRecord
  2
ByLayer
 70
          64
  3

 72
          65
 73
           0
 40
0.0
  0
LTYPE
  5
13
100
AcDbSymbolTableRecord
100
AcDbLinetypeTableRecord
  2
Continuous
 70
          64
  3
Solid line
 72
          65
 73
           0
 40
0.0
  0
LTYPE
  5
24
100
AcDbSymbolTableRecord
100
AcDbLinetypeTableRecord
  2
BORDER
 70
           0
  3
BORDER
 72
          65
 73
           6
 40
1.75
 49
0.5
 74
           0
 49
-0.25
 74
           0
 49
0.5
 74
           0
 49
-0.25
 74
           0
 49
0.0
 74
           0
 49
-0.25
 74
           0
  0
LTYPE
  5
25
100
AcDbSymbolTableRecord
100
AcDbLinetypeTableRecord
  2
CENTER
 70
           0
  3
CENTER
 72
          65
 73
           4
 40
2.0
 49
1.25
 74
           0
 49
-0.25
 74
           0
 49
0.25
 74
           0
 49
-0.25
 74
           0
  0
LTYPE
  5
26
100
AcDbSymbolTableRecord
100
AcDbLinetypeTableRecord
  2
DASHDOT
 70
           0
  3
DASHDOT
 72
          65
 73
           4
 40
1.0
 49
0.5
 74
           0
 49
-0.25
 74
           0
 49
0.0
 74
           0
 49
-0.25
 74
           0
  0
LTYPE
  5
27
100
AcDbSymbolTableRecord
100
AcDbLinetypeTableRecord
  2
DASHED
 70
           0
  3
DASHED
 72
          65
 73
           2
 40
0.75
 49
0.5
 74
           0
 49
-0.25
 74
           0
  0
LTYPE
  5
28
100
AcDbSymbolTableRecord
100
AcDbLinetypeTableRecord
  2
DIVIDE
 70
           0
  3
DIVIDE
 72
          65
 73
           6
 40
1.25
 49
0.5
 74
           0
 49
-0.25
 74
           0
 49
0.0
 74
           0
 49
-0.25
 74
           0
 49
0.0
 74
           0
 49
-0.25
 74
           0
  0
LTYPE
  5
29
100
AcDbSymbolTableRecord
100
AcDbLinetypeTableRecord
  2
DOT
 70
           0
  3
DOT
 72
          65
 73
           2
 40
0.25
 49
0.0
 74
           0
 49
-0.25
 74
           0
  0
LTYPE
  5
2A
100
AcDbSymbolTableRecord
100
AcDbLinetypeTableRecord
  2
HIDDEN
 70
           0
  3
HIDDEN
 72
          65
 73
           2
 40
0.375
 49
0.25
 74
           0
 49
-0.125
 74
           0
  0
LTYPE
  5
2B
100
AcDbSymbolTableRecord
100
AcDbLinetypeTableRecord
  2
PHANTOM
 70
           0
  3
PHANTOM
 72
          65
 73
           6
 40
2.5
 49
1.25
 74
           0
 49
-0.25
 74
           0
 49
0.25
 74
           0
 49
-0.25
 74
           0
 49
0.25
 74
           0
 49
-0.25
 74
           0
  0
LTYPE
  5
2C
100
AcDbSymbolTableRecord
100
AcDbLinetypeTableRecord
  2
$INVISIBLE
 70
           0
  3
$INVISIBLE
 72
          65
 73
           2
 40
200.0
 49
-100.0
 74
           0
 49
-100.0
 74
           0
  0
LTYPE
  5
2D
100
AcDbSymbolTableRecord
100
AcDbLinetypeTableRecord
  2
$AUXILIARY
 70
           0
  3
$AUXILIARY
 72
          65
 73
           2
 40
0.10000000149
 49
0.050000000745
 74
           0
 49
-0.050000000745
 74
           0
  0
LTYPE
  5
2E
100
AcDbSymbolTableRecord
100
AcDbLinetypeTableRecord
  2
$CONSTRUCTION
 70
           0
  3
$CONSTRUCTION
 72
          65
 73
           4
 40
0.3
 49
0.2
 74
           0
 49
-0.05
 74
           0
 49
0.0
 74
           0
 49
-0.05
 74
           0
  0
LTYPE
  5
2F
100
AcDbSymbolTableRecord
100
AcDbLinetypeTableRecord
  2
$SNAPEXT
 70
           0
  3
$SNAPEXT
 72
          65
 73
           2
 40
0.04
 49
0.02
 74
           0
 49
-0.02
 74
           0
  0
ENDTAB
  0
TABLE
  2
LAYER
  5
2
100
AcDbSymbolTable
 70
           1
  0
LAYER
  5
14
100
AcDbSymbolTableRecord
100
AcDbLayerTableRecord
  2
0
 70
           0
 62
           7
  6
Continuous
290
           1
370
           0
390
0
1001
TCAD
1000
TCW_LAYER_ORDER
1002
{
1071
        0
1002
}
  0
ENDTAB
  0
TABLE
  2
STYLE
  5
3
100
AcDbSymbolTable
 70
           1
  0
STYLE
  5
17
100
AcDbSymbolTableRecord
100
AcDbTextStyleTableRecord
  2
STANDARD
 70
           0
 40
0.0
 41
1.0
 50
0.0
 71
           0
 42
0.15000000596
  3

  4

1001
ACAD
1000
Times New Roman
1071
      290
  0
ENDTAB
  0
TABLE
  2
VIEW
  5
5
100
AcDbSymbolTable
 70
           1
  0
VIEW
  5
30
100
AcDbSymbolTableRecord
100
AcDbViewTableRecord
  2
View_0
 70
           0
 40
8.267716535433
 10
5.846456692913
 20
4.133858267717
 41
11.692913385827
 11
0.0
 21
0.0
 31
1.0
 12
0.0
 22
0.0
 32
0.0
 42
45.247172312671
 43
0.0
 44
0.0
 50
0.0
 71
           0
281
           0
 72
           0
110
0.0
120
0.0
130
0.0
111
1.0
121
0.0
131
0.0
112
0.0
122
1.0
132
0.0
  0
ENDTAB
  0
TABLE
  2
UCS
  5
6
100
AcDbSymbolTable
 70
           0
  0
ENDTAB
  0
TABLE
  2
APPID
  5
8
100
AcDbSymbolTable
 70
           2
  0
APPID
  5
16
100
AcDbSymbolTableRecord
100
AcDbRegAppTableRecord
  2
ACAD
 70
           0
  0
APPID
  5
23
100
AcDbSymbolTableRecord
100
AcDbRegAppTableRecord
  2
TCAD
 70
           0
  0
ENDTAB
  0
TABLE
  2
DIMSTYLE
  5
9
100
AcDbSymbolTable
 70
           1
100
AcDbDimStyleTable
 71
           0
  0
DIMSTYLE
105
18
100
AcDbSymbolTableRecord
100
AcDbDimStyleTableRecord
  2
STANDARD
 70
           0
  3
<>mm
  4

 40
1.0
 41
50.0
 42
0.0625
 43
0.375
 44
0.125
 45
0.01
 46
0.0
 47
0.0
 48
0.0
 71
           0
 72
           0
 73
           1
 74
           1
 75
           0
 76
           0
 77
           1
 78
           0
 79
           0
140
30.0
141
0.09
142
0.0
143
1.0
144
1.0
145
0.0
146
1.0
147
0.0625
148
0.01
170
           0
171
           2
172
           1
173
           0
174
           0
175
           0
176
           7
177
           7
178
           7
179
           2
271
           2
272
           2
273
           2
274
           2
275
           0
276
           0
277
           2
278
          46
279
           0
280
           0
281
           0
282
           0
283
           1
284
           0
285
           0
286
           0
288
           0
340
17
341
0
342
0
343
0
344
0
371
          -2
372
          -2
  0
ENDTAB
  0
TABLE
  2
BLOCK_RECORD
  5
1
100
AcDbSymbolTable
 70
          32
  0
BLOCK_RECORD
  5
A
100
AcDbSymbolTableRecord
100
AcDbBlockTableRecord
  2
*MODEL_SPACE
340
14E
  0
BLOCK_RECORD
  5
B
100
AcDbSymbolTableRecord
100
AcDbBlockTableRecord
  2
*PAPER_SPACE
340
14F
  0
BLOCK_RECORD
  5
36
100
AcDbSymbolTableRecord
100
AcDbBlockTableRecord
  2
*E0
340
0
102
{BLKREFS
331
3A
102
}
  0
BLOCK_RECORD
  5
3F
100
AcDbSymbolTableRecord
100
AcDbBlockTableRecord
  2
*E1
340
0
102
{BLKREFS
331
43
102
}
  0
BLOCK_RECORD
  5
44
100
AcDbSymbolTableRecord
100
AcDbBlockTableRecord
  2
*E2
340
0
102
{BLKREFS
331
49
102
}
  0
BLOCK_RECORD
  5
4A
100
AcDbSymbolTableRecord
100
AcDbBlockTableRecord
  2
*E3
340
0
102
{BLKREFS
331
4F
102
}
  0
BLOCK_RECORD
  5
50
100
AcDbSymbolTableRecord
100
AcDbBlockTableRecord
  2
*E4
340
0
102
{BLKREFS
331
55
102
}
  0
BLOCK_RECORD
  5
5B
100
AcDbSymbolTableRecord
100
AcDbBlockTableRecord
  2
*E5
340
0
102
{BLKREFS
331
60
102
}
  0
BLOCK_RECORD
  5
66
100
AcDbSymbolTableRecord
100
AcDbBlockTableRecord
  2
*E6
340
0
102
{BLKREFS
331
6B
102
}
  0
BLOCK_RECORD
  5
6D
100
AcDbSymbolTableRecord
100
AcDbBlockTableRecord
  2
*E7
340
0
102
{BLKREFS
331
72
102
}
  0
BLOCK_RECORD
  5
73
100
AcDbSymbolTableRecord
100
AcDbBlockTableRecord
  2
*E8
340
0
102
{BLKREFS
331
78
102
}
  0
BLOCK_RECORD
  5
7B
100
AcDbSymbolTableRecord
100
AcDbBlockTableRecord
  2
*E9
340
0
102
{BLKREFS
331
80
102
}
  0
BLOCK_RECORD
  5
84
100
AcDbSymbolTableRecord
100
AcDbBlockTableRecord
  2
*E10
340
0
102
{BLKREFS
331
88
102
}
  0
BLOCK_RECORD
  5
89
100
AcDbSymbolTableRecord
100
AcDbBlockTableRecord
  2
*E11
340
0
102
{BLKREFS
331
8D
102
}
  0
BLOCK_RECORD
  5
8E
100
AcDbSymbolTableRecord
100
AcDbBlockTableRecord
  2
*E12
340
0
102
{BLKREFS
331
92
102
}
  0
BLOCK_RECORD
  5
96
100
AcDbSymbolTableRecord
100
AcDbBlockTableRecord
  2
*E13
340
0
102
{BLKREFS
331
9A
102
}
  0
BLOCK_RECORD
  5
9B
100
AcDbSymbolTableRecord
100
AcDbBlockTableRecord
  2
*E14
340
0
102
{BLKREFS
331
9F
102
}
  0
BLOCK_RECORD
  5
A4
100
AcDbSymbolTableRecord
100
AcDbBlockTableRecord
  2
*E15
340
0
102
{BLKREFS
331
A8
102
}
  0
BLOCK_RECORD
  5
A9
100
AcDbSymbolTableRecord
100
AcDbBlockTableRecord
  2
*E16
340
0
102
{BLKREFS
331
AE
102
}
  0
BLOCK_RECORD
  5
AF
100
AcDbSymbolTableRecord
100
AcDbBlockTableRecord
  2
*E17
340
0
102
{BLKREFS
331
B4
102
}
  0
BLOCK_RECORD
  5
B5
100
AcDbSymbolTableRecord
100
AcDbBlockTableRecord
  2
*E18
340
0
102
{BLKREFS
331
BA
102
}
  0
BLOCK_RECORD
  5
C0
100
AcDbSymbolTableRecord
100
AcDbBlockTableRecord
  2
*E19
340
0
102
{BLKREFS
331
C5
102
}
  0
BLOCK_RECORD
  5
CB
100
AcDbSymbolTableRecord
100
AcDbBlockTableRecord
  2
*E20
340
0
102
{BLKREFS
331
D0
102
}
  0
BLOCK_RECORD
  5
D2
100
AcDbSymbolTableRecord
100
AcDbBlockTableRecord
  2
*E21
340
0
102
{BLKREFS
331
D7
102
}
  0
BLOCK_RECORD
  5
D8
100
AcDbSymbolTableRecord
100
AcDbBlockTableRecord
  2
*E22
340
0
102
{BLKREFS
331
DD
102
}
  0
BLOCK_RECORD
  5
E0
100
AcDbSymbolTableRecord
100
AcDbBlockTableRecord
  2
*E23
340
0
102
{BLKREFS
331
E5
102
}
  0
BLOCK_RECORD
  5
E9
100
AcDbSymbolTableRecord
100
AcDbBlockTableRecord
  2
*E24
340
0
102
{BLKREFS
331
ED
102
}
  0
BLOCK_RECORD
  5
EE
100
AcDbSymbolTableRecord
100
AcDbBlockTableRecord
  2
*E25
340
0
102
{BLKREFS
331
F2
102
}
  0
BLOCK_RECORD
  5
F3
100
AcDbSymbolTableRecord
100
AcDbBlockTableRecord
  2
*E26
340
0
102
{BLKREFS
331
F7
102
}
  0
BLOCK_RECORD
  5
FB
100
AcDbSymbolTableRecord
100
AcDbBlockTableRecord
  2
*E27
340
0
102
{BLKREFS
331
FF
102
}
  0
BLOCK_RECORD
  5
100
100
AcDbSymbolTableRecord
100
AcDbBlockTableRecord
  2
*E28
340
0
102
{BLKREFS
331
104
102
}
  0
BLOCK_RECORD
  5
109
100
AcDbSymbolTableRecord
100
AcDbBlockTableRecord
  2
*E29
340
0
102
{BLKREFS
331
10D
102
}
  0
BLOCK_RECORD
  5
113
100
AcDbSymbolTableRecord
100
AcDbBlockTableRecord
  2
*E30
340
0
102
{BLKREFS
331
117
102
}
  0
BLOCK_RECORD
  5
124
100
AcDbSymbolTableRecord
100
AcDbBlockTableRecord
  2
*E31
340
0
102
{BLKREFS
331
128
102
}
  0
ENDTAB
  0
ENDSEC
  0
SECTION
  2
BLOCKS
  0
BLOCK
  5
D
100
AcDbEntity
  8
0
100
AcDbBlockBegin
  2
*MODEL_SPACE
 70
           0
 10
0.0
 20
0.0
 30
0.0
  3
*MODEL_SPACE
  1

  0
ENDBLK
  5
E
100
AcDbEntity
  8
0
100
AcDbBlockEnd
  0
BLOCK
  5
F
100
AcDbEntity
 67
           1
  8
0
100
AcDbBlockBegin
  2
*PAPER_SPACE
 70
           0
 10
0.0
 20
0.0
 30
0.0
  3
*PAPER_SPACE
  1

  0
ENDBLK
  5
10
100
AcDbEntity
 67
           1
  8
0
100
AcDbBlockEnd
  0
BLOCK
  5
37
100
AcDbEntity
  8
0
100
AcDbBlockBegin
  2
*E0
 70
           1
 10
0.0
 20
0.0
 30
0.0
  3
*E0
  1

  0
LWPOLYLINE
  5
38
100
AcDbEntity
  8
0
370
           0
  6
Continuous
 62
           7
100
AcDbPolyline
 90
      461
 70
           0
 38
0.000000001792
 10
1062.562934644252
 20
223.572941302969
 10
1063.178000523245
 20
224.719790125555
 10
1063.744229712306
 20
225.901304457452
 10
1064.261288276481
 20
227.114222295783
 10
1064.728842280817
 20
228.355281637671
 10
1065.146557790361
 20
229.621220480241
 10
1065.514100870159
 20
230.908776820617
 10
1065.831137585258
 20
232.214688655923
 10
1066.097334000706
 20
233.535693983282
 10
1066.312356181549
 20
234.868530799818
 10
1066.475870192833
 20
236.209937102656
 10
1066.587542099606
 20
237.556650888919
 10
1066.647037966914
 20
238.905410155731
 10
1066.654023859804
 20
240.252952900216
 10
1066.608165843323
 20
241.596017119499
 10
1066.509129982518
 20
242.931340810702
 10
1066.356582342435
 20
244.25566197095
 10
1066.150188988122
 20
245.565718597366
 10
1065.889615984625
 20
246.858248687075
 10
1065.57452939699
 20
248.129990237201
 10
1065.204595290266
 20
249.377681244867
 10
1064.817757383526
 20
250.474335848537
 10
1064.369552769453
 20
251.555982078188
 10
1063.86272617307
 20
252.620371503982
 10
1063.3000223194
 20
253.665255696077
 10
1062.684185933467
 20
254.688386224633
 10
1062.017961740294
 20
255.687514659808
 10
1061.304094464903
 20
256.660392571763
 10
1060.545328832318
 20
257.604771530656
 10
1059.744409567562
 20
258.518403106648
 10
1058.90408139566
 20
259.399038869896
 10
1058.027089041633
 20
260.244430390561
 10
1057.116177230505
 20
261.052329238803
 10
1056.174090687299
 20
261.820486984779
 10
1055.203574137038
 20
262.546655198651
 10
1054.207372304746
 20
263.228585450576
 10
1053.188229915447
 20
263.864029310715
 10
1052.148891694162
 20
264.450738349226
 10
1051.092102365915
 20
264.986464136269
 10
1050.020606655731
 20
265.468958242004
 10
1048.937149288631
 20
265.89597223659
 10
1047.019022417582
 20
266.566252911067
 10
1045.080140400492
 20
267.18135663124
 10
1043.122175927692
 20
267.742429181695
 10
1041.146801689516
 20
268.250616347018
 10
1039.155690376295
 20
268.707063911794
 10
1037.150514678362
 20
269.11291766061
 10
1035.132947286048
 20
269.469323378051
 10
1033.104660889688
 20
269.777426848705
 10
1031.067328179612
 20
270.038373857157
 10
1029.022621846153
 20
270.253310187993
 10
1026.972214579644
 20
270.423381625798
 10
1024.917779070417
 20
270.54973395516
 10
1022.860988008804
 20
270.633512960665
 10
1020.803514085137
 20
270.675864426897
 10
1018.747029989749
 20
270.677934138444
 10
1016.693208412973
 20
270.640867879892
 10
1014.64372204514
 20
270.565811435826
 10
1012.600243576583
 20
270.453910590832
 10
1010.564445697634
 20
270.306311129498
 10
1008.538001098626
 20
270.124158836408
 10
1005.630815571379
 20
269.846295058094
 10
1002.698836112527
 20
269.576760845678
 10
999.747650651668
 20
269.306964518891
 10
996.782847118403
 20
269.028314397461
 10
993.810013442331
 20
268.732218801116
 10
990.834737553054
 20
268.410086049587
 10
987.86260738017
 20
268.053324462603
 10
984.899210853279
 20
267.653342359892
 10
981.950135901982
 20
267.201548061184
 10
979.020970455879
 20
266.689349886208
 10
976.11730244457
 20
266.108156154693
 10
973.244719797653
 20
265.449375186368
 10
970.408810444731
 20
264.704415300963
 10
967.615162315402
 20
263.864684818207
 10
964.869363339266
 20
262.921592057828
 10
962.177001445924
 20
261.866545339556
 10
959.543664564975
 20
260.690952983121
 10
956.97494062602
 20
259.38622330825
 10
954.476417558658
 20
257.943764634674
 10
952.05368329249
 20
256.354985282122
 10
951.075646578949
 20
255.559094210865
 10
950.227300056742
 20
254.638769798422
 10
949.504458818547
 20
253.606366750374
 10
948.902937957039
 20
252.474239772303
 10
948.418552564897
 20
251.254743569793
 10
948.047117734798
 20
249.960232848424
 10
947.784448559418
 20
248.60306231378
 10
947.626360131437
 20
247.195586671442
 10
947.56866754353
 20
245.750160626991
 10
947.607185888376
 20
244.279138886012
 10
947.737730258651
 20
242.794876154084
 10
947.956115747033
 20
241.309727136792
 10
948.258157446199
 20
239.836046539716
 10
948.639670448826
 20
238.386189068439
 10
949.096469847593
 20
236.972509428543
 10
949.624370735175
 20
235.60736232561
 10
950.219188204251
 20
234.303102465222
 10
950.876737347498
 20
233.072084552961
 10
951.592833257593
 20
231.92666329441
 10
952.363291027214
 20
230.879193395151
 10
953.092835419974
 20
230.104137443614
 10
953.901730948578
 20
229.486600683051
 10
954.783152051695
 20
229.011959484601
 10
955.730273167996
 20
228.665590219401
 10
956.736268736147
 20
228.432869258587
 10
957.794313194819
 20
228.299172973298
 10
958.89758098268
 20
228.249877734672
 10
960.039246538399
 20
228.270359913845
 10
961.212484300645
 20
228.345995881955
 10
962.410468708087
 20
228.46216201014
 10
963.626374199394
 20
228.604234669536
 10
964.853375213235
 20
228.757590231283
 10
966.084646188278
 20
228.907605066516
 10
967.313361563193
 20
229.039655546374
 10
968.532695776649
 20
229.139118041995
 10
969.735823267314
 20
229.191368924514
 10
970.915918473857
 20
229.181784565071
 10
972.066155834948
 20
229.095741334802
 10
973.179709789255
 20
228.918615604845
 10
974.249754775447
 20
228.635783746338
 10
975.201301442001
 20
228.33061281057
 10
976.180789984389
 20
228.022063138536
 10
977.181555205632
 20
227.706987673972
 10
978.19693190875
 20
227.382239360612
 10
979.220254896764
 20
227.044671142193
 10
980.244858972696
 20
226.691135962448
 10
981.264078939564
 20
226.318486765112
 10
982.27124960039
 20
225.923576493922
 10
983.259705758195
 20
225.503258092611
 10
984.222782215999
 20
225.054384504915
 10
985.153813776823
 20
224.573808674568
 10
986.046135243687
 20
224.058383545306
 10
986.893081419613
 20
223.504962060864
 10
987.68798710762
 20
222.910397164976
 10
988.42418711073
 20
222.271541801378
 10
989.095016231963
 20
221.585248913804
 10
989.693809274339
 20
220.84837144599
 10
990.21390104088
 20
220.057762341671
 10
990.648626334606
 20
219.210274544581
 10
990.991319958537
 20
218.302760998456
 10
991.17450878806
 20
217.533508508578
 10
991.250530026197
 20
216.751542634532
 10
991.225725055102
 20
215.961207274406
 10
991.10643525693
 20
215.166846326288
 10
990.899002013836
 20
214.372803688265
 10
990.609766707975
 20
213.583423258427
 10
990.245070721501
 20
212.803048934859
 10
989.811255436568
 20
212.036024615651
 10
989.314662235333
 20
211.28669419889
 10
988.761632499948
 20
210.559401582664
 10
988.158507612569
 20
209.85849066506
 10
987.51162895535
 20
209.188305344167
 10
986.827337910447
 20
208.553189518072
 10
986.111975860014
 20
207.957487084864
 10
985.371884186204
 20
207.405541942629
 10
984.613404271174
 20
206.901697989456
 10
983.842877497078
 20
206.450299123432
 10
983.06664524607
 20
206.055689242646
 10
982.291048900305
 20
205.722212245185
 10
981.522429841937
 20
205.454212029138
 10
978.328742392672
 20
204.511511736828
 10
975.117830206021
 20
203.633104602114
 10
971.890849947452
 20
202.815844493905
 10
968.648958282432
 20
202.056585281112
 10
965.393311876429
 20
201.352180832645
 10
962.12506739491
 20
200.699485017416
 10
958.845381503344
 20
200.095351704334
 10
955.555410867196
 20
199.536634762311
 10
952.256312151937
 20
199.020188060256
 10
948.949242023031
 20
198.542865467081
 10
945.635357145948
 20
198.101520851696
 10
942.315814186154
 20
197.693008083011
 10
938.991769809118
 20
197.314181029937
 10
935.664380680306
 20
196.961893561385
 10
932.334803465186
 20
196.632999546265
 10
929.004194829226
 20
196.324352853487
 10
925.673711437894
 20
196.032807351963
 10
922.344509956656
 20
195.755216910603
 10
919.017747050981
 20
195.488435398317
 10
915.694579386336
 20
195.229316684016
 10
914.187956929776
 20
195.100177984768
 10
912.65213194439
 20
194.948502452244
 10
911.092299442586
 20
194.782809084909
 10
909.513654436771
 20
194.61161688123
 10
907.921391939354
 20
194.443444839672
 10
906.320706962743
 20
194.286811958702
 10
904.716794519344
 20
194.150237236784
 10
903.114849621565
 20
194.042239672386
 10
901.520067281815
 20
193.971338263973
 10
899.937642512501
 20
193.946052010011
 10
898.37277032603
 20
193.974899908966
 10
896.830645734811
 20
194.066400959304
 10
895.31646375125
 20
194.229074159491
 10
893.835419387757
 20
194.471438507993
 10
892.392707656737
 20
194.802013003275
 10
890.9935235706
 20
195.229316643805
 10
889.643062141752
 20
195.761868428046
 10
888.346518382602
 20
196.408187354467
 10
887.109087305557
 20
197.176792421532
 10
885.935963923025
 20
198.076202627707
 10
885.224983765989
 20
198.779354399916
 10
884.637910987684
 20
199.566680903999
 10
884.168915287287
 20
200.429498149315
 10
883.812166363971
 20
201.359122145227
 10
883.561833916912
 20
202.346868901094
 10
883.412087645284
 20
203.384054426279
 10
883.357097248263
 20
204.46199473014
 10
883.391032425024
 20
205.572005822041
 10
883.508062874743
 20
206.70540371134
 10
883.702358296592
 20
207.8535044074
 10
883.968088389749
 20
209.00762391958
 10
884.299422853388
 20
210.159078257242
 10
884.690531386683
 20
211.299183429747
 10
885.135583688811
 20
212.419255446456
 10
885.628749458945
 20
213.510610316728
 10
886.164198396261
 20
214.564564049926
 10
886.736100199934
 20
215.57243265541
 10
887.338624569139
 20
216.525532142541
 10
887.965941203052
 20
217.415178520679
 10
888.612219800846
 20
218.232687799186
 10
889.384321314069
 20
219.023572805449
 10
890.249633354111
 20
219.686550096476
 10
891.19747467108
 20
220.236086356919
 10
892.217164015083
 20
220.686648271433
 10
893.298020136228
 20
221.052702524672
 10
894.429361784622
 20
221.348715801288
 10
895.600507710374
 20
221.589154785936
 10
896.800776663591
 20
221.788486163269
 10
898.019487394381
 20
221.961176617941
 10
899.245958652852
 20
222.121692834606
 10
900.469509189111
 20
222.284501497917
 10
901.679457753265
 20
222.464069292528
 10
902.865123095424
 20
222.674862903092
 10
904.015823965693
 20
222.931349014264
 10
905.120879114182
 20
223.247994310697
 10
906.169607290998
 20
223.639265477044
 10
907.151327246248
 20
224.119629197959
 10
908.05535773004
 20
224.703552158096
 10
908.871017492482
 20
225.405501042109
 10
909.587625283682
 20
226.239942534651
 10
910.393421231741
 20
227.390049629682
 10
911.166154649439
 20
228.596138879412
 10
911.901518019238
 20
229.852682459279
 10
912.5952038236
 20
231.154152544721
 10
913.24290454499
 20
232.495021311176
 10
913.840312665868
 20
233.869760934082
 10
914.383120668699
 20
235.272843588876
 10
914.867021035946
 20
236.698741450996
 10
915.28770625007
 20
238.14192669588
 10
915.640868793534
 20
239.596871498965
 10
915.922201148802
 20
241.05804803569
 10
916.127395798336
 20
242.519928481492
 10
916.252145224599
 20
243.976985011809
 10
916.292141910054
 20
245.423689802079
 10
916.243078337163
 20
246.854515027739
 10
916.10064698839
 20
248.263932864228
 10
915.860540346196
 20
249.646415486982
 10
915.518450893046
 20
250.99643507144
 10
915.070071111401
 20
252.30846379304
 10
914.511093483724
 20
253.576973827219
 10
913.885716299203
 20
254.674985335503
 10
913.153587541389
 20
255.671374375308
 10
912.322828365612
 20
256.572839218454
 10
911.401559927202
 20
257.386078136764
 10
910.39790338149
 20
258.117789402057
 10
909.319979883805
 20
258.774671286154
 10
908.175910589478
 20
259.363422060876
 10
906.973816653838
 20
259.890739998044
 10
905.721819232216
 20
260.363323369479
 10
904.428039479942
 20
260.787870447002
 10
903.100598552345
 20
261.171079502434
 10
901.747617604757
 20
261.519648807594
 10
900.377217792506
 20
261.840276634305
 10
898.997520270924
 20
262.139661254387
 10
897.616646195339
 20
262.424500939661
 10
896.242716721083
 20
262.701493961947
 10
894.883853003485
 20
262.977338593067
 10
893.548176197876
 20
263.258733104842
 10
892.243807459585
 20
263.552375769091
 10
890.978867943942
 20
263.864964857637
 10
889.884429500134
 20
264.133176717352
 10
888.784088204922
 20
264.369548064845
 10
887.678298837778
 20
264.576192652847
 10
886.567516178178
 20
264.75522423409
 10
885.452195005594
 20
264.908756561302
 10
884.3327900995
 20
265.038903387217
 10
883.209756239369
 20
265.147778464565
 10
882.083548204676
 20
265.237495546075
 10
880.954620774894
 20
265.310168384481
 10
879.823428729497
 20
265.367910732511
 10
878.690426847957
 20
265.412836342898
 10
877.556069909749
 20
265.447058968372
 10
876.420812694347
 20
265.472692361664
 10
875.285109981224
 20
265.491850275505
 10
874.149416549853
 20
265.506646462625
 10
873.014187179708
 20
265.519194675757
 10
871.879876650263
 20
265.53160866763
 10
870.746939740992
 20
265.546002190975
 10
869.615831231368
 20
265.564488998524
 10
868.487005900864
 20
265.589182843006
 10
867.409940280579
 20
265.607843453385
 10
866.332889834408
 20
265.610567456273
 10
865.255853468851
 20
265.599147449786
 10
864.178830090406
 20
265.575376032035
 10
863.10181860557
 20
265.541045801134
 10
862.024817920842
 20
265.497949355197
 10
860.947826942719
 20
265.447879292338
 10
859.8708445777
 20
265.392628210669
 10
858.793869732282
 20
265.333988708304
 10
857.716901312965
 20
265.273753383357
 10
856.639938226246
 20
265.21371483394
 10
855.562979378622
 20
265.155665658168
 10
854.486023676594
 20
265.101398454154
 10
853.409070026657
 20
265.052705820012
 10
852.33211733531
 20
265.011380353853
 10
851.255164509052
 20
264.979214653793
 10
850.17821045438
 20
264.958001317945
 10
849.101254077793
 20
264.949532944421
 10
848.024294285789
 20
264.955602131336
 10
846.947329984865
 20
264.978001476803
 10
846.228458192694
 20
264.980824157644
 10
845.485170627149
 20
264.95283216997
 10
844.721855113452
 20
264.900550309181
 10
843.942899476821
 20
264.830503370674
 10
843.152691542478
 20
264.74921614985
 10
842.355619135644
 20
264.663213442108
 10
841.556070081538
 20
264.579020042846
 10
840.75843220538
 20
264.503160747463
 10
839.967093332392
 20
264.442160351359
 10
839.186441287793
 20
264.402543649933
 10
838.420863896804
 20
264.390835438584
 10
837.674748984645
 20
264.41356051271
 10
836.952484376537
 20
264.477243667711
 10
836.2584578977
 20
264.588409698986
 10
835.597057373355
 20
264.753583401934
 10
834.97267062872
 20
264.979289571954
 10
834.389685489019
 20
265.272053004445
 10
833.852489779469
 20
265.638398494806
 10
833.365471325293
 20
266.084850838437
 10
832.933017951709
 20
266.617934830735
 10
832.454394907224
 20
267.377407952064
 10
832.050636546015
 20
268.170883839365
 10
831.717885704718
 20
268.995230677337
 10
831.452285219971
 20
269.84731665068
 10
831.249977928409
 20
270.724009944091
 10
831.107106666669
 20
271.622178742268
 10
831.019814271389
 20
272.538691229911
 10
830.984243579203
 20
273.470415591718
 10
830.99653742675
 20
274.414220012387
 10
831.052838650666
 20
275.366972676617
 10
831.149290087587
 20
276.325541769107
 10
831.282034574149
 20
277.286795474555
 10
831.44721494699
 20
278.247601977659
 10
831.640974042747
 20
279.204829463118
 10
831.859454698054
 20
280.155346115631
 10
832.09879974955
 20
281.096020119896
 10
832.355152033871
 20
282.023719660612
 10
832.624654387653
 20
282.935312922476
 10
832.903449647533
 20
283.827668090188
 10
833.187680650148
 20
284.697653348447
 10
833.426110687647
 20
285.363217634786
 10
833.695166386043
 20
286.021499437623
 10
833.993715295181
 20
286.671333622446
 10
834.320624964902
 20
287.311555054743
 10
834.67476294505
 20
287.940998599999
 10
835.054996785467
 20
288.558499123704
 10
835.460194035997
 20
289.162891491343
 10
835.889222246483
 20
289.753010568405
 10
836.340948966767
 20
290.327691220377
 10
836.814241746693
 20
290.885768312745
 10
837.307968136102
 20
291.426076710997
 10
837.82099568484
 20
291.947451280621
 10
838.352191942747
 20
292.448726887104
 10
838.900424459668
 20
292.928738395933
 10
839.464560785444
 20
293.386320672595
 10
840.04346846992
 20
293.820308582577
 10
840.636015062938
 20
294.229536991368
 10
841.241068114341
 20
294.612840764453
 10
841.857495173972
 20
294.969054767322
 10
842.484163791673
 20
295.297013865459
 10
843.330832734552
 20
295.67056294073
 10
844.202699473754
 20
295.96981064905
 10
845.096796766672
 20
296.203323026151
 10
846.010157370694
 20
296.379666107762
 10
846.939814043213
 20
296.50740592961
 10
847.88279954162
 20
296.595108527426
 10
848.836146623304
 20
296.651339936939
 10
849.796888045656
 20
296.684666193877
 10
850.762056566068
 20
296.703653333971
 10
851.72868494193
 20
296.716867392949
 10
852.693805930634
 20
296.73287440654
 10
853.654452289568
 20
296.760240410474
 10
854.607656776126
 20
296.807531440479
 10
855.550452147697
 20
296.883313532285
 10
856.479871161671
 20
296.996152721622
 10
857.392946575441
 20
297.154615044217
 10
858.286711146396
 20
297.367266535801
 10
859.158197631928
 20
297.642673232102
 10
860.004438789427
 20
297.98940116885
 10
860.822467376284
 20
298.416016381774
 10
861.297740918364
 20
298.724532067618
 10
861.738790496324
 20
299.071904610279
 10
862.147153032385
 20
299.455352247027
 10
862.524365448766
 20
299.872093215134
 10
862.871964667686
 20
300.319345751871
 10
863.191487611365
 20
300.794328094508
 10
863.484471202022
 20
301.294258480318
 10
863.752452361877
 20
301.81635514657
 10
863.996968013149
 20
302.357836330536
 10
864.219555078058
 20
302.915920269486
 10
864.421750478822
 20
303.487825200693
 10
864.605091137662
 20
304.070769361426
 10
864.771113976797
 20
304.661970988958
 10
864.921355918445
 20
305.258648320558
 10
865.057353884828
 20
305.858019593498
 10
865.180644798163
 20
306.45730304505
 10
865.292765580672
 20
307.053716912483
 10
865.395253154572
 20
307.644479433069
 10
865.489644442083
 20
308.226808844079
 10
865.577476365425
 20
308.797923382784
 10
865.664898748604
 20
309.424138016114
 10
865.738987933873
 20
310.05529535713
 10
865.799291212545
 20
310.690587994567
 10
865.845355875936
 20
311.329208517162
 10
865.876729215359
 20
311.970349513652
 10
865.892958522127
 20
312.613203572772
 10
865.893591087555
 20
313.256963283259
 10
865.878174202958
 20
313.900821233849
 10
865.846255159648
 20
314.543970013279
 10
865.797381248939
 20
315.185602210284
 10
865.731099762147
 20
315.824910413602
 10
865.646957990584
 20
316.461087211969
 10
865.544503225564
 20
317.09332519412
 10
865.423282758403
 20
317.720816948792
 10
865.282843880413
 20
318.342755064721
 10
865.122733882908
 20
318.958332130644
 10
864.942500057203
 20
319.566740735298
 10
864.741689694612
 20
320.167173467417
 10
864.519850086448
 20
320.758822915739
 10
864.276528524025
 20
321.340881669
 10
864.058983894856
 20
321.807315301438
 10
863.820654412135
 20
322.266966450672
 10
863.562354918684
 20
322.719045800399
 10
863.284900257324
 20
323.162764034316
 10
862.989105270875
 20
323.597331836119
 10
862.675784802159
 20
324.021959889507
 10
862.345753693997
 20
324.435858878174
 10
861.999826789209
 20
324.838239485819
 10
861.638818930616
 20
325.228312396138
 10
861.26354496104
 20
325.605288292828
 10
860.874819723301
 20
325.968377859586
 10
860.473458060221
 20
326.316791780109
 10
860.06027481462
 20
326.649740738093
 10
859.636084829319
 20
326.966435417235
 10
859.201702947139
 20
327.266086501233
 10
858.757944010902
 20
327.547904673783
 10
858.305622863428
 20
327.811100618581
 10
857.845554347538
 20
328.054885019326
 10
857.378553306052
 20
328.278468559713
 10
856.905434581793
 20
328.481061923439
  0
ENDBLK
  5
39
100
AcDbEntity
  8
0
100
AcDbBlockEnd
  0
BLOCK
  5
40
100
AcDbEntity
  8
0
100
AcDbBlockBegin
  2
*E1
 70
           1
 10
0.0
 20
0.0
 30
0.0
  3
*E1
  1

  0
LWPOLYLINE
  5
41
100
AcDbEntity
  8
0
370
           0
  6
Continuous
 62
           7
100
AcDbPolyline
 90
      281
 70
           0
 10
2389.005468684177
 20
127.083570462561
 10
2385.450189147465
 20
126.212103658633
 10
2381.851142441071
 20
125.460641215495
 10
2378.214067138556
 20
124.828795017062
 10
2374.544701813486
 20
124.316176947247
 10
2370.848785039422
 20
123.922398889963
 10
2367.132055389928
 20
123.647072729124
 10
2363.400251438568
 20
123.489810348644
 10
2359.659111758906
 20
123.450223632436
 10
2355.914374924505
 20
123.527924464414
 10
2352.171779508926
 20
123.722524728492
 10
2348.437064085736
 20
124.033636308582
 10
2344.715967228497
 20
124.460871088599
 10
2341.014227510771
 20
125.003840952457
 10
2337.337583506122
 20
125.662157784068
 10
2333.691773788115
 20
126.435433467346
 10
2330.082536930313
 20
127.323279886205
 10
2326.515611506277
 20
128.325308924559
 10
2322.996736089573
 20
129.441132466321
 10
2319.531649253763
 20
130.670362395404
 10
2316.126089572411
 20
132.012610595723
 10
2314.194439312654
 20
132.903872429722
 10
2312.333315027711
 20
133.941161079308
 10
2310.543850066621
 20
135.115386279464
 10
2308.827177778426
 20
136.417457765175
 10
2307.184431512163
 20
137.838285271423
 10
2305.616744616873
 20
139.368778533191
 10
2304.125250441595
 20
140.999847285464
 10
2302.711082335368
 20
142.722401263224
 10
2301.375373647232
 20
144.527350201455
 10
2300.119257726227
 20
146.40560383514
 10
2298.943867921392
 20
148.348071899262
 10
2297.850337581766
 20
150.345664128806
 10
2296.83980005639
 20
152.389290258754
 10
2295.913388694302
 20
154.46986002409
 10
2295.072236844542
 20
156.578283159796
 10
2294.317477856151
 20
158.705469400858
 10
2293.650245078165
 20
160.842328482257
 10
2293.071671859627
 20
162.979770138977
 10
2292.582891549575
 20
165.108704106002
 10
2292.185037497049
 20
167.220040118315
 10
2292.035506320802
 20
168.568083098293
 10
2292.034661980797
 20
169.902289693901
 10
2292.172700175673
 20
171.222008178131
 10
2292.439816604067
 20
172.526586823974
 10
2292.826206964619
 20
173.815373904423
 10
2293.322066955968
 20
175.08771769247
 10
2293.917592276751
 20
176.342966461107
 10
2294.602978625608
 20
177.580468483326
 10
2295.368421701176
 20
178.799572032119
 10
2296.204117202096
 20
179.999625380479
 10
2297.100260827005
 20
181.179976801396
 10
2298.047048274542
 20
182.339974567863
 10
2299.034675243346
 20
183.478966952873
 10
2300.053337432055
 20
184.596302229416
 10
2301.093230539309
 20
185.691328670486
 10
2302.144550263744
 20
186.763394549075
 10
2303.197492304001
 20
187.811848138173
 10
2304.242252358718
 20
188.836037710774
 10
2305.269026126533
 20
189.83531153987
 10
2306.268009306085
 20
190.809017898452
 10
2307.016260361952
 20
191.50720106207
 10
2307.79562594853
 20
192.169867063901
 10
2308.604161465551
 20
192.798098693902
 10
2309.439922312748
 20
193.392978742032
 10
2310.300963889853
 20
193.95558999825
 10
2311.185341596597
 20
194.487015252514
 10
2312.091110832712
 20
194.988337294783
 10
2313.016326997931
 20
195.460638915016
 10
2313.959045491984
 20
195.905002903171
 10
2314.917321714605
 20
196.322512049206
 10
2315.889211065526
 20
196.71424914308
 10
2316.872768944478
 20
197.081296974752
 10
2317.866050751193
 20
197.42473833418
 10
2318.867111885404
 20
197.745656011323
 10
2319.874007746842
 20
198.04513279614
 10
2320.884793735239
 20
198.324251478589
 10
2321.897525250327
 20
198.584094848628
 10
2322.910257691839
 20
198.825745696216
 10
2323.921046459505
 20
199.050286811312
 10
2324.927946953059
 20
199.258800983874
 10
2325.829192969803
 20
199.406102723056
 10
2326.734433769276
 20
199.492761748405
 10
2327.643251749986
 20
199.525374426551
 10
2328.55522931044
 20
199.510537124125
 10
2329.469948849146
 20
199.454846207758
 10
2330.38699276461
 20
199.364898044079
 10
2331.305943455339
 20
199.247288999721
 10
2332.226383319843
 20
199.108615441314
 10
2333.147894756626
 20
198.955473735489
 10
2334.070060164196
 20
198.794460248876
 10
2334.992461941062
 20
198.632171348106
 10
2335.914682485729
 20
198.475203399811
 10
2336.836304196705
 20
198.330152770619
 10
2337.756909472499
 20
198.203615827164
 10
2338.676080711615
 20
198.102188936074
 10
2339.593400312563
 20
198.032468463982
 10
2340.508450673849
 20
198.001050777517
 10
2341.42081419398
 20
198.01453224331
 10
2342.330073271464
 20
198.079509227993
 10
2343.235810304807
 20
198.202578098196
 10
2343.846500863522
 20
198.30994502537
 10
2344.478533289224
 20
198.428708889172
 10
2345.126901847664
 20
198.560336800582
 10
2345.786600804592
 20
198.706295870579
 10
2346.452624425757
 20
198.86805321014
 10
2347.119966976909
 20
199.047075930245
 10
2347.783622723798
 20
199.244831141874
 10
2348.438585932174
 20
199.462785956005
 10
2349.079850867786
 20
199.702407483616
 10
2349.702411796384
 20
199.965162835687
 10
2350.301262983719
 20
200.252519123196
 10
2350.871398695541
 20
200.565943457123
 10
2351.407813197598
 20
200.906902948447
 10
2351.90550075564
 20
201.276864708146
 10
2352.359455635418
 20
201.677295847198
 10
2352.764672102682
 20
202.109663476584
 10
2353.11614442318
 20
202.575434707282
 10
2353.408866862664
 20
203.076076650271
 10
2353.637833686882
 20
203.61305641653
 10
2353.798039161585
 20
204.187841117037
 10
2353.954031090667
 20
205.096690725745
 10
2354.045958264488
 20
206.012860343317
 10
2354.076820048129
 20
206.934627093352
 10
2354.049615806674
 20
207.860268099448
 10
2353.967344905205
 20
208.788060485205
 10
2353.833006708805
 20
209.716281374223
 10
2353.649600582559
 20
210.643207890099
 10
2353.420125891548
 20
211.567117156435
 10
2353.147582000855
 20
212.486286296828
 10
2352.834968275563
 20
213.398992434878
 10
2352.485284080756
 20
214.303512694185
 10
2352.101528781516
 20
215.198124198346
 10
2351.686701742926
 20
216.081104070962
 10
2351.243802330069
 20
216.950729435632
 10
2350.775829908029
 20
217.805277415955
 10
2350.285783841887
 20
218.64302513553
 10
2349.776663496728
 20
219.462249717956
 10
2349.251468237633
 20
220.261228286832
 10
2348.713197429686
 20
221.038237965758
 10
2348.16485043797
 20
221.791555878333
 10
2346.45475011885
 20
224.079628031099
 10
2344.733325532538
 20
226.367519022247
 10
2342.998493735764
 20
228.651869043694
 10
2341.248171785261
 20
230.929318287355
 10
2339.48027673776
 20
233.196506945145
 10
2337.692725649993
 20
235.450075208981
 10
2335.883435578692
 20
237.686663270778
 10
2334.050323580589
 20
239.902911322452
 10
2332.191306712414
 20
242.095459555917
 10
2330.304302030901
 20
244.260948163091
 10
2328.387226592781
 20
246.396017335889
 10
2326.437997454786
 20
248.497307266226
 10
2324.454531673646
 20
250.561458146018
 10
2322.434746306095
 20
252.58511016718
 10
2320.376558408864
 20
254.564903521629
 10
2318.277885038685
 20
256.49747840128
 10
2316.136643252289
 20
258.379474998049
 10
2313.950750106408
 20
260.207533503851
 10
2311.718122657774
 20
261.978294110602
 10
2309.436677963119
 20
263.688397010218
 10
2308.400276646128
 20
264.406378427473
 10
2307.315853218299
 20
265.08715558552
 10
2306.187975246941
 20
265.728039074224
 10
2305.021210299364
 20
266.326339483452
 10
2303.820125942878
 20
266.879367403069
 10
2302.589289744793
 20
267.384433422941
 10
2301.33326927242
 20
267.838848132936
 10
2300.056632093068
 20
268.239922122917
 10
2298.763945774046
 20
268.584965982752
 10
2297.459777882665
 20
268.871290302306
 10
2296.148695986236
 20
269.096205671446
 10
2294.835267652067
 20
269.257022680037
 10
2293.524060447469
 20
269.351051917945
 10
2292.219641939752
 20
269.375603975036
 10
2290.926579696225
 20
269.327989441177
 10
2289.6494412842
 20
269.205518906233
 10
2288.392794270985
 20
269.00550296007
 10
2287.161206223891
 20
268.725252192555
 10
2285.959244710227
 20
268.362077193552
 10
2284.791477297304
 20
267.913288552929
 10
2284.028719891352
 20
267.519542413499
 10
2283.354666972305
 20
267.036403278194
 10
2282.763592448473
 20
266.470853625814
 10
2282.249770228168
 20
265.829875935162
 10
2281.807474219699
 20
265.120452685041
 10
2281.430978331377
 20
264.349566354251
 10
2281.114556471513
 20
263.524199421594
 10
2280.852482548416
 20
262.651334365873
 10
2280.639030470397
 20
261.73795366589
 10
2280.468474145767
 20
260.791039800445
 10
2280.335087482837
 20
259.817575248342
 10
2280.233144389916
 20
258.824542488383
 10
2280.156918775315
 20
257.818923999368
 10
2280.100684547344
 20
256.8077022601
 10
2280.058715614314
 20
255.797859749381
 10
2280.025285884536
 20
254.796378946013
 10
2279.994669266318
 20
253.810242328797
 10
2279.961139667973
 20
252.846432376536
 10
2279.918970997811
 20
251.911931568031
 10
2279.862437164141
 20
251.013722382085
 10
2279.84702064549
 20
249.923445993592
 10
2279.946346948836
 20
248.741992161793
 10
2280.145268780973
 20
247.480213163477
 10
2280.428638848701
 20
246.148961275431
 10
2280.781309858815
 20
244.759088774442
 10
2281.188134518114
 20
243.321447937299
 10
2281.633965533395
 20
241.846891040789
 10
2282.103655611455
 20
240.3462703617
 10
2282.58205745909
 20
238.83043817682
 10
2283.054023783099
 20
237.310246762935
 10
2283.504407290279
 20
235.796548396835
 10
2283.918060687426
 20
234.300195355306
 10
2284.279836681338
 20
232.832039915136
 10
2284.574587978812
 20
231.402934353113
 10
2284.787167286645
 20
230.023730946025
 10
2284.902427311635
 20
228.705281970659
 10
2284.905220760579
 20
227.458439703803
 10
2284.780400340274
 20
226.294056422244
 10
2284.512818757517
 20
225.222984402771
 10
2284.087328719105
 20
224.256075922171
 10
2283.354197741408
 20
223.360099184611
 10
2282.33102570226
 20
222.726128958427
 10
2281.049366363843
 20
222.336099169091
 10
2279.540773488341
 20
222.171943742073
 10
2277.836800837935
 20
222.215596602844
 10
2275.969002174807
 20
222.448991676876
 10
2273.968931261141
 20
222.854062889639
 10
2271.868141859119
 20
223.412744166604
 10
2269.698187730921
 20
224.106969433243
 10
2267.490622638732
 20
224.918672615026
 10
2265.277000344735
 20
225.829787637424
 10
2263.088874611109
 20
226.822248425908
 10
2260.957799200039
 20
227.877988905949
 10
2258.915327873707
 20
228.978943003019
 10
2256.993014394295
 20
230.107044642587
 10
2255.222412523985
 20
231.244227750126
 10
2253.63507602496
 20
232.372426251105
 10
2252.262558659402
 20
233.473574070997
 10
2251.136414189494
 20
234.529605135272
 10
2250.288196377417
 20
235.5224533694
 10
2248.98262562225
 20
237.508083610189
 10
2248.029098598044
 20
239.394718027116
 10
2247.396787493348
 20
241.195521690208
 10
2247.054864496708
 20
242.923659669492
 10
2246.972501796673
 20
244.592297034996
 10
2247.118871581789
 20
246.214598856747
 10
2247.463146040605
 20
247.803730204772
 10
2247.974497361669
 20
249.372856149099
 10
2248.622097733527
 20
250.935141759754
 10
2249.375119344727
 20
252.503752106765
 10
2250.202734383818
 20
254.091852260159
 10
2251.074115039346
 20
255.712607289963
 10
2251.958433499858
 20
257.379182266205
 10
2252.824861953904
 20
259.104742258912
 10
2253.64257259003
 20
260.902452338112
 10
2254.380737596784
 20
262.78547757383
 10
2255.008529162713
 20
264.766983036096
 10
2255.495119476366
 20
266.860133794935
 10
2255.809680726289
 20
269.078094920375
 10
2255.921385101031
 20
271.434031482444
 10
2255.877994864265
 20
272.945226317493
 10
2255.752326384137
 20
274.407826562468
 10
2255.551133005899
 20
275.826890745312
 10
2255.281168074804
 20
277.207477393973
 10
2254.949184936105
 20
278.554645036395
 10
2254.561936935054
 20
279.873452200525
 10
2254.126177416906
 20
281.168957414309
 10
2253.648659726911
 20
282.446219205691
 10
2253.136137210323
 20
283.710296102618
 10
2252.595363212395
 20
284.966246633036
 10
2252.033091078381
 20
286.21912932489
 10
2251.456074153531
 20
287.474002706125
 10
2250.8710657831
 20
288.735925304689
 10
2250.28481931234
 20
290.009955648525
 10
2249.704088086504
 20
291.301152265581
 10
2249.135625450845
 20
292.614573683802
 10
2248.586184750615
 20
293.955278431133
 10
2248.062519331068
 20
295.32832503552
 10
2247.571382537456
 20
296.738772024909
 10
2247.119527715032
 20
298.191677927246
  0
ENDBLK
  5
42
100
AcDbEntity
  8
0
100
AcDbBlockEnd
  0
BLOCK
  5
45
100
AcDbEntity
  8
0
100
AcDbBlockBegin
  2
*E2
 70
           1
 10
0.0
 20
0.0
 30
0.0
  3
*E2
  1

  0
LWPOLYLINE
  5
46
100
AcDbEntity
  8
0
370
           0
  6
Continuous
 62
           7
100
AcDbPolyline
 90
        2
 70
           0
 10
801.464232717534
 20
169.577194403566
 10
797.650830345041
 20
80.759020799594
  0
LWPOLYLINE
  5
47
100
AcDbEntity
  8
0
370
           0
  6
Continuous
 62
           7
100
AcDbPolyline
 90
        2
 70
           0
 10
772.274209315335
 20
81.848564334592
 40
0.0
 41
0.0
 10
776.087611687828
 20
170.666737938564
 40
0.0
 41
0.0
  0
ENDBLK
  5
48
100
AcDbEntity
  8
0
100
AcDbBlockEnd
  0
BLOCK
  5
4B
100
AcDbEntity
  8
0
100
AcDbBlockBegin
  2
*E3
 70
           1
 10
0.0
 20
0.0
 30
0.0
  3
*E3
  1

  0
LWPOLYLINE
  5
4C
100
AcDbEntity
  8
0
370
           0
  6
Continuous
 62
           7
100
AcDbPolyline
 90
        2
 70
           0
 10
1548.688381784122
 20
185.08937462979
 10
1554.904400328441
 20
96.406957469133
  0
LWPOLYLINE
  5
4D
100
AcDbEntity
  8
0
370
           0
  6
Continuous
 62
           7
100
AcDbPolyline
 90
        2
 70
           0
 10
1529.566566853967
 20
94.630952170757
 40
0.0
 41
0.0
 10
1523.350548309648
 20
183.313369331414
 40
0.0
 41
0.0
  0
ENDBLK
  5
4E
100
AcDbEntity
  8
0
100
AcDbBlockEnd
  0
BLOCK
  5
51
100
AcDbEntity
  8
0
100
AcDbBlockBegin
  2
*E4
 70
           1
 10
0.0
 20
0.0
 30
0.0
  3
*E4
  1

  0
LWPOLYLINE
  5
52
100
AcDbEntity
  8
0
370
           0
  6
Continuous
 62
           7
100
AcDbPolyline
 90
        2
 70
           0
 10
2141.819807065388
 20
272.596676233225
 10
2162.14429805486
 20
186.051167591708
  0
LWPOLYLINE
  5
53
100
AcDbEntity
  8
0
370
           0
  6
Continuous
 62
           7
100
AcDbPolyline
 90
        2
 70
           0
 10
2137.417009871569
 20
180.244170166144
 40
0.0
 41
0.0
 10
2117.092518882098
 20
266.789678807661
 40
0.0
 41
0.0
  0
ENDBLK
  5
54
100
AcDbEntity
  8
0
100
AcDbBlockEnd
  0
BLOCK
  5
5C
100
AcDbEntity
  8
0
100
AcDbBlockBegin
  2
*E5
 70
           1
 10
0.0
 20
0.0
 30
0.0
  3
*E5
  1

  0
LWPOLYLINE
  5
5D
100
AcDbEntity
  8
0
370
           0
  6
Continuous
 62
           7
100
AcDbPolyline
 90
        2
 70
           0
 10
228.832640263143
 20
220.07100470441
 10
215.513382890141
 20
132.174432626588
  0
LWPOLYLINE
  5
5E
100
AcDbEntity
  8
0
370
           0
  6
Continuous
 62
           7
100
AcDbPolyline
 90
        2
 70
           0
 10
190.400076582191
 20
135.97993473316
 40
0.0
 41
0.0
 10
203.719333955193
 20
223.876506810982
 40
0.0
 41
0.0
  0
ENDBLK
  5
5F
100
AcDbEntity
  8
0
100
AcDbBlockEnd
  0
BLOCK
  5
67
100
AcDbEntity
  8
0
100
AcDbBlockBegin
  2
*E6
 70
           1
 10
0.0
 20
0.0
 30
0.0
  3
*E6
  1

  0
LWPOLYLINE
  5
68
100
AcDbEntity
  8
0
370
           0
  6
Continuous
 62
           7
100
AcDbPolyline
 90
        2
 70
           0
 10
2196.522038113508
 20
0.0
 10
2196.522038113508
 20
50.8
  0
LWPOLYLINE
  5
69
100
AcDbEntity
  8
0
370
           0
  6
Continuous
 62
           7
100
AcDbPolyline
 90
        2
 70
           0
 10
2221.922038113508
 20
50.8
 40
0.0
 41
0.0
 10
2221.922038113508
 20
0.0
 40
0.0
 41
0.0
  0
ENDBLK
  5
6A
100
AcDbEntity
  8
0
100
AcDbBlockEnd
  0
BLOCK
  5
6E
100
AcDbEntity
  8
0
100
AcDbBlockBegin
  2
*E7
 70
           1
 10
0.0
 20
0.0
 30
0.0
  3
*E7
  1

  0
LWPOLYLINE
  5
6F
100
AcDbEntity
  8
0
370
           0
  6
Continuous
 62
           7
100
AcDbPolyline
 90
        2
 70
           0
 10
1219.850018324521
 20
0.0
 10
1219.850018324521
 20
50.8
  0
LWPOLYLINE
  5
70
100
AcDbEntity
  8
0
370
           0
  6
Continuous
 62
           7
100
AcDbPolyline
 90
        2
 70
           0
 10
1245.250018324521
 20
50.8
 40
0.0
 41
0.0
 10
1245.250018324521
 20
0.0
 40
0.0
 41
0.0
  0
ENDBLK
  5
71
100
AcDbEntity
  8
0
100
AcDbBlockEnd
  0
BLOCK
  5
74
100
AcDbEntity
  8
0
100
AcDbBlockBegin
  2
*E8
 70
           1
 10
0.0
 20
0.0
 30
0.0
  3
*E8
  1

  0
LWPOLYLINE
  5
75
100
AcDbEntity
  8
0
370
           0
  6
Continuous
 62
           7
100
AcDbPolyline
 90
        2
 70
           0
 10
274.204848805205
 20
0.0
 10
274.204848805205
 20
50.8
  0
LWPOLYLINE
  5
76
100
AcDbEntity
  8
0
370
           0
  6
Continuous
 62
           7
100
AcDbPolyline
 90
        2
 70
           0
 10
299.604848805205
 20
50.8
 40
0.0
 41
0.0
 10
299.604848805205
 20
0.0
 40
0.0
 41
0.0
  0
ENDBLK
  5
77
100
AcDbEntity
  8
0
100
AcDbBlockEnd
  0
BLOCK
  5
7C
100
AcDbEntity
  8
0
100
AcDbBlockBegin
  2
*E9
 70
           1
 10
0.0
 20
0.0
 30
0.0
  3
*E9
  1

  0
LWPOLYLINE
  5
7D
100
AcDbEntity
  8
0
370
           0
  6
Continuous
 62
           7
100
AcDbPolyline
 90
        2
 70
           0
 10
1060.357968175902
 20
163.583389417608
 10
1060.035538568948
 20
74.683974126232
  0
LWPOLYLINE
  5
7E
100
AcDbEntity
  8
0
370
           0
  6
Continuous
 62
           7
100
AcDbPolyline
 90
        2
 70
           0
 10
1034.635705628554
 20
74.776096871076
 40
0.0
 41
0.0
 10
1034.958135235508
 20
163.675512162452
 40
0.0
 41
0.0
  0
ENDBLK
  5
7F
100
AcDbEntity
  8
0
100
AcDbBlockEnd
  0
BLOCK
  5
85
100
AcDbEntity
  8
0
100
AcDbBlockBegin
  2
*E10
 70
           1
 10
0.0
 20
0.0
 30
0.0
  3
*E10
  1

  0
LWPOLYLINE
  5
86
100
AcDbEntity
  8
0
370
           0
  6
Continuous
 62
           7
100
AcDbPolyline
 90
      461
 70
           0
 10
88.9
 20
275.940396153579
 10
87.709248446411
 20
276.466119183727
 10
86.487659301707
 20
276.940488335477
 10
85.238511224946
 20
277.36341994421
 10
83.965082875184
 20
277.734830345309
 10
82.670652911478
 20
278.054635874158
 10
81.358499992884
 20
278.322752866138
 10
80.031902778458
 20
278.539097656632
 10
78.694139927257
 20
278.703586581022
 10
77.348490098338
 20
278.816135974691
 10
75.998231950757
 20
278.876662173022
 10
74.646644143571
 20
278.885081511397
 10
73.297005335836
 20
278.841310325198
 10
71.952594186609
 20
278.745264949808
 10
70.616689354947
 20
278.596861720609
 10
69.292569499905
 20
278.396016972984
 10
67.983513280541
 20
278.142647042316
 10
66.69279935591
 20
277.836668263987
 10
65.423706385071
 20
277.477996973379
 10
64.179513027078
 20
277.066549505875
 10
62.963497940989
 20
276.602242196858
 10
61.899400713879
 20
276.132622960723
 10
60.854962586462
 20
275.602951197941
 10
59.832216034998
 20
275.016136050054
 10
58.833193535745
 20
274.375086658599
 10
57.859927564962
 20
273.682712165118
 10
56.91445059891
 20
272.941921711149
 10
55.998795113847
 20
272.155624438233
 10
55.114993586032
 20
271.32672948791
 10
54.265078491726
 20
270.458146001718
 10
53.451082307186
 20
269.552783121199
 10
52.675037508673
 20
268.613549987891
 10
51.938976572445
 20
267.643355743335
 10
51.244931974763
 20
266.64510952907
 10
50.594936191885
 20
265.621720486636
 10
49.99102170007
 20
264.576097757573
 10
49.435220975578
 20
263.511150483421
 10
48.929566494668
 20
262.429787805719
 10
48.476090733599
 20
261.334918866007
 10
48.076826168631
 20
260.229452805825
 10
47.733805276023
 20
259.116298766712
 10
47.211990857493
 20
257.152148507608
 10
46.746790051086
 20
255.171517517627
 10
46.336932310033
 20
253.175986349643
 10
45.981147087566
 20
251.16713555653
 10
45.678163836919
 20
249.146545691159
 10
45.426712011323
 20
247.115797306404
 10
45.225521064011
 20
245.076470955139
 10
45.073320448214
 20
243.030147190236
 10
44.968839617165
 20
240.978406564568
 10
44.910808024097
 20
238.922829631009
 10
44.897955122241
 20
236.864996942432
 10
44.92901036483
 20
234.806489051709
 10
45.002703205097
 20
232.748886511714
 10
45.117763096273
 20
230.69376987532
 10
45.27291949159
 20
228.6427196954
 10
45.466901844281
 20
226.597316524827
 10
45.698439607579
 20
224.559140916474
 10
45.966262234715
 20
222.529773423215
 10
46.269099178922
 20
220.510794597922
 10
46.605679893432
 20
218.503784993468
 10
47.105045347607
 20
215.625746051845
 10
47.597999417927
 20
212.722343850237
 10
48.09268320963
 20
209.79980791012
 10
48.597237827953
 20
206.864367752969
 10
49.119804378132
 20
203.922252900262
 10
49.668523965405
 20
200.979692873474
 10
50.25153769501
 20
198.042917194082
 10
50.876986672182
 20
195.11815538356
 10
51.55301200216
 20
192.211636963386
 10
52.28775479018
 20
189.329591455035
 10
53.089356141479
 20
186.478248379984
 10
53.965957161295
 20
183.663837259709
 10
54.925698954865
 20
180.892587615685
 10
55.976722627425
 20
178.170728969389
 10
57.127169284214
 20
175.504490842296
 10
58.385180030467
 20
172.900102755883
 10
59.758895971423
 20
170.363794231627
 10
61.256458212318
 20
167.901794791002
 10
62.886007858389
 20
165.520333955486
 10
64.655686014874
 20
163.225641246553
 10
65.524184036045
 20
162.311105596871
 10
66.506861948506
 20
161.53541972428
 10
67.591718595536
 20
160.893465651685
 10
68.766752820417
 20
160.380125401991
 10
70.019963466429
 20
159.990280998102
 10
71.339349376853
 20
159.718814462924
 10
72.71290939497
 20
159.560607819361
 10
74.128642364059
 20
159.510543090317
 10
75.574547127401
 20
159.563502298699
 10
77.038622528278
 20
159.714367467411
 10
78.50886740997
 20
159.958020619357
 10
79.973280615756
 20
160.289343777443
 10
81.419860988919
 20
160.703218964573
 10
82.836607372738
 20
161.194528203652
 10
84.211518610494
 20
161.758153517586
 10
85.532593545468
 20
162.388976929278
 10
86.78783102094
 20
163.081880461634
 10
87.965229880191
 20
163.831746137559
 10
89.052788966501
 20
164.633455979957
 10
90.038507123151
 20
165.481892011733
 10
90.755680243205
 20
166.268701364929
 10
91.309696184523
 20
167.122604596361
 10
91.7156606175
 20
168.037912601669
 10
91.988679212531
 20
169.008936276497
 10
92.14385764001
 20
170.029986516486
 10
92.196301570333
 20
171.095374217278
 10
92.161116673893
 20
172.199410274515
 10
92.053408621086
 20
173.33640558384
 10
91.888283082307
 20
174.500671040894
 10
91.68084572795
 20
175.686517541319
 10
91.44620222841
 20
176.888255980757
 10
91.199458254081
 20
178.100197254851
 10
90.955719475359
 20
179.316652259242
 10
90.730091562638
 20
180.531931889573
 10
90.537680186314
 20
181.740347041486
 10
90.39359101678
 20
182.936208610621
 10
90.312929724431
 20
184.113827492623
 10
90.310801979663
 20
185.267514583131
 10
90.40231345287
 20
186.39158077779
 10
90.602569814447
 20
187.48033697224
 10
90.834163812256
 20
188.452624776129
 10
91.066991168052
 20
189.45303676028
 10
91.304699938929
 20
190.475166427413
 10
91.55093818198
 20
191.512607280251
 10
91.809353954299
 20
192.558952821516
 10
92.083595312981
 20
193.607796553928
 10
92.377310315118
 20
194.65273198021
 10
92.694147017806
 20
195.687352603083
 10
93.037753478138
 20
196.70525192527
 10
93.411777753208
 20
197.700023449491
 10
93.81986790011
 20
198.665260678469
 10
94.265671975938
 20
199.594557114925
 10
94.752838037786
 20
200.48150626158
 10
95.285014142747
 20
201.319701621157
 10
95.865848347917
 20
202.102736696378
 10
96.498988710388
 20
202.824204989963
 10
97.188083287254
 20
203.477700004635
 10
97.93678013561
 20
204.056815243115
 10
98.74872731255
 20
204.555144208125
 10
99.627572875167
 20
204.966280402387
 10
100.380727805775
 20
205.207776237232
 10
101.154754617298
 20
205.343367766885
 10
101.944836422547
 20
205.379047062329
 10
102.746156334333
 20
205.320806194545
 10
103.553897465469
 20
205.174637234518
 10
104.363242928765
 20
204.946532253229
 10
105.169375837033
 20
204.64248332166
 10
105.967479303085
 20
204.268482510795
 10
106.752736439732
 20
203.830521891616
 10
107.520330359786
 20
203.334593535106
 10
108.265444176059
 20
202.786689512248
 10
108.983261001362
 20
202.192801894023
 10
109.668963948506
 20
201.558922751415
 10
110.317736130303
 20
200.891044155406
 10
110.924760659565
 20
200.195158176979
 10
111.485220649103
 20
199.477256887116
 10
111.994299211729
 20
198.7433323568
 10
112.447179460254
 20
197.999376657014
 10
112.83904450749
 20
197.25138185874
 10
113.165077466249
 20
196.505340032961
 10
114.349374290226
 20
193.392401359974
 10
115.470869701253
 20
190.257369928082
 10
116.532612843757
 20
187.10163976198
 10
117.537652862164
 20
183.926604886365
 10
118.4890389009
 20
180.733659325931
 10
119.389820104392
 20
177.524197105374
 10
120.243045617064
 20
174.299612249388
 10
121.051764583344
 20
171.061298782671
 10
121.819026147658
 20
167.810650729916
 10
122.547879454432
 20
164.549062115819
 10
123.241373648091
 20
161.277926965076
 10
123.902557873063
 20
157.998639302382
 10
124.534481273773
 20
154.712593152432
 10
125.140192994648
 20
151.421182539921
 10
125.722742180113
 20
148.125801489546
 10
126.285177974595
 20
144.827844026
 10
126.83054952252
 20
141.528704173981
 10
127.361905968315
 20
138.229775958182
 10
127.882296456404
 20
134.9324534033
 10
128.394770131215
 20
131.63813053403
 10
128.638740486972
 20
130.145476936485
 10
128.907418935357
 20
128.625423037276
 10
129.191912487419
 20
127.082498491339
 10
129.483328154203
 20
125.521232953612
 10
129.772772946759
 20
123.946156079033
 10
130.051353876133
 20
122.361797522538
 10
130.310177953373
 20
120.772686939064
 10
130.540352189526
 20
119.18335398355
 10
130.732983595641
 20
117.598328310933
 10
130.879179182764
 20
116.02213957615
 10
130.970045961943
 20
114.459317434137
 10
130.996690944226
 20
112.914391539834
 10
130.95022114066
 20
111.391891548176
 10
130.821743562292
 20
109.896347114101
 10
130.602365220171
 20
108.432287892547
 10
130.283193125343
 20
107.004243538451
 10
129.855334288857
 20
105.61674370675
 10
129.309895721759
 20
104.274318052382
 10
128.637984435098
 20
102.981496230283
 10
127.83070743992
 20
101.742807895392
 10
127.183823644422
 20
100.980008977961
 10
126.443521238964
 20
100.334345803943
 10
125.618906324351
 20
99.800667770253
 10
124.719085001384
 20
99.373824273805
 10
123.753163370868
 20
99.048664711515
 10
122.730247533606
 20
98.820038480296
 10
121.6594435904
 20
98.682794977064
 10
120.549857642053
 20
98.631783598733
 10
119.41059578937
 20
98.661853742217
 10
118.250764133152
 20
98.767854804432
 10
117.079468774204
 20
98.944636182292
 10
115.905815813328
 20
99.187047272712
 10
114.738911351327
 20
99.489937472607
 10
113.587861489005
 20
99.84815617889
 10
112.461772327165
 20
100.256552788477
 10
111.369749966609
 20
100.709976698283
 10
110.320900508142
 20
101.203277305221
 10
109.324330052565
 20
101.731304006208
 10
108.389144700683
 20
102.288906198156
 10
107.524450553298
 20
102.870933277982
 10
106.676688952434
 20
103.580476406853
 10
105.949361076266
 20
104.392754443215
 10
105.328856186699
 20
105.296009283459
 10
104.801563545641
 20
106.278482823976
 10
104.353872414996
 20
107.328416961158
 10
103.972172056672
 20
108.434053591395
 10
103.642851732575
 20
109.583634611079
 10
103.352300704611
 20
110.765401916601
 10
103.086908234686
 20
111.967597404352
 10
102.833063584706
 20
113.178462970724
 10
102.577156016578
 20
114.386240512106
 10
102.305574792208
 20
115.579171924892
 10
102.004709173502
 20
116.745499105471
 10
101.660948422367
 20
117.873463950235
 10
101.260681800708
 20
118.951308355574
 10
100.790298570432
 20
119.967274217881
 10
100.236187993445
 20
120.909603433547
 10
99.584739331654
 20
121.766537898961
 10
98.822341846964
 20
122.526319510517
 10
97.935384801282
 20
123.177190164604
 10
96.726802314525
 20
123.892875540335
 10
95.464917626314
 20
124.571308762116
 10
94.155572838523
 20
125.208616597659
 10
92.80461005303
 20
125.800925814678
 10
91.417871371708
 20
126.344363180885
 10
90.001198896433
 20
126.835055463992
 10
88.560434729082
 20
127.269129431712
 10
87.101420971528
 20
127.642711851758
 10
85.629999725649
 20
127.951929491842
 10
84.152013093319
 20
128.192909119677
 10
82.673303176413
 20
128.361777502975
 10
81.199712076808
 20
128.454661409449
 10
79.737081896378
 20
128.467687606811
 10
78.291254736999
 20
128.396982862774
 10
76.868072700547
 20
128.238673945051
 10
75.473377888897
 20
127.988887621354
 10
74.113012403924
 20
127.643750659396
 10
72.792818347504
 20
127.199389826889
 10
71.518637821513
 20
126.651931891547
 10
70.296312927825
 20
125.99750362108
 10
69.249099078057
 20
125.289890031708
 10
68.311392532128
 20
124.483583637135
 10
67.47589236802
 20
123.586171462843
 10
66.73529766371
 20
122.605240534314
 10
66.082307497178
 20
121.548377877033
 10
65.509620946403
 20
120.42317051648
 10
65.009937089364
 20
119.237205478137
 10
64.575955004041
 20
117.998069787488
 10
64.200373768412
 20
116.713350470016
 10
63.875892460458
 20
115.390634551201
 10
63.595210158156
 20
114.037509056527
 10
63.351025939487
 20
112.661561011477
 10
63.136038882429
 20
111.270377441531
 10
62.942948064962
 20
109.871545372174
 10
62.764452565065
 20
108.472651828887
 10
62.593251460717
 20
107.081283837153
 10
62.422043829897
 20
105.705028422454
 10
62.243528750585
 20
104.351472610272
 10
62.050405300759
 20
103.028203426091
 10
61.835372558399
 20
101.742807895392
 10
61.651561332064
 20
100.630842194637
 10
61.499955282793
 20
99.51542372691
 10
61.378411639431
 20
98.396844450184
 10
61.284787630824
 20
97.275396322431
 10
61.21694048582
 20
96.151371301621
 10
61.172727433264
 20
95.025061345727
 10
61.150005702002
 20
93.896758412721
 10
61.146632520881
 20
92.766754460574
 10
61.160465118746
 20
91.635341447258
 10
61.189360724444
 20
90.502811330746
 10
61.231176566822
 20
89.369456069009
 10
61.283769874724
 20
88.235567620018
 10
61.344997876998
 20
87.101437941746
 10
61.41271780249
 20
85.967358992164
 10
61.484786880046
 20
84.833622729244
 10
61.559062338512
 20
83.700521110958
 10
61.633401406734
 20
82.568346095278
 10
61.705661313558
 20
81.437389640175
 10
61.773699287831
 20
80.307943703622
 10
61.835372558399
 20
79.18030024359
 10
61.899105564151
 20
78.104736952943
 10
61.978730665507
 20
77.030407061617
 10
62.072460224295
 20
75.957172444765
 10
62.178506602346
 20
74.884894977538
 10
62.295082161488
 20
73.813436535087
 10
62.420399263551
 20
72.742658992564
 10
62.552670270364
 20
71.672424225119
 10
62.690107543757
 20
70.602594107904
 10
62.830923445559
 20
69.533030516072
 10
62.973330337599
 20
68.463595324772
 10
63.115540581708
 20
67.394150409156
 10
63.255766539713
 20
66.324557644376
 10
63.392220573445
 20
65.254678905583
 10
63.523115044733
 20
64.184376067928
 10
63.646662315406
 20
63.113511006563
 10
63.761074747294
 20
62.041945596638
 10
63.864564702225
 20
60.969541713306
 10
63.955344542031
 20
59.896161231718
 10
64.031626628539
 20
58.821666027025
 10
64.091623323579
 20
57.745917974378
 10
64.143766862364
 20
57.028785209527
 10
64.228507858371
 20
56.289658677211
 10
64.339003811303
 20
55.532415486056
 10
64.468412220862
 20
54.760932744688
 10
64.60989058675
 20
53.979087561731
 10
64.75659640867
 20
53.190757045811
 10
64.901687186324
 20
52.399818305554
 10
65.038320419415
 20
51.610148449584
 10
65.159653607645
 20
50.825624586527
 10
65.258844250717
 20
50.050123825008
 10
65.329049848334
 20
49.287523273653
 10
65.363427900197
 20
48.541700041087
 10
65.35513590601
 20
47.816531235936
 10
65.297331365474
 20
47.115893966824
 10
65.183171778292
 20
46.443665342377
 10
65.005814644167
 20
45.80372247122
 10
64.758417462801
 20
45.199942461979
 10
64.434137733897
 20
44.636202423278
 10
64.026132957157
 20
44.116379463744
 10
63.527560632284
 20
43.644350692002
 10
62.806744739241
 20
43.10897158655
 10
62.046295089201
 20
42.645654261693
 10
61.249629862487
 20
42.250791452881
 10
60.420167239422
 20
41.920775895564
 10
59.561325400331
 20
41.652000325194
 10
58.676522525537
 20
41.440857477219
 10
57.769176795364
 20
41.283740087091
 10
56.842706390135
 20
41.177040890261
 10
55.900529490174
 20
41.117152622178
 10
54.946064275804
 20
41.100468018293
 10
53.98272892735
 20
41.123379814056
 10
53.013941625134
 20
41.182280744918
 10
52.043120549481
 20
41.273563546329
 10
51.073683880714
 20
41.393620953739
 10
50.109049799157
 20
41.538845702599
 10
49.152636485133
 20
41.70563052836
 10
48.207862118965
 20
41.890368166471
 10
47.278144880979
 20
42.089451352383
 10
46.366902951497
 20
42.299272821547
 10
45.477554510842
 20
42.516225309412
 10
44.79557249701
 20
42.70312824243
 10
44.118511790843
 20
42.921130262962
 10
43.447620934441
 20
43.169191068448
 10
42.784148469905
 20
43.446270356327
 10
42.129342939335
 20
43.75132782404
 10
41.484452884832
 20
44.083323169026
 10
40.850726848495
 20
44.441216088725
 10
40.229413372425
 20
44.823966280577
 10
39.621760998723
 20
45.230533442022
 10
39.029018269488
 20
45.6598772705
 10
38.452433726822
 20
46.11095746345
 10
37.893255912824
 20
46.582733718312
 10
37.352733369594
 20
47.074165732527
 10
36.832114639234
 20
47.584213203534
 10
36.332648263843
 20
48.111835828772
 10
35.855582785522
 20
48.655993305683
 10
35.402166746371
 20
49.215645331704
 10
34.97364868849
 20
49.789751604278
 10
34.57127715398
 20
50.377271820842
 10
34.196300684941
 20
50.977165678838
 10
33.759038988181
 20
51.792976517556
 10
33.393950139587
 20
52.639596566085
 10
33.092718254294
 20
53.513411823971
 10
32.847027447437
 20
54.41080829076
 10
32.648561834149
 20
55.328171966
 10
32.489005529565
 20
56.261888849237
 10
32.360042648819
 20
57.208344940017
 10
32.253357307047
 20
58.163926237887
 10
32.160633619381
 20
59.125018742393
 10
32.073555700958
 20
60.088008453083
 10
31.98380766691
 20
61.049281369502
 10
31.883073632373
 20
62.005223491196
 10
31.76303771248
 20
62.952220817714
 10
31.615384022367
 20
63.886659348601
 10
31.431796677168
 20
64.804925083403
 10
31.203959792017
 20
65.703404021668
 10
30.923557482048
 20
66.578482162941
 10
30.582273862396
 20
67.42654550677
 10
30.171793048196
 20
68.2439800527
 10
29.683799154581
 20
69.027171800279
 10
29.339787527055
 20
69.477568609114
 10
28.959641203486
 20
69.890864123839
 10
28.546016880071
 20
70.268803737916
 10
28.101571253007
 20
70.613132844801
 10
27.628961018489
 20
70.925596837954
 10
27.130842872715
 20
71.207941110833
 10
26.60987351188
 20
71.461911056898
 10
26.068709632182
 20
71.689252069607
 10
25.510007929817
 20
71.891709542419
 10
24.936425100981
 20
72.071028868792
 10
24.350617841871
 20
72.228955442186
 10
23.755242848683
 20
72.367234656059
 10
23.152956817615
 20
72.48761190387
 10
22.546416444862
 20
72.591832579078
 10
21.938278426621
 20
72.681642075141
 10
21.331199459089
 20
72.758785785518
 10
20.727836238461
 20
72.825009103669
 10
20.130845460936
 20
72.882057423051
 10
19.542883822708
 20
72.931676137123
 10
18.966608019975
 20
72.975610639345
 10
18.335413319318
 20
73.014924614217
 10
17.700308694137
 20
73.040563804765
 10
17.062133969401
 20
73.052138455516
 10
16.421728970077
 20
73.049258810993
 10
15.779933521135
 20
73.031535115724
 10
15.137587447543
 20
72.998577614232
 10
14.49553057427
 20
72.949996551043
 10
13.854602726285
 20
72.885402170682
 10
13.215643728556
 20
72.804404717676
 10
12.579493406051
 20
72.706614436548
 10
11.946991583741
 20
72.591641571824
 10
11.318978086592
 20
72.459096368029
 10
10.696292739575
 20
72.308589069689
 10
10.079775367657
 20
72.139729921329
 10
9.470265795807
 20
71.952129167475
 10
8.868603848994
 20
71.745397052651
 10
8.275629352187
 20
71.519143821382
 10
7.692182130353
 20
71.272979718195
 10
7.119102008463
 20
71.006514987614
 10
6.557228811484
 20
70.719359874164
 10
6.108695529293
 20
70.466750507568
 10
5.668515305122
 20
70.193931290771
 10
5.237413012491
 20
69.90177518973
 10
4.81611352492
 20
69.591155170405
 10
4.405341715931
 20
69.262944198751
 10
4.005822459045
 20
68.918015240729
 10
3.618280627782
 20
68.557241262295
 10
3.243441095664
 20
68.181495229407
 10
2.88202873621
 20
67.791650108023
 10
2.534768422942
 20
67.388578864101
 10
2.202385029381
 20
66.973154463599
 10
1.885603429047
 20
66.546249872475
 10
1.585148495462
 20
66.108738056687
 10
1.301745102146
 20
65.661491982193
 10
1.03611812262
 20
65.20538461495
 10
0.788992430405
 20
64.741288920916
 10
0.561092899021
 20
64.27007786605
 10
0.35314440199
 20
63.792624416309
 10
0.165871812833
 20
63.309801537651
 10
0.000000005069
 20
62.822482196034
  0
ENDBLK
  5
87
100
AcDbEntity
  8
0
100
AcDbBlockEnd
  0
BLOCK
  5
8A
100
AcDbEntity
  8
0
100
AcDbBlockBegin
  2
*E11
 70
           1
 10
0.0
 20
0.0
 30
0.0
  3
*E11
  1

  0
LWPOLYLINE
  5
8B
100
AcDbEntity
  8
0
370
           0
  6
Continuous
 62
           7
100
AcDbPolyline
 90
        4
 70
           0
 10
472.161225903378
 20
190.635087844593
 10
463.537899480551
 20
102.61960130818
 10
438.258937615569
 20
105.096310218966
 10
446.894758124741
 20
193.239319828805
  0
ENDBLK
  5
8C
100
AcDbEntity
  8
0
100
AcDbBlockEnd
  0
BLOCK
  5
8F
100
AcDbEntity
  8
0
100
AcDbBlockBegin
  2
*E12
 70
           1
 10
0.0
 20
0.0
 30
0.0
  3
*E12
  1

  0
LWPOLYLINE
  5
90
100
AcDbEntity
  8
0
370
           0
  6
Continuous
 62
           7
100
AcDbPolyline
 90
        4
 70
           0
 10
1877.995729966079
 20
222.329655924899
 10
1890.025991764339
 20
134.247405720529
 10
1864.859634563091
 20
130.810188063883
 10
1852.829372764831
 20
218.892438268253
  0
ENDBLK
  5
91
100
AcDbEntity
  8
0
100
AcDbBlockEnd
  0
BLOCK
  5
97
100
AcDbEntity
  8
0
100
AcDbBlockBegin
  2
*E13
 70
           1
 10
0.0
 20
0.0
 30
0.0
  3
*E13
  1

  0
LWPOLYLINE
  5
98
100
AcDbEntity
  8
0
370
           0
  6
Continuous
 62
           7
100
AcDbPolyline
 90
      141
 70
           0
 10
228.832640263143
 20
220.07100470441
 10
230.742780988436
 20
219.773203172827
 10
232.652980192605
 20
219.475774816523
 10
234.563237766235
 20
219.178719652349
 10
236.473553599908
 20
218.882037697156
 10
238.383927584211
 20
218.585728967793
 10
240.294359609726
 20
218.289793481111
 10
242.204849567038
 20
217.994231253962
 10
244.115397346731
 20
217.699042303195
 10
246.02600283939
 20
217.404226645661
 10
247.936665935598
 20
217.109784298211
 10
249.84738652594
 20
216.815715277695
 10
251.758164501
 20
216.522019600964
 10
253.668999751362
 20
216.228697284868
 10
255.579892167611
 20
215.935748346258
 10
257.49084164033
 20
215.643172801984
 10
259.401848060103
 20
215.350970668898
 10
261.312911317516
 20
215.059141963849
 10
263.224031303151
 20
214.767686703688
 10
265.135207907594
 20
214.476604905265
 10
267.046441021428
 20
214.185896585432
 10
267.413421519264
 20
214.130406271075
 10
267.780484008202
 20
214.075467334636
 10
268.147623701154
 20
214.021048426027
 10
268.51483581103
 20
213.967118195161
 10
268.882115550742
 20
213.913645291947
 10
269.2494581332
 20
213.860598366299
 10
269.616858771316
 20
213.807946068126
 10
269.984312678001
 20
213.755657047341
 10
270.351815066164
 20
213.703699953856
 10
270.719361148719
 20
213.652043437581
 10
271.086946138575
 20
213.600656148427
 10
271.454565248644
 20
213.549506736308
 10
271.822213691836
 20
213.498563851133
 10
272.189886681063
 20
213.447796142814
 10
272.557579429236
 20
213.397172261264
 10
272.925287149265
 20
213.346660856392
 10
273.293005054062
 20
213.296230578112
 10
273.660728356538
 20
213.245850076333
 10
274.028452269603
 20
213.195488000969
 10
274.396172006169
 20
213.145113001929
 10
275.495778541098
 20
212.993952667926
 10
276.595282397973
 20
212.841983119177
 10
277.694705659572
 20
212.689376239639
 10
278.794070408674
 20
212.536303913267
 10
279.893398728056
 20
212.382938024019
 10
280.992712700499
 20
212.22945045585
 10
282.092034408779
 20
212.076013092716
 10
283.191385935675
 20
211.922797818574
 10
284.290789363966
 20
211.76997651738
 10
285.390266776429
 20
211.617721073089
 10
286.489840255844
 20
211.466203369659
 10
287.589531884988
 20
211.315595291045
 10
288.689363746641
 20
211.166068721204
 10
289.789357923579
 20
211.017795544091
 10
290.889536498583
 20
210.870947643664
 10
291.989921554429
 20
210.725696903878
 10
293.090535173897
 20
210.582215208689
 10
294.191399439764
 20
210.440674442053
 10
295.29253643481
 20
210.301246487928
 10
296.393968241812
 20
210.164103230268
 10
299.124210316673
 20
209.827937429658
 10
301.854636522719
 20
209.493258886442
 10
304.585242374962
 20
209.16003667989
 10
307.316023388415
 20
208.82823988927
 10
310.046975078088
 20
208.497837593851
 10
312.778092958996
 20
208.168798872901
 10
315.509372546149
 20
207.84109280569
 10
318.24080935456
 20
207.514688471486
 10
320.972398899241
 20
207.189554949559
 10
323.704136695205
 20
206.865661319176
 10
326.436018257464
 20
206.542976659606
 10
329.168039101029
 20
206.221470050119
 10
331.900194740914
 20
205.901110569983
 10
334.63248069213
 20
205.581867298466
 10
337.364892469689
 20
205.263709314838
 10
340.097425588605
 20
204.946605698368
 10
342.830075563888
 20
204.630525528324
 10
345.562837910551
 20
204.315437883974
 10
348.295708143607
 20
204.001311844588
 10
351.028681778067
 20
203.688116489435
 10
353.887771732421
 20
203.361909848501
 10
356.747066001572
 20
203.03751468813
 10
359.606550489598
 20
202.714806582821
 10
362.466211100576
 20
202.393661107075
 10
365.326033738583
 20
202.073953835395
 10
368.186004307698
 20
201.755560342281
 10
371.046108711997
 20
201.438356202233
 10
373.906332855559
 20
201.122216989752
 10
376.766662642461
 20
200.807018279341
 10
379.627083976781
 20
200.492635645499
 10
382.487582762596
 20
200.178944662728
 10
385.348144903983
 20
199.865820905528
 10
388.208756305021
 20
199.553139948401
 10
391.069402869787
 20
199.240777365847
 10
393.930070502358
 20
198.928608732368
 10
396.790745106813
 20
198.616509622464
 10
399.651412587228
 20
198.304355610637
 10
402.512058847681
 20
197.992022271387
 10
405.37266979225
 20
197.679385179215
 10
408.233231325013
 20
197.366319908623
 10
409.48735807148
 20
197.229192813264
 10
410.741534143916
 20
197.092519944038
 10
411.995756136327
 20
196.956270016496
 10
413.250020642717
 20
196.820411746183
 10
414.504324257092
 20
196.684913848651
 10
415.758663573456
 20
196.549745039445
 10
417.013035185814
 20
196.414874034116
 10
418.267435688171
 20
196.280269548211
 10
419.521861674532
 20
196.145900297278
 10
420.776309738901
 20
196.011734996866
 10
422.030776475284
 20
195.877742362523
 10
423.285258477684
 20
195.743891109798
 10
424.539752340108
 20
195.610149954239
 10
425.79425465656
 20
195.476487611394
 10
427.048762021045
 20
195.342872796811
 10
428.303271027567
 20
195.209274226039
 10
429.557778270131
 20
195.075660614627
 10
430.812280342743
 20
194.942000678122
 10
432.066773839407
 20
194.808263132073
 10
433.321255354128
 20
194.674416692028
 10
433.999861502221
 20
194.602012138204
 10
434.678474974497
 20
194.529675968417
 10
435.357095760618
 20
194.457408183761
 10
436.035723850245
 20
194.385208785328
 10
436.714359233039
 20
194.313077774213
 10
437.393001898662
 20
194.241015151508
 10
438.071651836774
 20
194.169020918305
 10
438.750309037039
 20
194.097095075699
 10
439.428973489115
 20
194.025237624782
 10
440.107645182666
 20
193.953448566648
 10
440.786324107352
 20
193.881727902388
 10
441.465010252835
 20
193.810075633097
 10
442.143703608776
 20
193.738491759868
 10
442.822404164836
 20
193.666976283793
 10
443.501111910677
 20
193.595529205966
 10
444.179826835961
 20
193.52415052748
 10
444.858548930347
 20
193.452840249428
 10
445.537278183499
 20
193.381598372903
 10
446.216014585077
 20
193.310424898997
 10
446.894758124742
 20
193.239319828805
  0
ENDBLK
  5
99
100
AcDbEntity
  8
0
100
AcDbBlockEnd
  0
BLOCK
  5
9C
100
AcDbEntity
  8
0
100
AcDbBlockBegin
  2
*E14
 70
           1
 10
0.0
 20
0.0
 30
0.0
  3
*E14
  1

  0
LWPOLYLINE
  5
9D
100
AcDbEntity
  8
0
370
           0
  6
Continuous
 62
           7
100
AcDbPolyline
 90
      121
 70
           0
 10
472.161225903378
 20
190.635087844593
 10
475.336556158609
 20
190.321403264376
 10
478.511975051518
 20
190.008605800244
 10
481.687482210172
 20
189.696695487944
 10
484.863077262635
 20
189.38567236322
 10
488.038759836972
 20
189.07553646182
 10
491.214529561248
 20
188.76628781949
 10
494.39038606353
 20
188.457926471975
 10
497.566328971881
 20
188.150452455021
 10
500.742357914368
 20
187.843865804376
 10
503.918472519055
 20
187.538166555784
 10
507.094672414008
 20
187.233354744991
 10
510.270957227292
 20
186.929430407745
 10
513.447326586972
 20
186.626393579791
 10
516.623780121113
 20
186.324244296874
 10
519.800317457781
 20
186.022982594742
 10
522.97693822504
 20
185.72260850914
 10
526.153642050957
 20
185.423122075814
 10
529.330428563595
 20
185.12452333051
 10
532.507297391021
 20
184.826812308975
 10
535.6842481613
 20
184.529989046954
 10
536.991514978989
 20
184.408162293599
 10
538.298822862167
 20
184.286653711588
 10
539.60617864572
 20
184.165563850765
 10
540.913589164537
 20
184.044993260977
 10
542.221061253505
 20
183.92504249207
 10
543.52860174751
 20
183.805812093889
 10
544.83621748144
 20
183.687402616281
 10
546.143915290182
 20
183.56991460909
 10
547.451702008624
 20
183.453448622165
 10
548.759584471651
 20
183.338105205349
 10
550.067569514153
 20
183.223984908489
 10
551.375663971015
 20
183.111188281432
 10
552.683874677125
 20
182.999815874021
 10
553.99220846737
 20
182.889968236105
 10
555.300672176637
 20
182.781745917528
 10
556.609272639814
 20
182.675249468136
 10
557.918016691788
 20
182.570579437776
 10
559.226911167446
 20
182.467836376293
 10
560.535962901675
 20
182.367120833533
 10
561.845178729362
 20
182.268533359342
 10
566.955517384429
 20
181.888990101971
 10
572.065996604353
 20
181.511337805635
 10
577.176611648771
 20
181.1355179162
 10
582.287357777319
 20
180.761471879533
 10
587.398230249634
 20
180.389141141502
 10
592.50922432535
 20
180.018467147973
 10
597.620335264106
 20
179.649391344813
 10
602.731558325537
 20
179.281855177888
 10
607.842888769279
 20
178.915800093067
 10
612.954321854969
 20
178.551167536215
 10
618.065852842242
 20
178.1878989532
 10
623.177476990735
 20
177.825935789888
 10
628.289189560085
 20
177.465219492146
 10
633.400985809926
 20
177.105691505842
 10
638.512860999897
 20
176.747293276842
 10
643.624810389632
 20
176.389966251013
 10
648.736829238769
 20
176.033651874222
 10
653.848912806943
 20
175.678291592336
 10
658.96105635379
 20
175.323826851222
 10
664.073255138948
 20
174.970199096746
 10
664.781876846759
 20
174.922154392532
 10
665.490610171678
 20
174.875867370978
 10
666.199447967529
 20
174.83123424431
 10
666.908383088139
 20
174.788151224752
 10
667.617408387332
 20
174.746514524529
 10
668.326516718936
 20
174.706220355866
 10
669.035700936774
 20
174.667164930987
 10
669.744953894673
 20
174.629244462117
 10
670.454268446458
 20
174.592355161482
 10
671.163637445955
 20
174.556393241306
 10
671.873053746989
 20
174.521254913813
 10
672.582510203387
 20
174.486836391229
 10
673.291999668972
 20
174.453033885778
 10
674.001514997572
 20
174.419743609685
 10
674.711049043011
 20
174.386861775175
 10
675.420594659116
 20
174.354284594473
 10
676.130144699712
 20
174.321908279803
 10
676.839692018623
 20
174.289629043391
 10
677.549229469677
 20
174.257343097461
 10
678.258749906698
 20
174.224946654237
 10
681.590297094865
 20
174.071608822869
 10
684.921793053415
 20
173.916898587517
 10
688.253250622327
 20
173.761142441134
 10
691.584682641583
 20
173.604666876672
 10
694.91610195116
 20
173.447798387085
 10
698.24752139104
 20
173.290863465325
 10
701.578953801204
 20
173.134188604346
 10
704.910412021629
 20
172.9781002971
 10
708.241908892298
 20
172.82292503654
 10
711.573457253189
 20
172.66898931562
 10
714.905069944283
 20
172.516619627292
 10
718.236759805561
 20
172.36614246451
 10
721.568539677
 20
172.217884320225
 10
724.900422398583
 20
172.072171687392
 10
728.232420810289
 20
171.929331058962
 10
731.564547752098
 20
171.78968892789
 10
734.896816063989
 20
171.653571787127
 10
738.229238585944
 20
171.521306129627
 10
741.561828157941
 20
171.393218448343
 10
744.894597619962
 20
171.269635236228
 10
746.453567271537
 20
171.214262238597
 10
748.012649322517
 20
171.161544047051
 10
749.571836987945
 20
171.111480792728
 10
751.131123482866
 20
171.064072606769
 10
752.690502022321
 20
171.019319620313
 10
754.249965821354
 20
170.977221964499
 10
755.809508095009
 20
170.937779770466
 10
757.369122058329
 20
170.900993169354
 10
758.928800926358
 20
170.866862292302
 10
760.488537914138
 20
170.83538727045
 10
762.048326236714
 20
170.806568234937
 10
763.608159109128
 20
170.780405316902
 10
765.168029746423
 20
170.756898647485
 10
766.727931363645
 20
170.736048357824
 10
768.287857175834
 20
170.71785457906
 10
769.847800398035
 20
170.702317442332
 10
771.407754245292
 20
170.689437078779
 10
772.967711932647
 20
170.67921361954
 10
774.527666675144
 20
170.671647195756
 10
776.087611687827
 20
170.666737938564
  0
ENDBLK
  5
9E
100
AcDbEntity
  8
0
100
AcDbBlockEnd
  0
BLOCK
  5
A5
100
AcDbEntity
  8
0
100
AcDbBlockBegin
  2
*E15
 70
           1
 10
0.0
 20
0.0
 30
0.0
  3
*E15
  1

  0
LWPOLYLINE
  5
A6
100
AcDbEntity
  8
0
370
           0
  6
Continuous
 62
           7
100
AcDbPolyline
 90
      281
 70
           0
 10
2.70743775125
 20
466.186609900031
 10
6.262717287962
 20
467.058076703959
 10
9.861763994356
 20
467.809539147097
 10
13.498839296871
 20
468.44138534553
 10
17.168204621942
 20
468.954003415345
 10
20.864121396005
 20
469.347781472629
 10
24.580851045499
 20
469.623107633468
 10
28.312654996859
 20
469.780370013948
 10
32.053794676521
 20
469.819956730156
 10
35.798531510923
 20
469.742255898178
 10
39.541126926501
 20
469.5476556341
 10
43.275842349691
 20
469.23654405401
 10
46.996939206931
 20
468.809309273993
 10
50.698678924657
 20
468.266339410135
 10
54.375322929305
 20
467.608022578524
 10
58.021132647312
 20
466.834746895246
 10
61.630369505115
 20
465.946900476387
 10
65.19729492915
 20
464.944871438033
 10
68.716170345854
 20
463.829047896271
 10
72.181257181664
 20
462.599817967188
 10
75.586816863016
 20
461.257569766869
 10
77.518467122773
 20
460.36630793287
 10
79.379591407716
 20
459.329019283284
 10
81.169056368806
 20
458.154794083128
 10
82.885728657001
 20
456.852722597417
 10
84.528474923264
 20
455.431895091169
 10
86.096161818554
 20
453.901401829401
 10
87.587655993832
 20
452.270333077128
 10
89.001824100059
 20
450.547779099368
 10
90.337532788195
 20
448.742830161137
 10
91.5936487092
 20
446.864576527452
 10
92.769038514035
 20
444.92210846333
 10
93.862568853661
 20
442.924516233786
 10
94.873106379037
 20
440.880890103838
 10
95.799517741125
 20
438.800320338502
 10
96.640669590885
 20
436.691897202796
 10
97.395428579277
 20
434.564710961734
 10
98.062661357262
 20
432.427851880335
 10
98.6412345758
 20
430.290410223615
 10
99.130014885852
 20
428.16147625659
 10
99.527868938378
 20
426.050140244277
 10
99.677400114625
 20
424.702097264299
 10
99.67824445463
 20
423.367890668691
 10
99.540206259755
 20
422.048172184461
 10
99.27308983136
 20
420.743593538618
 10
98.886699470808
 20
419.454806458169
 10
98.390839479459
 20
418.182462670122
 10
97.795314158676
 20
416.927213901485
 10
97.109927809819
 20
415.689711879266
 10
96.344484734251
 20
414.470608330473
 10
95.508789233331
 20
413.270554982113
 10
94.612645608422
 20
412.090203561196
 10
93.665858160885
 20
410.930205794729
 10
92.678231192081
 20
409.79121340972
 10
91.659569003372
 20
408.673878133176
 10
90.619675896119
 20
407.578851692106
 10
89.568356171683
 20
406.506785813517
 10
88.515414131426
 20
405.458332224419
 10
87.47065407671
 20
404.434142651818
 10
86.443880308895
 20
403.434868822722
 10
85.444897129342
 20
402.46116246414
 10
84.696646073476
 20
401.762979300522
 10
83.917280486897
 20
401.100313298691
 10
83.108744969876
 20
400.47208166869
 10
82.272984122679
 20
399.87720162056
 10
81.411942545574
 20
399.314590364342
 10
80.527564838831
 20
398.783165110078
 10
79.621795602715
 20
398.281843067809
 10
78.696579437496
 20
397.809541447576
 10
77.753860943443
 20
397.365177459421
 10
76.795584720822
 20
396.947668313386
 10
75.823695369901
 20
396.555931219512
 10
74.840137490949
 20
396.18888338784
 10
73.846855684234
 20
395.845442028412
 10
72.845794550024
 20
395.524524351269
 10
71.838898688586
 20
395.225047566452
 10
70.828112700188
 20
394.945928884004
 10
69.8153811851
 20
394.686085513964
 10
68.802648743589
 20
394.444434666376
 10
67.791859975922
 20
394.21989355128
 10
66.784959482368
 20
394.011379378718
 10
65.883713465625
 20
393.864077639536
 10
64.978472666151
 20
393.777418614187
 10
64.069654685441
 20
393.744805936041
 10
63.157677124987
 20
393.759643238467
 10
62.242957586282
 20
393.815334154835
 10
61.325913670817
 20
393.905282318513
 10
60.406962980088
 20
394.022891362871
 10
59.486523115585
 20
394.161564921278
 10
58.565011678802
 20
394.314706627103
 10
57.642846271232
 20
394.475720113716
 10
56.720444494365
 20
394.638009014486
 10
55.798223949698
 20
394.794976962781
 10
54.876602238722
 20
394.940027591973
 10
53.955996962929
 20
395.066564535428
 10
53.036825723812
 20
395.167991426518
 10
52.119506122864
 20
395.23771189861
 10
51.204455761578
 20
395.269129585075
 10
50.292092241447
 20
395.255648119282
 10
49.382833163963
 20
395.190671134599
 10
48.47709613062
 20
395.067602264396
 10
47.866405571905
 20
394.960235337222
 10
47.234373146203
 20
394.84147147342
 10
46.586004587763
 20
394.70984356201
 10
45.926305630835
 20
394.563884492013
 10
45.26028200967
 20
394.402127152452
 10
44.592939458519
 20
394.223104432347
 10
43.92928371163
 20
394.025349220718
 10
43.274320503253
 20
393.807394406587
 10
42.633055567641
 20
393.567772878976
 10
42.010494639043
 20
393.305017526905
 10
41.411643451708
 20
393.017661239396
 10
40.841507739886
 20
392.704236905469
 10
40.30509323783
 20
392.363277414145
 10
39.807405679787
 20
391.993315654447
 10
39.353450800009
 20
391.592884515394
 10
38.948234332745
 20
391.160516886008
 10
38.596762012247
 20
390.69474565531
 10
38.304039572763
 20
390.194103712321
 10
38.075072748545
 20
389.657123946062
 10
37.914867273842
 20
389.082339245555
 10
37.75887534476
 20
388.173489636847
 10
37.666948170939
 20
387.257320019275
 10
37.636086387298
 20
386.33555326924
 10
37.663290628753
 20
385.409912263144
 10
37.745561530222
 20
384.482119877387
 10
37.879899726622
 20
383.55389898837
 10
38.063305852868
 20
382.626972472493
 10
38.292780543879
 20
381.703063206157
 10
38.565324434573
 20
380.783894065764
 10
38.877938159864
 20
379.871187927714
 10
39.227622354671
 20
378.966667668407
 10
39.611377653911
 20
378.072056164246
 10
40.026204692501
 20
377.18907629163
 10
40.469104105358
 20
376.31945092696
 10
40.937076527398
 20
375.464902946637
 10
41.42712259354
 20
374.627155227062
 10
41.9362429387
 20
373.807930644636
 10
42.461438197794
 20
373.00895207576
 10
42.999709005741
 20
372.231942396834
 10
43.548055997457
 20
371.478624484259
 10
45.258156316577
 20
369.190552331493
 10
46.979580902889
 20
366.902661340345
 10
48.714412699663
 20
364.618311318898
 10
50.464734650167
 20
362.340862075237
 10
52.232629697668
 20
360.073673417447
 10
54.020180785435
 20
357.820105153611
 10
55.829470856735
 20
355.583517091814
 10
57.662582854839
 20
353.36726904014
 10
59.521599723013
 20
351.174720806675
 10
61.408604404527
 20
349.009232199501
 10
63.325679842646
 20
346.874163026703
 10
65.274908980642
 20
344.772873096366
 10
67.258374761781
 20
342.708722216574
 10
69.278160129332
 20
340.685070195412
 10
71.336348026563
 20
338.705276840963
 10
73.435021396742
 20
336.772701961312
 10
75.576263183139
 20
334.890705364543
 10
77.762156329019
 20
333.062646858741
 10
79.994783777653
 20
331.29188625199
 10
82.276228472308
 20
329.581783352374
 10
83.312629789299
 20
328.863801935119
 10
84.397053217128
 20
328.183024777072
 10
85.524931188486
 20
327.542141288368
 10
86.691696136063
 20
326.94384087914
 10
87.892780492549
 20
326.390812959523
 10
89.123616690634
 20
325.885746939651
 10
90.379637163007
 20
325.431332229656
 10
91.656274342359
 20
325.030258239675
 10
92.948960661381
 20
324.68521437984
 10
94.253128552762
 20
324.398890060286
 10
95.564210449191
 20
324.173974691146
 10
96.87763878336
 20
324.013157682555
 10
98.188845987958
 20
323.919128444647
 10
99.493264495675
 20
323.894576387556
 10
100.786326739202
 20
323.942190921415
 10
102.063465151227
 20
324.064661456359
 10
103.320112164442
 20
324.264677402522
 10
104.551700211536
 20
324.544928170037
 10
105.7536617252
 20
324.90810316904
 10
106.921429138123
 20
325.356891809663
 10
107.684186544076
 20
325.750637949093
 10
108.358239463123
 20
326.233777084398
 10
108.949313986954
 20
326.799326736778
 10
109.46313620726
 20
327.44030442743
 10
109.905432215729
 20
328.149727677551
 10
110.28192810405
 20
328.920614008342
 10
110.598349963915
 20
329.745980940998
 10
110.860423887011
 20
330.618845996719
 10
111.07387596503
 20
331.532226696702
 10
111.24443228966
 20
332.479140562147
 10
111.37781895259
 20
333.45260511425
 10
111.479762045511
 20
334.445637874209
 10
111.555987660112
 20
335.451256363224
 10
111.612221888083
 20
336.462478102492
 10
111.654190821113
 20
337.472320613211
 10
111.687620550892
 20
338.473801416579
 10
111.718237169109
 20
339.459938033795
 10
111.751766767454
 20
340.423747986056
 10
111.793935437616
 20
341.358248794561
 10
111.850469271286
 20
342.256457980507
 10
111.865885789937
 20
343.346734369
 10
111.766559486592
 20
344.528188200799
 10
111.567637654454
 20
345.789967199115
 10
111.284267586726
 20
347.121219087161
 10
110.931596576612
 20
348.51109158815
 10
110.524771917313
 20
349.948732425293
 10
110.078940902032
 20
351.423289321803
 10
109.609250823972
 20
352.923910000892
 10
109.130848976337
 20
354.439742185772
 10
108.658882652328
 20
355.959933599657
 10
108.208499145148
 20
357.473631965757
 10
107.794845748002
 20
358.969985007286
 10
107.43306975409
 20
360.438140447456
 10
107.138318456615
 20
361.867246009479
 10
106.925739148782
 20
363.246449416567
 10
106.810479123792
 20
364.564898391933
 10
106.807685674848
 20
365.811740658789
 10
106.932506095153
 20
366.976123940348
 10
107.20008767791
 20
368.047195959821
 10
107.625577716322
 20
369.014104440421
 10
108.35870869402
 20
369.910081177981
 10
109.381880733167
 20
370.544051404165
 10
110.663540071584
 20
370.934081193501
 10
112.172132947086
 20
371.098236620519
 10
113.876105597492
 20
371.054583759748
 10
115.74390426062
 20
370.821188685716
 10
117.743975174286
 20
370.416117472953
 10
119.844764576309
 20
369.857436195988
 10
122.014718704506
 20
369.163210929349
 10
124.222283796695
 20
368.351507747566
 10
126.435906090693
 20
367.440392725168
 10
128.624031824318
 20
366.447931936684
 10
130.755107235388
 20
365.392191456643
 10
132.79757856172
 20
364.291237359573
 10
134.719892041132
 20
363.163135720005
 10
136.490493911442
 20
362.025952612466
 10
138.077830410467
 20
360.897754111487
 10
139.450347776025
 20
359.796606291595
 10
140.576492245933
 20
358.74057522732
 10
141.42471005801
 20
357.747726993192
 10
142.730280813178
 20
355.762096752403
 10
143.683807837383
 20
353.875462335476
 10
144.316118942079
 20
352.074658672384
 10
144.658041938719
 20
350.3465206931
 10
144.740404638754
 20
348.677883327596
 10
144.594034853638
 20
347.055581505845
 10
144.249760394822
 20
345.46645015782
 10
143.738409073758
 20
343.897324213493
 10
143.0908087019
 20
342.335038602838
 10
142.3377870907
 20
340.766428255827
 10
141.51017205161
 20
339.178328102433
 10
140.638791396082
 20
337.557573072629
 10
139.754472935569
 20
335.890998096387
 10
138.888044481523
 20
334.16543810368
 10
138.070333845397
 20
332.36772802448
 10
137.332168838643
 20
330.484702788762
 10
136.704377272714
 20
328.503197326496
 10
136.217786959061
 20
326.410046567657
 10
135.903225709138
 20
324.192085442217
 10
135.791521334396
 20
321.836148880148
 10
135.834911571162
 20
320.324954045099
 10
135.96058005129
 20
318.862353800125
 10
136.161773429528
 20
317.44328961728
 10
136.431738360623
 20
316.062702968619
 10
136.763721499322
 20
314.715535326197
 10
137.150969500373
 20
313.396728162067
 10
137.586729018522
 20
312.101222948283
 10
138.064246708516
 20
310.823961156901
 10
138.576769225104
 20
309.559884259974
 10
139.117543223032
 20
308.303933729556
 10
139.679815357047
 20
307.051051037702
 10
140.256832281896
 20
305.796177656467
 10
140.841840652327
 20
304.534255057903
 10
141.428087123088
 20
303.260224714067
 10
142.008818348923
 20
301.969028097011
 10
142.577280984583
 20
300.65560667879
 10
143.126721684812
 20
299.314901931459
 10
143.650387104359
 20
297.941855327072
 10
144.141523897971
 20
296.531408337683
 10
144.593378720395
 20
295.078502435346
  0
ENDBLK
  5
A7
100
AcDbEntity
  8
0
100
AcDbBlockEnd
  0
BLOCK
  5
AA
100
AcDbEntity
  8
0
100
AcDbBlockBegin
  2
*E16
 70
           1
 10
0.0
 20
0.0
 30
0.0
  3
*E16
  1

  0
LWPOLYLINE
  5
AB
100
AcDbEntity
  8
0
370
           0
  6
Continuous
 62
           7
100
AcDbPolyline
 90
        2
 70
           0
 10
1590.248673717893
 20
423.692985959026
 10
1594.062076090386
 20
512.511159562998
  0
LWPOLYLINE
  5
AC
100
AcDbEntity
  8
0
370
           0
  6
Continuous
 62
           7
100
AcDbPolyline
 90
        2
 70
           0
 10
1619.438697120093
 20
511.421616028
 40
0.0
 41
0.0
 10
1615.625294747599
 20
422.603442424028
 40
0.0
 41
0.0
  0
ENDBLK
  5
AD
100
AcDbEntity
  8
0
100
AcDbBlockEnd
  0
BLOCK
  5
B0
100
AcDbEntity
  8
0
100
AcDbBlockBegin
  2
*E17
 70
           1
 10
0.0
 20
0.0
 30
0.0
  3
*E17
  1

  0
LWPOLYLINE
  5
B1
100
AcDbEntity
  8
0
370
           0
  6
Continuous
 62
           7
100
AcDbPolyline
 90
        2
 70
           0
 10
843.024524651305
 20
408.180805732802
 10
836.808506106986
 20
496.863222893459
  0
LWPOLYLINE
  5
B2
100
AcDbEntity
  8
0
370
           0
  6
Continuous
 62
           7
100
AcDbPolyline
 90
        2
 70
           0
 10
862.14633958146
 20
498.639228191835
 40
0.0
 41
0.0
 10
868.362358125779
 20
409.956811031178
 40
0.0
 41
0.0
  0
ENDBLK
  5
B3
100
AcDbEntity
  8
0
100
AcDbBlockEnd
  0
BLOCK
  5
B6
100
AcDbEntity
  8
0
100
AcDbBlockBegin
  2
*E18
 70
           1
 10
0.0
 20
0.0
 30
0.0
  3
*E18
  1

  0
LWPOLYLINE
  5
B7
100
AcDbEntity
  8
0
370
           0
  6
Continuous
 62
           7
100
AcDbPolyline
 90
        2
 70
           0
 10
249.893099370039
 20
320.673504129367
 10
229.568608380568
 20
407.219012770884
  0
LWPOLYLINE
  5
B8
100
AcDbEntity
  8
0
370
           0
  6
Continuous
 62
           7
100
AcDbPolyline
 90
        2
 70
           0
 10
254.295896563858
 20
413.026010196448
 40
0.0
 41
0.0
 10
274.620387553329
 20
326.480501554931
 40
0.0
 41
0.0
  0
ENDBLK
  5
B9
100
AcDbEntity
  8
0
100
AcDbBlockEnd
  0
BLOCK
  5
C1
100
AcDbEntity
  8
0
100
AcDbBlockBegin
  2
*E19
 70
           1
 10
0.0
 20
0.0
 30
0.0
  3
*E19
  1

  0
LWPOLYLINE
  5
C2
100
AcDbEntity
  8
0
370
           0
  6
Continuous
 62
           7
100
AcDbPolyline
 90
        2
 70
           0
 10
2162.880266172284
 20
373.199175658182
 10
2176.199523545286
 20
461.095747736004
  0
LWPOLYLINE
  5
C3
100
AcDbEntity
  8
0
370
           0
  6
Continuous
 62
           7
100
AcDbPolyline
 90
        2
 70
           0
 10
2201.312829853236
 20
457.290245629432
 40
0.0
 41
0.0
 10
2187.993572480234
 20
369.39367355161
 40
0.0
 41
0.0
  0
ENDBLK
  5
C4
100
AcDbEntity
  8
0
100
AcDbBlockEnd
  0
BLOCK
  5
CC
100
AcDbEntity
  8
0
100
AcDbBlockBegin
  2
*E20
 70
           1
 10
0.0
 20
0.0
 30
0.0
  3
*E20
  1

  0
LWPOLYLINE
  5
CD
100
AcDbEntity
  8
0
370
           0
  6
Continuous
 62
           7
100
AcDbPolyline
 90
        2
 70
           0
 10
195.190868322027
 20
593.270180362592
 10
195.190868322027
 20
542.470180362592
  0
LWPOLYLINE
  5
CE
100
AcDbEntity
  8
0
370
           0
  6
Continuous
 62
           7
100
AcDbPolyline
 90
        2
 70
           0
 10
169.790868322027
 20
542.470180362592
 40
0.0
 41
0.0
 10
169.790868322027
 20
593.270180362592
 40
0.0
 41
0.0
  0
ENDBLK
  5
CF
100
AcDbEntity
  8
0
100
AcDbBlockEnd
  0
BLOCK
  5
D3
100
AcDbEntity
  8
0
100
AcDbBlockBegin
  2
*E21
 70
           1
 10
0.0
 20
0.0
 30
0.0
  3
*E21
  1

  0
LWPOLYLINE
  5
D4
100
AcDbEntity
  8
0
370
           0
  6
Continuous
 62
           7
100
AcDbPolyline
 90
        2
 70
           0
 10
1171.862888110907
 20
593.270180362592
 10
1171.862888110907
 20
542.470180362592
  0
LWPOLYLINE
  5
D5
100
AcDbEntity
  8
0
370
           0
  6
Continuous
 62
           7
100
AcDbPolyline
 90
        2
 70
           0
 10
1146.462888110907
 20
542.470180362592
 40
0.0
 41
0.0
 10
1146.462888110907
 20
593.270180362592
 40
0.0
 41
0.0
  0
ENDBLK
  5
D6
100
AcDbEntity
  8
0
100
AcDbBlockEnd
  0
BLOCK
  5
D9
100
AcDbEntity
  8
0
100
AcDbBlockBegin
  2
*E22
 70
           1
 10
0.0
 20
0.0
 30
0.0
  3
*E22
  1

  0
LWPOLYLINE
  5
DA
100
AcDbEntity
  8
0
370
           0
  6
Continuous
 62
           7
100
AcDbPolyline
 90
        2
 70
           0
 10
2117.508057630124
 20
593.270180362592
 10
2117.508057630124
 20
542.470180362592
  0
LWPOLYLINE
  5
DB
100
AcDbEntity
  8
0
370
           0
  6
Continuous
 62
           7
100
AcDbPolyline
 90
        2
 70
           0
 10
2092.108057630124
 20
542.470180362592
 40
0.0
 41
0.0
 10
2092.108057630124
 20
593.270180362592
 40
0.0
 41
0.0
  0
ENDBLK
  5
DC
100
AcDbEntity
  8
0
100
AcDbBlockEnd
  0
BLOCK
  5
E1
100
AcDbEntity
  8
0
100
AcDbBlockBegin
  2
*E23
 70
           1
 10
0.0
 20
0.0
 30
0.0
  3
*E23
  1

  0
LWPOLYLINE
  5
E2
100
AcDbEntity
  8
0
370
           0
  6
Continuous
 62
           7
100
AcDbPolyline
 90
        2
 70
           0
 10
1331.354938259525
 20
429.686790944983
 10
1331.677367866479
 20
518.586206236359
  0
LWPOLYLINE
  5
E3
100
AcDbEntity
  8
0
370
           0
  6
Continuous
 62
           7
100
AcDbPolyline
 90
        2
 70
           0
 10
1357.077200806872
 20
518.494083491515
 40
0.0
 41
0.0
 10
1356.754771199918
 20
429.594668200139
 40
0.0
 41
0.0
  0
ENDBLK
  5
E4
100
AcDbEntity
  8
0
100
AcDbBlockEnd
  0
BLOCK
  5
EA
100
AcDbEntity
  8
0
100
AcDbBlockBegin
  2
*E24
 70
           1
 10
0.0
 20
0.0
 30
0.0
  3
*E24
  1

  0
LWPOLYLINE
  5
EB
100
AcDbEntity
  8
0
370
           0
  6
Continuous
 62
           7
100
AcDbPolyline
 90
      461
 70
           0
 10
2302.812906435443
 20
317.329784209397
 10
2304.003657989032
 20
316.804061179249
 10
2305.225247133735
 20
316.3296920275
 10
2306.474395210496
 20
315.906760418766
 10
2307.747823560258
 20
315.535350017667
 10
2309.042253523965
 20
315.215544488818
 10
2310.354406442559
 20
314.947427496838
 10
2311.681003656985
 20
314.731082706344
 10
2313.018766508185
 20
314.566593781954
 10
2314.364416337105
 20
314.454044388285
 10
2315.714674484686
 20
314.393518189954
 10
2317.066262291871
 20
314.385098851579
 10
2318.415901099606
 20
314.428870037778
 10
2319.760312248833
 20
314.524915413169
 10
2321.096217080496
 20
314.673318642367
 10
2322.420336935537
 20
314.874163389992
 10
2323.729393154902
 20
315.12753332066
 10
2325.020107079532
 20
315.433512098989
 10
2326.289200050372
 20
315.792183389597
 10
2327.533393408364
 20
316.203630857101
 10
2328.749408494453
 20
316.667938166118
 10
2329.813505721563
 20
317.137557402253
 10
2330.85794384898
 20
317.667229165035
 10
2331.880690400445
 20
318.254044312922
 10
2332.879712899698
 20
318.895093704377
 10
2333.85297887048
 20
319.587468197858
 10
2334.798455836532
 20
320.328258651827
 10
2335.714111321596
 20
321.114555924743
 10
2336.59791284941
 20
321.943450875066
 10
2337.447827943717
 20
322.812034361258
 10
2338.261824128257
 20
323.717397241777
 10
2339.03786892677
 20
324.656630375085
 10
2339.773929862997
 20
325.626824619641
 10
2340.46797446068
 20
326.625070833906
 10
2341.117970243558
 20
327.64845987634
 10
2341.721884735373
 20
328.694082605403
 10
2342.277685459865
 20
329.759029879555
 10
2342.783339940775
 20
330.840392557257
 10
2343.236815701843
 20
331.935261496969
 10
2343.636080266811
 20
333.040727557152
 10
2343.979101159419
 20
334.153881596264
 10
2344.500915577949
 20
336.118031855368
 10
2344.966116384357
 20
338.098662845349
 10
2345.37597412541
 20
340.094194013333
 10
2345.731759347876
 20
342.103044806447
 10
2346.034742598523
 20
344.123634671817
 10
2346.28619442412
 20
346.154383056572
 10
2346.487385371432
 20
348.193709407837
 10
2346.639585987229
 20
350.24003317274
 10
2346.744066818277
 20
352.291773798408
 10
2346.802098411346
 20
354.347350731967
 10
2346.814951313201
 20
356.405183420545
 10
2346.783896070612
 20
358.463691311267
 10
2346.710203230346
 20
360.521293851262
 10
2346.59514333917
 20
362.576410487656
 10
2346.439986943853
 20
364.627460667576
 10
2346.246004591161
 20
366.672863838149
 10
2346.014466827864
 20
368.711039446502
 10
2345.746644200727
 20
370.740406939761
 10
2345.44380725652
 20
372.759385765055
 10
2345.10722654201
 20
374.766395369508
 10
2344.607861087835
 20
377.644434311131
 10
2344.114907017515
 20
380.547836512739
 10
2343.620223225812
 20
383.470372452857
 10
2343.11566860749
 20
386.405812610007
 10
2342.59310205731
 20
389.347927462714
 10
2342.044382470037
 20
392.290487489502
 10
2341.461368740433
 20
395.227263168895
 10
2340.83591976326
 20
398.152024979416
 10
2340.159894433283
 20
401.05854339959
 10
2339.425151645263
 20
403.940588907941
 10
2338.623550293963
 20
406.791931982992
 10
2337.746949274147
 20
409.606343103267
 10
2336.787207480577
 20
412.377592747291
 10
2335.736183808017
 20
415.099451393587
 10
2334.585737151228
 20
417.76568952068
 10
2333.327726404975
 20
420.370077607093
 10
2331.954010464019
 20
422.906386131349
 10
2330.456448223124
 20
425.368385571974
 10
2328.826898577053
 20
427.749846407491
 10
2327.057220420568
 20
430.044539116423
 10
2326.188722399397
 20
430.959074766105
 10
2325.206044486937
 20
431.734760638696
 10
2324.121187839906
 20
432.376714711291
 10
2322.946153615025
 20
432.890054960985
 10
2321.692942969013
 20
433.279899364874
 10
2320.373557058589
 20
433.551365900052
 10
2318.999997040473
 20
433.709572543615
 10
2317.584264071384
 20
433.759637272659
 10
2316.138359308041
 20
433.706678064277
 10
2314.674283907164
 20
433.555812895565
 10
2313.204039025473
 20
433.312159743619
 10
2311.739625819686
 20
432.980836585533
 10
2310.293045446523
 20
432.566961398403
 10
2308.876299062704
 20
432.075652159324
 10
2307.501387824948
 20
431.51202684539
 10
2306.180312889975
 20
430.881203433698
 10
2304.925075414502
 20
430.188299901342
 10
2303.747676555252
 20
429.438434225417
 10
2302.660117468942
 20
428.636724383019
 10
2301.674399312291
 20
427.788288351243
 10
2300.957226192238
 20
427.001478998047
 10
2300.403210250919
 20
426.147575766615
 10
2299.997245817942
 20
425.232267761307
 10
2299.724227222911
 20
424.261244086479
 10
2299.569048795432
 20
423.24019384649
 10
2299.51660486511
 20
422.174806145698
 10
2299.551789761549
 20
421.070770088461
 10
2299.659497814356
 20
419.933774779136
 10
2299.824623353135
 20
418.769509322083
 10
2300.032060707493
 20
417.583662821657
 10
2300.266704207033
 20
416.381924382219
 10
2300.513448181361
 20
415.169983108125
 10
2300.757186960083
 20
413.953528103734
 10
2300.982814872804
 20
412.738248473403
 10
2301.175226249129
 20
411.529833321491
 10
2301.319315418662
 20
410.333971752355
 10
2301.399976711011
 20
409.156352870353
 10
2301.402104455779
 20
408.002665779845
 10
2301.310592982572
 20
406.878599585186
 10
2301.110336620995
 20
405.789843390736
 10
2300.878742623186
 20
404.817555586847
 10
2300.64591526739
 20
403.817143602696
 10
2300.408206496514
 20
402.795013935563
 10
2300.161968253462
 20
401.757573082725
 10
2299.903552481143
 20
400.71122754146
 10
2299.629311122462
 20
399.662383809048
 10
2299.335596120324
 20
398.617448382766
 10
2299.018759417636
 20
397.582827759893
 10
2298.675152957304
 20
396.564928437706
 10
2298.301128682234
 20
395.570156913485
 10
2297.893038535332
 20
394.604919684507
 10
2297.447234459505
 20
393.675623248051
 10
2296.960068397657
 20
392.788674101396
 10
2296.427892292695
 20
391.950478741819
 10
2295.847058087526
 20
391.167443666598
 10
2295.213917725055
 20
390.445975373013
 10
2294.524823148188
 20
389.792480358341
 10
2293.776126299832
 20
389.213365119861
 10
2292.964179122892
 20
388.715036154851
 10
2292.085333560276
 20
388.303899960589
 10
2291.332178629667
 20
388.062404125744
 10
2290.558151818144
 20
387.926812596091
 10
2289.768070012895
 20
387.891133300647
 10
2288.966750101109
 20
387.949374168431
 10
2288.159008969974
 20
388.095543128458
 10
2287.349663506678
 20
388.323648109748
 10
2286.543530598409
 20
388.627697041316
 10
2285.745427132357
 20
389.001697852181
 10
2284.96016999571
 20
389.43965847136
 10
2284.192576075656
 20
389.93558682787
 10
2283.447462259383
 20
390.483490850728
 10
2282.729645434081
 20
391.077378468953
 10
2282.043942486937
 20
391.711257611561
 10
2281.395170305139
 20
392.37913620757
 10
2280.788145775878
 20
393.075022185997
 10
2280.227685786339
 20
393.79292347586
 10
2279.718607223714
 20
394.526848006176
 10
2279.265726975189
 20
395.270803705962
 10
2278.873861927952
 20
396.018798504236
 10
2278.547828969193
 20
396.764840330015
 10
2277.363532145217
 20
399.877779003002
 10
2276.242036734189
 20
403.012810434895
 10
2275.180293591685
 20
406.168540600996
 10
2274.175253573278
 20
409.343575476611
 10
2273.223867534542
 20
412.536521037045
 10
2272.323086331051
 20
415.745983257602
 10
2271.469860818378
 20
418.970568113588
 10
2270.661141852098
 20
422.208881580305
 10
2269.893880287784
 20
425.45952963306
 10
2269.165026981011
 20
428.721118247157
 10
2268.471532787351
 20
431.9922533979
 10
2267.810348562379
 20
435.271541060594
 10
2267.178425161669
 20
438.557587210544
 10
2266.572713440794
 20
441.848997823055
 10
2265.990164255329
 20
445.14437887343
 10
2265.427728460847
 20
448.442336336976
 10
2264.882356912922
 20
451.741476188995
 10
2264.351000467128
 20
455.040404404794
 10
2263.830609979038
 20
458.337726959676
 10
2263.318136304227
 20
461.632049828946
 10
2263.07416594847
 20
463.124703426491
 10
2262.805487500085
 20
464.6447573257
 10
2262.520993948024
 20
466.187681871637
 10
2262.229578281239
 20
467.748947409364
 10
2261.940133488683
 20
469.324024283943
 10
2261.66155255931
 20
470.908382840438
 10
2261.40272848207
 20
472.497493423912
 10
2261.172554245916
 20
474.086826379426
 10
2260.979922839802
 20
475.671852052043
 10
2260.833727252678
 20
477.248040786826
 10
2260.742860473499
 20
478.810862928839
 10
2260.716215491217
 20
480.355788823142
 10
2260.762685294783
 20
481.8782888148
 10
2260.89116287315
 20
483.373833248875
 10
2261.110541215272
 20
484.837892470429
 10
2261.4297133101
 20
486.265936824525
 10
2261.857572146586
 20
487.653436656226
 10
2262.403010713683
 20
488.995862310594
 10
2263.074922000345
 20
490.288684132693
 10
2263.882198995522
 20
491.527372467584
 10
2264.529082791021
 20
492.290171385015
 10
2265.269385196478
 20
492.935834559033
 10
2266.094000111092
 20
493.469512592723
 10
2266.993821434058
 20
493.896356089171
 10
2267.959743064574
 20
494.221515651461
 10
2268.982658901837
 20
494.45014188268
 10
2270.053462845043
 20
494.587385385912
 10
2271.163048793389
 20
494.638396764243
 10
2272.302310646073
 20
494.608326620759
 10
2273.46214230229
 20
494.502325558544
 10
2274.633437661239
 20
494.325544180684
 10
2275.807090622115
 20
494.083133090264
 10
2276.973995084115
 20
493.780242890369
 10
2278.125044946437
 20
493.422024184086
 10
2279.251134108278
 20
493.013627574499
 10
2280.343156468833
 20
492.560203664693
 10
2281.392005927301
 20
492.066903057755
 10
2282.388576382877
 20
491.538876356768
 10
2283.32376173476
 20
490.98127416482
 10
2284.188455882144
 20
490.399247084994
 10
2285.036217483008
 20
489.689703956123
 10
2285.763545359177
 20
488.877425919761
 10
2286.384050248743
 20
487.974171079517
 10
2286.911342889802
 20
486.991697539
 10
2287.359034020446
 20
485.941763401818
 10
2287.74073437877
 20
484.836126771581
 10
2288.070054702867
 20
483.686545751897
 10
2288.360605730832
 20
482.504778446375
 10
2288.625998200757
 20
481.302582958624
 10
2288.879842850736
 20
480.091717392252
 10
2289.135750418865
 20
478.88393985087
 10
2289.407331643235
 20
477.691008438084
 10
2289.70819726194
 20
476.524681257505
 10
2290.051958013076
 20
475.396716412742
 10
2290.452224634735
 20
474.318872007402
 10
2290.92260786501
 20
473.302906145095
 10
2291.476718441998
 20
472.36057692943
 10
2292.128167103789
 20
471.503642464015
 10
2292.890564588478
 20
470.743860852459
 10
2293.777521634161
 20
470.092990198372
 10
2294.986104120917
 20
469.377304822641
 10
2296.247988809129
 20
468.69887160086
 10
2297.557333596919
 20
468.061563765317
 10
2298.908296382413
 20
467.469254548298
 10
2300.295035063735
 20
466.925817182091
 10
2301.711707539009
 20
466.435124898984
 10
2303.152471706361
 20
466.001050931264
 10
2304.611485463914
 20
465.627468511218
 10
2306.082906709793
 20
465.318250871134
 10
2307.560893342124
 20
465.077271243299
 10
2309.039603259029
 20
464.908402860001
 10
2310.513194358635
 20
464.815518953527
 10
2311.975824539064
 20
464.802492756165
 10
2313.421651698443
 20
464.873197500202
 10
2314.844833734896
 20
465.031506417925
 10
2316.239528546545
 20
465.281292741622
 10
2317.599894031519
 20
465.62642970358
 10
2318.920088087938
 20
466.070790536087
 10
2320.19426861393
 20
466.61824847143
 10
2321.416593507618
 20
467.272676741896
 10
2322.463807357386
 20
467.980290331268
 10
2323.401513903314
 20
468.786596725841
 10
2324.237014067423
 20
469.684008900133
 10
2324.977608771733
 20
470.664939828662
 10
2325.630598938265
 20
471.721802485943
 10
2326.20328548904
 20
472.847009846496
 10
2326.702969346078
 20
474.032974884839
 10
2327.136951431402
 20
475.272110575488
 10
2327.51253266703
 20
476.55682989296
 10
2327.837013974985
 20
477.879545811775
 10
2328.117696277286
 20
479.232671306449
 10
2328.361880495955
 20
480.608619351499
 10
2328.576867553013
 20
481.999802921445
 10
2328.76995837048
 20
483.398634990802
 10
2328.948453870377
 20
484.797528534089
 10
2329.119654974726
 20
486.188896525823
 10
2329.290862605546
 20
487.565151940522
 10
2329.469377684858
 20
488.918707752704
 10
2329.662501134684
 20
490.241976936885
 10
2329.877533877043
 20
491.527372467584
 10
2330.061345103378
 20
492.639338168339
 10
2330.21295115265
 20
493.754756636066
 10
2330.334494796012
 20
494.873335912792
 10
2330.428118804618
 20
495.994784040545
 10
2330.495965949622
 20
497.118809061355
 10
2330.540179002178
 20
498.245119017249
 10
2330.562900733441
 20
499.373421950255
 10
2330.566273914562
 20
500.503425902402
 10
2330.552441316696
 20
501.634838915718
 10
2330.523545710998
 20
502.76736903223
 10
2330.481729868621
 20
503.900724293967
 10
2330.429136560718
 20
505.034612742958
 10
2330.367908558444
 20
506.16874242123
 10
2330.300188632952
 20
507.302821370812
 10
2330.228119555397
 20
508.436557633732
 10
2330.153844096931
 20
509.569659252018
 10
2330.079505028709
 20
510.701834267698
 10
2330.007245121884
 20
511.832790722801
 10
2329.939207147611
 20
512.962236659354
 10
2329.877533877043
 20
514.089880119386
 10
2329.813800871291
 20
515.165443410033
 10
2329.734175769936
 20
516.239773301359
 10
2329.640446211147
 20
517.313007918211
 10
2329.534399833097
 20
518.385285385438
 10
2329.417824273955
 20
519.456743827889
 10
2329.292507171891
 20
520.527521370412
 10
2329.160236165079
 20
521.597756137857
 10
2329.022798891685
 20
522.667586255072
 10
2328.881982989884
 20
523.737149846904
 10
2328.739576097843
 20
524.806585038204
 10
2328.597365853735
 20
525.87602995382
 10
2328.45713989573
 20
526.9456227186
 10
2328.320685861997
 20
528.015501457393
 10
2328.18979139071
 20
529.085804295048
 10
2328.066244120037
 20
530.156669356413
 10
2327.951831688149
 20
531.228234766338
 10
2327.848341733217
 20
532.30063864967
 10
2327.757561893412
 20
533.374019131258
 10
2327.681279806904
 20
534.448514335951
 10
2327.621283111863
 20
535.524262388598
 10
2327.569139573078
 20
536.241395153449
 10
2327.484398577071
 20
536.980521685765
 10
2327.373902624139
 20
537.73776487692
 10
2327.244494214581
 20
538.509247618288
 10
2327.103015848693
 20
539.291092801245
 10
2326.956310026773
 20
540.079423317165
 10
2326.811219249119
 20
540.870362057422
 10
2326.674586016028
 20
541.660031913392
 10
2326.553252827797
 20
542.444555776449
 10
2326.454062184725
 20
543.220056537968
 10
2326.383856587109
 20
543.982657089323
 10
2326.349478535246
 20
544.728480321889
 10
2326.357770529433
 20
545.45364912704
 10
2326.415575069969
 20
546.154286396152
 10
2326.52973465715
 20
546.826515020599
 10
2326.707091791275
 20
547.466457891756
 10
2326.954488972641
 20
548.070237900997
 10
2327.278768701545
 20
548.633977939698
 10
2327.686773478285
 20
549.153800899232
 10
2328.185345803158
 20
549.625829670974
 10
2328.906161696201
 20
550.161208776426
 10
2329.666611346242
 20
550.624526101283
 10
2330.463276572956
 20
551.019388910095
 10
2331.29273919602
 20
551.349404467412
 10
2332.151581035111
 20
551.618180037783
 10
2333.036383909905
 20
551.829322885757
 10
2333.943729640078
 20
551.986440275885
 10
2334.870200045307
 20
552.093139472715
 10
2335.812376945269
 20
552.153027740798
 10
2336.766842159638
 20
552.169712344683
 10
2337.730177508092
 20
552.14680054892
 10
2338.698964810308
 20
552.087899618058
 10
2339.669785885961
 20
551.996616816647
 10
2340.639222554728
 20
551.876559409237
 10
2341.603856636286
 20
551.731334660377
 10
2342.56026995031
 20
551.564549834616
 10
2343.505044316477
 20
551.379812196505
 10
2344.434761554463
 20
551.180729010593
 10
2345.346003483946
 20
550.970907541429
 10
2346.2353519246
 20
550.753955053564
 10
2346.917333938432
 20
550.567052120546
 10
2347.5943946446
 20
550.349050100014
 10
2348.265285501002
 20
550.100989294528
 10
2348.928757965537
 20
549.823910006649
 10
2349.583563496107
 20
549.518852538936
 10
2350.228453550611
 20
549.18685719395
 10
2350.862179586948
 20
548.828964274251
 10
2351.483493063017
 20
548.446214082399
 10
2352.09114543672
 20
548.039646920954
 10
2352.683888165954
 20
547.610303092476
 10
2353.260472708621
 20
547.159222899526
 10
2353.819650522619
 20
546.687446644664
 10
2354.360173065848
 20
546.196014630449
 10
2354.880791796209
 20
545.685967159442
 10
2355.3802581716
 20
545.158344534204
 10
2355.857323649921
 20
544.614187057294
 10
2356.310739689072
 20
544.054535031272
 10
2356.739257746953
 20
543.480428758698
 10
2357.141629281462
 20
542.892908542134
 10
2357.516605750502
 20
542.293014684138
 10
2357.953867447262
 20
541.47720384542
 10
2358.318956295855
 20
540.630583796891
 10
2358.620188181148
 20
539.756768539005
 10
2358.865878988006
 20
538.859372072216
 10
2359.064344601294
 20
537.942008396976
 10
2359.223900905878
 20
537.008291513739
 10
2359.352863786623
 20
536.061835422959
 10
2359.459549128396
 20
535.106254125089
 10
2359.552272816061
 20
534.145161620583
 10
2359.639350734485
 20
533.182171909893
 10
2359.729098768532
 20
532.220898993475
 10
2359.82983280307
 20
531.26495687178
 10
2359.949868722962
 20
530.317959545262
 10
2360.097522413075
 20
529.383521014375
 10
2360.281109758274
 20
528.465255279573
 10
2360.508946643426
 20
527.566776341308
 10
2360.789348953394
 20
526.691698200035
 10
2361.130632573046
 20
525.843634856206
 10
2361.541113387247
 20
525.026200310276
 10
2362.029107280861
 20
524.243008562697
 10
2362.373118908387
 20
523.792611753863
 10
2362.753265231956
 20
523.379316239137
 10
2363.166889555371
 20
523.001376625061
 10
2363.611335182436
 20
522.657047518175
 10
2364.083945416954
 20
522.344583525022
 10
2364.582063562728
 20
522.062239252143
 10
2365.103032923562
 20
521.808269306078
 10
2365.644196803261
 20
521.580928293369
 10
2366.202898505626
 20
521.378470820557
 10
2366.776481334462
 20
521.199151494184
 10
2367.362288593572
 20
521.04122492079
 10
2367.957663586759
 20
520.902945706917
 10
2368.559949617827
 20
520.782568459106
 10
2369.16648999058
 20
520.678347783898
 10
2369.774628008821
 20
520.588538287835
 10
2370.381706976354
 20
520.511394577458
 10
2370.985070196981
 20
520.445171259307
 10
2371.582060974507
 20
520.388122939925
 10
2372.170022612735
 20
520.338504225853
 10
2372.746298415467
 20
520.294569723631
 10
2373.377493116124
 20
520.255255748759
 10
2374.012597741305
 20
520.229616558211
 10
2374.650772466042
 20
520.21804190746
 10
2375.291177465365
 20
520.220921551983
 10
2375.932972914307
 20
520.238645247252
 10
2376.575318987899
 20
520.271602748744
 10
2377.217375861173
 20
520.320183811933
 10
2377.858303709158
 20
520.384778192294
 10
2378.497262706887
 20
520.4657756453
 10
2379.133413029391
 20
520.563565926428
 10
2379.765914851702
 20
520.678538791153
 10
2380.39392834885
 20
520.811083994947
 10
2381.016613695868
 20
520.961591293287
 10
2381.633131067786
 20
521.130450441647
 10
2382.242640639635
 20
521.318051195501
 10
2382.844302586449
 20
521.524783310325
 10
2383.437277083256
 20
521.751036541594
 10
2384.020724305089
 20
521.997200644781
 10
2384.59380442698
 20
522.263665375362
 10
2385.155677623959
 20
522.550820488812
 10
2385.604210906149
 20
522.803429855408
 10
2386.044391130321
 20
523.076249072205
 10
2386.475493422952
 20
523.368405173246
 10
2386.896792910522
 20
523.679025192571
 10
2387.307564719511
 20
524.007236164225
 10
2387.707083976397
 20
524.352165122247
 10
2388.09462580766
 20
524.712939100681
 10
2388.469465339779
 20
525.088685133569
 10
2388.830877699233
 20
525.478530254953
 10
2389.1781380125
 20
525.881601498875
 10
2389.510521406061
 20
526.297025899377
 10
2389.827303006395
 20
526.723930490501
 10
2390.12775793998
 20
527.161442306289
 10
2390.411161333296
 20
527.608688380783
 10
2390.676788312822
 20
528.064795748026
 10
2390.923914005038
 20
528.52889144206
 10
2391.151813536421
 20
529.000102496926
 10
2391.359762033452
 20
529.477555946667
 10
2391.54703462261
 20
529.960378825325
 10
2391.712906430374
 20
530.447698166942
  0
ENDBLK
  5
EC
100
AcDbEntity
  8
0
100
AcDbBlockEnd
  0
BLOCK
  5
EF
100
AcDbEntity
  8
0
100
AcDbBlockBegin
  2
*E25
 70
           1
 10
0.0
 20
0.0
 30
0.0
  3
*E25
  1

  0
LWPOLYLINE
  5
F0
100
AcDbEntity
  8
0
370
           0
  6
Continuous
 62
           7
100
AcDbPolyline
 90
        4
 70
           0
 10
1919.551680532049
 20
402.635092517999
 10
1928.175006954876
 20
490.650579054412
 10
1953.453968819858
 20
488.173870143626
 10
1944.818148310686
 20
400.030860533787
  0
ENDBLK
  5
F1
100
AcDbEntity
  8
0
100
AcDbBlockEnd
  0
BLOCK
  5
F4
100
AcDbEntity
  8
0
100
AcDbBlockBegin
  2
*E26
 70
           1
 10
0.0
 20
0.0
 30
0.0
  3
*E26
  1

  0
LWPOLYLINE
  5
F5
100
AcDbEntity
  8
0
370
           0
  6
Continuous
 62
           7
100
AcDbPolyline
 90
        4
 70
           0
 10
513.717176469348
 20
370.940524437694
 10
501.686914671088
 20
459.022774642064
 10
526.853271872336
 20
462.45999229871
 10
538.883533670596
 20
374.37774209434
  0
ENDBLK
  5
F6
100
AcDbEntity
  8
0
100
AcDbBlockEnd
  0
BLOCK
  5
FC
100
AcDbEntity
  8
0
100
AcDbBlockBegin
  2
*E27
 70
           1
 10
0.0
 20
0.0
 30
0.0
  3
*E27
  1

  0
LWPOLYLINE
  5
FD
100
AcDbEntity
  8
0
370
           0
  6
Continuous
 62
           7
100
AcDbPolyline
 90
      141
 70
           0
 10
2162.880266172299
 20
373.199175658566
 10
2160.970125447007
 20
373.496977190149
 10
2159.059926242837
 20
373.794405546453
 10
2157.149668669208
 20
374.091460710627
 10
2155.239352835534
 20
374.388142665821
 10
2153.328978851232
 20
374.684451395183
 10
2151.418546825717
 20
374.980386881865
 10
2149.508056868404
 20
375.275949109014
 10
2147.597509088711
 20
375.571138059781
 10
2145.686903596052
 20
375.865953717315
 10
2143.776240499844
 20
376.160396064765
 10
2141.865519909502
 20
376.454465085281
 10
2139.954741934442
 20
376.748160762012
 10
2138.04390668408
 20
377.041483078108
 10
2136.133014267832
 20
377.334432016718
 10
2134.222064795113
 20
377.627007560992
 10
2132.311058375339
 20
377.919209694078
 10
2130.399995117927
 20
378.211038399127
 10
2128.488875132292
 20
378.502493659288
 10
2126.577698527849
 20
378.793575457711
 10
2124.666465414015
 20
379.084283777544
 10
2124.299484916179
 20
379.139774091901
 10
2123.93242242724
 20
379.19471302834
 10
2123.565282734288
 20
379.249131936949
 10
2123.198070624412
 20
379.303062167815
 10
2122.830790884701
 20
379.356535071029
 10
2122.463448302242
 20
379.409581996677
 10
2122.096047664126
 20
379.46223429485
 10
2121.728593757442
 20
379.514523315635
 10
2121.361091369278
 20
379.56648040912
 10
2120.993545286724
 20
379.618136925395
 10
2120.625960296868
 20
379.669524214549
 10
2120.258341186799
 20
379.720673626668
 10
2119.890692743607
 20
379.771616511843
 10
2119.523019754379
 20
379.822384220162
 10
2119.155327006207
 20
379.873008101712
 10
2118.787619286178
 20
379.923519506584
 10
2118.41990138138
 20
379.973949784864
 10
2118.052178078905
 20
380.024330286643
 10
2117.68445416584
 20
380.074692362007
 10
2117.316734429273
 20
380.125067361047
 10
2116.217127894345
 20
380.27622769505
 10
2115.11762403747
 20
380.428197243799
 10
2114.018200775871
 20
380.580804123337
 10
2112.918836026769
 20
380.733876449709
 10
2111.819507707386
 20
380.887242338957
 10
2110.720193734944
 20
381.040729907126
 10
2109.620872026664
 20
381.19416727026
 10
2108.521520499768
 20
381.347382544402
 10
2107.422117071477
 20
381.500203845597
 10
2106.322639659013
 20
381.652459289887
 10
2105.223066179598
 20
381.803976993317
 10
2104.123374550454
 20
381.954585071931
 10
2103.023542688802
 20
382.104111641772
 10
2101.923548511863
 20
382.252384818885
 10
2100.82336993686
 20
382.399232719312
 10
2099.722984881013
 20
382.544483459099
 10
2098.622371261546
 20
382.687965154287
 10
2097.521506995678
 20
382.829505920923
 10
2096.420370000632
 20
382.968933875048
 10
2095.31893819363
 20
383.106077132708
 10
2092.588696118769
 20
383.442242933318
 10
2089.858269912723
 20
383.776921476534
 10
2087.12766406048
 20
384.110143683086
 10
2084.396883047028
 20
384.441940473706
 10
2081.665931357354
 20
384.772342769125
 10
2078.934813476447
 20
385.101381490075
 10
2076.203533889294
 20
385.429087557286
 10
2073.472097080883
 20
385.75549189149
 10
2070.740507536201
 20
386.080625413417
 10
2068.008769740237
 20
386.4045190438
 10
2065.276888177978
 20
386.72720370337
 10
2062.544867334413
 20
387.048710312857
 10
2059.812711694528
 20
387.369069792993
 10
2057.080425743312
 20
387.68831306451
 10
2054.348013965753
 20
388.006471048138
 10
2051.615480846838
 20
388.323574664608
 10
2048.882830871555
 20
388.639654834652
 10
2046.150068524891
 20
388.954742479002
 10
2043.417198291836
 20
389.268868518388
 10
2040.684224657375
 20
389.582063873541
 10
2037.825134703021
 20
389.908270514475
 10
2034.96584043387
 20
390.232665674846
 10
2032.106355945845
 20
390.555373780155
 10
2029.246695334867
 20
390.876519255901
 10
2026.386872696859
 20
391.196226527581
 10
2023.526902127745
 20
391.514620020695
 10
2020.666797723445
 20
391.831824160743
 10
2017.806573579883
 20
392.147963373224
 10
2014.946243792981
 20
392.463162083635
 10
2012.085822458661
 20
392.777544717477
 10
2009.225323672847
 20
393.091235700248
 10
2006.364761531459
 20
393.404359457448
 10
2003.504150130421
 20
393.717040414575
 10
2000.643503565655
 20
394.029402997129
 10
1997.782835933084
 20
394.341571630608
 10
1994.92216132863
 20
394.653670740512
 10
1992.061493848215
 20
394.965824752339
 10
1989.200847587761
 20
395.278158091589
 10
1986.340236643192
 20
395.590795183761
 10
1983.47967511043
 20
395.903860454353
 10
1982.225548363963
 20
396.040987549712
 10
1980.971372291526
 20
396.177660418938
 10
1979.717150299116
 20
396.313910346481
 10
1978.462885792725
 20
396.449768616793
 10
1977.20858217835
 20
396.585266514325
 10
1975.954242861986
 20
396.720435323531
 10
1974.699871249628
 20
396.85530632886
 10
1973.445470747271
 20
396.989910814765
 10
1972.191044760911
 20
397.124280065698
 10
1970.936596696541
 20
397.25844536611
 10
1969.682129960159
 20
397.392438000453
 10
1968.427647957758
 20
397.526289253178
 10
1967.173154095334
 20
397.660030408737
 10
1965.918651778882
 20
397.793692751583
 10
1964.664144414398
 20
397.927307566165
 10
1963.409635407876
 20
398.060906136937
 10
1962.155128165311
 20
398.194519748349
 10
1960.900626092699
 20
398.328179684854
 10
1959.646132596035
 20
398.461917230903
 10
1958.391651081314
 20
398.595763670948
 10
1957.713044933222
 20
398.668168224772
 10
1957.034431460945
 20
398.740504394559
 10
1956.355810674824
 20
398.812772179215
 10
1955.677182585197
 20
398.884971577648
 10
1954.998547202403
 20
398.957102588763
 10
1954.319904536781
 20
399.029165211468
 10
1953.641254598668
 20
399.101159444671
 10
1952.962597398404
 20
399.173085287277
 10
1952.283932946327
 20
399.244942738194
 10
1951.605261252777
 20
399.316731796328
 10
1950.92658232809
 20
399.388452460588
 10
1950.247896182607
 20
399.460104729879
 10
1949.569202826667
 20
399.531688603108
 10
1948.890502270606
 20
399.603204079183
 10
1948.211794524765
 20
399.67465115701
 10
1947.533079599482
 20
399.746029835496
 10
1946.854357505095
 20
399.817340113548
 10
1946.175628251943
 20
399.888581990073
 10
1945.496891850366
 20
399.959755463979
 10
1944.818148310701
 20
400.030860534171
  0
ENDBLK
  5
FE
100
AcDbEntity
  8
0
100
AcDbBlockEnd
  0
BLOCK
  5
101
100
AcDbEntity
  8
0
100
AcDbBlockBegin
  2
*E28
 70
           1
 10
0.0
 20
0.0
 30
0.0
  3
*E28
  1

  0
LWPOLYLINE
  5
102
100
AcDbEntity
  8
0
370
           0
  6
Continuous
 62
           7
100
AcDbPolyline
 90
      121
 70
           0
 10
1919.551680532064
 20
402.635092518383
 10
1916.376350276834
 20
402.9487770986
 10
1913.200931383924
 20
403.261574562732
 10
1910.02542422527
 20
403.573484875032
 10
1906.849829172808
 20
403.884507999756
 10
1903.674146598471
 20
404.194643901156
 10
1900.498376874194
 20
404.503892543486
 10
1897.322520371913
 20
404.812253891001
 10
1894.146577463561
 20
405.119727907955
 10
1890.970548521074
 20
405.4263145586
 10
1887.794433916387
 20
405.732013807192
 10
1884.618234021434
 20
406.036825617985
 10
1881.44194920815
 20
406.340749955231
 10
1878.265579848471
 20
406.643786783185
 10
1875.089126314329
 20
406.945936066102
 10
1871.912588977662
 20
407.247197768234
 10
1868.735968210402
 20
407.547571853836
 10
1865.559264384486
 20
407.847058287162
 10
1862.382477871847
 20
408.145657032466
 10
1859.205609044421
 20
408.443368054001
 10
1856.028658274142
 20
408.740191316022
 10
1854.721391456454
 20
408.862018069377
 10
1853.414083573276
 20
408.983526651388
 10
1852.106727789722
 20
409.104616512211
 10
1850.799317270905
 20
409.225187101999
 10
1849.491845181937
 20
409.345137870906
 10
1848.184304687932
 20
409.464368269087
 10
1846.876688954002
 20
409.582777746695
 10
1845.56899114526
 20
409.700265753886
 10
1844.261204426819
 20
409.816731740811
 10
1842.953321963791
 20
409.932075157627
 10
1841.64533692129
 20
410.046195454487
 10
1840.337242464428
 20
410.158992081545
 10
1839.029031758318
 20
410.270364488955
 10
1837.720697968073
 20
410.380212126871
 10
1836.412234258805
 20
410.488434445448
 10
1835.103633795628
 20
410.59493089484
 10
1833.794889743654
 20
410.6996009252
 10
1832.485995267997
 20
410.802343986683
 10
1831.176943533768
 20
410.903059529443
 10
1829.86772770608
 20
411.001647003634
 10
1824.757389051014
 20
411.381190261005
 10
1819.64690983109
 20
411.758842557341
 10
1814.536294786672
 20
412.134662446776
 10
1809.425548658123
 20
412.508708483443
 10
1804.314676185809
 20
412.881039221474
 10
1799.203682110092
 20
413.251713215003
 10
1794.092571171336
 20
413.620789018163
 10
1788.981348109905
 20
413.988325185088
 10
1783.870017666163
 20
414.354380269909
 10
1778.758584580474
 20
414.719012826761
 10
1773.647053593201
 20
415.082281409776
 10
1768.535429444708
 20
415.444244573088
 10
1763.423716875358
 20
415.80496087083
 10
1758.311920625516
 20
416.164488857134
 10
1753.200045435546
 20
416.522887086134
 10
1748.08809604581
 20
416.880214111963
 10
1742.976077196674
 20
417.236528488754
 10
1737.863993628499
 20
417.59188877064
 10
1732.751850081652
 20
417.946353511754
 10
1727.639651296494
 20
418.29998126623
 10
1726.931029588683
 20
418.348025970444
 10
1726.222296263765
 20
418.394312991998
 10
1725.513458467913
 20
418.438946118666
 10
1724.804523347304
 20
418.482029138224
 10
1724.09549804811
 20
418.523665838447
 10
1723.386389716507
 20
418.56396000711
 10
1722.677205498669
 20
418.603015431989
 10
1721.96795254077
 20
418.640935900859
 10
1721.258637988984
 20
418.677825201494
 10
1720.549268989488
 20
418.71378712167
 10
1719.839852688453
 20
418.748925449163
 10
1719.130396232056
 20
418.783343971747
 10
1718.42090676647
 20
418.817146477198
 10
1717.71139143787
 20
418.850436753291
 10
1717.001857392431
 20
418.883318587801
 10
1716.292311776326
 20
418.915895768503
 10
1715.582761735731
 20
418.948272083173
 10
1714.873214416819
 20
418.980551319585
 10
1714.163676965766
 20
419.012837265515
 10
1713.454156528745
 20
419.045233708739
 10
1710.122609340577
 20
419.198571540107
 10
1706.791113382027
 20
419.353281775459
 10
1703.459655813115
 20
419.509037921842
 10
1700.12822379386
 20
419.665513486304
 10
1696.796804484282
 20
419.822381975892
 10
1693.465385044402
 20
419.979316897651
 10
1690.133952634239
 20
420.13599175863
 10
1686.802494413813
 20
420.292080065876
 10
1683.470997543144
 20
420.447255326436
 10
1680.139449182253
 20
420.601191047356
 10
1676.807836491159
 20
420.753560735684
 10
1673.476146629882
 20
420.904037898466
 10
1670.144366758442
 20
421.052296042751
 10
1666.812484036859
 20
421.198008675584
 10
1663.480485625154
 20
421.340849304014
 10
1660.148358683345
 20
421.480491435086
 10
1656.816090371453
 20
421.616608575849
 10
1653.483667849499
 20
421.748874233349
 10
1650.151078277501
 20
421.876961914633
 10
1646.818308815481
 20
422.000545126748
 10
1645.259339163906
 20
422.055918124379
 10
1643.700257112925
 20
422.108636315925
 10
1642.141069447497
 20
422.158699570248
 10
1640.581782952577
 20
422.206107756207
 10
1639.022404413122
 20
422.250860742663
 10
1637.462940614088
 20
422.292958398477
 10
1635.903398340433
 20
422.33240059251
 10
1634.343784377113
 20
422.369187193622
 10
1632.784105509085
 20
422.403318070674
 10
1631.224368521304
 20
422.434793092526
 10
1629.664580198729
 20
422.463612128039
 10
1628.104747326315
 20
422.489775046074
 10
1626.544876689019
 20
422.513281715491
 10
1624.984975071798
 20
422.534132005152
 10
1623.425049259608
 20
422.552325783916
 10
1621.865106037407
 20
422.567862920644
 10
1620.30515219015
 20
422.580743284197
 10
1618.745194502795
 20
422.590966743436
 10
1617.185239760298
 20
422.59853316722
 10
1615.625294747616
 20
422.603442424412
  0
ENDBLK
  5
103
100
AcDbEntity
  8
0
100
AcDbBlockEnd
  0
BLOCK
  5
10A
100
AcDbEntity
  8
0
100
AcDbBlockBegin
  2
*E29
 70
           1
 10
0.0
 20
0.0
 30
0.0
  3
*E29
  1

  0
LWPOLYLINE
  5
10B
100
AcDbEntity
  8
0
370
           0
  6
Continuous
 62
           7
100
AcDbPolyline
 90
      461
 70
           0
 38
0.000000015821
 10
1490.160798541793
 20
320.086806537445
 10
1489.531950286238
 20
318.947447131257
 10
1488.951516894813
 20
317.77283607266
 10
1488.419871613716
 20
316.566231119431
 10
1487.937387689142
 20
315.330890029346
 10
1487.504438367286
 20
314.070070560182
 10
1487.121396894347
 20
312.787030469715
 10
1486.788636516519
 20
311.485027515723
 10
1486.50653048
 20
310.167319455982
 10
1486.275452030984
 20
308.837164048269
 10
1486.095774415669
 20
307.49781905036
 10
1485.967870880251
 20
306.152542220033
 10
1485.892114670927
 20
304.804591315063
 10
1485.868879033891
 20
303.457224093227
 10
1485.898537215341
 20
302.113698312303
 10
1485.981462461472
 20
300.777271730067
 10
1486.118028018482
 20
299.451202104295
 10
1486.308607132566
 20
298.138747192764
 10
1486.553573049921
 20
296.843164753251
 10
1486.853299016742
 20
295.567712543532
 10
1487.208158279227
 20
294.315648321385
 10
1487.581741408784
 20
293.21440657096
 10
1488.016867475343
 20
292.127432694922
 10
1488.510819081011
 20
291.057008045245
 10
1489.060878827895
 20
290.005413973904
 10
1489.664329318102
 20
288.974931832873
 10
1490.318453153738
 20
287.967842974126
 10
1491.02053293691
 20
286.986428749636
 10
1491.767851269724
 20
286.032970511378
 10
1492.557690754287
 20
285.109749611327
 10
1493.387333992706
 20
284.219047401455
 10
1494.254063587087
 20
283.363145233738
 10
1495.155162139537
 20
282.544324460148
 10
1496.087912252162
 20
281.764866432661
 10
1497.04959652707
 20
281.02705250325
 10
1498.037497566366
 20
280.33316402389
 10
1499.048897972158
 20
279.685482346554
 10
1500.081080346552
 20
279.086288823217
 10
1501.131327291654
 20
278.537864805852
 10
1502.196921409572
 20
278.042491646434
 10
1503.275145302411
 20
277.602450696937
 10
1505.185040365101
 20
276.909101606038
 10
1507.116354354031
 20
276.270675625287
 10
1509.06740089135
 20
275.68604720405
 10
1511.036493599207
 20
275.154090791692
 10
1513.021946099752
 20
274.673680837578
 10
1515.022072015133
 20
274.243691791074
 10
1517.035184967499
 20
273.862998101545
 10
1519.059598579
 20
273.530474218356
 10
1521.093626471785
 20
273.244994590872
 10
1523.135582268001
 20
273.00543366846
 10
1525.1837795898
 20
272.810665900483
 10
1527.236532059329
 20
272.659565736308
 10
1529.292153298738
 20
272.551007625299
 10
1531.348956930175
 20
272.483866016823
 10
1533.40525657579
 20
272.457015360244
 10
1535.459365857732
 20
272.469330104928
 10
1537.509598398149
 20
272.519684700239
 10
1539.554267819192
 20
272.606953595544
 10
1541.591687743008
 20
272.730011240208
 10
1543.620171791748
 20
272.887732083595
 10
1546.53048266666
 20
273.130544802796
 10
1549.465485102392
 20
273.36472974838
 10
1552.419695211498
 20
273.598945354024
 10
1555.38762910653
 20
273.841850053405
 10
1558.363802900042
 20
274.102102280199
 10
1561.342732704586
 20
274.388360468084
 10
1564.318934632717
 20
274.709283050736
 10
1567.286924796986
 20
275.073528461832
 10
1570.241219309947
 20
275.489755135049
 10
1573.176334284153
 20
275.966621504064
 10
1576.086785832157
 20
276.512786002554
 10
1578.967090066513
 20
277.136907064195
 10
1581.811763099774
 20
277.847643122665
 10
1584.615321044492
 20
278.653652611639
 10
1587.37228001322
 20
279.563593964796
 10
1590.077156118513
 20
280.586125615812
 10
1592.724465472922
 20
281.729905998363
 10
1595.308724189002
 20
283.003593546127
 10
1597.824448379304
 20
284.41584669278
 10
1600.266154156383
 20
285.975323872
 10
1601.25371282695
 20
286.759375437658
 10
1602.113091930718
 20
287.669414705289
 10
1602.848327062598
 20
288.693037377703
 10
1603.463453817501
 20
289.81783915771
 10
1603.962507790337
 20
291.031415748119
 10
1604.349524576016
 20
292.32136285174
 10
1604.628539769449
 20
293.675276171381
 10
1604.803588965547
 20
295.080751409854
 10
1604.878707759219
 20
296.525384269967
 10
1604.857931745376
 20
297.996770454529
 10
1604.745296518929
 20
299.482505666351
 10
1604.544837674789
 20
300.970185608242
 10
1604.260590807865
 20
302.447405983011
 10
1603.896591513068
 20
303.901762493467
 10
1603.456875385309
 20
305.320850842422
 10
1602.945478019497
 20
306.692266732683
 10
1602.366435010545
 20
308.003605867061
 10
1601.723781953361
 20
309.242463948365
 10
1601.021554442856
 20
310.396436679404
 10
1600.263788073942
 20
311.453119762989
 10
1599.54364681488
 20
312.236914348827
 10
1598.742261018805
 20
312.864156619512
 10
1597.86663206694
 20
313.349386963153
 10
1596.923761340508
 20
313.707145767857
 10
1595.920650220731
 20
313.951973421734
 10
1594.864300088833
 20
314.09841031289
 10
1593.761712326037
 20
314.160996829436
 10
1592.619888313566
 20
314.154273359477
 10
1591.445829432642
 20
314.092780291124
 10
1590.246537064489
 20
313.991058012484
 10
1589.02901259033
 20
313.863646911666
 10
1587.800257391388
 20
313.725087376777
 10
1586.567272848885
 20
313.589919795926
 10
1585.337060344045
 20
313.472684557221
 10
1584.11662125809
 20
313.38792204877
 10
1582.912956972244
 20
313.350172658682
 10
1581.73306886773
 20
313.373976775065
 10
1580.583958325771
 20
313.473874786027
 10
1579.472626727589
 20
313.664407079676
 10
1578.406075454408
 20
313.96011404412
 10
1577.458282702097
 20
314.276730640811
 10
1576.482590985839
 20
314.59706245049
 10
1575.48570293667
 20
314.924175999014
 10
1574.474321185626
 20
315.261137812243
 10
1573.455148363746
 20
315.611014416034
 10
1572.434887102065
 20
315.976872336245
 10
1571.420240031622
 20
316.361778098735
 10
1570.417909783453
 20
316.768798229361
 10
1569.434598988595
 20
317.200999253983
 10
1568.477010278086
 20
317.661447698458
 10
1567.551846282962
 20
318.153210088644
 10
1566.66580963426
 20
318.6793529504
 10
1565.825602963018
 20
319.242942809583
 10
1565.037928900273
 20
319.847046192052
 10
1564.309490077062
 20
320.494729623665
 10
1563.646989124421
 20
321.189059630281
 10
1563.057128673388
 20
321.933102737757
 10
1562.546611355001
 20
322.729925471951
 10
1562.122139800295
 20
323.582594358722
 10
1561.790416640309
 20
324.494175923928
 10
1561.616518586757
 20
325.26558373687
 10
1561.549933126433
 20
326.048412679194
 10
1561.584266985056
 20
326.838395562304
 10
1561.713126888347
 20
327.631265197606
 10
1561.930119562027
 20
328.422754396504
 10
1562.228851731817
 20
329.208595970405
 10
1562.602930123437
 20
329.984522730713
 10
1563.045961462607
 20
330.746267488834
 10
1563.551552475049
 20
331.489563056174
 10
1564.113309886482
 20
332.210142244136
 10
1564.724840422629
 20
332.903737864127
 10
1565.379750809208
 20
333.566082727552
 10
1566.071647771941
 20
334.192909645816
 10
1566.794138036548
 20
334.779951430325
 10
1567.54082832875
 20
335.322940892483
 10
1568.305325374268
 20
335.817610843696
 10
1569.081235898822
 20
336.25969409537
 10
1569.862166628132
 20
336.644923458909
 10
1570.64172428792
 20
336.969031745719
 10
1571.413515603906
 20
337.227751767205
 10
1574.618323576905
 20
338.131903524357
 10
1577.839579627451
 20
338.971558920055
 10
1581.076165119602
 20
339.749877810207
 10
1584.326961417417
 20
340.470020050718
 10
1587.590849884954
 20
341.135145497497
 10
1590.866711886271
 20
341.74841400645
 10
1594.153428785426
 20
342.312985433484
 10
1597.449881946478
 20
342.832019634505
 10
1600.754952733484
 20
343.308676465422
 10
1604.067522510502
 20
343.74611578214
 10
1607.386472641591
 20
344.147497440566
 10
1610.71068449081
 20
344.515981296608
 10
1614.039039422216
 20
344.854727206172
 10
1617.370418799867
 20
345.166895025165
 10
1620.703703987821
 20
345.455644609494
 10
1624.037776350137
 20
345.724135815066
 10
1627.371517250874
 20
345.975528497789
 10
1630.703808054088
 20
346.212982513567
 10
1634.033530123838
 20
346.43965771831
 10
1637.359564824183
 20
346.658713967923
 10
1638.867627743832
 20
346.769688781976
 10
1640.405162703657
 20
346.902847004791
 10
1641.966872361854
 20
347.049732816389
 10
1643.547459376618
 20
347.201890396794
 10
1645.141626406143
 20
347.350863926028
 10
1646.744076108625
 20
347.488197584113
 10
1648.34951114226
 20
347.605435551072
 10
1649.952634165241
 20
347.694122006928
 10
1651.548147835765
 20
347.745801131703
 10
1653.130754812025
 20
347.752017105419
 10
1654.695157752218
 20
347.704314108099
 10
1656.236059314538
 20
347.594236319766
 10
1657.748162157181
 20
347.413327920441
 10
1659.226168938341
 20
347.153133090148
 10
1660.664782316213
 20
346.805196008909
 10
1662.058704948993
 20
346.361060856747
 10
1663.402639494875
 20
345.812271813683
 10
1664.691288612056
 20
345.150373059741
 10
1665.919354958729
 20
344.366908774943
 10
1667.081541193089
 20
343.453423139311
 10
1667.783986762976
 20
342.741751562008
 10
1668.361519483941
 20
341.947404069632
 10
1668.820073926611
 20
341.078993807785
 10
1669.165584661611
 20
340.145133922068
 10
1669.403986259569
 20
339.154437558085
 10
1669.541213291108
 20
338.115517861436
 10
1669.583200326856
 20
337.036987977724
 10
1669.535881937438
 20
335.927461052551
 10
1669.40519269348
 20
334.795550231518
 10
1669.197067165607
 20
333.649868660228
 10
1668.917439924446
 20
332.499029484282
 10
1668.572245540622
 20
331.351645849282
 10
1668.167418584761
 20
330.216330900831
 10
1667.70889362749
 20
329.10169778453
 10
1667.202605239433
 20
328.01635964598
 10
1666.654487991217
 20
326.968929630785
 10
1666.070476453468
 20
325.968020884546
 10
1665.45650519681
 20
325.022246552865
 10
1664.818508791871
 20
324.140219781344
 10
1664.162421809276
 20
323.330553715584
 10
1663.380842736847
 20
322.549026311167
 10
1662.50760283112
 20
321.896521159294
 10
1661.553208056975
 20
321.358443844504
 10
1660.528164379293
 20
320.920199951337
 10
1659.442977762954
 20
320.567195064332
 10
1658.308154172838
 20
320.284834768028
 10
1657.134199573826
 20
320.058524646966
 10
1655.931619930798
 20
319.873670285684
 10
1654.710921208634
 20
319.715677268723
 10
1653.482609372215
 20
319.569951180621
 10
1652.257190386421
 20
319.421897605918
 10
1651.045170216132
 20
319.256922129154
 10
1649.857054826229
 20
319.060430334868
 10
1648.703350181592
 20
318.8178278076
 10
1647.594562247101
 20
318.514520131889
 10
1646.541196987638
 20
318.135912892274
 10
1645.553760368081
 20
317.667411673296
 10
1644.642758353311
 20
317.094422059493
 10
1643.81869690821
 20
316.402349635405
 10
1643.092081997656
 20
315.576599985572
 10
1642.272479172958
 20
314.436280867048
 10
1641.48526121452
 20
313.23958497773
 10
1640.734801966944
 20
311.991987860955
 10
1640.025475274834
 20
310.698965060054
 10
1639.361654982793
 20
309.365992118364
 10
1638.747714935423
 20
307.998544579216
 10
1638.18802897733
 20
306.602097985947
 10
1637.686970953114
 20
305.18212788189
 10
1637.24891470738
 20
303.744109810379
 10
1636.878234084732
 20
302.293519314748
 10
1636.579302929771
 20
300.835831938331
 10
1636.356495087102
 20
299.376523224464
 10
1636.214184401327
 20
297.921068716478
 10
1636.15674471705
 20
296.47494395771
 10
1636.188549878874
 20
295.043624491493
 10
1636.313973731403
 20
293.632585861161
 10
1636.537390119238
 20
292.247303610048
 10
1636.863172886985
 20
290.893253281489
 10
1637.295695879245
 20
289.575910418817
 10
1637.839332940623
 20
288.300750565367
 10
1638.451420484854
 20
287.195277551579
 10
1639.171476808813
 20
286.190133738028
 10
1639.991300611213
 20
285.278719168632
 10
1640.902690590769
 20
284.454433887308
 10
1641.897445446196
 20
283.710677937974
 10
1642.967363876207
 20
283.040851364549
 10
1644.104244579517
 20
282.438354210948
 10
1645.299886254842
 20
281.896586521091
 10
1646.546087600895
 20
281.408948338896
 10
1647.83464731639
 20
280.968839708279
 10
1649.157364100044
 20
280.569660673159
 10
1650.506036650569
 20
280.204811277454
 10
1651.872463666681
 20
279.867691565081
 10
1653.248443847094
 20
279.551701579958
 10
1654.625775890522
 20
279.250241366003
 10
1655.99625849568
 20
278.956710967133
 10
1657.351690361283
 20
278.664510427267
 10
1658.683870186045
 20
278.367039790322
 10
1659.984596668681
 20
278.057699100216
 10
1661.245668507904
 20
277.729888400867
 10
1662.336787652339
 20
277.448506497695
 10
1663.434193161451
 20
277.198891817828
 10
1664.537404800872
 20
276.978936232006
 10
1665.645942336236
 20
276.786531610967
 10
1666.759325533174
 20
276.61956982545
 10
1667.877074157318
 20
276.475942746196
 10
1668.998707974302
 20
276.353542243942
 10
1670.123746749756
 20
276.250260189429
 10
1671.251710249314
 20
276.163988453395
 10
1672.382118238608
 20
276.09261890658
 10
1673.514490483269
 20
276.034043419722
 10
1674.648346748931
 20
275.986153863561
 10
1675.783206801226
 20
275.946842108837
 10
1676.918590405785
 20
275.914000026287
 10
1678.054017328242
 20
275.885519486652
 10
1679.189007334228
 20
275.859292360671
 10
1680.323080189376
 20
275.833210519082
 10
1681.455755659317
 20
275.805165832626
 10
1682.586553509686
 20
275.77305017204
 10
1683.714993506112
 20
275.734755408065
 10
1684.791750562517
 20
275.703117185125
 10
1685.868684628703
 20
275.687414672288
 10
1686.945775180789
 20
275.685855379772
 10
1688.023001694896
 20
275.696646817795
 10
1689.100343647143
 20
275.717996496576
 10
1690.17778051365
 20
275.748111926332
 10
1691.255291770538
 20
275.785200617282
 10
1692.332856893927
 20
275.827470079644
 10
1693.410455359935
 20
275.873127823635
 10
1694.488066644685
 20
275.920381359475
 10
1695.565670224294
 20
275.967438197381
 10
1696.643245574884
 20
276.012505847571
 10
1697.720772172574
 20
276.053791820263
 10
1698.798229493484
 20
276.089503625676
 10
1699.875597013735
 20
276.117848774027
 10
1700.952854209445
 20
276.137034775536
 10
1702.029980556736
 20
276.145269140419
 10
1703.106955531727
 20
276.140759378895
 10
1704.183758610538
 20
276.121713001183
 10
1705.260369269289
 20
276.086337517499
 10
1705.979151270059
 20
276.0748524649
 10
1706.722718750851
 20
276.093885776656
 10
1707.486605542939
 20
276.136965973898
 10
1708.266345477594
 20
276.19762157776
 10
1709.057472386089
 20
276.269381109374
 10
1709.855520099695
 20
276.345773089873
 10
1710.656022449687
 20
276.420326040388
 10
1711.454513267334
 20
276.486568482053
 10
1712.246526383911
 20
276.538028935999
 10
1713.027595630689
 20
276.568235923359
 10
1713.79325483894
 20
276.570717965265
 10
1714.539037839938
 20
276.53900358285
 10
1715.260478464953
 20
276.466621297246
 10
1715.95311054526
 20
276.347099629585
 10
1716.612467912129
 20
276.173967101
 10
1717.234084396833
 20
275.940752232624
 10
1717.813493830645
 20
275.640983545588
 10
1718.346230044837
 20
275.268189561025
 10
1718.827826870681
 20
274.815898800068
 10
1719.25381813945
 20
274.277639783848
 10
1719.723245426901
 20
273.512450629355
 10
1720.117403791093
 20
272.714163149602
 10
1720.44018786343
 20
271.885862467937
 10
1720.695492275318
 20
271.030633707712
 10
1720.887211658159
 20
270.151561992277
 10
1721.019240643359
 20
269.251732444981
 10
1721.095473862323
 20
268.334230189174
 10
1721.119805946454
 20
267.402140348206
 10
1721.096131527157
 20
266.458548045428
 10
1721.028345235837
 20
265.506538404189
 10
1720.920341703898
 20
264.549196547838
 10
1720.776015562744
 20
263.589607599727
 10
1720.599261443781
 20
262.630856683205
 10
1720.393973978412
 20
261.676028921622
 10
1720.164047798042
 20
260.728209438328
 10
1719.913377534076
 20
259.790483356672
 10
1719.645857817917
 20
258.865935800005
 10
1719.365383280971
 20
257.957651891678
 10
1719.075848554643
 20
257.068716755038
 10
1718.781148270335
 20
256.202215513438
 10
1718.5347105522
 20
255.539569475701
 10
1718.257737369259
 20
254.884574473778
 10
1717.951375134429
 20
254.238381916933
 10
1717.616770260631
 20
253.602143214426
 10
1717.255069160781
 20
252.977009775522
 10
1716.867418247799
 20
252.364133009482
 10
1716.454963934604
 20
251.76466432557
 10
1716.018852634114
 20
251.179755133047
 10
1715.560230759248
 20
250.610556841176
 10
1715.080244722924
 20
250.058220859221
 10
1714.580040938062
 20
249.523898596443
 10
1714.060765817578
 20
249.008741462105
 10
1713.523565774394
 20
248.51390086547
 10
1712.969587221426
 20
248.0405282158
 10
1712.399976571593
 20
247.589774922358
 10
1711.815880237815
 20
247.162792394407
 10
1711.218444633009
 20
246.760732041208
 10
1710.608816170095
 20
246.384745272025
 10
1709.988141261991
 20
246.035983496121
 10
1709.357566321616
 20
245.715598122757
 10
1708.506458339597
 20
245.352276914777
 10
1707.631050530431
 20
245.063555676327
 10
1706.734206607074
 20
244.840833196387
 10
1705.818790282481
 20
244.675508263937
 10
1704.887665269609
 20
244.55897966796
 10
1703.943695281414
 20
244.482646197434
 10
1702.989744030853
 20
244.437906641342
 10
1702.028675230881
 20
244.416159788663
 10
1701.063352594455
 20
244.40880442838
 10
1700.096639834532
 20
244.407239349472
 10
1699.131400664067
 20
244.402863340919
 10
1698.170498796017
 20
244.387075191704
 10
1697.216797943337
 20
244.351273690807
 10
1696.273161818985
 20
244.286857627208
 10
1695.342454135917
 20
244.185225789888
 10
1694.427538607088
 20
244.037776967829
 10
1693.531278945455
 20
243.83590995001
 10
1692.656538863974
 20
243.571023525413
 10
1691.806182075601
 20
243.234516483018
 10
1690.983072293293
 20
242.817787611806
 10
1690.504115159064
 20
242.515019988859
 10
1690.058910752149
 20
242.172985736659
 10
1689.645955815355
 20
241.794484949626
 10
1689.263747091489
 20
241.382317722184
 10
1688.910781323357
 20
240.939284148753
 10
1688.585555253765
 20
240.468184323757
 10
1688.286565625521
 20
239.971818341617
 10
1688.01230918143
 20
239.452986296754
 10
1687.7612826643
 20
238.914488283592
 10
1687.531982816936
 20
238.359124396552
 10
1687.322906382147
 20
237.789694730057
 10
1687.132550102737
 20
237.208999378527
 10
1686.959410721514
 20
236.619838436385
 10
1686.801984981285
 20
236.025011998054
 10
1686.658769624855
 20
235.427320157955
 10
1686.528261395032
 20
234.82956301051
 10
1686.408957034622
 20
234.234540650142
 10
1686.299353286431
 20
233.645053171271
 10
1686.197946893267
 20
233.063900668321
 10
1686.103234597935
 20
232.493883235714
 10
1686.008267348007
 20
231.868764508307
 10
1685.926572656837
 20
231.238542740283
 10
1685.858612934734
 20
230.604019832939
 10
1685.804850592008
 20
229.965997687568
 10
1685.765748038968
 20
229.325278205466
 10
1685.741767685923
 20
228.68266328793
 10
1685.733371943183
 20
228.038954836254
 10
1685.741023221056
 20
227.394954751733
 10
1685.765183929851
 20
226.751464935663
 10
1685.806316479878
 20
226.10928728934
 10
1685.864883281447
 20
225.469223714059
 10
1685.941346744866
 20
224.832076111115
 10
1686.036169280444
 20
224.198646381804
 10
1686.149813298491
 20
223.569736427421
 10
1686.282741209315
 20
222.946148149261
 10
1686.435415423227
 20
222.32868344862
 10
1686.608298350534
 20
221.718144226793
 10
1686.801852401547
 20
221.115332385077
 10
1687.016539986575
 20
220.521049824765
 10
1687.252823515926
 20
219.936098447154
 10
1687.464726457481
 20
219.467074970606
 10
1687.697494431931
 20
219.004583055469
 10
1687.950322178172
 20
218.549421783577
 10
1688.222404435102
 20
218.102390236768
 10
1688.512935941615
 20
217.664287496875
 10
1688.821111436609
 20
217.235912645735
 10
1689.14612565898
 20
216.818064765184
 10
1689.487173347626
 20
216.411542937057
 10
1689.84344924144
 20
216.01714624319
 10
1690.214148079322
 20
215.635673765418
 10
1690.598464600167
 20
215.267924585577
 10
1690.995593542872
 20
214.914697785503
 10
1691.404729646332
 20
214.576792447031
 10
1691.825067649446
 20
214.255007651997
 10
1692.255802291108
 20
213.950142482237
 10
1692.696128310216
 20
213.662996019586
 10
1693.145240445665
 20
213.39436734588
 10
1693.602333436354
 20
213.145055542954
 10
1694.066602021177
 20
212.915859692645
 10
1694.537240939032
 20
212.707578876787
  0
ENDBLK
  5
10C
100
AcDbEntity
  8
0
100
AcDbBlockEnd
  0
BLOCK
  5
114
100
AcDbEntity
  8
0
100
AcDbBlockBegin
  2
*E30
 70
           1
 10
0.0
 20
0.0
 30
0.0
  3
*E30
  1

  0
LWPOLYLINE
  5
115
100
AcDbEntity
  8
0
370
           0
  6
Continuous
 62
           7
100
AcDbPolyline
 90
      281
 70
           0
 10
806.052040879962
 20
381.895309021128
 10
807.649137989026
 20
378.601479693052
 10
809.13806260591
 20
375.239708764727
 10
810.517991808568
 20
371.815688865611
 10
811.788102674955
 20
368.335112625164
 10
812.947572283027
 20
364.803672672842
 10
813.995577710737
 20
361.227061638105
 10
814.93129603604
 20
357.610972150413
 10
815.753904336892
 20
353.961096839223
 10
816.462579691247
 20
350.283128333994
 10
817.05649917706
 20
346.582759264184
 10
817.534839872286
 20
342.865682259254
 10
817.896778854879
 20
339.13758994866
 10
818.141493202795
 20
335.404174961863
 10
818.268159993988
 20
331.67112992832
 10
818.275956306413
 20
327.94414747749
 10
818.164059218025
 20
324.228920238831
 10
817.931645806778
 20
320.531140841803
 10
817.577893150628
 20
316.856501915865
 10
817.101978327529
 20
313.210696090473
 10
816.503078415436
 20
309.599415995089
 10
816.036328665149
 20
307.523854827331
 10
815.412012614815
 20
305.486657845594
 10
814.638781475008
 20
303.490837990225
 10
813.725286456303
 20
301.539408201575
 10
812.680178769271
 20
299.635381419993
 10
811.512109624489
 20
297.781770585827
 10
810.229730232529
 20
295.981588639429
 10
808.841691803966
 20
294.237848521147
 10
807.356645549372
 20
292.55356317133
 10
805.783242679323
 20
290.931745530328
 10
804.130134404391
 20
289.375408538492
 10
802.405971935151
 20
287.88756513617
 10
800.619406482176
 20
286.471228263711
 10
798.779089256041
 20
285.129410861466
 10
796.893671467318
 20
283.865125869783
 10
794.971804326583
 20
282.681386229013
 10
793.022139044408
 20
281.581204879504
 10
791.053326831368
 20
280.567594761606
 10
789.074018898036
 20
279.643568815669
 10
787.092866454987
 20
278.812139982042
 10
785.806048570629
 20
278.383463219407
 10
784.501605161095
 20
278.103074975946
 10
783.182227844794
 20
277.961524945819
 10
781.850608240136
 20
277.94936282319
 10
780.509437965531
 20
278.057138302219
 10
779.161408639387
 20
278.275401077068
 10
777.809211880114
 20
278.5947008419
 10
776.455539306121
 20
279.005587290874
 10
775.103082535819
 20
279.498610118155
 10
773.754533187616
 20
280.064319017902
 10
772.412582879923
 20
280.693263684278
 10
771.079923231147
 20
281.375993811444
 10
769.7592458597
 20
282.103059093562
 10
768.45324238399
 20
282.865009224794
 10
767.164604422427
 20
283.652393899301
 10
765.89602359342
 20
284.455762811246
 10
764.650191515379
 20
285.265665654789
 10
763.429799806714
 20
286.072652124092
 10
762.237540085833
 20
286.867271913317
 10
761.076103971146
 20
287.640074716626
 10
760.236618412879
 20
288.225437718509
 10
759.425342836152
 20
288.848667284024
 10
758.64162592374
 20
289.507635057397
 10
757.884816358417
 20
290.20021268286
 10
757.154262822958
 20
290.924271804641
 10
756.449314000136
 20
291.677684066968
 10
755.769318572726
 20
292.458321114072
 10
755.113625223502
 20
293.264054590181
 10
754.481582635238
 20
294.092756139523
 10
753.872539490709
 20
294.942297406328
 10
753.285844472687
 20
295.810550034827
 10
752.72084626395
 20
296.695385669245
 10
752.176893547269
 20
297.594675953814
 10
751.653335005419
 20
298.506292532763
 10
751.149519321175
 20
299.428107050319
 10
750.664795177311
 20
300.357991150713
 10
750.198511256601
 20
301.293816478173
 10
749.750016241819
 20
302.233454676928
 10
749.318658815739
 20
303.174777391208
 10
748.903787661136
 20
304.115656265241
 10
748.570909846384
 20
304.966049958526
 10
748.296492936049
 20
305.833056594896
 10
748.074174341198
 20
306.714885666314
 10
747.897591472894
 20
307.609746664743
 10
747.760381742203
 20
308.515849082147
 10
747.656182560188
 20
309.43140241049
 10
747.578631337914
 20
310.354616141736
 10
747.521365486445
 20
311.283699767847
 10
747.478022416848
 20
312.216862780788
 10
747.442239540185
 20
313.152314672523
 10
747.407654267521
 20
314.088264935014
 10
747.367904009922
 20
315.022923060226
 10
747.316626178451
 20
315.954498540122
 10
747.247458184173
 20
316.881200866666
 10
747.154037438153
 20
317.801239531821
 10
747.030001351455
 20
318.712824027551
 10
746.868987335144
 20
319.61416384582
 10
746.664632800285
 20
320.50346847859
 10
746.410575157941
 20
321.378947417827
 10
746.100451819178
 20
322.238810155494
 10
745.867504771397
 20
322.813459949805
 10
745.618941649547
 20
323.406590245151
 10
745.354376752253
 20
324.012998911841
 10
745.073424378138
 20
324.627483820186
 10
744.775698825826
 20
325.244842840497
 10
744.460814393941
 20
325.859873843085
 10
744.128385381107
 20
326.46737469826
 10
743.778026085947
 20
327.062143276333
 10
743.409350807087
 20
327.638977447614
 10
743.021973843149
 20
328.192675082414
 10
742.615509492757
 20
328.718034051044
 10
742.189572054536
 20
329.209852223815
 10
741.743775827109
 20
329.662927471037
 10
741.277735109101
 20
330.072057663021
 10
740.791064199134
 20
330.432040670077
 10
740.283377395833
 20
330.737674362517
 10
739.754288997823
 20
330.98375661065
 10
739.203413303726
 20
331.165085284787
 10
738.630364612166
 20
331.27645825524
 10
738.034757221768
 20
331.312673392319
 10
737.113375756595
 20
331.274770227313
 10
736.198260408822
 20
331.172689314743
 10
735.290467378021
 20
331.009724503363
 10
734.391052863761
 20
330.789169641933
 10
733.501073065612
 20
330.514318579207
 10
732.621584183146
 20
330.188465163943
 10
731.753642415931
 20
329.814903244899
 10
730.898303963538
 20
329.39692667083
 10
730.056625025537
 20
328.937829290492
 10
729.229661801498
 20
328.440904952644
 10
728.418470490992
 20
327.909447506042
 10
727.624107293588
 20
327.346750799442
 10
726.847628408856
 20
326.756108681601
 10
726.090090036368
 20
326.140815001277
 10
725.352548375692
 20
325.504163607225
 10
724.636059626399
 20
324.849448348203
 10
723.941679988059
 20
324.179963072968
 10
723.270465660242
 20
323.499001630276
 10
722.623472842519
 20
322.809857868883
 10
722.001757734459
 20
322.115825637547
 10
720.122749730912
 20
319.964220676296
 10
718.246291701184
 20
317.801580552805
 10
716.376105398384
 20
315.626572515036
 10
714.515912575621
 20
313.437863810952
 10
712.669434986006
 20
311.234121688516
 10
710.840394382647
 20
309.014013395689
 10
709.032512518656
 20
306.776206180436
 10
707.249511147141
 20
304.519367290718
 10
705.495112021212
 20
302.242163974496
 10
703.77303689398
 20
299.943263479735
 10
702.087007518553
 20
297.621333054397
 10
700.440745648042
 20
295.275039946445
 10
698.837973035556
 20
292.903051403839
 10
697.282411434205
 20
290.504034674544
 10
695.777782597098
 20
288.076657006523
 10
694.327808277346
 20
285.619585647736
 10
692.936210228059
 20
283.131487846148
 10
691.606710202345
 20
280.61103084972
 10
690.343029953315
 20
278.056881906415
 10
689.148891234078
 20
275.467708264195
 10
688.663993455382
 20
274.303849814498
 10
688.225537234318
 20
273.100829854806
 10
687.835195277995
 20
271.8636781795
 10
687.494640293523
 20
270.597424582963
 10
687.205544988009
 20
269.307098859576
 10
686.969582068563
 20
267.997730803722
 10
686.788424242293
 20
266.674350209783
 10
686.663744216308
 20
265.341986872141
 10
686.597214697716
 20
264.005670585176
 10
686.590508393627
 20
262.670431143273
 10
686.645298011148
 20
261.341298340812
 10
686.76325625739
 20
260.023301972176
 10
686.946055839459
 20
258.721471831746
 10
687.195369464466
 20
257.440837713905
 10
687.512869839518
 20
256.186429413035
 10
687.900229671725
 20
254.963276723517
 10
688.359121668195
 20
253.776409439734
 10
688.891218536037
 20
252.630857356067
 10
689.49819298236
 20
251.531650266899
 10
690.181717714272
 20
250.483817966612
 10
690.72655678023
 20
249.820480198993
 10
691.340219848435
 20
249.26261060176
 10
692.017079093989
 20
248.80314700245
 10
692.751506691992
 20
248.435027228598
 10
693.537874817546
 20
248.151189107738
 10
694.370555645752
 20
247.944570467408
 10
695.243921351712
 20
247.808109135143
 10
696.152344110527
 20
247.734742938479
 10
697.090196097298
 20
247.71740970495
 10
698.051849487126
 20
247.749047262094
 10
699.031676455113
 20
247.822593437445
 10
700.024049176361
 20
247.930986058539
 10
701.02333982597
 20
248.067162952913
 10
702.023920579041
 20
248.224061948101
 10
703.020163610677
 20
248.394620871639
 10
704.006441095978
 20
248.571777551064
 10
704.977125210046
 20
248.74846981391
 10
705.926588127983
 20
248.917635487714
 10
706.849202024888
 20
249.072212400011
 10
707.739339075864
 20
249.205138378336
 10
708.808668691612
 20
249.418514538355
 10
709.943111245973
 20
249.76319363926
 10
711.135229000285
 20
250.222090389799
 10
712.377584215882
 20
250.778119498722
 10
713.6627391541
 20
251.414195674777
 10
714.983256076274
 20
252.113233626715
 10
716.33169724374
 20
252.858148063285
 10
717.700624917833
 20
253.631853693236
 10
719.08260135989
 20
254.417265225316
 10
720.470188831244
 20
255.197297368277
 10
721.855949593232
 20
255.954864830868
 10
723.232445907189
 20
256.672882321836
 10
724.59224003445
 20
257.334264549933
 10
725.927894236351
 20
257.921926223907
 10
727.231970774228
 20
258.418782052507
 10
728.497031909416
 20
258.807746744483
 10
729.715639903249
 20
259.071735008585
 10
730.880357017065
 20
259.193661553562
 10
731.983745512198
 20
259.156441088162
 10
733.018367649983
 20
258.942988321136
 10
734.048092490225
 20
258.413854694679
 10
734.88239459228
 20
257.546212961771
 10
735.532327797046
 20
256.374702567412
 10
736.008945945417
 20
254.933962956608
 10
736.323302878289
 20
253.258633574361
 10
736.486452436558
 20
251.383353865675
 10
736.509448461121
 20
249.342763275552
 10
736.403344792873
 20
247.171501248996
 10
736.17919527271
 20
244.904207231011
 10
735.848053741528
 20
242.575520666598
 10
735.420974040223
 20
240.220081000764
 10
734.90901000969
 20
237.872527678508
 10
734.323215490825
 20
235.567500144836
 10
733.674644324525
 20
233.339637844751
 10
732.974350351685
 20
231.223580223255
 10
732.233387413201
 20
229.253966725353
 10
731.462809349969
 20
227.465436796047
 10
730.673670002886
 20
225.89262988034
 10
729.877023212845
 20
224.570185423236
 10
729.083922820745
 20
223.532742869738
 10
727.415886953886
 20
221.840068055928
 10
725.770886203754
 20
220.51237254477
 10
724.142506941279
 20
219.516753672822
 10
722.524335537393
 20
218.820308776645
 10
720.909958363027
 20
218.390135192796
 10
719.292961789111
 20
218.193330257836
 10
717.666932186577
 20
218.196991308322
 10
716.025455926357
 20
218.368215680816
 10
714.36211937938
 20
218.674100711873
 10
712.670508916579
 20
219.081743738056
 10
710.944210908884
 20
219.558242095923
 10
709.176811727226
 20
220.070693122032
 10
707.361897742537
 20
220.586194152943
 10
705.493055325748
 20
221.071842525215
 10
703.56387084779
 20
221.494735575407
 10
701.567930679593
 20
221.821970640079
 10
699.498821192089
 20
222.020645055788
 10
697.35012875621
 20
222.057856159095
 10
695.115439742886
 20
221.900701286559
 10
692.788340523048
 20
221.516277774738
 10
691.319748470944
 20
221.157202016961
 10
689.915913580941
 20
220.727855006164
 10
688.570474437145
 20
220.233780377144
 10
687.277069623664
 20
219.680521764701
 10
686.029337724604
 20
219.073622803632
 10
684.820917324071
 20
218.418627128737
 10
683.645447006174
 20
217.721078374813
 10
682.496565355017
 20
216.98652017666
 10
681.367910954709
 20
216.220496169075
 10
680.253122389356
 20
215.428549986858
 10
679.145838243064
 20
214.616225264808
 10
678.03969709994
 20
213.789065637721
 10
676.928337544092
 20
212.952614740398
 10
675.805398159625
 20
212.112416207637
 10
674.664517530647
 20
211.274013674236
 10
673.499334241264
 20
210.442950774995
 10
672.303486875583
 20
209.62477114471
 10
671.070614017711
 20
208.825018418182
 10
669.794354251755
 20
208.049236230208
 10
668.46834616182
 20
207.302968215587
  0
ENDBLK
  5
116
100
AcDbEntity
  8
0
100
AcDbBlockEnd
  0
BLOCK
  5
125
100
AcDbEntity
  8
0
100
AcDbBlockBegin
  2
*E31
 70
           1
 10
0.0
 20
0.0
 30
0.0
  3
*E31
  1

  0
LWPOLYLINE
  5
126
100
AcDbEntity
  8
0
370
           0
  6
Continuous
 62
           7
100
AcDbPolyline
 90
      281
 70
           0
 38
-0.0
 10
-1703.704623310406
 20
403.910695641771
 10
-1702.090321155746
 20
400.623315018509
 10
-1700.583901993542
 20
397.267420458622
 10
-1699.186217583148
 20
393.848703129838
 10
-1697.898119683924
 20
390.372854199891
 10
-1696.720460055225
 20
386.84556483651
 10
-1695.65409045641
 20
383.272526207426
 10
-1694.699862646835
 20
379.65942948037
 10
-1693.858628385858
 20
376.011965823074
 10
-1693.131239432835
 20
372.335826403266
 10
-1692.518547547125
 20
368.636702388679
 10
-1692.021404488084
 20
364.920284947043
 10
-1691.640662015069
 20
361.19226524609
 10
-1691.377171887438
 20
357.45833445355
 10
-1691.231785864548
 20
353.724183737153
 10
-1691.205355705756
 20
349.995504264631
 10
-1691.298733170419
 20
346.277987203714
 10
-1691.512770017895
 20
342.577323722133
 10
-1691.848318007541
 20
338.899204987619
 10
-1692.306228898713
 20
335.249322167903
 10
-1692.88735445077
 20
331.633366430716
 10
-1693.343945274581
 20
329.55450548349
 10
-1693.9583671814
 20
327.513239011842
 10
-1694.721980012932
 20
325.512624601765
 10
-1695.626143610884
 20
323.555719839258
 10
-1696.662217816961
 20
321.645582310316
 10
-1697.821562472871
 20
319.785269600935
 10
-1699.095537420319
 20
317.97783929711
 10
-1700.475502501012
 20
316.226348984839
 10
-1701.952817556656
 20
314.533856250116
 10
-1703.518842428956
 20
312.903418678938
 10
-1705.16493695962
 20
311.338093857302
 10
-1706.882460990354
 20
309.840939371203
 10
-1708.662774362863
 20
308.415012806636
 10
-1710.497236918854
 20
307.063371749598
 10
-1712.377208500033
 20
305.789073786085
 10
-1714.294048948107
 20
304.595176502094
 10
-1716.239118104782
 20
303.484737483619
 10
-1718.203775811763
 20
302.460814316657
 10
-1720.179381910757
 20
301.526464587204
 10
-1722.157296243471
 20
300.684745881257
 10
-1723.442567544243
 20
300.249437409089
 10
-1724.746213793636
 20
299.962398427889
 10
-1726.065494886383
 20
299.814187683755
 10
-1727.397670717214
 20
299.795363922793
 10
-1728.740001180861
 20
299.896485891102
 10
-1730.089746172055
 20
300.108112334785
 10
-1731.444165585527
 20
300.420801999944
 10
-1732.800519316008
 20
300.825113632682
 10
-1734.15606725823
 20
301.311605979099
 10
-1735.508069306924
 20
301.870837785298
 10
-1736.853785356821
 20
302.493367797381
 10
-1738.190475302652
 20
303.16975476145
 10
-1739.515399039148
 20
303.890557423607
 10
-1740.825816461042
 20
304.646334529954
 10
-1742.118987463063
 20
305.427644826593
 10
-1743.392171939943
 20
306.225047059626
 10
-1744.642629786414
 20
307.029099975154
 10
-1745.867620897207
 20
307.830362319281
 10
-1747.064405167052
 20
308.619392838107
 10
-1748.230242490682
 20
309.386750277735
 10
-1749.073043114618
 20
309.968189847458
 10
-1749.887809970874
 20
310.587654623574
 10
-1750.675184039363
 20
311.243012003394
 10
-1751.4358063
 20
311.932129384238
 10
-1752.170317732699
 20
312.652874163417
 10
-1752.879359317373
 20
313.40311373825
 10
-1753.563572033937
 20
314.180715506052
 10
-1754.223596862305
 20
314.983546864137
 10
-1754.860074782391
 20
315.809475209821
 10
-1755.473646774109
 20
316.656367940419
 10
-1756.064953817373
 20
317.522092453249
 10
-1756.634636892097
 20
318.404516145624
 10
-1757.183336978195
 20
319.30150641486
 10
-1757.711695055581
 20
320.210930658273
 10
-1758.22035210417
 20
321.130656273177
 10
-1758.709949103874
 20
322.05855065689
 10
-1759.18112703461
 20
322.992481206726
 10
-1759.634526876289
 20
323.930315319999
 10
-1760.070789608827
 20
324.869920394028
 10
-1760.490556212138
 20
325.809163826125
 10
-1760.827839170705
 20
326.658289766265
 10
-1761.106717180172
 20
327.524328598875
 10
-1761.333546827361
 20
328.405457179124
 10
-1761.514684699095
 20
329.299852362184
 10
-1761.656487382197
 20
330.205691003224
 10
-1761.76531146349
 20
331.121149957414
 10
-1761.847513529796
 20
332.044406079926
 10
-1761.909450167938
 20
332.973636225929
 10
-1761.95747796474
 20
333.907017250593
 10
-1761.997953507023
 20
334.842726009088
 10
-1762.037233381612
 20
335.778939356586
 10
-1762.081674175328
 20
336.713834148257
 10
-1762.137632474995
 20
337.64558723927
 10
-1762.211464867436
 20
338.572375484796
 10
-1762.309527939472
 20
339.492375740006
 10
-1762.438178277928
 20
340.403764860068
 10
-1762.603772469626
 20
341.304719700155
 10
-1762.812667101389
 20
342.193417115436
 10
-1763.07121876004
 20
343.068033961081
 10
-1763.385784032401
 20
343.926747092261
 10
-1763.621711546547
 20
344.500500189091
 10
-1763.87335474996
 20
345.092664339532
 10
-1764.141073518616
 20
345.698033062903
 10
-1764.425227728493
 20
346.311399878524
 10
-1764.726177255566
 20
346.927558305716
 10
-1765.044281975813
 20
347.541301863796
 10
-1765.379901765213
 20
348.147424072087
 10
-1765.73339649974
 20
348.740718449906
 10
-1766.105126055372
 20
349.315978516574
 10
-1766.495450308087
 20
349.867997791409
 10
-1766.904729133861
 20
350.391569793734
 10
-1767.333322408672
 20
350.881488042865
 10
-1767.781590008495
 20
351.332546058124
 10
-1768.24989180931
 20
351.73953735883
 10
-1768.738587687092
 20
352.097255464303
 10
-1769.248037517818
 20
352.400493893862
 10
-1769.778601177465
 20
352.644046166827
 10
-1770.330638542011
 20
352.822705802518
 10
-1770.904509487433
 20
352.931266320254
 10
-1771.500573889707
 20
352.964521239356
 10
-1772.422192819514
 20
352.921994982235
 10
-1773.337221920264
 20
352.815292404792
 10
-1774.244620968094
 20
352.647714169336
 10
-1775.14334973914
 20
352.422560938178
 10
-1776.032368009539
 20
352.14313337363
 10
-1776.910635555427
 20
351.812732138002
 10
-1777.777112152941
 20
351.434657893605
 10
-1778.630757578217
 20
351.012211302751
 10
-1779.470531607392
 20
350.548693027749
 10
-1780.295394016602
 20
350.04740373091
 10
-1781.104304581985
 20
349.511644074548
 10
-1781.896223079676
 20
348.944714720971
 10
-1782.670109285812
 20
348.34991633249
 10
-1783.424922976529
 20
347.730549571417
 10
-1784.159623927965
 20
347.089915100062
 10
-1784.873171916255
 20
346.431313580737
 10
-1785.564526717536
 20
345.758045675752
 10
-1786.232648107945
 20
345.073412047418
 10
-1786.876495863619
 20
344.380713358046
 10
-1787.495029760693
 20
343.683250269947
 10
-1789.364153100633
 20
341.521251070876
 10
-1791.230670123236
 20
339.3482243153
 10
-1793.090850688787
 20
337.162855233223
 10
-1794.940964657571
 20
334.963829054655
 10
-1796.777281889873
 20
332.749831009601
 10
-1798.596072245978
 20
330.51954632807
 10
-1800.393605586172
 20
328.271660240069
 10
-1802.16615177074
 20
326.004857975605
 10
-1803.909980659968
 20
323.717824764686
 10
-1805.621362114139
 20
321.409245837318
 10
-1807.29656599354
 20
319.07780642351
 10
-1808.931862158456
 20
316.722191753268
 10
-1810.523520469172
 20
314.3410870566
 10
-1812.067810785973
 20
311.933177563512
 10
-1813.561002969144
 20
309.497148504015
 10
-1814.999366878971
 20
307.031685108112
 10
-1816.37917237574
 20
304.535472605813
 10
-1817.696689319734
 20
302.007196227125
 10
-1818.948187571239
 20
299.445541202054
 10
-1820.129936990541
 20
296.849192760609
 10
-1820.609241621013
 20
295.682368482183
 10
-1821.041887416222
 20
294.476596586413
 10
-1821.426226036649
 20
293.236917571376
 10
-1821.760609142775
 20
291.968371935147
 10
-1822.04338839508
 20
290.676000175802
 10
-1822.272915454047
 20
289.364842791418
 10
-1822.447541980156
 20
288.039940280071
 10
-1822.565619633888
 20
286.706333139837
 10
-1822.625500075724
 20
285.36906186879
 10
-1822.625534966145
 20
284.033166965009
 10
-1822.564075965633
 20
282.70368892657
 10
-1822.439474734667
 20
281.385668251547
 10
-1822.25008293373
 20
280.084145438018
 10
-1821.994252223301
 20
278.804160984057
 10
-1821.670334263863
 20
277.550755387742
 10
-1821.276680715896
 20
276.328969147149
 10
-1820.811643239882
 20
275.143842760353
 10
-1820.2735734963
 20
274.000416725431
 10
-1819.660823145633
 20
272.903731540459
 10
-1818.971743848361
 20
271.858827703513
 10
-1818.423336468684
 20
271.19790428586
 10
-1817.806600404813
 20
270.642842174801
 10
-1817.127130787369
 20
270.186547778239
 10
-1816.390522746971
 20
269.821927504075
 10
-1815.60237141424
 20
269.54188776021
 10
-1814.768271919794
 20
269.339334954548
 10
-1813.893819394255
 20
269.207175494991
 10
-1812.984608968241
 20
269.13831578944
 10
-1812.046235772372
 20
269.125662245797
 10
-1811.084294937269
 20
269.162121271965
 10
-1810.104381593551
 20
269.240599275847
 10
-1809.112090871838
 20
269.354002665342
 10
-1808.11301790275
 20
269.495237848355
 10
-1807.112757816907
 20
269.657211232787
 10
-1806.116905744929
 20
269.832829226539
 10
-1805.131056817434
 20
270.014998237516
 10
-1804.160806165044
 20
270.196624673617
 10
-1803.211748918378
 20
270.370614942745
 10
-1802.289480208056
 20
270.529875452803
 10
-1801.399595164698
 20
270.667312611692
 10
-1800.330836675519
 20
270.886133102069
 10
-1799.197591426767
 20
271.236643153717
 10
-1798.007215198459
 20
271.701712340403
 10
-1796.767063770615
 20
272.264210235895
 10
-1795.484492923252
 20
272.907006413959
 10
-1794.166858436388
 20
273.612970448362
 10
-1792.821516090043
 20
274.364971912873
 10
-1791.455821664233
 20
275.145880381257
 10
-1790.077130938978
 20
275.938565427282
 10
-1788.692799694296
 20
276.725896624716
 10
-1787.310183710205
 20
277.490743547326
 10
-1785.936638766724
 20
278.215975768878
 10
-1784.57952064387
 20
278.88446286314
 10
-1783.246185121662
 20
279.47907440388
 10
-1781.943987980119
 20
279.982679964864
 10
-1780.680284999258
 20
280.378149119859
 10
-1779.462431959098
 20
280.648351442632
 10
-1778.297784639657
 20
280.776156506952
 10
-1777.193698820954
 20
280.744433886584
 10
-1776.157530283007
 20
280.536053155297
 10
-1775.124683303794
 20
280.011820044946
 10
-1774.285657498568
 20
279.147944352602
 10
-1773.629567058249
 20
277.979136909539
 10
-1773.14552617376
 20
276.540108547031
 10
-1772.822649036019
 20
274.865570096351
 10
-1772.650049835947
 20
272.990232388777
 10
-1772.616842764466
 20
270.948806255581
 10
-1772.712142012495
 20
268.776002528039
 10
-1772.925061770954
 20
266.506532037424
 10
-1773.244716230766
 20
264.175105615012
 10
-1773.660219582849
 20
261.816434092077
 10
-1774.160686018125
 20
259.465228299893
 10
-1774.735229727514
 20
257.156199069735
 10
-1775.372964901937
 20
254.924057232878
 10
-1776.063005732314
 20
252.803513620596
 10
-1776.794466409565
 20
250.829279064164
 10
-1777.556461124612
 20
249.036064394856
 10
-1778.338104068375
 20
247.458580443946
 10
-1779.128509431773
 20
246.13153804271
 10
-1779.916791405729
 20
245.089648022422
 10
-1781.577138927226
 20
243.387847259888
 10
-1783.216265096769
 20
242.051310942513
 10
-1784.84042204324
 20
241.047089023212
 10
-1786.455861895525
 20
240.342231454907
 10
-1788.068836782507
 20
239.903788190514
 10
-1789.685598833069
 20
239.698809182952
 10
-1791.312400176095
 20
239.69434438514
 10
-1792.95549294047
 20
239.857443749997
 10
-1794.621129255076
 20
240.15515723044
 10
-1796.315561248797
 20
240.554534779389
 10
-1798.045041050518
 20
241.022626349762
 10
-1799.815820789121
 20
241.526481894477
 10
-1801.634152593491
 20
242.033151366454
 10
-1803.506288592511
 20
242.509684718609
 10
-1805.438480915066
 20
242.923131903864
 10
-1807.436981690038
 20
243.240542875134
 10
-1809.508043046311
 20
243.42896758534
 10
-1811.65791711277
 20
243.4554559874
 10
-1813.892856018298
 20
243.287058034231
 10
-1816.219111891778
 20
242.890823678753
 10
-1817.686589505139
 20
242.524240050084
 10
-1819.088928682355
 20
242.08767611924
 10
-1820.432521498171
 20
241.586646306258
 10
-1821.723760027333
 20
241.026665031179
 10
-1822.969036344585
 20
240.413246714039
 10
-1824.174742524672
 20
239.751905774877
 10
-1825.347270642339
 20
239.048156633731
 10
-1826.493012772331
 20
238.30751371064
 10
-1827.618360989392
 20
237.535491425642
 10
-1828.729707368269
 20
236.737604198774
 10
-1829.833443983705
 20
235.919366450077
 10
-1830.935962910445
 20
235.086292599587
 10
-1832.043656223235
 20
234.243897067343
 10
-1833.16291599682
 20
233.397694273383
 10
-1834.300134305943
 20
232.553198637746
 10
-1835.461703225351
 20
231.715924580469
 10
-1836.654014829788
 20
230.891386521592
 10
-1837.883461193999
 20
230.085098881152
 10
-1839.156434392729
 20
229.302576079188
 10
-1840.479326500723
 20
228.549332535737
210
0.0
220
0.0
230
-1.0
  0
ENDBLK
  5
127
100
AcDbEntity
  8
0
100
AcDbBlockEnd
  0
ENDSEC
  0
SECTION
  2
ENTITIES
  0
LWPOLYLINE
  5
31
100
AcDbEntity
  8
0
370
           0
  6
Continuous
 62
           7
100
AcDbPolyline
 90
        4
 70
           1
 10
-0.0
 20
0.0
 10
2438.4
 20
0.0
 10
2438.4
 20
1219.2
 10
-0.0
 20
1219.2
1001
TCAD
1000
TCW_CUSTOM_DATA
1002
{
1000
#$AUX@_ToolInfo Properties
1070
           8
1000
Insert^  JLine^  JRectangle@Line Rectangle
1002
}
  0
LWPOLYLINE
  5
32
100
AcDbEntity
  8
0
370
           0
  6
Continuous
 62
           7
100
AcDbPolyline
 90
        4
 70
           1
 38
-0.000000217586
 10
608.64147927196
 20
925.089036406747
 10
1671.641479271959
 20
925.089036406746
 10
1671.64147927196
 20
1215.089036406746
 10
608.64147927196
 20
1215.089036406747
1001
TCAD
1000
TCW_CUSTOM_DATA
1002
{
1000
#$AUX@_ToolInfo Properties
1070
           8
1000
Insert^  JLine^  JRectangle@Line Rectangle
1002
}
  0
LWPOLYLINE
  5
33
100
AcDbEntity
  8
0
370
           0
  6
Continuous
 62
           7
100
AcDbPolyline
 90
        4
 70
           1
 10
1428.193732785501
 20
762.006598335831
 10
1736.193732785501
 20
762.006598335831
 10
1736.193732785501
 20
732.006598335831
 10
1428.193732785501
 20
732.006598335831
1001
TCAD
1000
TCW_CUSTOM_DATA
1002
{
1000
#$AUX@_ToolInfo Properties
1070
           8
1000
Insert^ JLine^ JRectangle@Line Rectangle
1002
}
  0
LWPOLYLINE
  5
34
100
AcDbEntity
  8
0
370
           0
  6
Continuous
 62
           7
100
AcDbPolyline
 90
        4
 70
           1
 10
1439.239286227847
 20
817.234365547565
 10
1747.239286227847
 20
817.234365547565
 10
1747.239286227847
 20
787.234365547565
 10
1439.239286227847
 20
787.234365547565
1001
TCAD
1000
TCW_CUSTOM_DATA
1002
{
1000
#$AUX@_ToolInfo Properties
1070
           8
1000
Insert^ JLine^ JRectangle@Line Rectangle
1002
}
  0
LWPOLYLINE
  5
35
102
{ACAD_REACTORS
330
3D
102
}
100
AcDbEntity
  8
0
  6
Continuous
 62
           7
100
AcDbPolyline
 90
        5
 70
           0
 38
0.000000001792
 10
1350.664615531773
 20
226.956454174658
 10
1302.804179403133
 20
230.625417847038
 42
-0.227473280732
 10
1255.805688809092
 20
259.440626260989
 42
0.374960360961
 10
1213.752883299162
 20
301.125265920907
 10
856.905434581628
 20
328.481061923125
1001
TCAD
1000
TCW_CUSTOM_DATA
1002
{
1000
#$AUX@_ToolInfo Properties
1070
           8
1000
Insert^  JLine^  JPolyline@Line Polyline
1002
}
  0
INSERT
  5
3A
102
{ACAD_REACTORS
330
3D
102
}
100
AcDbEntity
  8
0
  6
Continuous
 62
           7
100
AcDbBlockReference
  2
*E0
 10
0.0
 20
0.0
 30
0.0
1001
TCAD
1000
TCW_CUSTOM_DATA
1002
{
1000
#$AUX@_ToolInfo Properties
1070
           8
1000
Insert^  JCurve^  JBezier@Curve Bezier
1002
}
1000
TC25ExternalObject
1002
{
1000
TCW30CURVE
1000

1070
           0
1071
        0
1040
1.0
1040
0.0
1000
Continuous
1000
0
1070
          12
1010
-0.076428763515
1020
-0.997075044371
1030
0.0
1010
0.997075044371
1020
-0.076428763515
1030
0.0
1010
0.0
1020
0.0
1030
1.0
1010
1698.915308206699
1020
142.824499324128
1030
0.000000001792
1070
          21
1071
       70
1071
      162
1010
-31.876631297733
1020
-640.662574681661
1030
0.0
1071
     6274
1010
-39.70326203624
1020
-636.987518934441
1030
0.0
1071
     6274
1010
-49.803864128462
1020
-636.729772482743
1030
0.0
1071
      130
1010
-57.807792377088
1020
-640.000865142409
1030
0.0
1071
     6274
1010
-64.961334803635
1020
-642.924417102798
1030
0.0
1071
     6274
1010
-70.940038602952
1020
-650.044547896893
1030
0.0
1071
      130
1010
-73.034467317143
1020
-657.483202142173
1030
0.0
1071
     6274
1010
-76.704096786067
1020
-670.516400475762
1030
0.0
1071
     6274
1010
-76.515584309607
1020
-684.75343605312
1030
0.0
1071
      130
1010
-74.162629715544
1020
-698.087339690013
1030
0.0
1071
     6274
1010
-70.794883663746
1020
-717.171941425002
1030
0.0
1071
     6274
1010
-68.39711789128
1020
-738.362294195465
1030
0.0
1071
      130
1010
-56.116703815039
1020
-753.354082463462
1030
0.0
1071
     6274
1010
-50.7351369551
1020
-759.92383739301
1030
0.0
1071
     6274
1010
-36.943167458789
1020
-756.897721575158
1030
0.0
1071
      130
1010
-30.739090425287
1020
-751.098297044137
1030
0.0
1071
     6274
1010
-25.381580238392
1020
-746.090223186367
1030
0.0
1071
     6274
1010
-31.905782593917
1020
-736.230951242459
1030
0.0
1071
      130
1010
-30.174998012148
1020
-729.104389205724
1030
0.0
1071
     6274
1010
-28.627318688473
1020
-722.731769048762
1030
0.0
1071
     6274
1010
-27.240570927296
1020
-714.057578513331
1030
0.0
1071
      130
1010
-21.151736023565
1020
-711.622052205959
1030
0.0
1071
     6274
1010
-16.211983776909
1020
-709.646157516934
1030
0.0
1071
     6274
1010
-9.560048799761
1020
-715.128482683775
1030
0.0
1071
      130
1010
-7.617072926406
1020
-720.081247528426
1030
0.0
1071
     6274
1010
0.492547158944
1020
-740.753167243437
1030
0.0
1071
     6274
1010
4.213022986592
1020
-762.990549592579
1030
0.0
1071
      130
1010
7.609056268694
1020
-784.935078334003
1030
0.0
1071
     6274
1010
9.1330238847
1020
-794.782670619596
1030
0.0
1071
     6274
1010
12.896588591169
1020
-806.758487647289
1030
0.0
1071
      130
1010
7.044911523848
1020
-814.824235140052
1030
0.0
1071
     6274
1010
3.064766770213
1020
-820.310327793172
1030
0.0
1071
     6274
1010
-7.748898336703
1020
-817.645678762467
1030
0.0
1071
      130
1010
-13.257159750462
1020
-813.69634243039
1030
0.0
1071
     6274
1010
-19.339314981239
1020
-809.335533306437
1030
0.0
1071
     6274
1010
-16.486960808377
1020
-797.343431034892
1030
0.0
1071
      130
1010
-22.844117926396
1020
-793.39427365647
1030
0.0
1071
     6274
1010
-30.709027074249
1020
-788.508479044941
1030
0.0
1071
     6274
1010
-42.516093237211
1020
-785.847486923185
1030
0.0
1071
      130
1010
-50.477484202143
1020
-790.574541882315
1030
0.0
1071
     6274
1010
-57.838672539379
1020
-794.945228108866
1030
0.0
1071
     6274
1010
-57.414295039878
1020
-806.399775051725
1030
0.0
1071
      130
1010
-58.936844414525
1020
-814.824235140053
1030
0.0
1071
     6274
1010
-60.274138736201
1020
-822.223655367013
1030
0.0
1071
     6274
1010
-59.322042651129
1020
-829.872672434198
1030
0.0
1071
      130
1010
-58.93699393369
1020
-837.382089333297
1030
0.0
1071
     6274
1010
-58.569176662812
1020
-844.555449753984
1030
0.0
1071
     6274
1010
-57.02295238195
1020
-851.637394088173
1030
0.0
1071
      130
1010
-56.68134944909
1020
-858.812050816879
1030
0.0
1071
     6274
1010
-56.45766678355
1020
-863.510038413115
1030
0.0
1071
     6274
1010
-53.605206047074
1020
-869.932395361931
1030
0.0
1071
      130
1010
-57.24538953052
1020
-872.910709687657
1030
0.0
1071
     6274
1010
-61.910185632849
1020
-876.727338470612
1030
0.0
1071
     6274
1010
-69.444486913311
1020
-875.500404680202
1030
0.0
1071
      130
1010
-75.29168922894
1020
-874.03860239732
1030
0.0
1071
     6274
1010
-79.850919969584
1020
-872.898793383521
1030
0.0
1071
     6274
1010
-84.165335853237
1020
-869.616800275829
1030
0.0
1071
      130
1010
-86.570565798291
1020
-865.579407074853
1030
0.0
1071
     6274
1010
-89.744011275845
1020
-860.252495516525
1030
0.0
1071
     6274
1010
-87.552630079908
1020
-852.631176587102
1030
0.0
1071
      130
1010
-91.082019238574
1020
-847.533123720258
1030
0.0
1071
     6274
1010
-93.248610703731
1020
-844.403574290125
1030
0.0
1071
     6274
1010
-98.00078004262
1020
-843.863269895919
1030
0.0
1071
      130
1010
-101.796979079806
1020
-843.58549923644
1030
0.0
1071
     6274
1010
-105.989179609408
1020
-843.278752858189
1030
0.0
1071
     6274
1010
-110.497970821774
1020
-843.857492402995
1030
0.0
1071
      130
1010
-114.203819934664
1020
-845.841284655764
1030
0.0
1071
     6274
1010
-117.219664559476
1020
-847.45570796875
1030
0.0
1071
     6274
1010
-119.727077501661
1020
-850.475362473933
1030
0.0
1071
      162
1010
-120.759751882919
1020
-853.7365336234
1030
0.0
1070
           3
1071
-2147483643
1070
           1
1000
#$AUX@_ToolInfo Properties
1070
           8
1000
Insert^  JCurve^  JBezier@Curve Bezier
1000
$SPLINESEGS
1070
          18
1070
          20
1000
$SPLFRAME
1070
          18
1070
           0
1000
$SPLINETYPE
1070
          18
1070
           1
1000
$SHOWCONTRPTS
1070
          18
1070
           1
1000
$CURVESMOOTH
1070
          18
1070
           1
1002
}
  0
LINE
  5
3B
102
{ACAD_REACTORS
330
3D
102
}
100
AcDbEntity
  8
0
370
           0
  6
Continuous
 62
           7
100
AcDbLine
 10
1062.56293464417
 20
223.572941302726
 30
0.000000001792
 11
1348.723724370904
 21
201.635958966317
 31
0.000000001792
1001
TCAD
1000
TCW_CUSTOM_DATA
1002
{
1000
#$AUX@_ToolInfo Properties
1070
           8
1000
Insert^  JLine^  JSingle@Line Single
1002
}
  0
LINE
  5
3C
102
{ACAD_REACTORS
330
3D
102
}
100
AcDbEntity
  8
0
370
           0
  6
Continuous
 62
           7
100
AcDbLine
 10
1348.723724370904
 20
201.635958966317
 30
0.000000001792
 11
1350.664615531773
 21
226.956454174658
 31
0.000000001792
1001
TCAD
1000
TCW_CUSTOM_DATA
1002
{
1000
#$AUX@_ToolInfo Properties
1070
           8
1000
Insert^  JLine^  JSingle@Line Single
1002
}
  0
LINE
  5
3E
102
{ACAD_REACTORS
330
A2
102
}
100
AcDbEntity
  8
0
370
           0
  6
Continuous
 62
           7
100
AcDbLine
 10
2388.9
 20
127.0
 30
0.0
 11
2388.9
 21
0.0
 31
0.0
1001
TCAD
1000
TCW_CUSTOM_DATA
1002
{
1000
#$AUX@_ToolInfo Properties
1070
           8
1000
Insert^  JLine^  JSingle@Line Single
1002
}
  0
INSERT
  5
43
102
{ACAD_REACTORS
330
A2
102
}
100
AcDbEntity
  8
0
  6
Continuous
 62
           7
100
AcDbBlockReference
  2
*E1
 10
0.0
 20
0.0
 30
0.0
1001
TCAD
1000
TCW_CUSTOM_DATA
1002
{
1000
#$AUX@_ToolInfo Properties
1070
           8
1000
Insert^  JCurve^  JBezier@Curve Bezier
1002
}
1000
TC25ExternalObject
1002
{
1000
TCW30CURVE
1000

1070
           0
1071
        0
1040
1.0
1040
0.0
1000
Continuous
1000
0
1070
          12
1010
1.0
1020
0.0
1030
0.0
1010
0.0
1020
1.0
1030
0.0
1010
0.0
1020
0.0
1030
1.0
1010
88.9
1020
127.0
1030
0.0
1070
          21
1071
       43
1071
      162
1010
2300.105468684177
1020
0.083570462561
1030
0.0
1071
     6274
1010
2276.562248057406
1020
-6.127085246455
1030
0.0
1071
     6274
1010
2249.718644547535
1020
-4.311575830328
1030
0.0
1071
      130
1010
2227.226089572411
1020
5.012610595723
1030
0.0
1071
     6274
1010
2214.115853144735
1020
10.447399514832
1030
0.0
1071
     6274
1010
2205.631791768717
1020
26.223327140861
1030
0.0
1071
      130
1010
2203.285037497049
1020
40.220040118315
1030
0.0
1071
     6274
1010
2201.770752864907
1020
49.251666317164
1030
0.0
1071
     6274
1010
2210.822544072971
1020
57.404315358523
1030
0.0
1071
      130
1010
2217.368009306085
1020
63.809017898452
1030
0.0
1071
     6274
1010
2222.248313242229
1020
68.584369061776
1030
0.0
1071
     6274
1010
2229.332559243671
1020
70.919723441997
1030
0.0
1071
      130
1010
2236.027946953059
1020
72.258800983874
1030
0.0
1071
     6274
1010
2242.0220097856
1020
73.457613550382
1030
0.0
1071
     6274
1010
2248.310231566301
1020
70.173820752598
1030
0.0
1071
      130
1010
2254.335810304807
1020
71.202578098196
1030
0.0
1071
     6274
1010
2258.324817285722
1020
71.883628070547
1030
0.0
1071
     6274
1010
2264.070331015839
1020
73.22666641954
1030
0.0
1071
      130
1010
2264.898039161585
1020
77.187841117037
1030
0.0
1071
     6274
1010
2266.158199795416
1020
83.218609864657
1030
0.0
1071
     6274
1010
2262.9474190729
1020
89.852237629895
1030
0.0
1071
      130
1010
2259.26485043797
1020
94.791555878333
1030
0.0
1071
     6274
1010
2247.897300438331
1020
110.038507861976
1030
0.0
1071
     6274
1010
2235.913662177042
1020
125.497369610084
1030
0.0
1071
      130
1010
2220.536677963119
1020
136.688397010218
1030
0.0
1071
     6274
1010
2213.797559702222
1020
141.592977522316
1030
0.0
1071
     6274
1010
2203.552462898078
1020
144.196568096118
1030
0.0
1071
      130
1010
2195.891477297304
1020
140.913288552929
1030
0.0
1071
     6274
1010
2190.498021653071
1020
138.601807562543
1030
0.0
1071
     6274
1010
2191.399937915161
1020
129.865294926973
1030
0.0
1071
      130
1010
2190.962437164141
1020
124.013722382085
1030
0.0
1071
     6274
1010
2190.443523648256
1020
117.07325410712
1030
0.0
1071
     6274
1010
2198.583951145593
1020
103.330804492622
1030
0.0
1071
      130
1010
2195.187328719105
1020
97.256075922171
1030
0.0
1071
     6274
1010
2191.336711877475
1020
90.369395801561
1030
0.0
1071
     6274
1010
2166.046440126971
1020
102.154221407984
1030
0.0
1071
      130
1010
2161.388196377417
1020
108.5224533694
1030
0.0
1071
     6274
1010
2151.442405992092
1020
122.119230098706
1030
0.0
1071
     6274
1010
2167.021385101031
1020
128.238613902052
1030
0.0
1071
      130
1010
2167.021385101031
1020
144.434031482444
1030
0.0
1071
     6274
1010
2167.021385101031
1020
154.681886856237
1030
0.0
1071
     6274
1010
2161.085945860002
1020
161.352867695295
1030
0.0
1071
      162
1010
2158.219527715032
1020
171.191677927246
1030
0.0
1070
           3
1071
-2147483643
1070
           1
1000
#$AUX@_ToolInfo Properties
1070
           8
1000
Insert^  JCurve^  JBezier@Curve Bezier
1000
$SPLINESEGS
1070
          18
1070
          20
1000
$SPLFRAME
1070
          18
1070
           0
1000
$SPLINETYPE
1070
          18
1070
           1
1000
$SHOWCONTRPTS
1070
          18
1070
           1
1000
$CURVESMOOTH
1070
          18
1070
           1
1002
}
  0
INSERT
  5
49
102
{ACAD_REACTORS
330
A2
102
}
100
AcDbEntity
  8
0
  6
Continuous
 62
           7
100
AcDbBlockReference
  2
*E2
 10
0.0
 20
0.0
 30
0.0
1001
TCAD
1000
TCW_CUSTOM_DATA
1002
{
1000
#$AUX@_ToolInfo Properties
1070
           8
1000
Insert^  JDoubleLine^  JPerpendicular@DoubleLine Perpendicular
1002
}
1000
TC25ExternalObject
1002
{
1000
TCW25DblLine
1000

1070
           0
1071
        0
1040
1.0
1040
0.0
1000
Continuous
1000
0
1070
          12
1010
1.0
1020
0.0
1030
0.0
1010
0.0
1020
1.0
1030
0.0
1010
0.0
1020
0.0
1030
1.0
1010
88.9
1020
127.0
1030
0.0
1070
          21
1071
        2
1071
      178
1010
699.875922202681
1020
43.121966171065
1030
0.0
1071
      178
1010
696.062519830188
1020
-45.696207432907
1030
0.0
1070
           3
1071
-2147483641
1070
           1
1000
#$AUX@_ToolInfo Properties
1070
           8
1000
Insert^  JDoubleLine^  JPerpendicular@DoubleLine Perpendicular
1000
$DLINEWID
1070
           5
1040
25.4
1000
$DLINEALG
1070
          18
1070
           0
1000
$DLINECS
1070
          18
1070
           0
1000
$DLINECE
1070
          18
1070
           0
1000
$DLINETS
1070
           5
1040
0.0
1000
$DLINETE
1070
           5
1040
0.0
1000
ExplodeScale
1070
           5
1040
1.0
1002
}
  0
INSERT
  5
4F
102
{ACAD_REACTORS
330
A2
102
}
100
AcDbEntity
  8
0
  6
Continuous
 62
           7
100
AcDbBlockReference
  2
*E3
 10
0.0
 20
0.0
 30
0.0
1001
TCAD
1000
TCW_CUSTOM_DATA
1002
{
1000
#$AUX@_ToolInfo Properties
1070
           8
1000
Insert^  JDoubleLine^  JPerpendicular@DoubleLine Perpendicular
1002
}
1000
TC25ExternalObject
1002
{
1000
TCW25DblLine
1000

1070
           0
1071
        0
1040
1.0
1040
0.0
1000
Continuous
1000
0
1070
          12
1010
1.0
1020
0.0
1030
0.0
1010
0.0
1020
1.0
1030
0.0
1010
0.0
1020
0.0
1030
1.0
1010
88.9
1020
127.0
1030
0.0
1070
          21
1071
        2
1071
      178
1010
1447.119465046885
1020
57.201371980602
1030
0.0
1071
      178
1010
1453.335483591204
1020
-31.481045180055
1030
0.0
1070
           3
1071
-2147483641
1070
           1
1000
#$AUX@_ToolInfo Properties
1070
           8
1000
Insert^  JDoubleLine^  JPerpendicular@DoubleLine Perpendicular
1000
$DLINEWID
1070
           5
1040
25.4
1000
$DLINEALG
1070
          18
1070
           0
1000
$DLINECS
1070
          18
1070
           0
1000
$DLINECE
1070
          18
1070
           0
1000
$DLINETS
1070
           5
1040
0.0
1000
$DLINETE
1070
           5
1040
0.0
1000
ExplodeScale
1070
           5
1040
1.0
1002
}
  0
INSERT
  5
55
102
{ACAD_REACTORS
330
A2
102
}
100
AcDbEntity
  8
0
  6
Continuous
 62
           7
100
AcDbBlockReference
  2
*E4
 10
0.0
 20
0.0
 30
0.0
1001
TCAD
1000
TCW_CUSTOM_DATA
1002
{
1000
#$AUX@_ToolInfo Properties
1070
           8
1000
Insert^  JDoubleLine^  JPerpendicular@DoubleLine Perpendicular
1002
}
1000
TC25ExternalObject
1002
{
1000
TCW25DblLine
1000

1070
           0
1071
        0
1040
1.0
1040
0.0
1000
Continuous
1000
0
1070
          12
1010
1.0
1020
0.0
1030
0.0
1010
0.0
1020
1.0
1030
0.0
1010
0.0
1020
0.0
1030
1.0
1010
88.9
1020
127.0
1030
0.0
1070
          21
1071
        2
1071
      178
1010
2040.556162973743
1020
142.693177520443
1030
0.0
1071
      178
1010
2060.880653963214
1020
56.147668878926
1030
0.0
1070
           3
1071
-2147483641
1070
           1
1000
#$AUX@_ToolInfo Properties
1070
           8
1000
Insert^  JDoubleLine^  JPerpendicular@DoubleLine Perpendicular
1000
$DLINEWID
1070
           5
1040
25.4
1000
$DLINEALG
1070
          18
1070
           0
1000
$DLINECS
1070
          18
1070
           0
1000
$DLINECE
1070
          18
1070
           0
1000
$DLINETS
1070
           5
1040
0.0
1000
$DLINETE
1070
           5
1040
0.0
1000
ExplodeScale
1070
           5
1040
1.0
1002
}
  0
LINE
  5
56
102
{ACAD_REACTORS
330
A2
102
}
100
AcDbEntity
  8
0
370
           0
  6
Continuous
 62
           7
100
AcDbLine
 10
1529.566566853966
 20
94.630952170757
 30
0.0
 11
1554.90440032844
 21
96.406957469133
 31
0.0
1001
TCAD
1000
TCW_CUSTOM_DATA
1002
{
1000
#$AUX@_ToolInfo Properties
1070
           8
1000
Insert^  JLine^  JSingle@Line Single
1002
}
  0
LINE
  5
57
102
{ACAD_REACTORS
330
A2
102
}
100
AcDbEntity
  8
0
370
           0
  6
Continuous
 62
           7
100
AcDbLine
 10
2137.417009871569
 20
180.244170166144
 30
0.0
 11
2162.144298054859
 21
186.051167591707
 31
0.0
1001
TCAD
1000
TCW_CUSTOM_DATA
1002
{
1000
#$AUX@_ToolInfo Properties
1070
           8
1000
Insert^  JLine^  JSingle@Line Single
1002
}
  0
LINE
  5
58
102
{ACAD_REACTORS
330
A2
102
}
100
AcDbEntity
  8
0
370
           0
  6
Continuous
 62
           7
100
AcDbLine
 10
772.274209315334
 20
81.848564334591
 30
0.0
 11
797.650830345041
 21
80.759020799593
 31
0.0
1001
TCAD
1000
TCW_CUSTOM_DATA
1002
{
1000
#$AUX@_ToolInfo Properties
1070
           8
1000
Insert^  JLine^  JSingle@Line Single
1002
}
  0
LWPOLYLINE
  5
59
102
{ACAD_REACTORS
330
A2
102
}
100
AcDbEntity
  8
0
370
           0
  6
Continuous
 62
           7
100
AcDbPolyline
 90
       41
 70
           0
 10
2141.819807065388
 20
272.596676233224
 10
2145.225029033344
 20
273.411796323233
 10
2148.630159258525
 20
274.227303010691
 10
2152.035191762599
 20
275.043220390729
 10
2155.440120567237
 20
275.85957255848
 10
2158.844939694106
 20
276.676383609078
 10
2162.249643164877
 20
277.493677637656
 10
2165.654225001218
 20
278.311478739346
 10
2169.058679224798
 20
279.129811009281
 10
2172.462999857287
 20
279.948698542594
 10
2175.867180920353
 20
280.768165434418
 10
2179.271216435666
 20
281.588235779886
 10
2182.675100424895
 20
282.408933674131
 10
2186.07882690971
 20
283.230283212285
 10
2189.482389911778
 20
284.052308489482
 10
2192.88578345277
 20
284.875033600855
 10
2196.289001554354
 20
285.698482641535
 10
2199.6920382382
 20
286.522679706657
 10
2203.094887525977
 20
287.347648891354
 10
2206.497543439354
 20
288.173414290757
 10
2209.9
 20
289.0
 10
2211.762568035161
 20
289.453092850735
 10
2213.624970784237
 20
289.906869526558
 10
2215.487207871234
 20
290.361329934616
 10
2217.349278920161
 20
290.816473982053
 10
2219.211183555024
 20
291.272301576015
 10
2221.07292139983
 20
291.728812623647
 10
2222.934492078586
 20
292.186007032095
 10
2224.795895215298
 20
292.643884708503
 10
2226.657130433975
 20
293.102445560018
 10
2228.518197358622
 20
293.561689493783
 10
2230.379095613247
 20
294.021616416946
 10
2232.239824821858
 20
294.482226236651
 10
2234.10038460846
 20
294.943518860043
 10
2235.960774597061
 20
295.405494194268
 10
2237.820994411667
 20
295.868152146471
 10
2239.681043676287
 20
296.331492623798
 10
2241.540922014926
 20
296.795515533393
 10
2243.400629051592
 20
297.260220782403
 10
2245.260164410292
 20
297.725608277972
 10
2247.119527715032
 20
298.191677927246
  0
LWPOLYLINE
  5
5A
102
{ACAD_REACTORS
330
A2
102
}
100
AcDbEntity
  8
0
370
           0
  6
Continuous
 62
           7
100
AcDbPolyline
 90
       29
 70
           0
 10
203.719333955193
 20
223.876506810981
 10
194.528026349724
 20
225.269295957335
 10
183.439382075827
 20
226.954965713336
 10
172.351072649369
 20
228.642689358428
 10
161.262682406673
 20
230.329263580604
 10
150.173795684065
 20
232.011485067856
 10
139.083996817867
 20
233.686150508178
 10
127.992870144404
 20
235.350056589562
 10
116.9
 20
237.0
 10
115.493459948812
 20
237.210309729857
 10
114.08749662341
 20
237.424817329432
 10
112.682128640572
 20
237.643519474302
 10
111.277374617071
 20
237.866412840041
 10
109.873253169684
 20
238.093494102226
 10
108.469782915186
 20
238.324759936432
 10
107.066982470354
 20
238.560207018236
 10
105.664870451962
 20
238.799832023212
 10
104.263465476787
 20
239.043631626937
 10
102.862786161605
 20
239.291602504987
 10
101.46285112319
 20
239.543741332937
 10
100.063678978318
 20
239.800044786363
 10
98.665288343766
 20
240.060509540841
 10
97.267697836309
 20
240.325132271946
 10
95.870926072723
 20
240.593909655255
 10
94.474991669783
 20
240.866838366342
 10
93.079913244265
 20
241.143915080785
 10
91.685709412944
 20
241.425136474158
 10
90.292398792598
 20
241.710499222038
 10
88.9
 20
242.0
  0
INSERT
  5
60
102
{ACAD_REACTORS
330
A2
102
}
100
AcDbEntity
  8
0
  6
Continuous
 62
           7
100
AcDbBlockReference
  2
*E5
 10
0.0
 20
0.0
 30
0.0
1001
TCAD
1000
TCW_CUSTOM_DATA
1002
{
1000
#$AUX@_ToolInfo Properties
1070
           8
1000
Insert^  JDoubleLine^  JPerpendicular@DoubleLine Perpendicular
1002
}
1000
TC25ExternalObject
1002
{
1000
TCW25DblLine
1000

1070
           0
1071
        0
1040
1.0
1040
0.0
1000
Continuous
1000
0
1070
          12
1010
1.0
1020
0.0
1030
0.0
1010
0.0
1020
1.0
1030
0.0
1010
0.0
1020
0.0
1030
1.0
1010
88.9
1020
127.0
1030
0.0
1070
          21
1071
        2
1071
      178
1010
127.375987109168
1020
94.973755757696
1030
0.0
1071
      178
1010
114.056729736166
1020
7.077183679874
1030
0.0
1070
           3
1071
-2147483641
1070
           1
1000
#$AUX@_ToolInfo Properties
1070
           8
1000
Insert^  JDoubleLine^  JPerpendicular@DoubleLine Perpendicular
1000
$DLINEWID
1070
           5
1040
25.4
1000
$DLINEALG
1070
          18
1070
           0
1000
$DLINECS
1070
          18
1070
           0
1000
$DLINECE
1070
          18
1070
           0
1000
$DLINETS
1070
           5
1040
0.0
1000
$DLINETE
1070
           5
1040
0.0
1000
ExplodeScale
1070
           5
1040
1.0
1002
}
  0
LINE
  5
61
102
{ACAD_REACTORS
330
A2
102
}
100
AcDbEntity
  8
0
370
           0
  6
Continuous
 62
           7
100
AcDbLine
 10
215.513382890141
 20
132.174432626588
 30
0.0
 11
190.400076582192
 21
135.97993473316
 31
0.0
1001
TCAD
1000
TCW_CUSTOM_DATA
1002
{
1000
#$AUX@_ToolInfo Properties
1070
           8
1000
Insert^  JLine^  JSingle@Line Single
1002
}
  0
LINE
  5
62
102
{ACAD_REACTORS
330
A2
102
}
100
AcDbEntity
  8
0
370
           0
  6
Continuous
 62
           7
100
AcDbLine
 10
88.9
 20
0.0
 30
0.0
 11
274.204848805205
 21
0.0
 31
0.0
  0
LINE
  5
63
102
{ACAD_REACTORS
330
A2
102
}
100
AcDbEntity
  8
0
370
           0
  6
Continuous
 62
           7
100
AcDbLine
 10
88.9
 20
0.0
 30
0.0
 11
-0.0
 21
0.0
 31
0.0
1001
TCAD
1000
TCW_CUSTOM_DATA
1002
{
1000
#$AUX@_ToolInfo Properties
1070
           8
1000
Insert^  JLine^  JSingle@Line Single
1002
}
  0
LINE
  5
64
102
{ACAD_REACTORS
330
A2
102
}
100
AcDbEntity
  8
0
370
           0
  6
Continuous
 62
           7
100
AcDbLine
 10
299.604848805205
 20
0.0
 30
0.0
 11
1219.850018324521
 21
0.0
 31
0.0
  0
LINE
  5
65
102
{ACAD_REACTORS
330
A2
102
}
100
AcDbEntity
  8
0
370
           0
  6
Continuous
 62
           7
100
AcDbLine
 10
1245.250018324521
 20
0.0
 30
0.0
 11
2196.522038113508
 21
0.0
 31
0.0
  0
INSERT
  5
6B
102
{ACAD_REACTORS
330
A2
102
}
100
AcDbEntity
  8
0
  6
Continuous
 62
           7
100
AcDbBlockReference
  2
*E6
 10
0.0
 20
0.0
 30
0.0
1001
TCAD
1000
TCW_REFPOINT
1002
{
1010
1911.197307162782
1020
-127.0
1030
0.0
1002
}
1000
TCW_CUSTOM_DATA
1002
{
1000
#$AUX@_ToolInfo Properties
1070
           8
1000
Insert^  JDoubleLine^  JPerpendicular@DoubleLine Perpendicular
1002
}
1000
TC25ExternalObject
1002
{
1000
TCW25DblLine
1000

1070
           0
1071
        0
1040
1.0
1040
0.0
1000
Continuous
1000
0
1070
          12
1010
1.0
1020
0.0
1030
0.0
1010
0.0
1020
1.0
1030
0.0
1010
0.0
1020
0.0
1030
1.0
1010
310.724730950726
1020
127.0
1030
0.0
1070
          18
1010
1911.197307162782
1020
-127.0
1030
0.0
1070
          21
1071
        2
1071
      178
1010
1898.497307162782
1020
-127.0
1030
0.0
1071
      178
1010
1898.497307162782
1020
-76.2
1030
0.0
1070
           3
1071
-2147483641
1070
           1
1000
#$AUX@_ToolInfo Properties
1070
           8
1000
Insert^  JDoubleLine^  JPerpendicular@DoubleLine Perpendicular
1000
$DLINEWID
1070
           5
1040
25.4
1000
$DLINEALG
1070
          18
1070
           0
1000
$DLINECS
1070
          18
1070
           0
1000
$DLINECE
1070
          18
1070
           0
1000
$DLINETS
1070
           5
1040
0.0
1000
$DLINETE
1070
           5
1040
0.0
1000
ExplodeScale
1070
           5
1040
1.0
1002
}
  0
LINE
  5
6C
102
{ACAD_REACTORS
330
A2
102
}
100
AcDbEntity
  8
0
370
           0
  6
Continuous
 62
           7
100
AcDbLine
 10
2196.522038113508
 20
50.8
 30
0.0
 11
2221.922038113508
 21
50.8
 31
0.0
1001
TCAD
1000
TCW_CUSTOM_DATA
1002
{
1000
#$AUX@_ToolInfo Properties
1070
           8
1000
Insert^  JLine^  JSingle@Line Single
1002
}
  0
INSERT
  5
72
102
{ACAD_REACTORS
330
A2
102
}
100
AcDbEntity
  8
0
  6
Continuous
 62
           7
100
AcDbBlockReference
  2
*E7
 10
0.0
 20
0.0
 30
0.0
1001
TCAD
1000
TCW_REFPOINT
1002
{
1010
1129.189646777272
1020
-127.0
1030
0.0
1002
}
1000
TCW_CUSTOM_DATA
1002
{
1000
#$AUX@_ToolInfo Properties
1070
           8
1000
Insert^  JDoubleLine^  JPerpendicular@DoubleLine Perpendicular
1002
}
1000
TC25ExternalObject
1002
{
1000
TCW25DblLine
1000

1070
           0
1071
        0
1040
1.0
1040
0.0
1000
Continuous
1000
0
1070
          12
1010
1.0
1020
0.0
1030
0.0
1010
0.0
1020
1.0
1030
0.0
1010
0.0
1020
0.0
1030
1.0
1010
90.660371547249
1020
127.0
1030
0.0
1070
          18
1010
1129.189646777272
1020
-127.0
1030
0.0
1070
          21
1071
        2
1071
      178
1010
1141.889646777272
1020
-127.0
1030
0.0
1071
      178
1010
1141.889646777272
1020
-76.2
1030
0.0
1070
           3
1071
-2147483641
1070
           1
1000
#$AUX@_ToolInfo Properties
1070
           8
1000
Insert^  JDoubleLine^  JPerpendicular@DoubleLine Perpendicular
1000
$DLINEWID
1070
           5
1040
25.4
1000
$DLINEALG
1070
          18
1070
           0
1000
$DLINECS
1070
          18
1070
           0
1000
$DLINECE
1070
          18
1070
           0
1000
$DLINETS
1070
           5
1040
0.0
1000
$DLINETE
1070
           5
1040
0.0
1000
ExplodeScale
1070
           5
1040
1.0
1002
}
  0
INSERT
  5
78
102
{ACAD_REACTORS
330
A2
102
}
100
AcDbEntity
  8
0
  6
Continuous
 62
           7
100
AcDbBlockReference
  2
*E8
 10
0.0
 20
0.0
 30
0.0
1001
TCAD
1000
TCW_REFPOINT
1002
{
1010
387.721181120101
1020
-127.0
1030
0.0
1002
}
1000
TCW_CUSTOM_DATA
1002
{
1000
#$AUX@_ToolInfo Properties
1070
           8
1000
Insert^  JDoubleLine^  JPerpendicular@DoubleLine Perpendicular
1002
}
1000
TC25ExternalObject
1002
{
1000
TCW25DblLine
1000

1070
           0
1071
        0
1040
1.0
1040
0.0
1000
Continuous
1000
0
1070
          12
1010
1.0
1020
0.0
1030
0.0
1010
0.0
1020
1.0
1030
0.0
1010
0.0
1020
0.0
1030
1.0
1010
-113.516332314896
1020
127.0
1030
0.0
1070
          18
1010
387.721181120101
1020
-127.0
1030
0.0
1070
          21
1071
        2
1071
      178
1010
400.421181120101
1020
-127.0
1030
0.0
1071
      178
1010
400.421181120101
1020
-76.2
1030
0.0
1070
           3
1071
-2147483641
1070
           1
1000
#$AUX@_ToolInfo Properties
1070
           8
1000
Insert^  JDoubleLine^  JPerpendicular@DoubleLine Perpendicular
1000
$DLINEWID
1070
           5
1040
25.4
1000
$DLINEALG
1070
          18
1070
           0
1000
$DLINECS
1070
          18
1070
           0
1000
$DLINECE
1070
          18
1070
           0
1000
$DLINETS
1070
           5
1040
0.0
1000
$DLINETE
1070
           5
1040
0.0
1000
ExplodeScale
1070
           5
1040
1.0
1002
}
  0
LINE
  5
79
102
{ACAD_REACTORS
330
A2
102
}
100
AcDbEntity
  8
0
370
           0
  6
Continuous
 62
           7
100
AcDbLine
 10
1219.850018324521
 20
50.8
 30
0.0
 11
1245.250018324521
 21
50.8
 31
0.0
1001
TCAD
1000
TCW_CUSTOM_DATA
1002
{
1000
#$AUX@_ToolInfo Properties
1070
           8
1000
Insert^  JLine^  JSingle@Line Single
1002
}
  0
LINE
  5
7A
102
{ACAD_REACTORS
330
A2
102
}
100
AcDbEntity
  8
0
370
           0
  6
Continuous
 62
           7
100
AcDbLine
 10
299.604848805205
 20
50.8
 30
0.0
 11
274.204848805205
 21
50.8
 31
0.0
1001
TCAD
1000
TCW_CUSTOM_DATA
1002
{
1000
#$AUX@_ToolInfo Properties
1070
           8
1000
Insert^  JLine^  JSingle@Line Single
1002
}
  0
INSERT
  5
80
102
{ACAD_REACTORS
330
A2
102
}
100
AcDbEntity
  8
0
  6
Continuous
 62
           7
100
AcDbBlockReference
  2
*E9
 10
0.0
 20
0.0
 30
0.0
1001
TCAD
1000
TCW_REFPOINT
1002
{
1010
946.059665147136
1020
36.673117913699
1030
0.0
1002
}
1000
TCW_CUSTOM_DATA
1002
{
1000
#$AUX@_ToolInfo Properties
1070
           8
1000
Insert^  JDoubleLine^  JPerpendicular@DoubleLine Perpendicular
1002
}
1000
TC25ExternalObject
1002
{
1000
TCW25DblLine
1000

1070
           0
1071
        0
1040
1.0
1040
0.0
1000
Continuous
1000
0
1070
          12
1010
1.0
1020
0.0
1030
0.0
1010
0.0
1020
1.0
1030
0.0
1010
0.0
1020
0.0
1030
1.0
1010
88.898470088372
1020
127.002394248753
1030
0.0
1070
          18
1010
946.059665147136
1020
36.673117913699
1030
0.0
1070
          21
1071
        2
1071
      178
1010
958.759581617333
1020
36.627056541277
1030
0.0
1071
      178
1010
958.437152010379
1020
-52.272358750099
1030
0.0
1070
           3
1071
-2147483641
1070
           1
1000
#$AUX@_ToolInfo Properties
1070
           8
1000
Insert^  JDoubleLine^  JPerpendicular@DoubleLine Perpendicular
1000
$DLINEWID
1070
           5
1040
25.4
1000
$DLINEALG
1070
          18
1070
           0
1000
$DLINECS
1070
          18
1070
           0
1000
$DLINECE
1070
          18
1070
           0
1000
$DLINETS
1070
           5
1040
0.0
1000
$DLINETE
1070
           5
1040
0.0
1000
ExplodeScale
1070
           5
1040
1.0
1002
}
  0
LWPOLYLINE
  5
81
102
{ACAD_REACTORS
330
A2
102
}
100
AcDbEntity
  8
0
370
           0
  6
Continuous
 62
           7
100
AcDbPolyline
 90
       17
 70
           0
 10
801.464232717534
 20
169.577194403566
 10
816.085517220378
 20
169.246739150331
 10
830.706903864283
 20
168.874083716115
 10
845.328384465411
 20
168.467166649206
 10
859.949950839922
 20
168.033926497892
 10
874.571594803979
 20
167.582301810459
 10
889.193308173742
 20
167.120231135194
 10
903.815082765373
 20
166.655653020386
 10
918.436910395033
 20
166.19650601432
 10
933.058782878884
 20
165.750728665284
 10
947.680692033087
 20
165.326259521566
 10
962.302629673804
 20
164.931037131451
 10
976.924587617196
 20
164.573000043229
 10
991.546557679424
 20
164.260086805185
 10
1006.16853167665
 20
164.000235965607
 10
1020.790501425036
 20
163.801386072781
 10
1034.958135235508
 20
163.675512162452
  0
LWPOLYLINE
  5
82
102
{ACAD_REACTORS
330
A2
102
}
100
AcDbEntity
  8
0
370
           0
  6
Continuous
 62
           7
100
AcDbPolyline
 90
       25
 70
           0
 10
1060.358176705183
 20
163.640884544649
 10
1064.656303338761
 20
163.650227557695
 10
1079.278174253397
 20
163.774766934753
 10
1093.9
 20
164.0
 10
1115.388668726113
 20
164.461780168931
 10
1136.874158462749
 20
165.024009429578
 10
1158.3567158606
 20
165.678786412227
 10
1179.836587570356
 20
166.418209747164
 10
1201.314020242709
 20
167.234378064676
 10
1222.78926052835
 20
168.119389995051
 10
1244.262555077971
 20
169.065344168575
 10
1265.734150542262
 20
170.064339215535
 10
1287.204293571914
 20
171.108473766217
 10
1308.67323081762
 20
172.189846450908
 10
1330.141208930069
 20
173.300555899895
 10
1351.608474559954
 20
174.432700743465
 10
1373.075274357965
 20
175.578379611904
 10
1394.541854974794
 20
176.7296911355
 10
1416.008463061133
 20
177.878733944538
 10
1437.475345267671
 20
179.017606669307
 10
1458.9427482451
 20
180.138407940092
 10
1480.410918644112
 20
181.23323638718
 10
1501.880103115398
 20
182.294190640858
 10
1523.350548309648
 20
183.313369331413
 10
1523.350548309648
 20
183.313369331413
  0
LINE
  5
83
102
{ACAD_REACTORS
330
A2
102
}
100
AcDbEntity
  8
0
370
           0
  6
Continuous
 62
           7
100
AcDbLine
 10
1060.035538568947
 20
74.683974126232
 30
0.0
 11
1034.635705628554
 21
74.776096871076
 31
0.0
1001
TCAD
1000
TCW_CUSTOM_DATA
1002
{
1000
#$AUX@_ToolInfo Properties
1070
           8
1000
Insert^  JLine^  JSingle@Line Single
1002
}
  0
INSERT
  5
88
102
{ACAD_REACTORS
330
A2
102
}
100
AcDbEntity
  8
0
  6
Continuous
 62
           7
100
AcDbBlockReference
  2
*E10
 10
0.0
 20
0.0
 30
0.0
1001
TCAD
1000
TCW_CUSTOM_DATA
1002
{
1000
#$AUX@_ToolInfo Properties
1070
           8
1000
Insert^  JCurve^  JBezier@Curve Bezier
1002
}
1000
TC25ExternalObject
1002
{
1000
TCW30CURVE
1000

1070
           0
1071
        0
1040
1.0
1040
0.0
1000
Continuous
1000
0
1070
          12
1010
1.0
1020
0.0
1030
0.0
1010
0.0
1020
1.0
1030
0.0
1010
0.0
1020
0.0
1030
1.0
1010
120.778944111494
1020
916.735133084147
1030
0.0
1070
          21
1071
       70
1071
      162
1010
-31.878944111494
1020
-640.794736930568
1030
0.0
1071
     6274
1010
-39.707209922694
1020
-637.118923056291
1030
0.0
1071
     6274
1010
-49.809892411938
1020
-636.86112343409
1030
0.0
1071
      130
1010
-57.815446170505
1020
-640.132890887289
1030
0.0
1071
     6274
1010
-64.97044140297
1020
-643.057045947059
1030
0.0
1071
     6274
1010
-70.950328406526
1020
-650.178645552561
1030
0.0
1071
      130
1010
-73.045138835471
1020
-657.618834317435
1030
0.0
1071
     6274
1010
-76.715437103338
1020
-670.654721268825
1030
0.0
1071
     6274
1010
-76.52679144521
1020
-684.894693803505
1030
0.0
1071
      130
1010
-74.173264218062
1020
-698.231348090679
1030
0.0
1071
     6274
1010
-70.804698565743
1020
-717.319886787158
1030
0.0
1071
     6274
1010
-68.406298852868
1020
-738.514610914382
1030
0.0
1071
      130
1010
-56.12325809662
1020
-753.509491837594
1030
0.0
1071
     6274
1010
-50.740540163598
1020
-760.080602041543
1030
0.0
1071
     6274
1010
-36.945752363323
1020
-757.053861966417
1030
0.0
1071
      130
1010
-30.740436988343
1020
-751.253241072414
1030
0.0
1071
     6274
1010
-25.381857435764
1020
-746.244134099351
1030
0.0
1071
     6274
1010
-31.907467825224
1020
-736.382828286751
1030
0.0
1071
      130
1010
-30.176374297047
1020
-729.254796111907
1030
0.0
1071
     6274
1010
-28.628418711397
1020
-722.880861347467
1030
0.0
1071
     6274
1010
-27.241443066241
1020
-714.204881413726
1030
0.0
1071
      130
1010
-21.151371236327
1020
-711.76885268176
1030
0.0
1071
     6274
1010
-16.210615495737
1020
-709.792550385524
1030
0.0
1071
     6274
1010
-9.557275214959
1020
-715.276006500936
1030
0.0
1071
      130
1010
-7.613866645245
1020
-720.229793051186
1030
0.0
1071
     6274
1010
0.497559434268
1020
-740.90597717543
1030
0.0
1071
     6274
1010
4.218948355407
1020
-763.14794687301
1030
0.0
1071
      130
1010
7.615826019721
1020
-785.097002550117
1030
0.0
1071
     6274
1010
9.140172551668
1020
-794.946626295005
1030
0.0
1071
     6274
1010
12.904591189003
1020
-806.924913813364
1030
0.0
1071
      130
1010
7.051763328426
1020
-814.992325188755
1030
0.0
1071
     6274
1010
3.070835837863
1020
-820.47954956764
1030
0.0
1071
     6274
1010
-7.745072370184
1020
-817.814350846626
1030
0.0
1071
      130
1010
-13.254493558196
1020
-813.864199806165
1030
0.0
1071
     6274
1010
-19.337929397592
1020
-809.502491091126
1030
0.0
1071
     6274
1010
-16.485067717706
1020
-797.507914969433
1030
0.0
1071
      130
1010
-22.843559310212
1020
-793.557942919543
1030
0.0
1071
     6274
1010
-30.710119435131
1020
-788.671140417699
1030
0.0
1071
     6274
1010
-42.519633115376
1020
-786.009599360018
1030
0.0
1071
      130
1010
-50.482631183669
1020
-790.737629463067
1030
0.0
1071
     6274
1010
-57.845305466084
1020
-795.109217318251
1030
0.0
1071
     6274
1010
-57.420764691091
1020
-806.566127218997
1030
0.0
1071
      130
1010
-58.943571553095
1020
-814.992325188755
1030
0.0
1071
     6274
1010
-60.281092032547
1020
-822.393271841725
1030
0.0
1071
     6274
1010
-59.328749297522
1020
-830.04386682424
1030
0.0
1071
      130
1010
-58.943571553095
1020
-837.554832840557
1030
0.0
1071
     6274
1010
-58.57563102936
1020
-844.729673053389
1030
0.0
1071
     6274
1010
-57.029041587356
1020
-851.813078321503
1030
0.0
1071
      130
1010
-56.687320787915
1020
-858.989215109769
1030
0.0
1071
     6274
1010
-56.46356094297
1020
-863.688171853619
1030
0.0
1071
     6274
1010
-53.610470596726
1020
-870.111853670113
1030
0.0
1071
      130
1010
-57.25138347921
1020
-873.090782392145
1030
0.0
1071
     6274
1010
-61.917114286562
1020
-876.908198507251
1030
0.0
1071
     6274
1010
-69.452974248656
1020
-875.681011612734
1030
0.0
1071
      130
1010
-75.301389600652
1020
-874.218907774735
1030
0.0
1071
     6274
1010
-79.861566180416
1020
-873.078863629794
1030
0.0
1071
     6274
1010
-84.176891722531
1020
-869.796193479917
1030
0.0
1071
      130
1010
-86.582643426553
1020
-865.757967405309
1030
0.0
1071
     6274
1010
-89.756777309654
1020
-860.429956958676
1030
0.0
1071
     6274
1010
-87.564995657288
1020
-852.80706582777
1030
0.0
1071
      130
1010
-91.095144956913
1020
-847.707961283868
1030
0.0
1071
     6274
1010
-93.262203050951
1020
-844.577766259146
1030
0.0
1071
     6274
1010
-98.01535396094
1020
-844.037350405576
1030
0.0
1071
      130
1010
-101.812336091519
1020
-843.759522444802
1030
0.0
1071
     6274
1010
-106.005401403107
1020
-843.452712787857
1030
0.0
1071
     6274
1010
-110.515116680897
1020
-844.031571720814
1030
0.0
1071
      130
1010
-114.22171530001
1020
-846.015773209983
1030
0.0
1071
     6274
1010
-117.238169877965
1020
-847.630529562269
1030
0.0
1071
     6274
1010
-119.746078822695
1020
-850.650806991821
1030
0.0
1071
      162
1010
-120.778944106425
1020
-853.912650888113
1030
0.0
1070
           3
1071
-2147483643
1070
           1
1000
#$AUX@_ToolInfo Properties
1070
           8
1000
Insert^  JCurve^  JBezier@Curve Bezier
1000
$SPLINESEGS
1070
          18
1070
          20
1000
$SPLFRAME
1070
          18
1070
           0
1000
$SPLINETYPE
1070
          18
1070
           1
1000
$SHOWCONTRPTS
1070
          18
1070
           1
1000
$CURVESMOOTH
1070
          18
1070
           1
1002
}
  0
INSERT
  5
8D
102
{ACAD_REACTORS
330
A2
102
}
100
AcDbEntity
  8
0
  6
Continuous
 62
           7
100
AcDbBlockReference
  2
*E11
 10
0.0
 20
0.0
 30
0.0
1001
TCAD
1000
TCW_CUSTOM_DATA
1002
{
1000
#$AUX@_ToolInfo Properties
1070
           8
1000
Insert^  JDoubleLine^  JPerpendicular@DoubleLine Perpendicular
1002
}
1000
TC25ExternalObject
1002
{
1000
TCW25DblLine
1000

1070
           0
1071
        0
1040
1.0
1040
0.0
1000
Continuous
1000
0
1070
          12
1010
1.0
1020
0.0
1030
0.0
1010
0.0
1020
1.0
1030
0.0
1010
0.0
1020
0.0
1030
1.0
1010
88.9
1020
127.0
1030
0.0
1070
          21
1071
        2
1071
      178
1010
370.666899735812
1020
65.334322291012
1030
0.0
1071
      178
1010
361.99841854806
1020
-23.142044236427
1030
0.0
1070
           2
1000
Internal
1000
Gap
1070
           1
1071
       -3
1040
1.0
1040
2.0
1000

1000
0
1070
          18
1010
383.306380668304
1020
64.095967835618
1030
0.0
1070
          20
1070
          21
1071
        7
1071
     2050
1010
383.306380668304
1020
64.095967835618
1030
0.0
1071
     2050
1010
383.261225903378
1020
63.635087844593
1030
0.0
1071
     6146
1010
374.903707467934
1020
64.485161519347
1030
0.0
1071
     6146
1010
362.40691099455
1020
65.776748911623
1030
0.0
1071
     2050
1010
357.994758124742
1020
66.239319828805
1030
0.0
1071
     2050
1010
358.027418803321
1020
66.572676746405
1030
0.0
1071
     2050
1010
383.306380668304
1020
64.095967835618
1030
0.0
1070
           3
1071
-2147483648
1070
           0
1070
           3
1071
-2147483641
1070
           1
1000
#$AUX@_ToolInfo Properties
1070
           8
1000
Insert^  JDoubleLine^  JPerpendicular@DoubleLine Perpendicular
1000
$DLINEWID
1070
           5
1040
25.4
1000
$DLINEALG
1070
          18
1070
           0
1000
$DLINECS
1070
          18
1070
           0
1000
$DLINECE
1070
          18
1070
           1
1000
$DLINETS
1070
           5
1040
0.0
1000
$DLINETE
1070
           5
1040
0.0
1000
ExplodeScale
1070
           5
1040
1.0
1002
}
  0
INSERT
  5
92
102
{ACAD_REACTORS
330
A2
102
}
100
AcDbEntity
  8
0
  6
Continuous
 62
           7
100
AcDbBlockReference
  2
*E12
 10
0.0
 20
0.0
 30
0.0
1001
TCAD
1000
TCW_CUSTOM_DATA
1002
{
1000
#$AUX@_ToolInfo Properties
1070
           8
1000
Insert^  JDoubleLine^  JPerpendicular@DoubleLine Perpendicular
1002
}
1000
TC25ExternalObject
1002
{
1000
TCW25DblLine
1000

1070
           0
1071
        0
1040
1.0
1040
0.0
1000
Continuous
1000
0
1070
          12
1010
1.0
1020
0.0
1030
0.0
1010
0.0
1020
1.0
1030
0.0
1010
0.0
1020
0.0
1030
1.0
1010
88.9
1020
128.900189562643
1030
0.0
1070
          21
1071
        2
1071
      178
1010
1776.512551365455
1020
91.710857533933
1030
0.0
1071
      178
1010
1788.542813163715
1020
3.628607329563
1030
0.0
1070
           3
1071
-2147483641
1070
           1
1000
#$AUX@_ToolInfo Properties
1070
           8
1000
Insert^  JDoubleLine^  JPerpendicular@DoubleLine Perpendicular
1000
$DLINEWID
1070
           5
1040
25.4
1000
$DLINEALG
1070
          18
1070
           0
1000
$DLINECS
1070
          18
1070
           0
1000
$DLINECE
1070
          18
1070
           1
1000
$DLINETS
1070
           5
1040
0.0
1000
$DLINETE
1070
           5
1040
0.0
1000
ExplodeScale
1070
           5
1040
1.0
1002
}
  0
LINE
  5
93
102
{ACAD_REACTORS
330
A2
102
}
100
AcDbEntity
  8
0
370
           0
  6
Continuous
 62
           7
100
AcDbLine
 10
2221.922038113508
 20
0.0
 30
0.0
 11
2388.9
 21
0.0
 31
0.0
1001
TCAD
1000
TCW_CUSTOM_DATA
1002
{
1000
#$AUX@_ToolInfo Properties
1070
           8
1000
Insert^  JLine^  JSingle@Line Single
1002
}
  0
LWPOLYLINE
  5
94
102
{ACAD_REACTORS
330
A2
102
}
100
AcDbEntity
  8
0
370
           0
  6
Continuous
 62
           7
100
AcDbPolyline
 90
       39
 70
           0
 10
1548.688381784122
 20
185.08937462979
 10
1550.699386397468
 20
185.229892982982
 10
1552.71091996414
 20
185.364627550028
 10
1554.722886891873
 20
185.494630241168
 10
1556.7351915884
 20
185.620952966644
 10
1558.747738461456
 20
185.744647636695
 10
1560.760431918775
 20
185.866766161562
 10
1562.773176368092
 20
185.988360451486
 10
1564.78587621714
 20
186.110482416706
 10
1566.798435873653
 20
186.234183967463
 10
1568.810759745365
 20
186.360517013998
 10
1570.822752240013
 20
186.490533466551
 10
1572.834317765328
 20
186.625285235362
 10
1574.845360729045
 20
186.765824230672
 10
1576.855785538898
 20
186.91320236272
 10
1578.865496602623
 20
187.068471541749
 10
1580.874398327952
 20
187.232683677998
 10
1582.88239512262
 20
187.406890681707
 10
1584.889391394361
 20
187.592144463116
 10
1586.89529155091
 20
187.789496932467
 10
1588.9
 20
188.0
 10
1603.910027920925
 20
189.613198031752
 10
1618.923678237861
 20
191.200197681345
 10
1633.940171289703
 20
192.766888187352
 10
1648.958727415344
 20
194.319158788349
 10
1663.978566953678
 20
195.862898722911
 10
1678.998910243601
 20
197.403997229613
 10
1694.018977624005
 20
198.948343547028
 10
1709.037989433787
 20
200.501826913734
 10
1724.055166011838
 20
202.070336568303
 10
1739.069727697054
 20
203.659761749311
 10
1754.080894828329
 20
205.275991695333
 10
1769.087887744558
 20
206.924915644943
 10
1784.089926784633
 20
208.612422836717
 10
1799.08623228745
 20
210.344402509229
 10
1814.076024591903
 20
212.126743901055
 10
1829.058524036886
 20
213.965336250768
 10
1844.032950961293
 20
215.866068796945
 10
1853.0801586284
 20
217.056253524051
  0
LWPOLYLINE
  5
95
102
{ACAD_REACTORS
330
A2
102
}
100
AcDbEntity
  8
0
370
           0
  6
Continuous
 62
           7
100
AcDbPolyline
 90
       42
 70
           0
 10
1878.247376654224
 20
220.487168461196
 10
1888.9
 20
222.0
 10
1898.820635001516
 20
223.481746494313
 10
1908.727383160429
 20
225.0461849908
 10
1918.621319739953
 20
226.686871269898
 10
1928.503520003302
 20
228.397361112048
 10
1938.375059213691
 20
230.171210297689
 10
1948.237012634334
 20
232.00197460726
 10
1958.090455528446
 20
233.883209821201
 10
1967.93646315924
 20
235.808471719951
 10
1977.776110789931
 20
237.771316083949
 10
1987.610473683732
 20
239.765298693635
 10
1997.44062710386
 20
241.783975329449
 10
2007.267646313527
 20
243.820901771829
 10
2017.092606575947
 20
245.869633801216
 10
2026.916583154336
 20
247.923727198048
 10
2036.740651311907
 20
249.976737742764
 10
2046.565886311876
 20
252.022221215805
 10
2056.393363417455
 20
254.05373339761
 10
2066.224157891859
 20
256.064830068618
 10
2076.059344998302
 20
258.049067009268
 10
2085.9
 20
260.0
 10
2087.465732220079
 20
260.310015815397
 10
2089.030449395215
 20
260.625003583619
 10
2090.594213571917
 20
260.944651630511
 10
2092.157086796693
 20
261.268648281918
 10
2093.719131116051
 20
261.596681863684
 10
2095.280408576499
 20
261.928440701654
 10
2096.840981224548
 20
262.263613121673
 10
2098.400911106704
 20
262.601887449585
 10
2099.960260269476
 20
262.942952011235
 10
2101.519090759374
 20
263.286495132467
 10
2103.077464622905
 20
263.632205139127
 10
2104.635443906578
 20
263.979770357059
 10
2106.193090656902
 20
264.328879112107
 10
2107.750466920384
 20
264.679219730116
 10
2109.307634743535
 20
265.030480536932
 10
2110.864656172861
 20
265.382349858398
 10
2112.421593254872
 20
265.734516020359
 10
2113.978508036076
 20
266.08666734866
 10
2115.535462562981
 20
266.438492169146
 10
2117.092518882097
 20
266.789678807661
  0
INSERT
  5
9A
102
{ACAD_REACTORS
330
A2
102
}
100
AcDbEntity
  8
0
  6
Continuous
 62
           7
100
AcDbBlockReference
  2
*E13
 10
0.0
 20
0.0
 30
0.0
1001
TCAD
1000
TCW_CUSTOM_DATA
1002
{
1000
#$AUX@_ToolInfo Properties
1070
           8
1000
Insert^  JCurve^  JBezier@Curve Bezier
1002
}
1000
TC25ExternalObject
1002
{
1000
TCW30CURVE
1000

1070
           0
1071
        0
1040
1.0
1040
0.0
1000
Continuous
1000
0
1070
          12
1010
1.0
1020
0.0
1030
0.0
1010
0.0
1020
1.0
1030
0.0
1010
0.0
1020
0.0
1030
1.0
1010
120.778944111494
1020
916.735133084147
1030
0.0
1070
          21
1071
       22
1071
      162
1010
108.053696151649
1020
-696.664128379737
1030
0.0
1071
     6274
1010
120.78777248087
1020
-698.650715803775
1030
0.0
1071
     6274
1010
133.525754696214
1020
-700.612425999237
1030
0.0
1071
      130
1010
146.267496909934
1020
-702.549236498715
1030
0.0
1071
     6274
1010
148.713749620523
1020
-702.921079521025
1030
0.0
1071
     6274
1010
151.165787543874
1020
-703.254074009508
1030
0.0
1071
      130
1010
153.617227894675
1020
-703.590020082218
1030
0.0
1071
     6274
1010
160.948329460555
1020
-704.594676295407
1030
0.0
1071
     6274
1010
168.271113637608
1020
-705.664739088715
1030
0.0
1071
      130
1010
175.615024130318
1020
-706.571029853879
1030
0.0
1071
     6274
1010
193.816014225471
1020
-708.817161428665
1030
0.0
1071
     6274
1010
212.029578732129
1020
-710.962081128395
1030
0.0
1071
      130
1010
230.249737666573
1020
-713.047016594712
1030
0.0
1071
     6274
1010
249.309624988672
1020
-715.228042303918
1030
0.0
1071
     6274
1010
268.384073025396
1020
-717.280007609064
1030
0.0
1071
      130
1010
287.454287213519
1020
-719.368813175524
1030
0.0
1071
     6274
1010
295.814960201185
1020
-720.284577419371
1030
0.0
1071
     6274
1010
304.179148653183
1020
-721.167974290831
1030
0.0
1071
      130
1010
312.542311242634
1020
-722.060716392119
1030
0.0
1071
     6274
1010
317.066327793002
1020
-722.543641361978
1030
0.0
1071
     6274
1010
321.590833311496
1020
-723.022007468867
1030
0.0
1071
      162
1010
326.115814013248
1020
-723.495813255342
1030
0.0
1070
           3
1071
-2147483643
1070
           1
1000
#$AUX@_ToolInfo Properties
1070
           8
1000
Insert^  JCurve^  JBezier@Curve Bezier
1000
$SPLINESEGS
1070
          18
1070
          20
1000
$SPLFRAME
1070
          18
1070
           0
1000
$SPLINETYPE
1070
          18
1070
           1
1000
$SHOWCONTRPTS
1070
          18
1070
           1
1000
$CURVESMOOTH
1070
          18
1070
           1
1002
}
  0
INSERT
  5
9F
102
{ACAD_REACTORS
330
A2
102
}
100
AcDbEntity
  8
0
  6
Continuous
 62
           7
100
AcDbBlockReference
  2
*E14
 10
0.0
 20
0.0
 30
0.0
1001
TCAD
1000
TCW_CUSTOM_DATA
1002
{
1000
#$AUX@_ToolInfo Properties
1070
           8
1000
Insert^  JCurve^  JBezier@Curve Bezier
1002
}
1000
TC25ExternalObject
1002
{
1000
TCW30CURVE
1000

1070
           0
1071
        0
1040
1.0
1040
0.0
1000
Continuous
1000
0
1070
          12
1010
1.0
1020
0.0
1030
0.0
1010
0.0
1020
1.0
1030
0.0
1010
0.0
1020
0.0
1030
1.0
1010
120.778944111494
1020
916.735133084147
1030
0.0
1070
          21
1071
       19
1071
      162
1010
351.382281791884
1020
-726.100045239554
1030
0.0
1071
     6274
1010
372.550853874639
1020
-728.194232748515
1030
0.0
1071
     6274
1010
393.725359931628
1020
-730.229281568205
1030
0.0
1071
      130
1010
414.905304049806
1020
-732.205144037193
1030
0.0
1071
     6274
1010
423.620294471407
1020
-733.018159519932
1030
0.0
1071
     6274
1010
432.337566933121
1020
-733.816666902863
1030
0.0
1071
      130
1010
441.066234617868
1020
-734.466599724805
1030
0.0
1071
     6274
1010
475.134679901312
1020
-737.003321431021
1030
0.0
1071
     6274
1010
509.212812199513
1020
-739.410075459396
1030
0.0
1071
      130
1010
543.294311027454
1020
-741.764933987401
1030
0.0
1071
     6274
1010
548.018067808784
1020
-742.091321597198
1030
0.0
1071
     6274
1010
552.749742142226
1020
-742.293611177942
1030
0.0
1071
      130
1010
557.479805795204
1020
-742.51018642991
1030
0.0
1071
     6274
1010
579.690319681666
1020
-743.527138419186
1030
0.0
1071
     6274
1010
601.896562261631
1020
-744.657350204275
1030
0.0
1071
      130
1010
624.115653508468
1020
-745.465497847919
1030
0.0
1071
     6274
1010
634.508394776604
1020
-745.843500227654
1030
0.0
1071
     6274
1010
644.909081668847
1020
-746.044524277704
1030
0.0
1071
      162
1010
655.308667576333
1020
-746.068395145583
1030
0.0
1070
           3
1071
-2147483643
1070
           1
1000
#$AUX@_ToolInfo Properties
1070
           8
1000
Insert^  JCurve^  JBezier@Curve Bezier
1000
$SPLINESEGS
1070
          18
1070
          20
1000
$SPLFRAME
1070
          18
1070
           0
1000
$SPLINETYPE
1070
          18
1070
           1
1000
$SHOWCONTRPTS
1070
          18
1070
           1
1000
$CURVESMOOTH
1070
          18
1070
           1
1002
}
  0
LINE
  5
A0
102
{ACAD_REACTORS
330
A2
102
}
100
AcDbEntity
  8
0
370
           0
  6
Continuous
 62
           7
100
AcDbLine
 10
-0.0
 20
0.0
 30
0.0
 11
0.000000005069
 21
62.822482196034
 31
0.0
1001
TCAD
1000
TCW_CUSTOM_DATA
1002
{
1000
#$AUX@_ToolInfo Properties
1070
           8
1000
Insert^  JLine^  JSingle@Line Single
1002
}
  0
LINE
  5
A1
102
{ACAD_REACTORS
330
A2
102
}
100
AcDbEntity
  8
0
370
           0
  6
Continuous
 62
           7
100
AcDbLine
 10
88.9
 20
242.0
 30
0.0
 11
88.9
 21
275.940396153579
 31
0.0
1001
TCAD
1000
TCW_CUSTOM_DATA
1002
{
1000
#$AUX@_ToolInfo Properties
1070
           8
1000
Insert^  JLine^  JSingle@Line Single
1002
}
  0
LINE
  5
A3
102
{ACAD_REACTORS
330
107
102
}
100
AcDbEntity
  8
0
370
           0
  6
Continuous
 62
           7
100
AcDbLine
 10
2.812906436545
 20
466.270180362592
 30
0.0
 11
2.812906436545
 21
593.27018036253
 31
0.0
1001
TCAD
1000
TCW_CUSTOM_DATA
1002
{
1000
#$AUX@_ToolInfo Properties
1070
           8
1000
Insert^  JLine^  JSingle@Line Single
1002
}
  0
INSERT
  5
A8
102
{ACAD_REACTORS
330
107
102
}
100
AcDbEntity
  8
0
  6
Continuous
 62
           7
100
AcDbBlockReference
  2
*E15
 10
0.0
 20
0.0
 30
0.0
1001
TCAD
1000
TCW_CUSTOM_DATA
1002
{
1000
#$AUX@_ToolInfo Properties
1070
           8
1000
Insert^  JCurve^  JBezier@Curve Bezier
1002
}
1000
TC25ExternalObject
1002
{
1000
TCW30CURVE
1000

1070
           0
1071
        0
1040
1.0
1040
0.0
1000
Continuous
1000
0
1070
          12
1010
-1.0
1020
0.0
1030
0.0
1010
0.0
1020
-1.0
1030
0.0
1010
0.0
1020
0.0
1030
1.0
1010
2302.812906435427
1020
466.270180362592
1030
0.0
1070
          21
1071
       43
1071
      162
1010
2300.105468684177
1020
0.083570462561
1030
0.0
1071
     6274
1010
2276.562248057406
1020
-6.127085246455
1030
0.0
1071
     6274
1010
2249.718644547535
1020
-4.311575830328
1030
0.0
1071
      130
1010
2227.226089572411
1020
5.012610595723
1030
0.0
1071
     6274
1010
2214.115853144735
1020
10.447399514832
1030
0.0
1071
     6274
1010
2205.631791768717
1020
26.223327140861
1030
0.0
1071
      130
1010
2203.285037497049
1020
40.220040118315
1030
0.0
1071
     6274
1010
2201.770752864907
1020
49.251666317164
1030
0.0
1071
     6274
1010
2210.822544072971
1020
57.404315358523
1030
0.0
1071
      130
1010
2217.368009306085
1020
63.809017898452
1030
0.0
1071
     6274
1010
2222.248313242229
1020
68.584369061776
1030
0.0
1071
     6274
1010
2229.332559243671
1020
70.919723441997
1030
0.0
1071
      130
1010
2236.027946953059
1020
72.258800983874
1030
0.0
1071
     6274
1010
2242.0220097856
1020
73.457613550382
1030
0.0
1071
     6274
1010
2248.310231566301
1020
70.173820752598
1030
0.0
1071
      130
1010
2254.335810304807
1020
71.202578098196
1030
0.0
1071
     6274
1010
2258.324817285722
1020
71.883628070547
1030
0.0
1071
     6274
1010
2264.070331015839
1020
73.22666641954
1030
0.0
1071
      130
1010
2264.898039161585
1020
77.187841117037
1030
0.0
1071
     6274
1010
2266.158199795416
1020
83.218609864657
1030
0.0
1071
     6274
1010
2262.9474190729
1020
89.852237629895
1030
0.0
1071
      130
1010
2259.26485043797
1020
94.791555878333
1030
0.0
1071
     6274
1010
2247.897300438331
1020
110.038507861976
1030
0.0
1071
     6274
1010
2235.913662177042
1020
125.497369610084
1030
0.0
1071
      130
1010
2220.536677963119
1020
136.688397010218
1030
0.0
1071
     6274
1010
2213.797559702222
1020
141.592977522316
1030
0.0
1071
     6274
1010
2203.552462898078
1020
144.196568096118
1030
0.0
1071
      130
1010
2195.891477297304
1020
140.913288552929
1030
0.0
1071
     6274
1010
2190.498021653071
1020
138.601807562543
1030
0.0
1071
     6274
1010
2191.399937915161
1020
129.865294926973
1030
0.0
1071
      130
1010
2190.962437164141
1020
124.013722382085
1030
0.0
1071
     6274
1010
2190.443523648256
1020
117.07325410712
1030
0.0
1071
     6274
1010
2198.583951145593
1020
103.330804492622
1030
0.0
1071
      130
1010
2195.187328719105
1020
97.256075922171
1030
0.0
1071
     6274
1010
2191.336711877475
1020
90.369395801561
1030
0.0
1071
     6274
1010
2166.046440126971
1020
102.154221407984
1030
0.0
1071
      130
1010
2161.388196377417
1020
108.5224533694
1030
0.0
1071
     6274
1010
2151.442405992092
1020
122.119230098706
1030
0.0
1071
     6274
1010
2167.021385101031
1020
128.238613902052
1030
0.0
1071
      130
1010
2167.021385101031
1020
144.434031482444
1030
0.0
1071
     6274
1010
2167.021385101031
1020
154.681886856237
1030
0.0
1071
     6274
1010
2161.085945860002
1020
161.352867695295
1030
0.0
1071
      162
1010
2158.219527715032
1020
171.191677927246
1030
0.0
1070
           3
1071
-2147483643
1070
           1
1000
#$AUX@_ToolInfo Properties
1070
           8
1000
Insert^  JCurve^  JBezier@Curve Bezier
1000
$SPLINESEGS
1070
          18
1070
          20
1000
$SPLFRAME
1070
          18
1070
           0
1000
$SPLINETYPE
1070
          18
1070
           1
1000
$SHOWCONTRPTS
1070
          18
1070
           1
1000
$CURVESMOOTH
1070
          18
1070
           1
1002
}
  0
INSERT
  5
AE
102
{ACAD_REACTORS
330
107
102
}
100
AcDbEntity
  8
0
  6
Continuous
 62
           7
100
AcDbBlockReference
  2
*E16
 10
0.0
 20
0.0
 30
0.0
1001
TCAD
1000
TCW_CUSTOM_DATA
1002
{
1000
#$AUX@_ToolInfo Properties
1070
           8
1000
Insert^  JDoubleLine^  JPerpendicular@DoubleLine Perpendicular
1002
}
1000
TC25ExternalObject
1002
{
1000
TCW25DblLine
1000

1070
           0
1071
        0
1040
1.0
1040
0.0
1000
Continuous
1000
0
1070
          12
1010
-1.0
1020
0.0
1030
0.0
1010
0.0
1020
-1.0
1030
0.0
1010
0.0
1020
0.0
1030
1.0
1010
2302.812906435427
1020
466.270180362592
1030
0.0
1070
          21
1071
        2
1071
      178
1010
699.875922202681
1020
43.121966171065
1030
0.0
1071
      178
1010
696.062519830188
1020
-45.696207432907
1030
0.0
1070
           3
1071
-2147483641
1070
           1
1000
#$AUX@_ToolInfo Properties
1070
           8
1000
Insert^  JDoubleLine^  JPerpendicular@DoubleLine Perpendicular
1000
$DLINEWID
1070
           5
1040
25.4
1000
$DLINEALG
1070
          18
1070
           0
1000
$DLINECS
1070
          18
1070
           0
1000
$DLINECE
1070
          18
1070
           0
1000
$DLINETS
1070
           5
1040
0.0
1000
$DLINETE
1070
           5
1040
0.0
1000
ExplodeScale
1070
           5
1040
1.0
1002
}
  0
INSERT
  5
B4
102
{ACAD_REACTORS
330
107
102
}
100
AcDbEntity
  8
0
  6
Continuous
 62
           7
100
AcDbBlockReference
  2
*E17
 10
0.0
 20
0.0
 30
0.0
1001
TCAD
1000
TCW_CUSTOM_DATA
1002
{
1000
#$AUX@_ToolInfo Properties
1070
           8
1000
Insert^  JDoubleLine^  JPerpendicular@DoubleLine Perpendicular
1002
}
1000
TC25ExternalObject
1002
{
1000
TCW25DblLine
1000

1070
           0
1071
        0
1040
1.0
1040
0.0
1000
Continuous
1000
0
1070
          12
1010
-1.0
1020
0.0
1030
0.0
1010
0.0
1020
-1.0
1030
0.0
1010
0.0
1020
0.0
1030
1.0
1010
2302.812906435427
1020
466.270180362592
1030
0.0
1070
          21
1071
        2
1071
      178
1010
1447.119465046885
1020
57.201371980602
1030
0.0
1071
      178
1010
1453.335483591204
1020
-31.481045180055
1030
0.0
1070
           3
1071
-2147483641
1070
           1
1000
#$AUX@_ToolInfo Properties
1070
           8
1000
Insert^  JDoubleLine^  JPerpendicular@DoubleLine Perpendicular
1000
$DLINEWID
1070
           5
1040
25.4
1000
$DLINEALG
1070
          18
1070
           0
1000
$DLINECS
1070
          18
1070
           0
1000
$DLINECE
1070
          18
1070
           0
1000
$DLINETS
1070
           5
1040
0.0
1000
$DLINETE
1070
           5
1040
0.0
1000
ExplodeScale
1070
           5
1040
1.0
1002
}
  0
INSERT
  5
BA
102
{ACAD_REACTORS
330
107
102
}
100
AcDbEntity
  8
0
  6
Continuous
 62
           7
100
AcDbBlockReference
  2
*E18
 10
0.0
 20
0.0
 30
0.0
1001
TCAD
1000
TCW_CUSTOM_DATA
1002
{
1000
#$AUX@_ToolInfo Properties
1070
           8
1000
Insert^  JDoubleLine^  JPerpendicular@DoubleLine Perpendicular
1002
}
1000
TC25ExternalObject
1002
{
1000
TCW25DblLine
1000

1070
           0
1071
        0
1040
1.0
1040
0.0
1000
Continuous
1000
0
1070
          12
1010
-1.0
1020
0.0
1030
0.0
1010
0.0
1020
-1.0
1030
0.0
1010
0.0
1020
0.0
1030
1.0
1010
2302.812906435427
1020
466.270180362592
1030
0.0
1070
          21
1071
        2
1071
      178
1010
2040.556162973743
1020
142.693177520443
1030
0.0
1071
      178
1010
2060.880653963214
1020
56.147668878926
1030
0.0
1070
           3
1071
-2147483641
1070
           1
1000
#$AUX@_ToolInfo Properties
1070
           8
1000
Insert^  JDoubleLine^  JPerpendicular@DoubleLine Perpendicular
1000
$DLINEWID
1070
           5
1040
25.4
1000
$DLINEALG
1070
          18
1070
           0
1000
$DLINECS
1070
          18
1070
           0
1000
$DLINECE
1070
          18
1070
           0
1000
$DLINETS
1070
           5
1040
0.0
1000
$DLINETE
1070
           5
1040
0.0
1000
ExplodeScale
1070
           5
1040
1.0
1002
}
  0
LINE
  5
BB
102
{ACAD_REACTORS
330
107
102
}
100
AcDbEntity
  8
0
370
           0
  6
Continuous
 62
           7
100
AcDbLine
 10
862.146339582161
 20
498.639228191819
 30
0.0
 11
836.8085061077
 21
496.863222893443
 31
0.0
1001
TCAD
1000
TCW_CUSTOM_DATA
1002
{
1000
#$AUX@_ToolInfo Properties
1070
           8
1000
Insert^  JLine^  JSingle@Line Single
1002
}
  0
LINE
  5
BC
102
{ACAD_REACTORS
330
107
102
}
100
AcDbEntity
  8
0
370
           0
  6
Continuous
 62
           7
100
AcDbLine
 10
254.295896564854
 20
413.026010196474
 30
0.0
 11
229.568608381576
 21
407.219012770913
 31
0.0
1001
TCAD
1000
TCW_CUSTOM_DATA
1002
{
1000
#$AUX@_ToolInfo Properties
1070
           8
1000
Insert^  JLine^  JSingle@Line Single
1002
}
  0
LINE
  5
BD
102
{ACAD_REACTORS
330
107
102
}
100
AcDbEntity
  8
0
370
           0
  6
Continuous
 62
           7
100
AcDbLine
 10
1619.438697120425
 20
511.421616027979
 30
0.0
 11
1594.062076090731
 21
512.511159562976
 31
0.0
1001
TCAD
1000
TCW_CUSTOM_DATA
1002
{
1000
#$AUX@_ToolInfo Properties
1070
           8
1000
Insert^  JLine^  JSingle@Line Single
1002
}
  0
LWPOLYLINE
  5
BE
102
{ACAD_REACTORS
330
107
102
}
100
AcDbEntity
  8
0
370
           0
  6
Continuous
 62
           7
100
AcDbPolyline
 90
       41
 70
           0
 10
249.893099371037
 20
320.673504129438
 10
246.487877403083
 20
319.858384039429
 10
243.082747177903
 20
319.042877351973
 10
239.67771467383
 20
318.226959971935
 10
236.272785869195
 20
317.410607804184
 10
232.867966742327
 20
316.593796753586
 10
229.463263271558
 20
315.776502725009
 10
226.058681435219
 20
314.958701623319
 10
222.65422721164
 20
314.140369353385
 10
219.249906579153
 20
313.321481820072
 10
215.845725516089
 20
312.502014928248
 10
212.441690000777
 20
311.681944582781
 10
209.03780601155
 20
310.861246688536
 10
205.634079526737
 20
310.039897150382
 10
202.23051652467
 20
309.217871873186
 10
198.82712298368
 20
308.395146761814
 10
195.423904882097
 20
307.571697721133
 10
192.020868198253
 20
306.747500656012
 10
188.618018910478
 20
305.922531471316
 10
185.215362997103
 20
305.096766071913
 10
181.812906436458
 20
304.270180362671
 10
179.950338401299
 20
303.817087511936
 10
178.087935652224
 20
303.363310836112
 10
176.225698565227
 20
302.908850428055
 10
174.363627516301
 20
302.453706380618
 10
172.501722881439
 20
301.997878786656
 10
170.639985036634
 20
301.541367739024
 10
168.778414357879
 20
301.084173330577
 10
166.917011221167
 20
300.626295654169
 10
165.055776002492
 20
300.167734802655
 10
163.194709077846
 20
299.708490868889
 10
161.333810823221
 20
299.248563945727
 10
159.473081614612
 20
298.787954126022
 10
157.61252182801
 20
298.32666150263
 10
155.752131839411
 20
297.864686168405
 10
153.891912024805
 20
297.402028216202
 10
152.031862760186
 20
296.938687738876
 10
150.171984421548
 20
296.474664829281
 10
148.312277384883
 20
296.009959580271
 10
146.452742026184
 20
295.544572084702
 10
144.593378721444
 20
295.078502435429
  0
LWPOLYLINE
  5
BF
102
{ACAD_REACTORS
330
107
102
}
100
AcDbEntity
  8
0
370
           0
  6
Continuous
 62
           7
100
AcDbPolyline
 90
       29
 70
           0
 10
2187.99357248029
 20
369.393673551658
 10
2197.184880085754
 20
368.000884405305
 10
2208.273524359646
 20
366.315214649305
 10
2219.361833786099
 20
364.627491004214
 10
2230.450224028789
 20
362.940916782039
 10
2241.539110751391
 20
361.258695294787
 10
2252.628909617584
 20
359.584029854466
 10
2263.720036291041
 20
357.920123773083
 10
2274.812906435441
 20
356.270180362646
 10
2276.219446486628
 20
356.059870632789
 10
2277.625409812029
 20
355.845363033213
 10
2279.030777794866
 20
355.626660888344
 10
2280.435531818367
 20
355.403767522605
 10
2281.839653265752
 20
355.17668626042
 10
2283.24312352025
 20
354.945420426214
 10
2284.645923965082
 20
354.70997334441
 10
2286.048035983473
 20
354.470348339434
 10
2287.449440958647
 20
354.226548735709
 10
2288.850120273829
 20
353.97857785766
 10
2290.250055312243
 20
353.72643902971
 10
2291.649227457114
 20
353.470135576284
 10
2293.047618091666
 20
353.209670821806
 10
2294.445208599121
 20
352.945048090701
 10
2295.841980362707
 20
352.676270707393
 10
2297.237914765646
 20
352.403341996305
 10
2298.632993191165
 20
352.126265281862
 10
2300.027197022484
 20
351.845043888489
 10
2301.42050764283
 20
351.55968114061
 10
2302.812906435427
 20
351.270180362648
  0
INSERT
  5
C5
102
{ACAD_REACTORS
330
107
102
}
100
AcDbEntity
  8
0
  6
Continuous
 62
           7
100
AcDbBlockReference
  2
*E19
 10
0.0
 20
0.0
 30
0.0
1001
TCAD
1000
TCW_CUSTOM_DATA
1002
{
1000
#$AUX@_ToolInfo Properties
1070
           8
1000
Insert^  JDoubleLine^  JPerpendicular@DoubleLine Perpendicular
1002
}
1000
TC25ExternalObject
1002
{
1000
TCW25DblLine
1000

1070
           0
1071
        0
1040
1.0
1040
0.0
1000
Continuous
1000
0
1070
          12
1010
-1.0
1020
0.0
1030
0.0
1010
0.0
1020
-1.0
1030
0.0
1010
0.0
1020
0.0
1030
1.0
1010
2302.812906435427
1020
466.270180362592
1030
0.0
1070
          21
1071
        2
1071
      178
1010
127.375987109168
1020
94.973755757696
1030
0.0
1071
      178
1010
114.056729736166
1020
7.077183679874
1030
0.0
1070
           3
1071
-2147483641
1070
           1
1000
#$AUX@_ToolInfo Properties
1070
           8
1000
Insert^  JDoubleLine^  JPerpendicular@DoubleLine Perpendicular
1000
$DLINEWID
1070
           5
1040
25.4
1000
$DLINEALG
1070
          18
1070
           0
1000
$DLINECS
1070
          18
1070
           0
1000
$DLINECE
1070
          18
1070
           0
1000
$DLINETS
1070
           5
1040
0.0
1000
$DLINETE
1070
           5
1040
0.0
1000
ExplodeScale
1070
           5
1040
1.0
1002
}
  0
LINE
  5
C6
102
{ACAD_REACTORS
330
107
102
}
100
AcDbEntity
  8
0
370
           0
  6
Continuous
 62
           7
100
AcDbLine
 10
2176.199523545348
 20
461.095747736007
 30
0.0
 11
2201.312829853285
 21
457.290245629437
 31
0.0
1001
TCAD
1000
TCW_CUSTOM_DATA
1002
{
1000
#$AUX@_ToolInfo Properties
1070
           8
1000
Insert^  JLine^  JSingle@Line Single
1002
}
  0
LINE
  5
C7
102
{ACAD_REACTORS
330
107
102
}
100
AcDbEntity
  8
0
370
           0
  6
Continuous
 62
           7
100
AcDbLine
 10
2302.812906435427
 20
593.27018036253
 30
0.0
 11
2117.508057630313
 21
593.27018036253
 31
0.0
  0
LINE
  5
C8
102
{ACAD_REACTORS
330
107
102
}
100
AcDbEntity
  8
0
370
           0
  6
Continuous
 62
           7
100
AcDbLine
 10
2302.812906435427
 20
593.27018036253
 30
0.0
 11
2391.712906435384
 21
593.27018036253
 31
0.0
1001
TCAD
1000
TCW_CUSTOM_DATA
1002
{
1000
#$AUX@_ToolInfo Properties
1070
           8
1000
Insert^  JLine^  JSingle@Line Single
1002
}
  0
LINE
  5
C9
102
{ACAD_REACTORS
330
107
102
}
100
AcDbEntity
  8
0
370
           0
  6
Continuous
 62
           7
100
AcDbLine
 10
2092.108057630325
 20
593.27018036253
 30
0.0
 11
1171.862888111456
 21
593.27018036253
 31
0.0
  0
LINE
  5
CA
102
{ACAD_REACTORS
330
107
102
}
100
AcDbEntity
  8
0
370
           0
  6
Continuous
 62
           7
100
AcDbLine
 10
1146.462888111468
 20
593.27018036253
 30
0.0
 11
195.190868322944
 21
593.27018036253
 31
0.0
  0
INSERT
  5
D0
102
{ACAD_REACTORS
330
107
102
}
100
AcDbEntity
  8
0
  6
Continuous
 62
           7
100
AcDbBlockReference
  2
*E20
 10
0.0
 20
0.0
 30
0.0
1001
TCAD
1000
TCW_REFPOINT
1002
{
1010
1911.197307162782
1020
-127.0
1030
0.0
1002
}
1000
TCW_CUSTOM_DATA
1002
{
1000
#$AUX@_ToolInfo Properties
1070
           8
1000
Insert^  JDoubleLine^  JPerpendicular@DoubleLine Perpendicular
1002
}
1000
TC25ExternalObject
1002
{
1000
TCW25DblLine
1000

1070
           0
1071
        0
1040
1.0
1040
0.0
1000
Continuous
1000
0
1070
          12
1010
-1.0
1020
0.0
1030
0.0
1010
0.0
1020
-1.0
1030
0.0
1010
0.0
1020
0.0
1030
1.0
1010
2080.988175484809
1020
466.270180362592
1030
0.0
1070
          18
1010
1911.197307162782
1020
-127.0
1030
0.0
1070
          21
1071
        2
1071
      178
1010
1898.497307162782
1020
-127.0
1030
0.0
1071
      178
1010
1898.497307162782
1020
-76.2
1030
0.0
1070
           3
1071
-2147483641
1070
           1
1000
#$AUX@_ToolInfo Properties
1070
           8
1000
Insert^  JDoubleLine^  JPerpendicular@DoubleLine Perpendicular
1000
$DLINEWID
1070
           5
1040
25.4
1000
$DLINEALG
1070
          18
1070
           0
1000
$DLINECS
1070
          18
1070
           0
1000
$DLINECE
1070
          18
1070
           0
1000
$DLINETS
1070
           5
1040
0.0
1000
$DLINETE
1070
           5
1040
0.0
1000
ExplodeScale
1070
           5
1040
1.0
1002
}
  0
LINE
  5
D1
102
{ACAD_REACTORS
330
107
102
}
100
AcDbEntity
  8
0
370
           0
  6
Continuous
 62
           7
100
AcDbLine
 10
195.190868322943
 20
542.470180362555
 30
0.0
 11
169.790868322956
 21
542.470180362555
 31
0.0
1001
TCAD
1000
TCW_CUSTOM_DATA
1002
{
1000
#$AUX@_ToolInfo Properties
1070
           8
1000
Insert^  JLine^  JSingle@Line Single
1002
}
  0
INSERT
  5
D7
102
{ACAD_REACTORS
330
107
102
}
100
AcDbEntity
  8
0
  6
Continuous
 62
           7
100
AcDbBlockReference
  2
*E21
 10
0.0
 20
0.0
 30
0.0
1001
TCAD
1000
TCW_REFPOINT
1002
{
1010
1129.189646777272
1020
-127.0
1030
0.0
1002
}
1000
TCW_CUSTOM_DATA
1002
{
1000
#$AUX@_ToolInfo Properties
1070
           8
1000
Insert^  JDoubleLine^  JPerpendicular@DoubleLine Perpendicular
1002
}
1000
TC25ExternalObject
1002
{
1000
TCW25DblLine
1000

1070
           0
1071
        0
1040
1.0
1040
0.0
1000
Continuous
1000
0
1070
          12
1010
-1.0
1020
0.0
1030
0.0
1010
0.0
1020
-1.0
1030
0.0
1010
0.0
1020
0.0
1030
1.0
1010
2301.052534888179
1020
466.270180362592
1030
0.0
1070
          18
1010
1129.189646777272
1020
-127.0
1030
0.0
1070
          21
1071
        2
1071
      178
1010
1141.889646777272
1020
-127.0
1030
0.0
1071
      178
1010
1141.889646777272
1020
-76.2
1030
0.0
1070
           3
1071
-2147483641
1070
           1
1000
#$AUX@_ToolInfo Properties
1070
           8
1000
Insert^  JDoubleLine^  JPerpendicular@DoubleLine Perpendicular
1000
$DLINEWID
1070
           5
1040
25.4
1000
$DLINEALG
1070
          18
1070
           0
1000
$DLINECS
1070
          18
1070
           0
1000
$DLINECE
1070
          18
1070
           0
1000
$DLINETS
1070
           5
1040
0.0
1000
$DLINETE
1070
           5
1040
0.0
1000
ExplodeScale
1070
           5
1040
1.0
1002
}
  0
INSERT
  5
DD
102
{ACAD_REACTORS
330
107
102
}
100
AcDbEntity
  8
0
  6
Continuous
 62
           7
100
AcDbBlockReference
  2
*E22
 10
0.0
 20
0.0
 30
0.0
1001
TCAD
1000
TCW_REFPOINT
1002
{
1010
387.721181120101
1020
-127.0
1030
0.0
1002
}
1000
TCW_CUSTOM_DATA
1002
{
1000
#$AUX@_ToolInfo Properties
1070
           8
1000
Insert^  JDoubleLine^  JPerpendicular@DoubleLine Perpendicular
1002
}
1000
TC25ExternalObject
1002
{
1000
TCW25DblLine
1000

1070
           0
1071
        0
1040
1.0
1040
0.0
1000
Continuous
1000
0
1070
          12
1010
-1.0
1020
0.0
1030
0.0
1010
0.0
1020
-1.0
1030
0.0
1010
0.0
1020
0.0
1030
1.0
1010
2505.229238750225
1020
466.270180362592
1030
0.0
1070
          18
1010
387.721181120101
1020
-127.0
1030
0.0
1070
          21
1071
        2
1071
      178
1010
400.421181120101
1020
-127.0
1030
0.0
1071
      178
1010
400.421181120101
1020
-76.2
1030
0.0
1070
           3
1071
-2147483641
1070
           1
1000
#$AUX@_ToolInfo Properties
1070
           8
1000
Insert^  JDoubleLine^  JPerpendicular@DoubleLine Perpendicular
1000
$DLINEWID
1070
           5
1040
25.4
1000
$DLINEALG
1070
          18
1070
           0
1000
$DLINECS
1070
          18
1070
           0
1000
$DLINECE
1070
          18
1070
           0
1000
$DLINETS
1070
           5
1040
0.0
1000
$DLINETE
1070
           5
1040
0.0
1000
ExplodeScale
1070
           5
1040
1.0
1002
}
  0
LINE
  5
DE
102
{ACAD_REACTORS
330
107
102
}
100
AcDbEntity
  8
0
370
           0
  6
Continuous
 62
           7
100
AcDbLine
 10
1171.862888111456
 20
542.470180362555
 30
0.0
 11
1146.462888111468
 21
542.470180362555
 31
0.0
1001
TCAD
1000
TCW_CUSTOM_DATA
1002
{
1000
#$AUX@_ToolInfo Properties
1070
           8
1000
Insert^  JLine^  JSingle@Line Single
1002
}
  0
LINE
  5
DF
102
{ACAD_REACTORS
330
107
102
}
100
AcDbEntity
  8
0
370
           0
  6
Continuous
 62
           7
100
AcDbLine
 10
2092.108057630325
 20
542.470180362555
 30
0.0
 11
2117.508057630313
 21
542.470180362555
 31
0.0
1001
TCAD
1000
TCW_CUSTOM_DATA
1002
{
1000
#$AUX@_ToolInfo Properties
1070
           8
1000
Insert^  JLine^  JSingle@Line Single
1002
}
  0
INSERT
  5
E5
102
{ACAD_REACTORS
330
107
102
}
100
AcDbEntity
  8
0
  6
Continuous
 62
           7
100
AcDbBlockReference
  2
*E23
 10
0.0
 20
0.0
 30
0.0
1001
TCAD
1000
TCW_REFPOINT
1002
{
1010
946.059665147136
1020
36.673117913699
1030
0.0
1002
}
1000
TCW_CUSTOM_DATA
1002
{
1000
#$AUX@_ToolInfo Properties
1070
           8
1000
Insert^  JDoubleLine^  JPerpendicular@DoubleLine Perpendicular
1002
}
1000
TC25ExternalObject
1002
{
1000
TCW25DblLine
1000

1070
           0
1071
        0
1040
1.0
1040
0.0
1000
Continuous
1000
0
1070
          12
1010
-1.0
1020
0.0
1030
0.0
1010
0.0
1020
-1.0
1030
0.0
1010
0.0
1020
0.0
1030
1.0
1010
2302.814436347055
1020
466.267786113838
1030
0.0
1070
          18
1010
946.059665147136
1020
36.673117913699
1030
0.0
1070
          21
1071
        2
1071
      178
1010
958.759581617333
1020
36.627056541277
1030
0.0
1071
      178
1010
958.437152010379
1020
-52.272358750099
1030
0.0
1070
           3
1071
-2147483641
1070
           1
1000
#$AUX@_ToolInfo Properties
1070
           8
1000
Insert^  JDoubleLine^  JPerpendicular@DoubleLine Perpendicular
1000
$DLINEWID
1070
           5
1040
25.4
1000
$DLINEALG
1070
          18
1070
           0
1000
$DLINECS
1070
          18
1070
           0
1000
$DLINECE
1070
          18
1070
           0
1000
$DLINETS
1070
           5
1040
0.0
1000
$DLINETE
1070
           5
1040
0.0
1000
ExplodeScale
1070
           5
1040
1.0
1002
}
  0
LWPOLYLINE
  5
E6
102
{ACAD_REACTORS
330
107
102
}
100
AcDbEntity
  8
0
370
           0
  6
Continuous
 62
           7
100
AcDbPolyline
 90
       17
 70
           0
 10
1590.24867371824
 20
423.692985959046
 10
1575.627389215403
 20
424.023441212282
 10
1561.006002571504
 20
424.396096646497
 10
1546.384521970384
 20
424.803013713406
 10
1531.76295559588
 20
425.23625386472
 10
1517.14131163183
 20
425.687878552153
 10
1502.519598262074
 20
426.149949227417
 10
1487.897823670451
 20
426.614527342225
 10
1473.275996040797
 20
427.073674348291
 10
1458.654123556953
 20
427.519451697326
 10
1444.032214402757
 20
427.943920841045
 10
1429.410276762047
 20
428.339143231159
 10
1414.788318818663
 20
428.697180319381
 10
1400.166348756441
 20
429.010093557425
 10
1385.544374759223
 20
429.269944397003
 10
1370.922405010844
 20
429.468794289828
 10
1356.754771200379
 20
429.594668200157
  0
LWPOLYLINE
  5
E7
102
{ACAD_REACTORS
330
107
102
}
100
AcDbEntity
  8
0
370
           0
  6
Continuous
 62
           7
100
AcDbPolyline
 90
       25
 70
           0
 10
1331.354729730716
 20
429.62929581796
 10
1327.05660309714
 20
429.619952804915
 10
1312.434732182511
 20
429.495413427857
 10
1297.812906435916
 20
429.27018036261
 10
1276.324237709813
 20
428.808400193679
 10
1254.838747973187
 20
428.246170933032
 10
1233.356190575347
 20
427.591393950384
 10
1211.876318865601
 20
426.851970615447
 10
1190.398886193259
 20
426.035802297935
 10
1168.923645907628
 20
425.15079036756
 10
1147.450351358018
 20
424.204836194037
 10
1125.978755893737
 20
423.205841147078
 10
1104.508612864095
 20
422.161706596397
 10
1083.039675618401
 20
421.080333911706
 10
1061.571697505961
 20
419.969624462719
 10
1040.104431876087
 20
418.83747961915
 10
1018.637632078086
 20
417.691800750711
 10
997.171051461267
 20
416.540489227116
 10
975.70444337494
 20
415.391446418078
 10
954.237561168412
 20
414.25257369331
 10
932.770158190993
 20
413.131772422526
 10
911.301987791992
 20
412.036943975438
 10
889.832803320716
 20
410.97598972176
 10
868.362358126476
 20
409.956811031206
 10
868.362358126476
 20
409.956811031206
  0
LINE
  5
E8
102
{ACAD_REACTORS
330
107
102
}
100
AcDbEntity
  8
0
370
           0
  6
Continuous
 62
           7
100
AcDbLine
 10
1331.677367866952
 20
518.586206236334
 30
0.0
 11
1357.077200807333
 21
518.49408349149
 31
0.0
1001
TCAD
1000
TCW_CUSTOM_DATA
1002
{
1000
#$AUX@_ToolInfo Properties
1070
           8
1000
Insert^  JLine^  JSingle@Line Single
1002
}
  0
INSERT
  5
ED
102
{ACAD_REACTORS
330
107
102
}
100
AcDbEntity
  8
0
  6
Continuous
 62
           7
100
AcDbBlockReference
  2
*E24
 10
0.0
 20
0.0
 30
0.0
1001
TCAD
1000
TCW_CUSTOM_DATA
1002
{
1000
#$AUX@_ToolInfo Properties
1070
           8
1000
Insert^  JCurve^  JBezier@Curve Bezier
1002
}
1000
TC25ExternalObject
1002
{
1000
TCW30CURVE
1000

1070
           0
1071
        0
1040
1.0
1040
0.0
1000
Continuous
1000
0
1070
          12
1010
-1.0
1020
0.0
1030
0.0
1010
0.0
1020
-1.0
1030
0.0
1010
0.0
1020
0.0
1030
1.0
1010
2270.933962323948
1020
-323.464952721171
1030
0.0
1070
          21
1071
       70
1071
      162
1010
-31.878944111494
1020
-640.794736930568
1030
0.0
1071
     6274
1010
-39.707209922694
1020
-637.118923056291
1030
0.0
1071
     6274
1010
-49.809892411938
1020
-636.86112343409
1030
0.0
1071
      130
1010
-57.815446170505
1020
-640.132890887289
1030
0.0
1071
     6274
1010
-64.97044140297
1020
-643.057045947059
1030
0.0
1071
     6274
1010
-70.950328406526
1020
-650.178645552561
1030
0.0
1071
      130
1010
-73.045138835471
1020
-657.618834317435
1030
0.0
1071
     6274
1010
-76.715437103338
1020
-670.654721268825
1030
0.0
1071
     6274
1010
-76.52679144521
1020
-684.894693803505
1030
0.0
1071
      130
1010
-74.173264218062
1020
-698.231348090679
1030
0.0
1071
     6274
1010
-70.804698565743
1020
-717.319886787158
1030
0.0
1071
     6274
1010
-68.406298852868
1020
-738.514610914382
1030
0.0
1071
      130
1010
-56.12325809662
1020
-753.509491837594
1030
0.0
1071
     6274
1010
-50.740540163598
1020
-760.080602041543
1030
0.0
1071
     6274
1010
-36.945752363323
1020
-757.053861966417
1030
0.0
1071
      130
1010
-30.740436988343
1020
-751.253241072414
1030
0.0
1071
     6274
1010
-25.381857435764
1020
-746.244134099351
1030
0.0
1071
     6274
1010
-31.907467825224
1020
-736.382828286751
1030
0.0
1071
      130
1010
-30.176374297047
1020
-729.254796111907
1030
0.0
1071
     6274
1010
-28.628418711397
1020
-722.880861347467
1030
0.0
1071
     6274
1010
-27.241443066241
1020
-714.204881413726
1030
0.0
1071
      130
1010
-21.151371236327
1020
-711.76885268176
1030
0.0
1071
     6274
1010
-16.210615495737
1020
-709.792550385524
1030
0.0
1071
     6274
1010
-9.557275214959
1020
-715.276006500936
1030
0.0
1071
      130
1010
-7.613866645245
1020
-720.229793051186
1030
0.0
1071
     6274
1010
0.497559434268
1020
-740.90597717543
1030
0.0
1071
     6274
1010
4.218948355407
1020
-763.14794687301
1030
0.0
1071
      130
1010
7.615826019721
1020
-785.097002550117
1030
0.0
1071
     6274
1010
9.140172551668
1020
-794.946626295005
1030
0.0
1071
     6274
1010
12.904591189003
1020
-806.924913813364
1030
0.0
1071
      130
1010
7.051763328426
1020
-814.992325188755
1030
0.0
1071
     6274
1010
3.070835837863
1020
-820.47954956764
1030
0.0
1071
     6274
1010
-7.745072370184
1020
-817.814350846626
1030
0.0
1071
      130
1010
-13.254493558196
1020
-813.864199806165
1030
0.0
1071
     6274
1010
-19.337929397592
1020
-809.502491091126
1030
0.0
1071
     6274
1010
-16.485067717706
1020
-797.507914969433
1030
0.0
1071
      130
1010
-22.843559310212
1020
-793.557942919543
1030
0.0
1071
     6274
1010
-30.710119435131
1020
-788.671140417699
1030
0.0
1071
     6274
1010
-42.519633115376
1020
-786.009599360018
1030
0.0
1071
      130
1010
-50.482631183669
1020
-790.737629463067
1030
0.0
1071
     6274
1010
-57.845305466084
1020
-795.109217318251
1030
0.0
1071
     6274
1010
-57.420764691091
1020
-806.566127218997
1030
0.0
1071
      130
1010
-58.943571553095
1020
-814.992325188755
1030
0.0
1071
     6274
1010
-60.281092032547
1020
-822.393271841725
1030
0.0
1071
     6274
1010
-59.328749297522
1020
-830.04386682424
1030
0.0
1071
      130
1010
-58.943571553095
1020
-837.554832840557
1030
0.0
1071
     6274
1010
-58.57563102936
1020
-844.729673053389
1030
0.0
1071
     6274
1010
-57.029041587356
1020
-851.813078321503
1030
0.0
1071
      130
1010
-56.687320787915
1020
-858.989215109769
1030
0.0
1071
     6274
1010
-56.46356094297
1020
-863.688171853619
1030
0.0
1071
     6274
1010
-53.610470596726
1020
-870.111853670113
1030
0.0
1071
      130
1010
-57.25138347921
1020
-873.090782392145
1030
0.0
1071
     6274
1010
-61.917114286562
1020
-876.908198507251
1030
0.0
1071
     6274
1010
-69.452974248656
1020
-875.681011612734
1030
0.0
1071
      130
1010
-75.301389600652
1020
-874.218907774735
1030
0.0
1071
     6274
1010
-79.861566180416
1020
-873.078863629794
1030
0.0
1071
     6274
1010
-84.176891722531
1020
-869.796193479917
1030
0.0
1071
      130
1010
-86.582643426553
1020
-865.757967405309
1030
0.0
1071
     6274
1010
-89.756777309654
1020
-860.429956958676
1030
0.0
1071
     6274
1010
-87.564995657288
1020
-852.80706582777
1030
0.0
1071
      130
1010
-91.095144956913
1020
-847.707961283868
1030
0.0
1071
     6274
1010
-93.262203050951
1020
-844.577766259146
1030
0.0
1071
     6274
1010
-98.01535396094
1020
-844.037350405576
1030
0.0
1071
      130
1010
-101.812336091519
1020
-843.759522444802
1030
0.0
1071
     6274
1010
-106.005401403107
1020
-843.452712787857
1030
0.0
1071
     6274
1010
-110.515116680897
1020
-844.031571720814
1030
0.0
1071
      130
1010
-114.22171530001
1020
-846.015773209983
1030
0.0
1071
     6274
1010
-117.238169877965
1020
-847.630529562269
1030
0.0
1071
     6274
1010
-119.746078822695
1020
-850.650806991821
1030
0.0
1071
      162
1010
-120.778944106425
1020
-853.912650888113
1030
0.0
1070
           3
1071
-2147483643
1070
           1
1000
#$AUX@_ToolInfo Properties
1070
           8
1000
Insert^  JCurve^  JBezier@Curve Bezier
1000
$SPLINESEGS
1070
          18
1070
          20
1000
$SPLFRAME
1070
          18
1070
           0
1000
$SPLINETYPE
1070
          18
1070
           1
1000
$SHOWCONTRPTS
1070
          18
1070
           1
1000
$CURVESMOOTH
1070
          18
1070
           1
1002
}
  0
INSERT
  5
F2
102
{ACAD_REACTORS
330
107
102
}
100
AcDbEntity
  8
0
  6
Continuous
 62
           7
100
AcDbBlockReference
  2
*E25
 10
0.0
 20
0.0
 30
0.0
1001
TCAD
1000
TCW_CUSTOM_DATA
1002
{
1000
#$AUX@_ToolInfo Properties
1070
           8
1000
Insert^  JDoubleLine^  JPerpendicular@DoubleLine Perpendicular
1002
}
1000
TC25ExternalObject
1002
{
1000
TCW25DblLine
1000

1070
           0
1071
        0
1040
1.0
1040
0.0
1000
Continuous
1000
0
1070
          12
1010
-1.0
1020
0.0
1030
0.0
1010
0.0
1020
-1.0
1030
0.0
1010
0.0
1020
0.0
1030
1.0
1010
2302.812906435427
1020
466.270180362592
1030
0.0
1070
          21
1071
        2
1071
      178
1010
370.666899735812
1020
65.334322291012
1030
0.0
1071
      178
1010
361.99841854806
1020
-23.142044236427
1030
0.0
1070
           2
1000
Internal
1000
Gap
1070
           1
1071
       -3
1040
1.0
1040
2.0
1000

1000
0
1070
          18
1010
383.306380668304
1020
64.095967835618
1030
0.0
1070
          20
1070
          21
1071
        7
1071
     2050
1010
383.306380668304
1020
64.095967835618
1030
0.0
1071
     2050
1010
383.261225903378
1020
63.635087844593
1030
0.0
1071
     6146
1010
374.903707467934
1020
64.485161519347
1030
0.0
1071
     6146
1010
362.40691099455
1020
65.776748911623
1030
0.0
1071
     2050
1010
357.994758124742
1020
66.239319828805
1030
0.0
1071
     2050
1010
358.027418803321
1020
66.572676746405
1030
0.0
1071
     2050
1010
383.306380668304
1020
64.095967835618
1030
0.0
1070
           3
1071
-2147483648
1070
           0
1070
           3
1071
-2147483641
1070
           1
1000
#$AUX@_ToolInfo Properties
1070
           8
1000
Insert^  JDoubleLine^  JPerpendicular@DoubleLine Perpendicular
1000
$DLINEWID
1070
           5
1040
25.4
1000
$DLINEALG
1070
          18
1070
           0
1000
$DLINECS
1070
          18
1070
           0
1000
$DLINECE
1070
          18
1070
           1
1000
$DLINETS
1070
           5
1040
0.0
1000
$DLINETE
1070
           5
1040
0.0
1000
ExplodeScale
1070
           5
1040
1.0
1002
}
  0
INSERT
  5
F7
102
{ACAD_REACTORS
330
107
102
}
100
AcDbEntity
  8
0
  6
Continuous
 62
           7
100
AcDbBlockReference
  2
*E26
 10
0.0
 20
0.0
 30
0.0
1001
TCAD
1000
TCW_CUSTOM_DATA
1002
{
1000
#$AUX@_ToolInfo Properties
1070
           8
1000
Insert^  JDoubleLine^  JPerpendicular@DoubleLine Perpendicular
1002
}
1000
TC25ExternalObject
1002
{
1000
TCW25DblLine
1000

1070
           0
1071
        0
1040
1.0
1040
0.0
1000
Continuous
1000
0
1070
          12
1010
-1.0
1020
0.0
1030
0.0
1010
0.0
1020
-1.0
1030
0.0
1010
0.0
1020
0.0
1030
1.0
1010
2302.812906435427
1020
464.36999079995
1030
0.0
1070
          21
1071
        2
1071
      178
1010
1776.512551365455
1020
91.710857533933
1030
0.0
1071
      178
1010
1788.542813163715
1020
3.628607329563
1030
0.0
1070
           3
1071
-2147483641
1070
           1
1000
#$AUX@_ToolInfo Properties
1070
           8
1000
Insert^  JDoubleLine^  JPerpendicular@DoubleLine Perpendicular
1000
$DLINEWID
1070
           5
1040
25.4
1000
$DLINEALG
1070
          18
1070
           0
1000
$DLINECS
1070
          18
1070
           0
1000
$DLINECE
1070
          18
1070
           1
1000
$DLINETS
1070
           5
1040
0.0
1000
$DLINETE
1070
           5
1040
0.0
1000
ExplodeScale
1070
           5
1040
1.0
1002
}
  0
LINE
  5
F8
102
{ACAD_REACTORS
330
107
102
}
100
AcDbEntity
  8
0
370
           0
  6
Continuous
 62
           7
100
AcDbLine
 10
169.790868322956
 20
593.27018036253
 30
0.0
 11
2.812906436545
 21
593.27018036253
 31
0.0
1001
TCAD
1000
TCW_CUSTOM_DATA
1002
{
1000
#$AUX@_ToolInfo Properties
1070
           8
1000
Insert^  JLine^  JSingle@Line Single
1002
}
  0
LWPOLYLINE
  5
F9
102
{ACAD_REACTORS
330
107
102
}
100
AcDbEntity
  8
0
370
           0
  6
Continuous
 62
           7
100
AcDbPolyline
 90
       39
 70
           0
 10
843.024524652015
 20
408.18080573283
 10
841.01352003867
 20
408.040287379638
 10
839.001986471999
 20
407.905552812592
 10
836.990019544267
 20
407.775550121452
 10
834.97771484774
 20
407.649227395976
 10
832.965167974685
 20
407.525532725925
 10
830.952474517367
 20
407.403414201058
 10
828.939730068052
 20
407.281819911135
 10
826.927030219005
 20
407.159697945914
 10
824.914470562493
 20
407.035996395157
 10
822.902146690781
 20
406.909663348623
 10
820.890154196135
 20
406.77964689607
 10
818.878588670821
 20
406.644895127259
 10
816.867545707104
 20
406.504356131949
 10
814.857120897252
 20
406.3569779999
 10
812.847409833529
 20
406.201708820872
 10
810.8385081082
 20
406.037496684623
 10
808.830511313533
 20
405.863289680914
 10
806.823515041793
 20
405.678035899505
 10
804.817614885245
 20
405.480683430154
 10
802.812906436157
 20
405.270180362621
 10
787.802878515239
 20
403.65698233087
 10
772.78922819831
 20
402.069982681278
 10
757.772735146476
 20
400.503292175272
 10
742.754179020842
 20
398.951021574275
 10
727.734339482514
 20
397.407281639714
 10
712.713996192599
 20
395.866183133013
 10
697.693928812202
 20
394.321836815598
 10
682.674917002428
 20
392.768353448894
 10
667.657740424384
 20
391.199843794325
 10
652.643178739175
 20
389.610418613318
 10
637.632011607907
 20
387.994188667297
 10
622.625018691686
 20
386.345264717687
 10
607.622979651618
 20
384.657757525914
 10
592.626674148808
 20
382.925777853403
 10
577.636881844363
 20
381.143436461578
 10
562.654382399387
 20
379.304844111866
 10
547.679955474988
 20
377.40411156569
 10
538.632747807884
 20
376.213926838585
  0
LWPOLYLINE
  5
FA
102
{ACAD_REACTORS
330
107
102
}
100
AcDbEntity
  8
0
370
           0
  6
Continuous
 62
           7
100
AcDbPolyline
 90
       42
 70
           0
 10
513.465529782073
 20
372.783011901441
 10
502.812906436302
 20
371.270180362638
 10
492.892271434791
 20
369.788433868325
 10
482.985523275883
 20
368.22399537184
 10
473.091586696364
 20
366.583309092742
 10
463.209386433019
 20
364.872819250593
 10
453.337847222635
 20
363.098970064953
 10
443.475893801996
 20
361.268205755383
 10
433.62245090789
 20
359.386970541443
 10
423.7764432771
 20
357.461708642694
 10
413.936795646414
 20
355.498864278696
 10
404.102432752618
 20
353.504881669011
 10
394.272279332495
 20
351.486205033198
 10
384.445260122833
 20
349.449278590819
 10
374.620299860417
 20
347.400546561434
 10
364.796323282033
 20
345.346453164603
 10
354.972255124466
 20
343.293442619887
 10
345.147020124503
 20
341.247959146847
 10
335.319543018929
 20
339.216446965043
 10
325.48874854453
 20
337.205350294037
 10
315.653561438091
 20
335.221113353387
 10
305.812906436398
 20
333.270180362656
 10
304.247174216319
 20
332.96016454726
 10
302.682457041184
 20
332.645176779038
 10
301.118692864483
 20
332.325528732145
 10
299.555819639708
 20
332.001532080739
 10
297.993775320351
 20
331.673498498973
 10
296.432497859903
 20
331.341739661003
 10
294.871925211855
 20
331.006567240984
 10
293.3119953297
 20
330.668292913073
 10
291.752646166928
 20
330.327228351423
 10
290.193815677032
 20
329.983685230191
 10
288.635441813501
 20
329.637975223531
 10
287.077462529829
 20
329.290410005599
 10
285.519815779506
 20
328.941301250551
 10
283.962439516024
 20
328.590960632542
 10
282.405271692874
 20
328.239699825727
 10
280.848250263549
 20
327.887830504261
 10
279.291313181539
 20
327.5356643423
 10
277.734398400336
 20
327.183513013999
 10
276.177443873431
 20
326.831688193514
 10
274.620387554316
 20
326.480501554999
  0
INSERT
  5
FF
102
{ACAD_REACTORS
330
107
102
}
100
AcDbEntity
  8
0
  6
Continuous
 62
           7
100
AcDbBlockReference
  2
*E27
 10
0.0
 20
0.0
 30
0.0
1001
TCAD
1000
TCW_CUSTOM_DATA
1002
{
1000
#$AUX@_ToolInfo Properties
1070
           8
1000
Insert^  JCurve^  JBezier@Curve Bezier
1002
}
1000
TC25ExternalObject
1002
{
1000
TCW30CURVE
1000

1070
           0
1071
        0
1040
1.0
1040
0.0
1000
Continuous
1000
0
1070
          12
1010
-1.0
1020
0.0
1030
0.0
1010
0.0
1020
-1.0
1030
0.0
1010
0.0
1020
0.0
1030
1.0
1010
2270.933962323948
1020
-323.464952721171
1030
0.0
1070
          21
1071
       22
1071
      162
1010
108.053696151649
1020
-696.664128379737
1030
0.0
1071
     6274
1010
120.78777248087
1020
-698.650715803775
1030
0.0
1071
     6274
1010
133.525754696214
1020
-700.612425999237
1030
0.0
1071
      130
1010
146.267496909934
1020
-702.549236498715
1030
0.0
1071
     6274
1010
148.713749620523
1020
-702.921079521025
1030
0.0
1071
     6274
1010
151.165787543874
1020
-703.254074009508
1030
0.0
1071
      130
1010
153.617227894675
1020
-703.590020082218
1030
0.0
1071
     6274
1010
160.948329460555
1020
-704.594676295407
1030
0.0
1071
     6274
1010
168.271113637608
1020
-705.664739088715
1030
0.0
1071
      130
1010
175.615024130318
1020
-706.571029853879
1030
0.0
1071
     6274
1010
193.816014225471
1020
-708.817161428665
1030
0.0
1071
     6274
1010
212.029578732129
1020
-710.962081128395
1030
0.0
1071
      130
1010
230.249737666573
1020
-713.047016594712
1030
0.0
1071
     6274
1010
249.309624988672
1020
-715.228042303918
1030
0.0
1071
     6274
1010
268.384073025396
1020
-717.280007609064
1030
0.0
1071
      130
1010
287.454287213519
1020
-719.368813175524
1030
0.0
1071
     6274
1010
295.814960201185
1020
-720.284577419371
1030
0.0
1071
     6274
1010
304.179148653183
1020
-721.167974290831
1030
0.0
1071
      130
1010
312.542311242634
1020
-722.060716392119
1030
0.0
1071
     6274
1010
317.066327793002
1020
-722.543641361978
1030
0.0
1071
     6274
1010
321.590833311496
1020
-723.022007468867
1030
0.0
1071
      162
1010
326.115814013248
1020
-723.495813255342
1030
0.0
1070
           3
1071
-2147483643
1070
           1
1000
#$AUX@_ToolInfo Properties
1070
           8
1000
Insert^  JCurve^  JBezier@Curve Bezier
1000
$SPLINESEGS
1070
          18
1070
          20
1000
$SPLFRAME
1070
          18
1070
           0
1000
$SPLINETYPE
1070
          18
1070
           1
1000
$SHOWCONTRPTS
1070
          18
1070
           1
1000
$CURVESMOOTH
1070
          18
1070
           1
1002
}
  0
INSERT
  5
104
102
{ACAD_REACTORS
330
107
102
}
100
AcDbEntity
  8
0
  6
Continuous
 62
           7
100
AcDbBlockReference
  2
*E28
 10
0.0
 20
0.0
 30
0.0
1001
TCAD
1000
TCW_CUSTOM_DATA
1002
{
1000
#$AUX@_ToolInfo Properties
1070
           8
1000
Insert^  JCurve^  JBezier@Curve Bezier
1002
}
1000
TC25ExternalObject
1002
{
1000
TCW30CURVE
1000

1070
           0
1071
        0
1040
1.0
1040
0.0
1000
Continuous
1000
0
1070
          12
1010
-1.0
1020
0.0
1030
0.0
1010
0.0
1020
-1.0
1030
0.0
1010
0.0
1020
0.0
1030
1.0
1010
2270.933962323948
1020
-323.464952721171
1030
0.0
1070
          21
1071
       19
1071
      162
1010
351.382281791884
1020
-726.100045239554
1030
0.0
1071
     6274
1010
372.550853874639
1020
-728.194232748515
1030
0.0
1071
     6274
1010
393.725359931628
1020
-730.229281568205
1030
0.0
1071
      130
1010
414.905304049806
1020
-732.205144037193
1030
0.0
1071
     6274
1010
423.620294471407
1020
-733.018159519932
1030
0.0
1071
     6274
1010
432.337566933121
1020
-733.816666902863
1030
0.0
1071
      130
1010
441.066234617868
1020
-734.466599724805
1030
0.0
1071
     6274
1010
475.134679901312
1020
-737.003321431021
1030
0.0
1071
     6274
1010
509.212812199513
1020
-739.410075459396
1030
0.0
1071
      130
1010
543.294311027454
1020
-741.764933987401
1030
0.0
1071
     6274
1010
548.018067808784
1020
-742.091321597198
1030
0.0
1071
     6274
1010
552.749742142226
1020
-742.293611177942
1030
0.0
1071
      130
1010
557.479805795204
1020
-742.51018642991
1030
0.0
1071
     6274
1010
579.690319681666
1020
-743.527138419186
1030
0.0
1071
     6274
1010
601.896562261631
1020
-744.657350204275
1030
0.0
1071
      130
1010
624.115653508468
1020
-745.465497847919
1030
0.0
1071
     6274
1010
634.508394776604
1020
-745.843500227654
1030
0.0
1071
     6274
1010
644.909081668847
1020
-746.044524277704
1030
0.0
1071
      162
1010
655.308667576333
1020
-746.068395145583
1030
0.0
1070
           3
1071
-2147483643
1070
           1
1000
#$AUX@_ToolInfo Properties
1070
           8
1000
Insert^  JCurve^  JBezier@Curve Bezier
1000
$SPLINESEGS
1070
          18
1070
          20
1000
$SPLFRAME
1070
          18
1070
           0
1000
$SPLINETYPE
1070
          18
1070
           1
1000
$SHOWCONTRPTS
1070
          18
1070
           1
1000
$CURVESMOOTH
1070
          18
1070
           1
1002
}
  0
LINE
  5
105
102
{ACAD_REACTORS
330
107
102
}
100
AcDbEntity
  8
0
370
           0
  6
Continuous
 62
           7
100
AcDbLine
 10
2391.712906435384
 20
593.27018036253
 30
0.0
 11
2391.712906430313
 21
530.447698166527
 31
0.0
1001
TCAD
1000
TCW_CUSTOM_DATA
1002
{
1000
#$AUX@_ToolInfo Properties
1070
           8
1000
Insert^  JLine^  JSingle@Line Single
1002
}
  0
LINE
  5
106
102
{ACAD_REACTORS
330
107
102
}
100
AcDbEntity
  8
0
370
           0
  6
Continuous
 62
           7
100
AcDbLine
 10
2302.812906435427
 20
351.270180362648
 30
0.0
 11
2302.812906435427
 21
317.329784209085
 31
0.0
1001
TCAD
1000
TCW_CUSTOM_DATA
1002
{
1000
#$AUX@_ToolInfo Properties
1070
           8
1000
Insert^  JLine^  JSingle@Line Single
1002
}
  0
LWPOLYLINE
  5
108
102
{ACAD_REACTORS
330
110
102
}
100
AcDbEntity
  8
0
  6
Continuous
 62
           7
100
AcDbPolyline
 90
        5
 70
           0
 38
0.000000015821
 10
1202.040658937621
 20
320.175211585679
 10
1249.853138485605
 20
315.929767834204
 42
-0.227470239344
 10
1296.500495781121
 20
286.550170473667
 42
0.374955479609
 10
1338.04735652464
 20
244.361610793921
 10
1694.537240939439
 20
212.707578877
1001
TCAD
1000
TCW_CUSTOM_DATA
1002
{
1000
#$AUX@_ToolInfo Properties
1070
           8
1000
Insert^  JLine^  JPolyline@Line Polyline
1002
}
  0
INSERT
  5
10D
102
{ACAD_REACTORS
330
110
102
}
100
AcDbEntity
  8
0
  6
Continuous
 62
           7
100
AcDbBlockReference
  2
*E29
 10
0.0
 20
0.0
 30
0.0
1001
TCAD
1000
TCW_CUSTOM_DATA
1002
{
1000
#$AUX@_ToolInfo Properties
1070
           8
1000
Insert^  JCurve^  JBezier@Curve Bezier
1002
}
1000
TC25ExternalObject
1002
{
1000
TCW30CURVE
1000

1070
           0
1071
        0
1040
1.0
1040
0.0
1000
Continuous
1000
0
1070
          12
1010
0.088446271581
1020
0.996080949041
1030
0.0
1010
-0.996080949041
1020
0.088446271581
1030
0.0
1010
0.0
1020
0.0
1030
1.0
1010
854.831538834085
1020
408.49796106692
1030
0.000000015821
1070
          21
1071
       70
1071
      162
1010
-31.872162462098
1020
-640.659008948114
1030
0.0
1071
     6274
1010
-39.698863275851
1020
-636.983973655139
1030
0.0
1071
     6274
1010
-49.799523280125
1020
-636.726228637979
1030
0.0
1071
      130
1010
-57.803472218407
1020
-639.997303091735
1030
0.0
1071
     6274
1010
-64.957033136417
1020
-642.920838780521
1030
0.0
1071
     6274
1010
-70.935718477537
1020
-650.040929946127
1030
0.0
1071
      130
1010
-73.030104871951
1020
-657.479542790114
1030
0.0
1071
     6274
1010
-76.699660192779
1020
-670.512668584875
1030
0.0
1071
     6274
1010
-76.511043431877
1020
-684.749624923211
1030
0.0
1071
      130
1010
-74.157979092973
1020
-698.083454347641
1030
0.0
1071
     6274
1010
-70.79007596515
1020
-717.167949863525
1030
0.0
1071
     6274
1010
-68.392143228927
1020
-738.358184694912
1030
0.0
1071
      130
1010
-56.111552303504
1020
-753.349889523164
1030
0.0
1071
     6274
1010
-50.729907944086
1020
-759.91960788745
1030
0.0
1071
     6274
1010
-36.937883866839
1020
-756.893508912041
1030
0.0
1071
      130
1010
-30.73381446408
1020
-751.094116658858
1030
0.0
1071
     6274
1010
-25.376310866688
1020
-746.086070674508
1030
0.0
1071
     6274
1010
-31.900620915201
1020
-736.226853604317
1030
0.0
1071
      130
1010
-30.169878407776
1020
-729.100331231864
1030
0.0
1071
     6274
1010
-28.622236707266
1020
-722.727746542973
1030
0.0
1071
     6274
1010
-27.235544151792
1020
-714.053604285456
1030
0.0
1071
      130
1010
-21.146693125241
1020
-711.618091533485
1030
0.0
1071
     6274
1010
-16.206927798458
1020
-709.642207841691
1030
0.0
1071
     6274
1010
-9.554916158605
1020
-715.124502495573
1030
0.0
1071
      130
1010
-7.611893590185
1020
-720.077239774637
1030
0.0
1071
     6274
1010
0.497921391686
1020
-740.749044436013
1030
0.0
1071
     6274
1010
4.218579114558
1020
-762.98630301863
1030
0.0
1071
      130
1010
7.614790368122
1020
-784.930709623465
1030
0.0
1071
     6274
1010
9.1388378487
1020
-794.778247100346
1030
0.0
1071
     6274
1010
12.902510278724
1020
-806.753997474274
1030
0.0
1071
      130
1010
7.050859231453
1020
-814.819700075533
1030
0.0
1071
     6274
1010
3.070732175919
1020
-820.305762194724
1030
0.0
1071
     6274
1010
-7.74301225289
1020
-817.641127994647
1030
0.0
1071
      130
1010
-13.251332867379
1020
-813.691813643379
1030
0.0
1071
     6274
1010
-19.333553466883
1020
-809.331028790367
1030
0.0
1071
     6274
1010
-16.481270427346
1020
-797.338993263225
1030
0.0
1071
      130
1010
-22.838491454882
1020
-793.389857864615
1030
0.0
1071
     6274
1010
-30.703479669925
1020
-788.504090445936
1030
0.0
1071
     6274
1010
-42.510630640131
1020
-785.843113134454
1030
0.0
1071
      130
1010
-50.472031500932
1020
-790.57014178423
1030
0.0
1071
     6274
1010
-57.833228987995
1020
-794.940803684868
1030
0.0
1071
     6274
1010
-57.408766072305
1020
-806.395286875192
1030
0.0
1071
      130
1010
-58.931262805637
1020
-814.819700075531
1030
0.0
1071
     6274
1010
-60.26851089109
1020
-822.219079119562
1030
0.0
1071
     6274
1010
-59.316354057221
1020
-829.868053614639
1030
0.0
1071
      130
1010
-58.931248749537
1020
-837.377428718601
1030
0.0
1071
     6274
1010
-58.563377420903
1020
-844.55074921454
1030
0.0
1071
     6274
1010
-57.017093206806
1020
-851.632654132775
1030
0.0
1071
      130
1010
-56.675436352239
1020
-858.807270929518
1030
0.0
1071
     6274
1010
-56.451718378597
1020
-863.50523237818
1030
0.0
1071
     6274
1010
-53.599195244189
1020
-869.927553582105
1030
0.0
1071
      130
1010
-57.239377328178
1020
-872.905851331437
1030
0.0
1071
     6274
1010
-61.90417163714
1020
-876.722458872193
1030
0.0
1071
     6274
1010
-69.438523618543
1020
-875.495531910525
1030
0.0
1071
      130
1010
-75.285768977397
1020
-874.03373776359
1030
0.0
1071
     6274
1010
-79.845033280075
1020
-872.893935093621
1030
0.0
1071
     6274
1010
-84.159496901251
1020
-869.611960252508
1030
0.0
1071
      130
1010
-86.56476946845
1020
-865.574589522438
1030
0.0
1071
     6274
1010
-89.738271181398
1020
-860.247707612084
1030
0.0
1071
     6274
1010
-87.546933091875
1020
-852.62643110061
1030
0.0
1071
      130
1010
-91.076378801336
1020
-847.528406607982
1030
0.0
1071
     6274
1010
-93.243004981415
1020
-844.398874595971
1030
0.0
1071
     6274
1010
-97.995204605606
1020
-843.858573208936
1030
0.0
1071
      130
1010
-101.791426720168
1020
-843.580804095444
1030
0.0
1071
     6274
1010
-105.98365273447
1020
-843.27405942445
1030
0.0
1071
     6274
1010
-110.492464767118
1020
-843.852795748167
1030
0.0
1071
      130
1010
-114.198320056575
1020
-845.83657695975
1030
0.0
1071
     6274
1010
-117.214169707919
1020
-847.450991287346
1030
0.0
1071
     6274
1010
-119.721574665711
1020
-850.470628986047
1030
0.0
1071
      162
1010
-120.75423112868
1020
-853.731781984825
1030
0.0
1070
           3
1071
-2147483643
1070
           1
1000
#$AUX@_ToolInfo Properties
1070
           8
1000
Insert^  JCurve^  JBezier@Curve Bezier
1000
$SPLINESEGS
1070
          18
1070
          20
1000
$SPLFRAME
1070
          18
1070
           0
1000
$SPLINETYPE
1070
          18
1070
           1
1000
$SHOWCONTRPTS
1070
          18
1070
           1
1000
$CURVESMOOTH
1070
          18
1070
           1
1002
}
  0
LINE
  5
10E
102
{ACAD_REACTORS
330
110
102
}
100
AcDbEntity
  8
0
370
           0
  6
Continuous
 62
           7
100
AcDbLine
 10
1490.160798542083
 20
320.08680653763
 30
0.000000015821
 11
1204.286744459717
 21
345.470602318284
 31
0.000000015821
1001
TCAD
1000
TCW_CUSTOM_DATA
1002
{
1000
#$AUX@_ToolInfo Properties
1070
           8
1000
Insert^  JLine^  JSingle@Line Single
1002
}
  0
LINE
  5
10F
102
{ACAD_REACTORS
330
110
102
}
100
AcDbEntity
  8
0
370
           0
  6
Continuous
 62
           7
100
AcDbLine
 10
1204.286744459716
 20
345.470602318264
 30
0.000000015821
 11
1202.040658937622
 21
320.175211585659
 31
0.000000015821
1001
TCAD
1000
TCW_CUSTOM_DATA
1002
{
1000
#$AUX@_ToolInfo Properties
1070
           8
1000
Insert^  JLine^  JSingle@Line Single
1002
}
  0
LINE
  5
111
102
{ACAD_REACTORS
330
118
102
}
100
AcDbEntity
  8
0
370
           0
  6
Continuous
 62
           7
100
AcDbLine
 10
806.155857525671
 20
381.809690295645
 30
0.0
 11
343.644716225943
 21
282.699759413011
 31
0.0
1001
TCAD
1000
TCW_CUSTOM_DATA
1002
{
1000
#$AUX@_ToolInfo Properties
1070
           8
1000
Insert^  JLine^  JSingle@Line Single
1002
}
  0
LINE
  5
112
102
{ACAD_REACTORS
330
118
102
}
100
AcDbEntity
  8
0
370
           0
  6
Continuous
 62
           7
100
AcDbLine
 10
343.644716225943
 20
282.699759413011
 30
0.0
 11
668.468346161848
 21
207.302968214938
 31
0.0
1001
TCAD
1000
TCW_CUSTOM_DATA
1002
{
1000
#$AUX@_ToolInfo Properties
1070
           8
1000
Insert^  JLine^  JSingle@Line Single
1002
}
  0
INSERT
  5
117
102
{ACAD_REACTORS
330
118
102
}
100
AcDbEntity
  8
0
  6
Continuous
 62
           7
100
AcDbBlockReference
  2
*E30
 10
0.0
 20
0.0
 30
0.0
1001
TCAD
1000
TCW_CUSTOM_DATA
1002
{
1000
#$AUX@_ToolInfo Properties
1070
           8
1000
Insert^  JCurve^  JBezier@Curve Bezier
1002
}
1000
TC25ExternalObject
1002
{
1000
TCW30CURVE
1000

1070
           0
1071
        0
1040
1.0
1040
0.0
1000
Continuous
1000
0
1070
          12
1010
-0.209530579528
1020
0.97780209462
1030
0.0
1010
-0.97780209462
1020
-0.209530579528
1030
0.0
1010
0.0
1020
0.0
1030
1.0
1010
1288.086188030944
1020
-1867.181782414724
1030
0.0
1070
          21
1071
       43
1071
      162
1010
2300.153185171286
1020
0.083572390893
1030
0.0
1071
     6274
1010
2276.609471806896
1020
-6.127226754088
1030
0.0
1071
     6274
1010
2249.765312682388
1020
-4.311675408494
1030
0.0
1071
      130
1010
2227.272297586568
1020
5.012726360991
1030
0.0
1071
     6274
1010
2214.161792968323
1020
10.447640797336
1030
0.0
1071
     6274
1010
2205.677566576169
1020
26.223932770675
1030
0.0
1071
      130
1010
2203.330773369496
1020
40.220969004218
1030
0.0
1071
     6274
1010
2201.816463613855
1020
49.252803789767
1030
0.0
1071
     6274
1010
2210.868448282831
1020
57.405641117715
1030
0.0
1071
      130
1010
2217.414053764814
1020
63.810491575161
1030
0.0
1071
     6274
1010
2222.294462270623
1020
68.585953025899
1030
0.0
1071
     6274
1010
2229.378856863681
1020
70.921361341459
1030
0.0
1071
      130
1010
2236.074384403755
1020
72.260469809519
1030
0.0
1071
     6274
1010
2242.068572420071
1020
73.45931006277
1030
0.0
1071
     6274
1010
2248.356922364691
1020
70.175441425318
1030
0.0
1071
      130
1010
2254.382626822331
1020
71.20422253021
1030
0.0
1071
     6274
1010
2258.371717030854
1020
71.885288231505
1030
0.0
1071
     6274
1010
2264.117350888973
1020
73.228357598156
1030
0.0
1071
      130
1010
2264.945078964879
1020
77.189623779549
1030
0.0
1071
     6274
1010
2266.205269941777
1020
83.220531808635
1030
0.0
1071
     6274
1010
2262.99442723112
1020
89.854312778457
1030
0.0
1071
      130
1010
2259.311785640514
1020
94.793745101159
1030
0.0
1071
     6274
1010
2247.94401043739
1020
110.041049215345
1030
0.0
1071
     6274
1010
2235.96013433927
1020
125.500267988084
1030
0.0
1071
      130
1010
2220.582838919774
1020
136.691553846606
1030
0.0
1071
     6274
1010
2213.843584269899
1020
141.596247630696
1030
0.0
1071
     6274
1010
2203.598276741408
1020
144.199898334802
1030
0.0
1071
      130
1010
2195.937129924109
1020
140.916542963808
1030
0.0
1071
     6274
1010
2190.543560780879
1020
138.605008589442
1030
0.0
1071
     6274
1010
2191.445489668246
1020
129.868294182862
1030
0.0
1071
      130
1010
2191.00797576532
1020
124.01658649507
1030
0.0
1071
     6274
1010
2190.489046650143
1020
117.075957928998
1030
0.0
1071
     6274
1010
2198.629633451204
1020
103.333190930656
1030
0.0
1071
      130
1010
2195.232936329443
1020
97.258322063482
1030
0.0
1071
     6274
1010
2191.382234808728
1020
90.371482894011
1030
0.0
1071
     6274
1010
2166.091446611908
1020
102.156580672686
1030
0.0
1071
      130
1010
2161.433110661269
1020
108.524959709332
1030
0.0
1071
     6274
1010
2151.487123417918
1020
122.122050458148
1030
0.0
1071
     6274
1010
2167.066429980149
1020
128.241575589527
1030
0.0
1071
      130
1010
2167.066441260789
1020
144.437367205404
1030
0.0
1071
     6274
1010
2167.066448398756
1020
154.685459254882
1030
0.0
1071
     6274
1010
2161.130890671683
1020
161.356594161201
1030
0.0
1071
      162
1010
2158.264419915
1020
171.195631621883
1030
0.0
1070
           3
1071
-2147483643
1070
           1
1000
#$AUX@_ToolInfo Properties
1070
           8
1000
Insert^  JCurve^  JBezier@Curve Bezier
1000
$SPLINESEGS
1070
          18
1070
          20
1000
$SPLFRAME
1070
          18
1070
           0
1000
$SPLINETYPE
1070
          18
1070
           1
1000
$SHOWCONTRPTS
1070
          18
1070
           1
1000
$CURVESMOOTH
1070
          18
1070
           1
1002
}
  0
LINE
  5
119
102
{ACAD_REACTORS
330
121
102
}
100
AcDbEntity
  8
0
370
           0
  6
Continuous
 62
           7
100
AcDbLine
 10
2437.222828212908
 20
1099.754001191994
 30
-88.771768723989
 11
2127.825319249387
 21
955.598197295281
 31
-88.771768723989
1001
TCAD
1000
TCW_CUSTOM_DATA
1002
{
1000
#$AUX@_ToolInfo Properties
1070
           8
1000
Insert^  JLine^  JSingle@Line Single
1002
}
  0
LINE
  5
11A
102
{ACAD_REACTORS
330
121
102
}
100
AcDbEntity
  8
0
370
           0
  6
Continuous
 62
           7
100
AcDbLine
 10
2384.456209798514
 20
1209.529756024925
 30
-88.771768723989
 11
2437.222828212909
 21
1099.754001191994
 31
-88.771768723989
1001
TCAD
1000
TCW_CUSTOM_DATA
1002
{
1000
#$AUX@_ToolInfo Properties
1070
           8
1000
Insert^  JLine^  JSingle@Line Single
1002
}
  0
ARC
  5
11B
102
{ACAD_REACTORS
330
121
102
}
100
AcDbEntity
  8
0
370
           0
  6
Continuous
 62
           7
100
AcDbCircle
 10
2251.846925739879
 20
1575.462322262401
 30
-88.771768506403
 40
389.218611933404
100
AcDbArc
 50
-111.66836095839
 51
-70.080131047389
1001
TCAD
1000
TCW_CUSTOM_DATA
1002
{
1000
#$AUX@_ToolInfo Properties
1070
           8
1000
Insert^  JArc^  JTriplePoint132@Arc TriplePoint132
1002
}
  0
ARC
  5
11C
102
{ACAD_REACTORS
330
121
102
}
100
AcDbEntity
  8
0
370
           0
  6
Continuous
 62
           7
100
AcDbCircle
 10
1733.596102339794
 20
999.57041729375
 30
-88.771768506403
 40
46.658223462445
100
AcDbArc
 50
176.035159027939
 51
274.707077499821
1001
TCAD
1000
TCW_CUSTOM_DATA
1002
{
1000
#$AUX@_ToolInfo Properties
1070
           8
1000
Insert^  JArc^  JTriplePoint132@Arc TriplePoint132
1002
}
  0
ARC
  5
11D
102
{ACAD_REACTORS
330
121
102
}
100
AcDbEntity
  8
0
370
           0
  6
Continuous
 62
           7
100
AcDbCircle
 10
1834.938473778858
 20
1064.438474458729
 30
-88.771768506403
 40
149.548639594222
100
AcDbArc
 50
89.653918536802
 51
172.917084431009
1001
TCAD
1000
TCW_CUSTOM_DATA
1002
{
1000
#$AUX@_ToolInfo Properties
1070
           8
1000
Insert^  JArc^  JTriplePoint132@Arc TriplePoint132
1002
}
  0
LINE
  5
11E
102
{ACAD_REACTORS
330
121
102
}
100
AcDbEntity
  8
0
370
           0
  6
Continuous
 62
           7
100
AcDbLine
 10
2108.133975479655
 20
1213.746338126771
 30
-88.771768723989
 11
1835.841783301688
 21
1213.984749892247
 31
-88.771768723989
1001
TCAD
1000
TCW_CUSTOM_DATA
1002
{
1000
#$AUX@_ToolInfo Properties
1070
           8
1000
Insert^  JLine^  JSingle@Line Single
1002
}
  0
LINE
  5
11F
102
{ACAD_REACTORS
330
121
102
}
100
AcDbEntity
  8
0
370
           0
  6
Continuous
 62
           7
100
AcDbLine
 10
1687.049434221819
 20
1002.796576029307
 30
-88.771768723989
 11
1686.53071617658
 21
1082.878700801918
 31
-88.771768723989
1001
TCAD
1000
TCW_CUSTOM_DATA
1002
{
1000
#$AUX@_ToolInfo Properties
1070
           8
1000
Insert^  JLine^  JSingle@Line Single
1002
}
  0
LINE
  5
120
102
{ACAD_REACTORS
330
121
102
}
100
AcDbEntity
  8
0
370
           0
  6
Continuous
 62
           7
100
AcDbLine
 10
1737.424960982968
 20
953.069446824704
 30
-88.771768723989
 11
2127.825319249387
 21
955.598197295281
 31
-88.771768723989
1001
TCAD
1000
TCW_CUSTOM_DATA
1002
{
1000
#$AUX@_ToolInfo Properties
1070
           8
1000
Insert^  JLine^  JSingle@Line Single
1002
}
  0
LINE
  5
122
102
{ACAD_REACTORS
330
129
102
}
100
AcDbEntity
  8
0
370
           0
  6
Continuous
 62
           7
100
AcDbLine
 10
1703.60033057328
 20
403.825555953257
 30
0.0
 11
2165.830356576697
 21
302.357642924784
 31
-0.0
210
0.0
220
0.0
230
-1.0
1001
TCAD
1000
TCW_CUSTOM_DATA
1002
{
1000
#$AUX@_ToolInfo Properties
1070
           8
1000
Insert^  JLine^  JSingle@Line Single
1002
}
  0
LINE
  5
123
102
{ACAD_REACTORS
330
129
102
}
100
AcDbEntity
  8
0
370
           0
  6
Continuous
 62
           7
100
AcDbLine
 10
2165.830356576697
 20
302.357642924784
 30
-0.0
 11
1840.479326500234
 21
228.549332534948
 31
-0.0
210
0.0
220
0.0
230
-1.0
1001
TCAD
1000
TCW_CUSTOM_DATA
1002
{
1000
#$AUX@_ToolInfo Properties
1070
           8
1000
Insert^  JLine^  JSingle@Line Single
1002
}
  0
INSERT
  5
128
102
{ACAD_REACTORS
330
129
102
}
100
AcDbEntity
  8
0
  6
Continuous
 62
           7
100
AcDbBlockReference
  2
*E31
 10
0.0
 20
0.0
 30
0.0
1001
TCAD
1000
TCW_CUSTOM_DATA
1002
{
1000
#$AUX@_ToolInfo Properties
1070
           8
1000
Insert^  JCurve^  JBezier@Curve Bezier
1002
}
1000
TC25ExternalObject
1002
{
1000
TCW30CURVE
1000

1070
           0
1071
        0
1040
1.0
1040
0.0
1000
Continuous
1000
0
1070
          12
1010
0.214412910568
1020
0.976743110435
1030
0.0
1010
0.976743110435
1020
-0.214412910568
1030
0.0
1010
0.0
1020
0.0
1030
-1.0
1010
1210.204557759349
1020
-1843.804591587147
1030
0.0
1070
          21
1071
       43
1071
      162
1010
2301.25320643947
1020
0.083612163275
1030
0.0
1071
     6274
1010
2277.698237894618
1020
-6.130142622187
1030
0.0
1071
     6274
1010
2250.841239601127
1020
-4.313727278774
1030
0.0
1071
      130
1010
2228.337460991373
1020
5.015111855124
1030
0.0
1071
     6274
1010
2215.220682643326
1020
10.452612698244
1030
0.0
1071
     6274
1010
2206.732387783753
1020
26.236412408645
1030
0.0
1071
      130
1010
2204.384462504162
1020
40.240109654036
1030
0.0
1071
     6274
1010
2202.869422258481
1020
49.276242575097
1030
0.0
1071
     6274
1010
2211.925730256067
1020
57.432959734834
1030
0.0
1071
      130
1010
2218.474461637338
1020
63.840858179305
1030
0.0
1071
     6274
1010
2223.357200816073
1020
68.618592211525
1030
0.0
1071
     6274
1010
2230.444981811674
1020
70.955111918259
1030
0.0
1071
      130
1010
2237.143710476928
1020
72.294857651043
1030
0.0
1071
     6274
1010
2243.140764308685
1020
73.494268417156
1030
0.0
1071
     6274
1010
2249.432123869683
1020
70.208837028312
1030
0.0
1071
      130
1010
2255.46070933355
1020
71.238107717075
1030
0.0
1071
     6274
1010
2259.451706803508
1020
71.919497528893
1030
0.0
1071
     6274
1010
2265.200087508521
1020
73.26320604521
1030
0.0
1071
      130
1010
2266.02820867734
1020
77.226357342889
1030
0.0
1071
     6274
1010
2267.288998126317
1020
83.260135404544
1030
0.0
1071
     6274
1010
2264.076615248435
1020
89.89707330651
1030
0.0
1071
      130
1010
2260.392209038141
1020
94.838856242344
1030
0.0
1071
     6274
1010
2249.018986712497
1020
110.093416354986
1030
0.0
1071
     6274
1010
2237.029368701251
1020
125.559991973673
1030
0.0
1071
      130
1010
2221.644711477466
1020
136.75660362305
1030
0.0
1071
     6274
1010
2214.902230442689
1020
141.663631488642
1030
0.0
1071
     6274
1010
2204.652021402846
1020
144.268521237057
1030
0.0
1071
      130
1010
2196.987213018089
1020
140.983603358919
1030
0.0
1071
     6274
1010
2191.591066073163
1020
138.670968954686
1030
0.0
1071
     6274
1010
2192.493432381089
1020
129.930096856636
1030
0.0
1071
      130
1010
2192.055713316978
1020
124.075604415443
1030
0.0
1071
     6274
1010
2191.536540862992
1020
117.131672892348
1030
0.0
1071
     6274
1010
2199.681030373858
1020
103.382365885664
1030
0.0
1071
      130
1010
2196.282713051583
1020
97.304606065516
1030
0.0
1071
     6274
1010
2192.430174773465
1020
90.414489536713
1030
0.0
1071
     6274
1010
2167.127283347032
1020
102.205195693789
1030
0.0
1071
      130
1010
2162.466715167284
1020
108.576605361168
1030
0.0
1071
     6274
1010
2152.515961903946
1020
122.180166792847
1030
0.0
1071
     6274
1010
2168.102714825905
1020
128.302604128558
1030
0.0
1071
      130
1010
2168.102714834332
1020
144.506103116056
1030
0.0
1071
     6274
1010
2168.102714839664
1020
154.75907210244
1030
0.0
1071
     6274
1010
2162.164313856307
1020
161.433381717165
1030
0.0
1071
      162
1010
2159.296465392339
1020
171.277101450864
1030
0.0
1070
           3
1071
-2147483643
1070
           1
1000
#$AUX@_ToolInfo Properties
1070
           8
1000
Insert^  JCurve^  JBezier@Curve Bezier
1000
$SPLINESEGS
1070
          18
1070
          20
1000
$SPLFRAME
1070
          18
1070
           0
1000
$SPLINETYPE
1070
          18
1070
           1
1000
$SHOWCONTRPTS
1070
          18
1070
           1
1000
$CURVESMOOTH
1070
          18
1070
           1
1002
}
  0
ARC
  5
12A
102
{ACAD_REACTORS
330
135
102
}
100
AcDbEntity
  8
0
370
           0
  6
Continuous
 62
           7
100
AcDbCircle
 10
-2041.38271735249
 20
-605.458037306724
 30
9.850746514925
 40
1496.02613011116
210
0.0
220
0.0
230
-1.0
100
AcDbArc
 50
85.604704017833
 51
101.719140923849
1001
TCAD
1000
TCW_CUSTOM_DATA
1002
{
1000
#$AUX@_ToolInfo Properties
1070
           8
1000
Insert^  JArc^  JTriplePoint123@Arc TriplePoint123
1002
}
  0
LINE
  5
12B
102
{ACAD_REACTORS
330
135
102
}
100
AcDbEntity
  8
0
370
           0
  6
Continuous
 62
           7
100
AcDbLine
 10
1852.517311400222
 20
918.988461889848
 30
-9.850746514925
 11
1874.167026162472
 21
730.867430600245
 31
-9.850746514925
210
0.0
220
0.0
230
-1.0
1001
TCAD
1000
TCW_REFPOINT
1002
{
1010
302.15509064274
1020
706.472609621103
1030
0.0
1002
}
1000
TCW_CUSTOM_DATA
1002
{
1000
#$AUX@_ToolInfo Properties
1070
           8
1000
Insert^  JLine^  JSingle@Line Single
1002
}
  0
ARC
  5
12C
102
{ACAD_REACTORS
330
135
102
}
100
AcDbEntity
  8
0
370
           0
  6
Continuous
 62
           7
100
AcDbCircle
 10
-1877.202591676074
 20
791.434093213136
 30
9.850746514925
 40
60.000000000001
210
0.0
220
0.0
230
-1.0
100
AcDbArc
 50
172.849096682165
 51
263.51720409211
1001
TCAD
1000
TCW_CUSTOM_DATA
1002
{
1000
#$AUX@_ToolInfo Properties
1070
           8
1000
Insert^  JCircle^  JCenterAndPoint@Circle CenterAndPoint
1002
}
  0
LINE
  5
12D
102
{ACAD_REACTORS
330
135
102
}
100
AcDbEntity
  8
0
370
           0
  6
Continuous
 62
           7
100
AcDbLine
 10
1874.167026162472
 20
730.867430600245
 30
-9.850746514925
 11
1883.976883923079
 21
731.817745081487
 31
-9.850746514925
1001
TCAD
1000
TCW_CUSTOM_DATA
1002
{
1000
#$AUX@_ToolInfo Properties
1070
           8
1000
Insert^  JLine^  JSingle@Line Single
1002
}
  0
LINE
  5
12E
102
{ACAD_REACTORS
330
135
102
}
100
AcDbEntity
  8
0
370
           0
  6
Continuous
 62
           7
100
AcDbLine
 10
2423.039719157914
 20
882.475027873123
 30
-9.850746514925
 11
2377.58537068501
 21
698.648656621189
 31
-9.850746514925
1001
TCAD
1000
TCW_REFPOINT
1002
{
1010
1811.761440992886
1020
1158.786605951872
1030
0.0
1002
}
1000
TCW_CUSTOM_DATA
1002
{
1000
#$AUX@_ToolInfo Properties
1070
           8
1000
Insert^  JLine^  JSingle@Line Single
1002
}
  0
ARC
  5
12F
102
{ACAD_REACTORS
330
135
102
}
100
AcDbEntity
  8
0
370
           0
  6
Continuous
 62
           7
100
AcDbCircle
 10
2382.295479041467
 20
759.108148492371
 30
-9.850746514925
 40
60.000000000001
100
AcDbArc
 50
165.525225547081
 51
256.193332957026
1001
TCAD
1000
TCW_CUSTOM_DATA
1002
{
1000
#$AUX@_ToolInfo Properties
1070
           8
1000
Insert^  JCircle^  JCenterAndPoint@Circle CenterAndPoint
1002
}
  0
LINE
  5
130
102
{ACAD_REACTORS
330
135
102
}
100
AcDbEntity
  8
0
370
           0
  6
Continuous
 62
           7
100
AcDbLine
 10
2413.327078637775
 20
884.855072857276
 30
-9.850746514925
 11
2423.039719157914
 21
882.475027873123
 31
-9.850746514925
210
0.0
220
0.0
230
-1.0
1001
TCAD
1000
TCW_CUSTOM_DATA
1002
{
1000
#$AUX@_ToolInfo Properties
1070
           8
1000
Insert^  JLine^  JSingle@Line Single
1002
}
  0
LINE
  5
131
102
{ACAD_REACTORS
330
135
102
}
100
AcDbEntity
  8
0
370
           0
  6
Continuous
 62
           7
100
AcDbLine
 10
2377.58537068501
 20
698.648656621189
 30
-9.850746514925
 11
2367.976691504699
 21
700.841757463933
 31
-9.850746514925
210
0.0
220
0.0
230
-1.0
1001
TCAD
1000
TCW_CUSTOM_DATA
1002
{
1000
#$AUX@_ToolInfo Properties
1070
           8
1000
Insert^  JLine^  JSingle@Line Single
1002
}
  0
ARC
  5
132
102
{ACAD_REACTORS
330
135
102
}
100
AcDbEntity
  8
0
370
           0
  6
Continuous
 62
           7
100
AcDbCircle
 10
2040.734247186061
 20
-615.584947384313
 30
-9.850746514925
 40
1546.072819554979
100
AcDbArc
 50
75.683668816243
 51
96.992460048673
1001
TCAD
1000
TCW_CUSTOM_DATA
1002
{
1000
#$AUX@_ToolInfo Properties
1070
           8
1000
Insert^  JArc^  JTriplePoint123@Arc TriplePoint123
1002
}
  0
LINE
  5
133
102
{ACAD_REACTORS
330
135
102
}
100
AcDbEntity
  8
0
370
           0
  6
Continuous
 62
           7
100
AcDbLine
 10
2345.247189740419
 20
859.383443672334
 30
-9.850746514925
 11
2323.893450101453
 21
772.863257204834
 31
-9.850746514925
210
0.0
220
0.0
230
-1.0
1001
TCAD
1000
TCW_REFPOINT
1002
{
1010
-227.808982093498
1020
830.987245314542
1030
0.0
1002
}
1000
TCW_CUSTOM_DATA
1002
{
1000
#$AUX@_ToolInfo Properties
1070
           8
1000
Insert^  JLine^  JSingle@Line Single
1002
}
  0
LINE
  5
134
102
{ACAD_REACTORS
330
135
102
}
100
AcDbEntity
  8
0
370
           0
  6
Continuous
 62
           7
100
AcDbLine
 10
1926.731509631808
 20
886.168351084384
 30
-9.850746514925
 11
1936.881614541356
 21
797.63201462657
 31
-9.850746514925
210
0.0
220
0.0
230
-1.0
1001
TCAD
1000
TCW_REFPOINT
1002
{
1010
205.780418607699
1020
830.987245314542
1030
0.0
1002
}
1000
TCW_CUSTOM_DATA
1002
{
1000
#$AUX@_ToolInfo Properties
1070
           8
1000
Insert^  JLine^  JSingle@Line Single
1002
}
  0
ARC
  5
136
102
{ACAD_REACTORS
330
146
102
}
100
AcDbEntity
  8
0
370
           0
  6
Continuous
 62
           7
100
AcDbCircle
 10
1793.948234472531
 20
3980.863005561614
 30
0.0
 40
3295.228571428573
100
AcDbArc
 50
-89.478367866205
 51
-83.152294823431
  0
ARC
  5
137
102
{ACAD_REACTORS
330
146
102
}
100
AcDbEntity
  8
0
370
           0
  6
Continuous
 62
           7
100
AcDbCircle
 10
1793.948234472531
 20
3980.863005561614
 30
0.0
 40
3295.228571428571
100
AcDbArc
 50
-96.847705188573
 51
-90.521632145799
  0
ARC
  5
138
102
{ACAD_REACTORS
330
146
102
}
100
AcDbEntity
  8
0
370
           0
  6
Continuous
 62
           7
100
AcDbCircle
 10
1793.948234466166
 20
3920.062398923441
 30
0.0
 40
3300.354367101842
100
AcDbArc
 50
-98.345150670185
 51
-81.654849341819
1001
TCAD
1000
TCW_CUSTOM_DATA
1002
{
1000
#$AUX@_ToolInfo Properties
1070
           8
1000
Insert^  JArc^  JTriplePoint132@Arc TriplePoint132
1002
}
  0
ARC
  5
139
102
{ACAD_REACTORS
330
146
102
}
100
AcDbEntity
  8
0
370
           0
  6
Continuous
 62
           7
100
AcDbCircle
 10
1350.458652798067
 20
786.715865840025
 30
0.0
 40
65.386074240653
100
AcDbArc
 50
-12.870508699613
 51
85.057654192548
1001
TCAD
1000
TCW_CUSTOM_DATA
1002
{
1000
#$AUX@_ToolInfo Properties
1070
           8
1000
Insert^  JArc^  JTriplePoint132@Arc TriplePoint132
1002
}
  0
LINE
  5
13A
102
{ACAD_REACTORS
330
146
102
}
100
AcDbEntity
  8
0
370
           0
  6
Continuous
 62
           7
100
AcDbLine
 10
1414.201965768103
 20
772.151225226184
 30
-0.0
 11
1401.055882005269
 21
709.140685844239
 31
-0.0
210
0.0
220
0.0
230
-1.0
1001
TCAD
1000
TCW_CUSTOM_DATA
1002
{
1000
#$AUX@_ToolInfo Properties
1070
           8
1000
Insert^  JLine^  JPerpendicular@Line Perpendicular
1002
}
  0
LINE
  5
13B
102
{ACAD_REACTORS
330
146
102
}
100
AcDbEntity
  8
0
370
           0
  6
Continuous
 62
           7
100
AcDbLine
 10
1314.94823412396
 20
654.653091022663
 30
0.0
 11
1311.963826367229
 21
654.958558437575
 31
0.0
1001
TCAD
1000
TCW_CUSTOM_DATA
1002
{
1000
#$AUX@_ToolInfo Properties
1070
           8
1000
Insert^  JLine^  JSingle@Line Single
1002
}
  0
LINE
  5
13C
102
{ACAD_REACTORS
330
146
102
}
100
AcDbEntity
  8
0
370
           0
  6
Continuous
 62
           7
100
AcDbLine
 10
1356.091877063973
 20
851.85882776974
 30
0.0
 11
1353.139813542753
 21
852.392982210593
 31
0.0
1001
TCAD
1000
TCW_CUSTOM_DATA
1002
{
1000
#$AUX@_ToolInfo Properties
1070
           8
1000
Insert^  JLine^  JSingle@Line Single
1002
}
  0
LINE
  5
13D
102
{ACAD_REACTORS
330
146
102
}
100
AcDbEntity
  8
0
370
           0
  6
Continuous
 62
           7
100
AcDbLine
 10
1353.139813542753
 20
852.392982210593
 30
0.0
 11
1311.963826367229
 21
654.958558437575
 31
0.0
1001
TCAD
1000
TCW_CUSTOM_DATA
1002
{
1000
#$AUX@_ToolInfo Properties
1070
           8
1000
Insert^  JLine^  JSingle@Line Single
1002
}
  0
ARC
  5
13E
102
{ACAD_REACTORS
330
146
102
}
100
AcDbEntity
  8
0
370
           0
  6
Continuous
 62
           7
100
AcDbCircle
 10
2237.437815477738
 20
786.71586574711
 30
0.0
 40
65.386074240653
100
AcDbArc
 50
94.942345795448
 51
192.870508687609
1001
TCAD
1000
TCW_CUSTOM_DATA
1002
{
1000
#$AUX@_ToolInfo Properties
1070
           8
1000
Insert^  JArc^  JTriplePoint132@Arc TriplePoint132
1002
}
  0
LINE
  5
13F
102
{ACAD_REACTORS
330
146
102
}
100
AcDbEntity
  8
0
370
           0
  6
Continuous
 62
           7
100
AcDbLine
 10
2173.694502504653
 20
772.151225146618
 30
0.0
 11
2186.840586254285
 21
709.140685761917
 31
0.0
1001
TCAD
1000
TCW_CUSTOM_DATA
1002
{
1000
#$AUX@_ToolInfo Properties
1070
           8
1000
Insert^  JLine^  JPerpendicular@Line Perpendicular
1002
}
  0
LINE
  5
140
102
{ACAD_REACTORS
330
146
102
}
100
AcDbEntity
  8
0
370
           0
  6
Continuous
 62
           7
100
AcDbLine
 10
2272.948234124175
 20
654.653090922308
 30
0.0
 11
2275.932641880969
 21
654.958558336594
 31
-0.0
210
0.0
220
0.0
230
-1.0
1001
TCAD
1000
TCW_CUSTOM_DATA
1002
{
1000
#$AUX@_ToolInfo Properties
1070
           8
1000
Insert^  JLine^  JSingle@Line Single
1002
}
  0
LINE
  5
141
102
{ACAD_REACTORS
330
146
102
}
100
AcDbEntity
  8
0
370
           0
  6
Continuous
 62
           7
100
AcDbLine
 10
2231.804591225481
 20
851.858827678004
 30
0.0
 11
2234.756654746814
 21
852.39298211824
 31
-0.0
210
0.0
220
0.0
230
-1.0
1001
TCAD
1000
TCW_CUSTOM_DATA
1002
{
1000
#$AUX@_ToolInfo Properties
1070
           8
1000
Insert^  JLine^  JSingle@Line Single
1002
}
  0
LINE
  5
142
102
{ACAD_REACTORS
330
146
102
}
100
AcDbEntity
  8
0
370
           0
  6
Continuous
 62
           7
100
AcDbLine
 10
2234.756654746814
 20
852.39298211824
 30
-0.0
 11
2275.932641880969
 21
654.958558336594
 31
-0.0
210
0.0
220
0.0
230
-1.0
1001
TCAD
1000
TCW_CUSTOM_DATA
1002
{
1000
#$AUX@_ToolInfo Properties
1070
           8
1000
Insert^  JLine^  JSingle@Line Single
1002
}
  0
LINE
  5
143
102
{ACAD_REACTORS
330
146
102
}
100
AcDbEntity
  8
0
370
           0
  6
Continuous
 62
           7
100
AcDbLine
 10
1823.948234152571
 20
926.653090969401
 30
0.0
 11
1763.948234152557
 21
926.653090975687
 31
0.0
1001
TCAD
1000
TCW_CUSTOM_DATA
1002
{
1000
#$AUX@_ToolInfo Properties
1070
           8
1000
Insert^  JLine^  JSingle@Line Single
1002
}
  0
LINE
  5
144
102
{ACAD_REACTORS
330
146
102
}
100
AcDbEntity
  8
0
370
           0
  6
Continuous
 62
           7
100
AcDbLine
 10
1763.948234127322
 20
685.770998053571
 30
0.0
 11
1763.948234152557
 21
926.653090975687
 31
0.0
1001
TCAD
1000
TCW_CUSTOM_DATA
1002
{
1000
#$AUX@_ToolInfo Properties
1070
           8
1000
Insert^  JLine^  JSingle@Line Single
1002
}
  0
LINE
  5
145
102
{ACAD_REACTORS
330
146
102
}
100
AcDbEntity
  8
0
370
           0
  6
Continuous
 62
           7
100
AcDbLine
 10
1823.948234127335
 20
685.770998047285
 30
0.0
 11
1823.948234152571
 21
926.653090969401
 31
0.0
1001
TCAD
1000
TCW_CUSTOM_DATA
1002
{
1000
#$AUX@_ToolInfo Properties
1070
           8
1000
Insert^  JLine^  JSingle@Line Single
1002
}
  0
LINE
  5
147
102
{ACAD_REACTORS
330
14D
102
}
100
AcDbEntity
  8
0
370
           0
  6
Continuous
 62
           7
100
AcDbLine
 10
919.920757502046
 20
813.869938004782
 30
0.0
 11
1322.920757468282
 21
813.86993779361
 31
0.0
1001
TCAD
1000
TCW_CUSTOM_DATA
1002
{
1000
#$AUX@_ToolInfo Properties
1070
           8
1000
Insert^  JLine^  JSingle@Line Single
1002
}
  0
LINE
  5
148
102
{ACAD_REACTORS
330
14D
102
}
100
AcDbEntity
  8
0
370
           0
  6
Continuous
 62
           7
100
AcDbLine
 10
919.920757502046
 20
813.869938004782
 30
0.0
 11
516.920757535809
 21
813.869938215953
 31
0.0
1001
TCAD
1000
TCW_CUSTOM_DATA
1002
{
1000
#$AUX@_ToolInfo Properties
1070
           8
1000
Insert^  JLine^  JSingle@Line Single
1002
}
  0
LINE
  5
149
102
{ACAD_REACTORS
330
14D
102
}
100
AcDbEntity
  8
0
370
           0
  6
Continuous
 62
           7
100
AcDbLine
 10
919.920757397246
 20
613.869938021538
 30
0.0
 11
583.920757425396
 21
613.869938197601
 31
0.0
1001
TCAD
1000
TCW_CUSTOM_DATA
1002
{
1000
#$AUX@_ToolInfo Properties
1070
           8
1000
Insert^  JLine^  JSingle@Line Single
1002
}
  0
LINE
  5
14A
102
{ACAD_REACTORS
330
14D
102
}
100
AcDbEntity
  8
0
370
           0
  6
Continuous
 62
           7
100
AcDbLine
 10
919.920757397246
 20
613.869938021538
 30
0.0
 11
1255.920757369096
 21
613.869937845474
 31
0.0
1001
TCAD
1000
TCW_CUSTOM_DATA
1002
{
1000
#$AUX@_ToolInfo Properties
1070
           8
1000
Insert^  JLine^  JSingle@Line Single
1002
}
  0
LINE
  5
14B
102
{ACAD_REACTORS
330
14D
102
}
100
AcDbEntity
  8
0
370
           0
  6
Continuous
 62
           7
100
AcDbLine
 10
1322.920757468282
 20
813.86993779361
 30
0.0
 11
1255.920757369096
 21
613.869937845474
 31
0.0
1001
TCAD
1000
TCW_CUSTOM_DATA
1002
{
1000
#$AUX@_ToolInfo Properties
1070
           8
1000
Insert^  JLine^  JSingle@Line Single
1002
}
  0
LINE
  5
14C
102
{ACAD_REACTORS
330
14D
102
}
100
AcDbEntity
  8
0
370
           0
  6
Continuous
 62
           7
100
AcDbLine
 10
516.920757535809
 20
813.869938215953
 30
0.0
 11
583.920757425396
 21
613.869938197601
 31
0.0
1001
TCAD
1000
TCW_CUSTOM_DATA
1002
{
1000
#$AUX@_ToolInfo Properties
1070
           8
1000
Insert^  JLine^  JSingle@Line Single
1002
}
  0
ENDSEC
  0
SECTION
  2
OBJECTS
  0
DICTIONARY
  5
19
100
AcDbDictionary
280
           0
281
           1
  3
ACAD_GROUP
350
1A
  3
ACAD_MLINESTYLE
350
1B
  3
ACAD_LAYOUT
350
1E
  3
ACAD_PLOTSETTINGS
350
22
  3
ACAD_PLOTSTYLENAME
350
1F
  0
DICTIONARY
  5
1A
102
{ACAD_REACTORS
330
19
102
}
100
AcDbDictionary
280
           0
281
           1
  3

350
3D
  3

350
A2
  3

350
107
  3

350
110
  3

350
118
  3

350
121
  3

350
129
  3

350
135
  3

350
146
  3

350
14D
  0
DICTIONARY
  5
1B
102
{ACAD_REACTORS
330
19
102
}
100
AcDbDictionary
280
           0
281
           1
  3
Standard
350
1C
  0
MLINESTYLE
  5
1C
100
AcDbMlineStyle
  2
STANDARD
 70
           0
  3

 62
         256
 51
90.0
 52
90.0
 71
           3
 49
0.25
 62
           7
  6
ByLayer
 49
0.0
 62
           7
  6
ByLayer
 49
-0.25
 62
           7
  6
ByLayer
  0
ACDBDICTIONARYWDFLT
  5
1F
102
{ACAD_REACTORS
330
19
102
}
100
AcDbDictionary
281
           1
  3
Normal
350
1D
100
AcDbDictionaryWithDefault
340
1D
  0
ACDBPLACEHOLDER
  5
1D
102
{ACAD_REACTORS
330
1F
102
}
  0
LAYOUT
  5
21
102
{ACAD_REACTORS
330
1E
102
}
100
AcDbPlotSettings
  1

  2

  4

  6

 40
0.0
 41
0.0
 42
0.0
 43
0.0
 44
0.0
 45
0.0
 46
0.0
 47
0.0
 48
0.0
 49
0.0
140
0.0
141
0.0
142
1.0
143
1.0
 70
           0
 72
           0
 73
           0
 74
           0
  7

 75
           0
147
1.0
148
0.0
149
0.0
100
AcDbLayout
  1
Layout1
 70
           0
 71
           0
 10
0.0
 20
0.0
 11
0.0
 21
0.0
 12
0.0
 22
0.0
 32
0.0
 14
0.0
 24
0.0
 34
0.0
 15
0.0
 25
0.0
 35
0.0
146
0.0
 13
0.0
 23
0.0
 33
0.0
 16
0.0
 26
0.0
 36
0.0
 17
0.0
 27
0.0
 37
0.0
 76
           0
330
B
331
0
345
0
346
0
  0
DICTIONARY
  5
1E
102
{ACAD_REACTORS
330
19
102
}
100
AcDbDictionary
280
           0
281
           1
  3
Model
350
14E
  3
Paper 1
350
14F
  0
DICTIONARY
  5
22
102
{ACAD_REACTORS
330
19
102
}
100
AcDbDictionary
280
           0
281
           1
  0
GROUP
  5
3D
102
{ACAD_REACTORS
330
1A
102
}
100
AcDbGroup
300

 70
           1
 71
           1
340
35
340
3A
340
3B
340
3C
  0
GROUP
  5
A2
102
{ACAD_REACTORS
330
1A
102
}
100
AcDbGroup
300

 70
           1
 71
           1
340
3E
340
43
340
49
340
4F
340
55
340
56
340
57
340
58
340
59
340
5A
340
60
340
61
340
62
340
63
340
64
340
65
340
6B
340
6C
340
72
340
78
340
79
340
7A
340
80
340
81
340
82
340
83
340
88
340
8D
340
92
340
93
340
94
340
95
340
9A
340
9F
340
A0
340
A1
  0
GROUP
  5
107
102
{ACAD_REACTORS
330
1A
102
}
100
AcDbGroup
300

 70
           1
 71
           1
340
A3
340
A8
340
AE
340
B4
340
BA
340
BB
340
BC
340
BD
340
BE
340
BF
340
C5
340
C6
340
C7
340
C8
340
C9
340
CA
340
D0
340
D1
340
D7
340
DD
340
DE
340
DF
340
E5
340
E6
340
E7
340
E8
340
ED
340
F2
340
F7
340
F8
340
F9
340
FA
340
FF
340
104
340
105
340
106
  0
GROUP
  5
110
102
{ACAD_REACTORS
330
1A
102
}
100
AcDbGroup
300

 70
           1
 71
           1
340
108
340
10D
340
10E
340
10F
  0
GROUP
  5
118
102
{ACAD_REACTORS
330
1A
102
}
100
AcDbGroup
300

 70
           1
 71
           1
340
111
340
112
340
117
  0
GROUP
  5
121
102
{ACAD_REACTORS
330
1A
102
}
100
AcDbGroup
300

 70
           1
 71
           1
340
119
340
11A
340
11B
340
11C
340
11D
340
11E
340
11F
340
120
  0
GROUP
  5
129
102
{ACAD_REACTORS
330
1A
102
}
100
AcDbGroup
300

 70
           1
 71
           1
340
122
340
123
340
128
  0
GROUP
  5
135
102
{ACAD_REACTORS
330
1A
102
}
100
AcDbGroup
300

 70
           1
 71
           1
340
12A
340
12B
340
12C
340
12D
340
12E
340
12F
340
130
340
131
340
132
340
133
340
134
  0
GROUP
  5
146
102
{ACAD_REACTORS
330
1A
102
}
100
AcDbGroup
300

 70
           1
 71
           1
340
136
340
137
340
138
340
139
340
13A
340
13B
340
13C
340
13D
340
13E
340
13F
340
140
340
141
340
142
340
143
340
144
340
145
  0
GROUP
  5
14D
102
{ACAD_REACTORS
330
1A
102
}
100
AcDbGroup
300

 70
           1
 71
           1
340
147
340
148
340
149
340
14A
340
14B
340
14C
  0
LAYOUT
  5
14E
100
AcDbPlotSettings
  1

  2

  4

  6

 40
0.0
 41
0.0
 42
0.0
 43
0.0
 44
0.0
 45
0.0
 46
0.0
 47
0.0
 48
0.0
 49
0.0
140
0.0
141
0.0
142
1.0
143
1.0
 70
           0
 72
           1
 73
           0
 74
           0
  7

 75
           0
147
1.0
148
0.0
149
0.0
100
AcDbLayout
  1
Model
 70
           0
 71
           0
 10
0.0
 20
0.0
 11
0.0
 21
0.0
 12
0.0
 22
0.0
 32
0.0
 14
0.0
 24
0.0
 34
0.0
 15
0.0
 25
0.0
 35
0.0
146
0.0
 13
0.0
 23
0.0
 33
0.0
 16
0.0
 26
0.0
 36
0.0
 17
0.0
 27
0.0
 37
0.0
 76
           0
330
A
331
0
345
0
346
0
  0
LAYOUT
  5
14F
100
AcDbPlotSettings
  1

  2

  4

  6

 40
3.302
 41
12.827
 42
3.302
 43
1.7357
 44
0.460350920702
 45
0.325500651001
 46
-3.302
 47
-12.827
 48
0.0
 49
0.0
140
0.0
141
0.0
142
1.0
143
645.16
 70
           0
 72
           1
 73
           0
 74
           0
  7

 75
           0
147
1.0
148
0.0
149
0.0
100
AcDbLayout
  1
Paper 1
 70
           1
 71
           1
 10
0.0
 20
0.0
 11
0.460350920702
 21
0.325500651001
 12
0.0
 22
0.0
 32
0.0
 14
0.0
 24
0.0
 34
0.0
 15
0.0
 25
0.0
 35
0.0
146
0.0
 13
0.0
 23
0.0
 33
0.0
 16
0.0
 26
0.0
 36
0.0
 17
0.0
 27
0.0
 37
0.0
 76
           0
330
B
331
0
345
0
346
0
  0
ENDSEC
  0
EOF
