  0
SECTION
  2
HEADER
  9
$ACADVER
  1
AC1024
  9
$ACADMAINTVER
 70
     6
  9
$DWGCODEPAGE
  3
UNDEFINED
  9
$INSBASE
 10
0.0
 20
0.0
 30
0.0
  9
$EXTMIN
 10
1.000000000000000E+20
 20
1.000000000000000E+20
 30
1.000000000000000E+20
  9
$EXTMAX
 10
-1.000000000000000E+20
 20
-1.000000000000000E+20
 30
-1.000000000000000E+20
  9
$LIMMIN
 10
0.0
 20
0.0
  9
$LIMMAX
 10
12.0
 20
9.0
  9
$ORTHOMODE
 70
     0
  9
$REGENMODE
 70
     1
  9
$FILLMODE
 70
     1
  9
$QTEXTMODE
 70
     0
  9
$MIRRTEXT
 70
     1
  9
$LTSCALE
 40
1.0
  9
$ATTMODE
 70
     1
  9
$TEXTSIZE
 40
0.2
  9
$TRACEWID
 40
0.05
  9
$TEXTSTYLE
  7
Standard
  9
$CLAYER
  8
0
  9
$CELTYPE
  6
ByLayer
  9
$CECOLOR
 62
   256
  9
$CELTSCALE
 40
1.0
  9
$DISPSILH
 70
     0
  9
$DIMSCALE
 40
1.0
  9
$DIMASZ
 40
0.18
  9
$DIMEXO
 40
0.0625
  9
$DIMDLI
 40
0.38
  9
$DIMRND
 40
0.0
  9
$DIMDLE
 40
0.0
  9
$DIMEXE
 40
0.18
  9
$DIMTP
 40
0.0
  9
$DIMTM
 40
0.0
  9
$DIMTXT
 40
0.18
  9
$DIMCEN
 40
0.09
  9
$DIMTSZ
 40
0.0
  9
$DIMTOL
 70
     0
  9
$DIMLIM
 70
     0
  9
$DIMTIH
 70
     1
  9
$DIMTOH
 70
     1
  9
$DIMSE1
 70
     0
  9
$DIMSE2
 70
     0
  9
$DIMTAD
 70
     0
  9
$DIMZIN
 70
     0
  9
$DIMBLK
  1

  9
$DIMASO
 70
     1
  9
$DIMSHO
 70
     1
  9
$DIMPOST
  1

  9
$DIMAPOST
  1

  9
$DIMALT
 70
     0
  9
$DIMALTD
 70
     2
  9
$DIMALTF
 40
25.4
  9
$DIMLFAC
 40
1.0
  9
$DIMTOFL
 70
     0
  9
$DIMTVP
 40
0.0
  9
$DIMTIX
 70
     0
  9
$DIMSOXD
 70
     0
  9
$DIMSAH
 70
     0
  9
$DIMBLK1
  1

  9
$DIMBLK2
  1

  9
$DIMSTYLE
  2
Standard
  9
$DIMCLRD
 70
     0
  9
$DIMCLRE
 70
     0
  9
$DIMCLRT
 70
     0
  9
$DIMTFAC
 40
1.0
  9
$DIMGAP
 40
0.09
  9
$DIMJUST
 70
     0
  9
$DIMSD1
 70
     0
  9
$DIMSD2
 70
     0
  9
$DIMTOLJ
 70
     1
  9
$DIMTZIN
 70
     0
  9
$DIMALTZ
 70
     0
  9
$DIMALTTZ
 70
     0
  9
$DIMUPT
 70
     0
  9
$DIMDEC
 70
     4
  9
$DIMTDEC
 70
     4
  9
$DIMALTU
 70
     2
  9
$DIMALTTD
 70
     2
  9
$DIMTXSTY
  7
Standard
  9
$DIMAUNIT
 70
     0
  9
$DIMADEC
 70
     0
  9
$DIMALTRND
 40
0.0
  9
$DIMAZIN
 70
     0
  9
$DIMDSEP
 70
    46
  9
$DIMATFIT
 70
     3
  9
$DIMFRAC
 70
     0
  9
$DIMLDRBLK
  1

  9
$DIMLUNIT
 70
     2
  9
$DIMLWD
 70
    -2
  9
$DIMLWE
 70
    -2
  9
$DIMTMOVE
 70
     0
  9
$DIMFXL
 40
1.0
  9
$DIMFXLON
 70
     0
  9
$DIMJOGANG
 40
0.7853981633974483
  9
$DIMTFILL
 70
     0
  9
$DIMTFILLCLR
 70
     0
  9
$DIMARCSYM
 70
     0
  9
$DIMLTYPE
  6

  9
$DIMLTEX1
  6

  9
$DIMLTEX2
  6

  9
$DIMTXTDIRECTION
 70
     0
  9
$LUNITS
 70
     2
  9
$LUPREC
 70
     4
  9
$SKETCHINC
 40
0.1
  9
$FILLETRAD
 40
0.5
  9
$AUNITS
 70
     0
  9
$AUPREC
 70
     0
  9
$MENU
  1
.
  9
$ELEVATION
 40
0.0
  9
$PELEVATION
 40
0.0
  9
$THICKNESS
 40
0.0
  9
$LIMCHECK
 70
     0
  9
$CHAMFERA
 40
0.5
  9
$CHAMFERB
 40
0.5
  9
$CHAMFERC
 40
1.0
  9
$CHAMFERD
 40
0.0
  9
$SKPOLY
 70
     0
  9
$TDCREATE
 40
2456753.377152766
  9
$TDUCREATE
 40
2456753.377152778
  9
$TDUPDATE
 40
2456753.377152766
  9
$TDUUPDATE
 40
2456753.377152778
  9
$TDINDWG
 40
0.0000000116
  9
$TDUSRTIMER
 40
0.0000000116
  9
$USRTIMER
 70
     1
  9
$ANGBASE
 50
0.0
  9
$ANGDIR
 70
     0
  9
$PDMODE
 70
     0
  9
$PDSIZE
 40
0.0
  9
$PLINEWID
 40
0.0
  9
$SPLFRAME
 70
     0
  9
$SPLINETYPE
 70
     6
  9
$SPLINESEGS
 70
     8
  9
$HANDSEED
  5
F8
  9
$SURFTAB1
 70
     6
  9
$SURFTAB2
 70
     6
  9
$SURFTYPE
 70
     6
  9
$SURFU
 70
     6
  9
$SURFV
 70
     6
  9
$UCSBASE
  2

  9
$UCSNAME
  2

  9
$UCSORG
 10
0.0
 20
0.0
 30
0.0
  9
$UCSXDIR
 10
1.0
 20
0.0
 30
0.0
  9
$UCSYDIR
 10
0.0
 20
1.0
 30
0.0
  9
$UCSORTHOREF
  2

  9
$UCSORTHOVIEW
 70
     0
  9
$UCSORGTOP
 10
0.0
 20
0.0
 30
0.0
  9
$UCSORGBOTTOM
 10
0.0
 20
0.0
 30
0.0
  9
$UCSORGLEFT
 10
0.0
 20
0.0
 30
0.0
  9
$UCSORGRIGHT
 10
0.0
 20
0.0
 30
0.0
  9
$UCSORGFRONT
 10
0.0
 20
0.0
 30
0.0
  9
$UCSORGBACK
 10
0.0
 20
0.0
 30
0.0
  9
$PUCSBASE
  2

  9
$PUCSNAME
  2

  9
$PUCSORG
 10
0.0
 20
0.0
 30
0.0
  9
$PUCSXDIR
 10
1.0
 20
0.0
 30
0.0
  9
$PUCSYDIR
 10
0.0
 20
1.0
 30
0.0
  9
$PUCSORTHOREF
  2

  9
$PUCSORTHOVIEW
 70
     0
  9
$PUCSORGTOP
 10
0.0
 20
0.0
 30
0.0
  9
$PUCSORGBOTTOM
 10
0.0
 20
0.0
 30
0.0
  9
$PUCSORGLEFT
 10
0.0
 20
0.0
 30
0.0
  9
$PUCSORGRIGHT
 10
0.0
 20
0.0
 30
0.0
  9
$PUCSORGFRONT
 10
0.0
 20
0.0
 30
0.0
  9
$PUCSORGBACK
 10
0.0
 20
0.0
 30
0.0
  9
$USERI1
 70
     0
  9
$USERI2
 70
     0
  9
$USERI3
 70
     0
  9
$USERI4
 70
     0
  9
$USERI5
 70
     0
  9
$USERR1
 40
0.0
  9
$USERR2
 40
0.0
  9
$USERR3
 40
0.0
  9
$USERR4
 40
0.0
  9
$USERR5
 40
0.0
  9
$WORLDVIEW
 70
     1
  9
$SHADEDGE
 70
     3
  9
$SHADEDIF
 70
    70
  9
$TILEMODE
 70
     1
  9
$MAXACTVP
 70
    64
  9
$PINSBASE
 10
0.0
 20
0.0
 30
0.0
  9
$PLIMCHECK
 70
     0
  9
$PEXTMIN
 10
1.000000000000000E+20
 20
1.000000000000000E+20
 30
1.000000000000000E+20
  9
$PEXTMAX
 10
-1.000000000000000E+20
 20
-1.000000000000000E+20
 30
-1.000000000000000E+20
  9
$PLIMMIN
 10
0.0
 20
0.0
  9
$PLIMMAX
 10
12.0
 20
9.0
  9
$UNITMODE
 70
     0
  9
$VISRETAIN
 70
     1
  9
$PLINEGEN
 70
     0
  9
$PSLTSCALE
 70
     1
  9
$TREEDEPTH
 70
  3020
  9
$CMLSTYLE
  2
Standard
  9
$CMLJUST
 70
     0
  9
$CMLSCALE
 40
1.0
  9
$PROXYGRAPHICS
 70
     1
  9
$MEASUREMENT
 70
     0
  9
$CELWEIGHT
370
    -1
  9
$ENDCAPS
280
     0
  9
$JOINSTYLE
280
     0
  9
$LWDISPLAY
290
     1
  9
$INSUNITS
 70
     1
  9
$HYPERLINKBASE
  1

  9
$STYLESHEET
  1

  9
$XEDIT
290
     1
  9
$CEPSNTYPE
380
     0
  9
$PSTYLEMODE
290
     1
  9
$FINGERPRINTGUID
  2
{C2C480DA-9F7B-3578-B372-A5173911DAAE}
  9
$VERSIONGUID
  2
{FAEB1C32-E019-11D5-929B-00C0DF256EC4}
  9
$EXTNAMES
290
     1
  9
$PSVPSCALE
 40
0.0
  9
$OLESTARTUP
290
     0
  9
$SORTENTS
280
   127
  9
$INDEXCTL
280
     0
  9
$HIDETEXT
280
     1
  9
$XCLIPFRAME
280
     2
  9
$HALOGAP
280
     0
  9
$OBSCOLOR
 70
   257
  9
$OBSLTYPE
280
     0
  9
$INTERSECTIONDISPLAY
280
     0
  9
$INTERSECTIONCOLOR
 70
   257
  9
$DIMASSOC
280
     2
  9
$PROJECTNAME
  1

  9
$CAMERADISPLAY
290
     0
  9
$LENSLENGTH
 40
50.0
  9
$CAMERAHEIGHT
 40
0.0
  9
$STEPSPERSEC
 40
2.0
  9
$STEPSIZE
 40
6.0
  9
$3DDWFPREC
 40
2.0
  9
$PSOLWIDTH
 40
0.25
  9
$PSOLHEIGHT
 40
4.0
  9
$LOFTANG1
 40
1.570796326794897
  9
$LOFTANG2
 40
1.570796326794897
  9
$LOFTMAG1
 40
0.0
  9
$LOFTMAG2
 40
0.0
  9
$LOFTPARAM
 70
     7
  9
$LOFTNORMALS
280
     1
  9
$LATITUDE
 40
37.795
  9
$LONGITUDE
 40
-122.394
  9
$NORTHDIRECTION
 40
0.0
  9
$TIMEZONE
 70
 -8000
  9
$LIGHTGLYPHDISPLAY
280
     1
  9
$TILEMODELIGHTSYNCH
280
     1
  9
$CMATERIAL
347
3C
  9
$SOLIDHIST
280
     1
  9
$SHOWHIST
280
     1
  9
$DWFFRAME
280
     2
  9
$DGNFRAME
280
     2
  9
$REALWORLDSCALE
290
     1
  9
$INTERFERECOLOR
 62
   256
  9
$CSHADOW
280
     0
  9
$SHADOWPLANELOCATION
 40
0.0
  0
ENDSEC
  0
SECTION
  2
CLASSES
  0
CLASS
  1
ACDBDICTIONARYWDFLT
  2
AcDbDictionaryWithDefault
  3
ObjectDBX Classes
 90
        0
 91
        4
280
     0
281
     0
  0
CLASS
  1
VISUALSTYLE
  2
AcDbVisualStyle
  3
ObjectDBX Classes
 90
     4095
 91
        4
280
     0
281
     0
  0
CLASS
  1
MATERIAL
  2
AcDbMaterial
  3
ObjectDBX Classes
 90
     1153
 91
        4
280
     0
281
     0
  0
CLASS
  1
SUN
  2
AcDbSun
  3
SCENEOE
 90
     1024
 91
        4
280
     0
281
     0
  0
ENDSEC
  0
SECTION
  2
TABLES
  0
TABLE
  2
VPORT
  5
8
330
0
100
AcDbSymbolTable
 70
     1
  0
VPORT
  5
29
330
8
100
AcDbSymbolTableRecord
100
AcDbViewportTableRecord
  2
*Active
 70
     0
 10
0.0
 20
0.0
 11
1.0
 21
1.0
 12
0.0
 22
0.0
 13
0.0
 23
0.0
 14
0.5
 24
0.5
 15
0.5
 25
0.5
 16
0.0
 26
0.0
 36
1.0
 17
4.133888888888893
 27
-5.846458333333329
 37
0.0
 40
11.69291666666666
 41
0.7070757462376333
 42
50.0
 43
0.0
 44
0.0
 50
0.0
 51
0.0
 71
     0
 72
   100
 73
     1
 74
     3
 75
     0
 76
     0
 77
     0
 78
     0
281
     0
 65
     1
110
0.0
120
0.0
130
0.0
111
1.0
121
0.0
131
0.0
112
0.0
122
1.0
132
0.0
 79
     0
146
0.0
 60
     3
 61
     5
292
     1
282
     1
141
0.0
142
0.0
 63
   250
361
3F
  0
ENDTAB
  0
TABLE
  2
LTYPE
  5
5
330
0
100
AcDbSymbolTable
 70
     1
  0
LTYPE
  5
14
330
5
100
AcDbSymbolTableRecord
100
AcDbLinetypeTableRecord
  2
ByBlock
 70
     0
  3

 72
    65
 73
     0
 40
0.0
  0
LTYPE
  5
15
330
5
100
AcDbSymbolTableRecord
100
AcDbLinetypeTableRecord
  2
ByLayer
 70
     0
  3

 72
    65
 73
     0
 40
0.0
  0
LTYPE
  5
16
330
5
100
AcDbSymbolTableRecord
100
AcDbLinetypeTableRecord
  2
Continuous
 70
     0
  3
Solid line
 72
    65
 73
     0
 40
0.0
  0
ENDTAB
  0
TABLE
  2
LAYER
  5
2
330
0
100
AcDbSymbolTable
 70
     3
  0
LAYER
  5
10
330
2
100
AcDbSymbolTableRecord
100
AcDbLayerTableRecord
  2
0
 70
     0
 62
     7
  6
Continuous
370
    -3
390
F
347
3E
  0
LAYER
  5
40
330
2
100
AcDbSymbolTableRecord
100
AcDbLayerTableRecord
  2
Layer 1
 70
     0
 62
     7
  6
Continuous
370
    -3
390
F
347
3E
  0
LAYER
  5
41
330
2
100
AcDbSymbolTableRecord
100
AcDbLayerTableRecord
  2
Layer 2
 70
     0
 62
     7
  6
Continuous
370
    -3
390
F
347
3E
  0
ENDTAB
  0
TABLE
  2
STYLE
  5
3
330
0
100
AcDbSymbolTable
 70
     1
  0
STYLE
  5
11
330
3
100
AcDbSymbolTableRecord
100
AcDbTextStyleTableRecord
  2
Standard
 70
     0
 40
0.0
 41
1.0
 50
0.0
 71
     0
 42
0.2
  3
txt
  4

  0
ENDTAB
  0
TABLE
  2
VIEW
  5
6
330
0
100
AcDbSymbolTable
 70
     0
  0
ENDTAB
  0
TABLE
  2
UCS
  5
7
330
0
100
AcDbSymbolTable
 70
     0
  0
ENDTAB
  0
TABLE
  2
APPID
  5
9
330
0
100
AcDbSymbolTable
 70
     1
  0
APPID
  5
12
330
9
100
AcDbSymbolTableRecord
100
AcDbRegAppTableRecord
  2
ACAD
 70
     0
  0
ENDTAB
  0
TABLE
  2
DIMSTYLE
  5
A
330
0
100
AcDbSymbolTable
 70
     1
100
AcDbDimStyleTable
  0
DIMSTYLE
105
27
330
A
100
AcDbSymbolTableRecord
100
AcDbDimStyleTableRecord
  2
Standard
 70
     0
178
     0
340
11
  0
ENDTAB
  0
TABLE
  2
BLOCK_RECORD
  5
1
330
0
100
AcDbSymbolTable
 70
    14
  0
BLOCK_RECORD
  5
1F
330
1
100
AcDbSymbolTableRecord
100
AcDbBlockTableRecord
  2
*Model_Space
340
22
 70
     0
280
     1
281
     0
  0
BLOCK_RECORD
  5
1B
330
1
100
AcDbSymbolTableRecord
100
AcDbBlockTableRecord
  2
*Paper_Space
340
1E
 70
     0
280
     1
281
     0
  0
BLOCK_RECORD
  5
23
330
1
100
AcDbSymbolTableRecord
100
AcDbBlockTableRecord
  2
*Paper_Space0
340
26
 70
     0
280
     1
281
     0
  0
BLOCK_RECORD
  5
68
330
1
100
AcDbSymbolTableRecord
100
AcDbBlockTableRecord
  2
block 2
340
0
102
{BLKREFS
331
69
102
}
 70
     0
280
     1
281
     0
  0
BLOCK_RECORD
  5
75
330
1
100
AcDbSymbolTableRecord
100
AcDbBlockTableRecord
  2
block 3
340
0
102
{BLKREFS
331
76
102
}
 70
     0
280
     1
281
     0
  0
BLOCK_RECORD
  5
79
330
1
100
AcDbSymbolTableRecord
100
AcDbBlockTableRecord
  2
block 4
340
0
102
{BLKREFS
331
7A
102
}
 70
     0
280
     1
281
     0
  0
BLOCK_RECORD
  5
82
330
1
100
AcDbSymbolTableRecord
100
AcDbBlockTableRecord
  2
block 5
340
0
102
{BLKREFS
331
83
102
}
 70
     0
280
     1
281
     0
  0
BLOCK_RECORD
  5
87
330
1
100
AcDbSymbolTableRecord
100
AcDbBlockTableRecord
  2
block 6
340
0
102
{BLKREFS
331
88
102
}
 70
     0
280
     1
281
     0
  0
BLOCK_RECORD
  5
90
330
1
100
AcDbSymbolTableRecord
100
AcDbBlockTableRecord
  2
block 7
340
0
102
{BLKREFS
331
91
102
}
 70
     0
280
     1
281
     0
  0
BLOCK_RECORD
  5
95
330
1
100
AcDbSymbolTableRecord
100
AcDbBlockTableRecord
  2
block 8
340
0
102
{BLKREFS
331
96
102
}
 70
     0
280
     1
281
     0
  0
BLOCK_RECORD
  5
A0
330
1
100
AcDbSymbolTableRecord
100
AcDbBlockTableRecord
  2
block 9
340
0
102
{BLKREFS
331
A1
102
}
 70
     0
280
     1
281
     0
  0
BLOCK_RECORD
  5
B3
330
1
100
AcDbSymbolTableRecord
100
AcDbBlockTableRecord
  2
block 10
340
0
102
{BLKREFS
331
B4
102
}
 70
     0
280
     1
281
     0
  0
BLOCK_RECORD
  5
CA
330
1
100
AcDbSymbolTableRecord
100
AcDbBlockTableRecord
  2
block 11
340
0
102
{BLKREFS
331
CB
102
}
 70
     0
280
     1
281
     0
  0
BLOCK_RECORD
  5
DE
330
1
100
AcDbSymbolTableRecord
100
AcDbBlockTableRecord
  2
block 12
340
0
102
{BLKREFS
331
DF
102
}
 70
     0
280
     1
281
     0
  0
BLOCK_RECORD
  5
E3
330
1
100
AcDbSymbolTableRecord
100
AcDbBlockTableRecord
  2
block 13
340
0
102
{BLKREFS
331
E4
102
}
 70
     0
280
     1
281
     0
  0
BLOCK_RECORD
  5
EC
330
1
100
AcDbSymbolTableRecord
100
AcDbBlockTableRecord
  2
block 14
340
0
102
{BLKREFS
331
ED
102
}
 70
     0
280
     1
281
     0
  0
ENDTAB
  0
ENDSEC
  0
SECTION
  2
BLOCKS
  0
BLOCK
  5
20
330
1F
100
AcDbEntity
  8
0
100
AcDbBlockBegin
  2
*Model_Space
 70
     0
 10
0.0
 20
0.0
 30
0.0
  3
*Model_Space
  1

  0
ENDBLK
  5
21
330
1F
100
AcDbEntity
  8
0
100
AcDbBlockEnd
  0
BLOCK
  5
1C
330
1B
100
AcDbEntity
 67
     1
  8
0
100
AcDbBlockBegin
  2
*Paper_Space
 70
     0
 10
0.0
 20
0.0
 30
0.0
  3
*Paper_Space
  1

  0
ENDBLK
  5
1D
330
1B
100
AcDbEntity
 67
     1
  8
0
100
AcDbBlockEnd
  0
BLOCK
  5
24
330
23
100
AcDbEntity
  8
0
100
AcDbBlockBegin
  2
*Paper_Space0
 70
     0
 10
0.0
 20
0.0
 30
0.0
  3
*Paper_Space0
  1

  0
ENDBLK
  5
25
330
23
100
AcDbEntity
  8
0
100
AcDbBlockEnd
  0
BLOCK
  5
6A
330
68
100
AcDbEntity
  8
0
100
AcDbBlockBegin
  2
block 2
 70
     0
 10
0.0
 20
0.0
 30
0.0
  3
block 2
  1

  0
SPLINE
  5
6C
330
68
100
AcDbEntity
  8
Layer 2
370
     0
100
AcDbSpline
210
0.0
220
0.0
230
1.0
 70
    11
 71
     3
 72
    17
 73
    13
 74
     0
 42
0.0000000001
 43
0.0000000001
 12
1.0
 22
0.0
 32
0.0
 13
1.0
 23
0.0
 33
0.0
 40
0.0
 40
0.0
 40
0.0
 40
0.0
 40
1.0
 40
1.0
 40
1.0
 40
2.0
 40
2.0
 40
2.0
 40
3.0
 40
3.0
 40
3.0
 40
4.0
 40
4.0
 40
4.0
 40
4.0
 10
1.20007223833242
 20
-11.03831532762314
 30
0.0
 10
1.20007223833242
 20
-11.03099171651204
 30
0.0
 10
1.205154286702458
 20
-11.02553893873427
 30
0.0
 10
1.212236126914023
 20
-11.02553893873427
 30
0.0
 10
1.2193500156232
 20
-11.02553893873427
 30
0.0
 10
1.224222237722339
 20
-11.0307972720676
 30
0.0
 10
1.224222237722339
 20
-11.03831532762314
 30
0.0
 10
1.224222237722339
 20
-11.04560699428983
 30
0.0
 10
1.2193500156232
 20
-11.05112366095649
 30
0.0
 10
1.211848731146903
 20
-11.05112366095649
 30
0.0
 10
1.204944460431559
 20
-11.05112366095649
 30
0.0
 10
1.20007223833242
 20
-11.04560699428983
 30
0.0
 10
1.20007223833242
 20
-11.03831532762314
 30
0.0
  0
HATCH
  5
6D
330
68
100
AcDbEntity
  8
Layer 2
 62
   179
420
  2301728
100
AcDbHatch
 10
0.0
 20
0.0
 30
0.0
210
0.0
220
0.0
230
1.0
  2
SOLID
 70
     1
 71
     0
 91
        1
 92
        1
 93
        1
 72
     4
 94
        3
 73
     0
 74
     1
 95
       17
 96
       13
 40
0.0
 40
0.0
 40
0.0
 40
0.0
 40
1.0
 40
1.0
 40
1.0
 40
2.0
 40
2.0
 40
2.0
 40
3.0
 40
3.0
 40
3.0
 40
4.0
 40
4.0
 40
4.0
 40
4.0
 10
1.20007223833242
 20
-11.03831532762314
 10
1.20007223833242
 20
-11.03099171651204
 10
1.205154286702458
 20
-11.02553893873427
 10
1.212236126914023
 20
-11.02553893873427
 10
1.2193500156232
 20
-11.02553893873427
 10
1.224222237722339
 20
-11.0307972720676
 10
1.224222237722339
 20
-11.03831532762314
 10
1.224222237722339
 20
-11.04560699428983
 10
1.2193500156232
 20
-11.05112366095649
 10
1.211848731146903
 20
-11.05112366095649
 10
1.204944460431559
 20
-11.05112366095649
 10
1.20007223833242
 20
-11.04560699428983
 10
1.20007223833242
 20
-11.03831532762314
 97
        0
 97
        0
 75
     2
 76
     1
 98
        0
  0
SPLINE
  5
6E
330
68
100
AcDbEntity
  8
Layer 2
370
     0
100
AcDbSpline
210
0.0
220
0.0
230
1.0
 70
    11
 71
     3
 72
    35
 73
    31
 74
     0
 42
0.0000000001
 43
0.0000000001
 12
1.0
 22
0.0
 32
0.0
 13
1.0
 23
0.0
 33
0.0
 40
0.0
 40
0.0
 40
0.0
 40
0.0
 40
1.0
 40
1.0
 40
1.0
 40
2.0
 40
2.0
 40
2.0
 40
3.0
 40
3.0
 40
3.0
 40
4.0
 40
4.0
 40
4.0
 40
5.0
 40
5.0
 40
5.0
 40
6.0
 40
6.0
 40
6.0
 40
7.0
 40
7.0
 40
7.0
 40
8.0
 40
8.0
 40
8.0
 40
9.0
 40
9.0
 40
9.0
 40
10.0
 40
10.0
 40
10.0
 40
10.0
 10
1.316368068727873
 20
-11.04541393873428
 30
0.0
 10
1.311723731146913
 20
-11.0476708831787
 30
0.0
 10
1.301381957995343
 20
-11.05112366095649
 30
0.0
 10
1.288154286702466
 20
-11.05112366095649
 30
0.0
 10
1.258534736855533
 20
-11.05112366095649
 30
0.0
 10
1.239256959564752
 20
-11.03099171651204
 30
0.0
 10
1.239256959564752
 20
-11.0009861609565
 30
0.0
 10
1.239256959564752
 20
-10.9707208831787
 30
0.0
 10
1.259969459041511
 20
-10.94861949428981
 30
0.0
 10
1.292040291564667
 20
-10.94861949428981
 30
0.0
 10
1.302575013520759
 20
-10.94861949428981
 30
0.0
 10
1.311916679951436
 20
-10.95126671651203
 30
0.0
 10
1.316787513161721
 20
-10.95387921651205
 30
0.0
 10
1.316787513161721
 20
-10.95387921651205
 30
0.0
 10
1.312722235486641
 20
-10.96749449428982
 30
0.0
 10
1.312722235486641
 20
-10.96749449428982
 30
0.0
 10
1.308480568927128
 20
-10.96526810540094
 30
0.0
 10
1.301769457985554
 20
-10.96285004984538
 30
0.0
 10
1.292040291564667
 20
-10.96285004984538
 30
0.0
 10
1.269505569911719
 20
-10.96285004984538
 30
0.0
 10
1.257341681330116
 20
-10.9796583831787
 30
0.0
 10
1.257341681330116
 20
-10.99995421651205
 30
0.0
 10
1.257341681330116
 20
-11.02266810540093
 30
0.0
 10
1.271956958738681
 20
-11.03670282762315
 30
0.0
 10
1.291412513802748
 20
-11.03670282762315
 30
0.0
 10
1.301575013546022
 20
-11.03670282762315
 30
0.0
 10
1.308270846710204
 20
-11.03425004984537
 30
0.0
 10
1.313319457693776
 20
-11.03205560540093
 30
0.0
 10
1.313319457693776
 20
-11.03205560540093
 30
0.0
 10
1.316368068727873
 20
-11.04541393873428
 30
0.0
 10
1.316368068727873
 20
-11.04541393873428
 30
0.0
  0
HATCH
  5
6F
330
68
100
AcDbEntity
  8
Layer 2
 62
   179
420
  2301728
100
AcDbHatch
 10
0.0
 20
0.0
 30
0.0
210
0.0
220
0.0
230
1.0
  2
SOLID
 70
     1
 71
     0
 91
        1
 92
        1
 93
        1
 72
     4
 94
        3
 73
     0
 74
     1
 95
       35
 96
       31
 40
0.0
 40
0.0
 40
0.0
 40
0.0
 40
1.0
 40
1.0
 40
1.0
 40
2.0
 40
2.0
 40
2.0
 40
3.0
 40
3.0
 40
3.0
 40
4.0
 40
4.0
 40
4.0
 40
5.0
 40
5.0
 40
5.0
 40
6.0
 40
6.0
 40
6.0
 40
7.0
 40
7.0
 40
7.0
 40
8.0
 40
8.0
 40
8.0
 40
9.0
 40
9.0
 40
9.0
 40
10.0
 40
10.0
 40
10.0
 40
10.0
 10
1.316368068727873
 20
-11.04541393873428
 10
1.311723731146913
 20
-11.0476708831787
 10
1.301381957995343
 20
-11.05112366095649
 10
1.288154286702466
 20
-11.05112366095649
 10
1.258534736855533
 20
-11.05112366095649
 10
1.239256959564752
 20
-11.03099171651204
 10
1.239256959564752
 20
-11.0009861609565
 10
1.239256959564752
 20
-10.9707208831787
 10
1.259969459041511
 20
-10.94861949428981
 10
1.292040291564667
 20
-10.94861949428981
 10
1.302575013520759
 20
-10.94861949428981
 10
1.311916679951436
 20
-10.95126671651203
 10
1.316787513161721
 20
-10.95387921651205
 10
1.316787513161721
 20
-10.95387921651205
 10
1.312722235486641
 20
-10.96749449428982
 10
1.312722235486641
 20
-10.96749449428982
 10
1.308480568927128
 20
-10.96526810540094
 10
1.301769457985554
 20
-10.96285004984538
 10
1.292040291564667
 20
-10.96285004984538
 10
1.269505569911719
 20
-10.96285004984538
 10
1.257341681330116
 20
-10.9796583831787
 10
1.257341681330116
 20
-10.99995421651205
 10
1.257341681330116
 20
-11.02266810540093
 10
1.271956958738681
 20
-11.03670282762315
 10
1.291412513802748
 20
-11.03670282762315
 10
1.301575013546022
 20
-11.03670282762315
 10
1.308270846710204
 20
-11.03425004984537
 10
1.313319457693776
 20
-11.03205560540093
 10
1.313319457693776
 20
-11.03205560540093
 10
1.316368068727873
 20
-11.04541393873428
 10
1.316368068727873
 20
-11.04541393873428
 97
        0
 97
        0
 75
     2
 76
     1
 98
        0
  0
SPLINE
  5
70
330
68
100
AcDbEntity
  8
Layer 2
370
     0
100
AcDbSpline
210
0.0
220
0.0
230
1.0
 70
    11
 71
     3
 72
    17
 73
    13
 74
     0
 42
0.0000000001
 43
0.0000000001
 12
1.0
 22
0.0
 32
0.0
 13
1.0
 23
0.0
 33
0.0
 40
0.0
 40
0.0
 40
0.0
 40
0.0
 40
1.0
 40
1.0
 40
1.0
 40
2.0
 40
2.0
 40
2.0
 40
3.0
 40
3.0
 40
3.0
 40
4.0
 40
4.0
 40
4.0
 40
4.0
 10
1.425002788205751
 20
-10.99892088317872
 30
0.0
 10
1.425002788205751
 20
-11.03525004984537
 30
0.0
 10
1.399611122180532
 20
-11.05112366095649
 30
0.0
 10
1.376088900552531
 20
-11.05112366095649
 30
0.0
 10
1.34971390121882
 20
-11.05112366095649
 30
0.0
 10
1.328998623964354
 20
-11.03160421651205
 30
0.0
 10
1.328998623964354
 20
-11.00056671651204
 30
0.0
 10
1.328998623964354
 20
-10.96788199428983
 30
0.0
 10
1.350713901193558
 20
-10.94861949428981
 30
0.0
 10
1.377719456066895
 20
-10.94861949428981
 30
0.0
 10
1.405918175591372
 20
-10.94861949428981
 30
0.0
 10
1.425002788205751
 20
-10.96910838317871
 30
0.0
 10
1.425002788205751
 20
-10.99892088317872
 30
0.0
  0
SPLINE
  5
71
330
68
100
AcDbEntity
  8
Layer 2
370
     0
100
AcDbSpline
210
0.0
220
0.0
230
1.0
 70
    11
 71
     3
 72
    17
 73
    13
 74
     0
 42
0.0000000001
 43
0.0000000001
 12
1.0
 22
0.0
 32
0.0
 13
1.0
 23
0.0
 33
0.0
 40
0.0
 40
0.0
 40
0.0
 40
0.0
 40
1.0
 40
1.0
 40
1.0
 40
2.0
 40
2.0
 40
2.0
 40
3.0
 40
3.0
 40
3.0
 40
4.0
 40
4.0
 40
4.0
 40
4.0
 10
1.34727779016925
 20
-10.99995421651205
 30
0.0
 10
1.34727779016925
 20
-11.02147366095649
 30
0.0
 10
1.359441678750853
 20
-11.03770143873428
 30
0.0
 10
1.376897233865444
 20
-11.03770143873428
 30
0.0
 10
1.393932064480244
 20
-11.03770143873428
 30
0.0
 10
1.406740288667101
 20
-11.02170004984537
 30
0.0
 10
1.406740288667101
 20
-10.99956532762316
 30
0.0
 10
1.406740288667101
 20
-10.98291671651203
 30
0.0
 10
1.398416677766262
 20
-10.96201116095648
 30
0.0
 10
1.377316678299293
 20
-10.96201116095648
 30
0.0
 10
1.356425012160394
 20
-10.96201116095648
 30
0.0
 10
1.34727779016925
 20
-10.98146532762315
 30
0.0
 10
1.34727779016925
 20
-10.99995421651205
 30
0.0
  0
HATCH
  5
72
330
68
100
AcDbEntity
  8
Layer 2
 62
   179
420
  2301728
100
AcDbHatch
 10
0.0
 20
0.0
 30
0.0
210
0.0
220
0.0
230
1.0
  2
SOLID
 70
     1
 71
     0
 91
        2
 92
        1
 93
        1
 72
     4
 94
        3
 73
     0
 74
     1
 95
       17
 96
       13
 40
0.0
 40
0.0
 40
0.0
 40
0.0
 40
1.0
 40
1.0
 40
1.0
 40
2.0
 40
2.0
 40
2.0
 40
3.0
 40
3.0
 40
3.0
 40
4.0
 40
4.0
 40
4.0
 40
4.0
 10
1.425002788205751
 20
-10.99892088317872
 10
1.425002788205751
 20
-11.03525004984537
 10
1.399611122180532
 20
-11.05112366095649
 10
1.376088900552531
 20
-11.05112366095649
 10
1.34971390121882
 20
-11.05112366095649
 10
1.328998623964354
 20
-11.03160421651205
 10
1.328998623964354
 20
-11.00056671651204
 10
1.328998623964354
 20
-10.96788199428983
 10
1.350713901193558
 20
-10.94861949428981
 10
1.377719456066895
 20
-10.94861949428981
 10
1.405918175591372
 20
-10.94861949428981
 10
1.425002788205751
 20
-10.96910838317871
 10
1.425002788205751
 20
-10.99892088317872
 97
        0
 97
        0
 92
        1
 93
        1
 72
     4
 94
        3
 73
     0
 74
     1
 95
       17
 96
       13
 40
0.0
 40
0.0
 40
0.0
 40
0.0
 40
1.0
 40
1.0
 40
1.0
 40
2.0
 40
2.0
 40
2.0
 40
3.0
 40
3.0
 40
3.0
 40
4.0
 40
4.0
 40
4.0
 40
4.0
 10
1.34727779016925
 20
-10.99995421651205
 10
1.34727779016925
 20
-11.02147366095649
 10
1.359441678750853
 20
-11.03770143873428
 10
1.376897233865444
 20
-11.03770143873428
 10
1.393932064480244
 20
-11.03770143873428
 10
1.406740288667101
 20
-11.02170004984537
 10
1.406740288667101
 20
-10.99956532762316
 10
1.406740288667101
 20
-10.98291671651203
 10
1.398416677766262
 20
-10.96201116095648
 10
1.377316678299293
 20
-10.96201116095648
 10
1.356425012160394
 20
-10.96201116095648
 10
1.34727779016925
 20
-10.98146532762315
 10
1.34727779016925
 20
-10.99995421651205
 97
        0
 97
        0
 75
     2
 76
     1
 98
        0
  0
SPLINE
  5
73
330
68
100
AcDbEntity
  8
Layer 2
370
     0
100
AcDbSpline
210
0.0
220
0.0
230
1.0
 70
    11
 71
     3
 72
    80
 73
    76
 74
     0
 42
0.0000000001
 43
0.0000000001
 12
1.0
 22
0.0
 32
0.0
 13
1.0
 23
0.0
 33
0.0
 40
0.0
 40
0.0
 40
0.0
 40
0.0
 40
1.0
 40
1.0
 40
1.0
 40
2.0
 40
2.0
 40
2.0
 40
3.0
 40
3.0
 40
3.0
 40
4.0
 40
4.0
 40
4.0
 40
5.0
 40
5.0
 40
5.0
 40
6.0
 40
6.0
 40
6.0
 40
7.0
 40
7.0
 40
7.0
 40
8.0
 40
8.0
 40
8.0
 40
9.0
 40
9.0
 40
9.0
 40
10.0
 40
10.0
 40
10.0
 40
11.0
 40
11.0
 40
11.0
 40
12.0
 40
12.0
 40
12.0
 40
13.0
 40
13.0
 40
13.0
 40
14.0
 40
14.0
 40
14.0
 40
15.0
 40
15.0
 40
15.0
 40
16.0
 40
16.0
 40
16.0
 40
17.0
 40
17.0
 40
17.0
 40
18.0
 40
18.0
 40
18.0
 40
19.0
 40
19.0
 40
19.0
 40
20.0
 40
20.0
 40
20.0
 40
21.0
 40
21.0
 40
21.0
 40
22.0
 40
22.0
 40
22.0
 40
23.0
 40
23.0
 40
23.0
 40
24.0
 40
24.0
 40
24.0
 40
25.0
 40
25.0
 40
25.0
 40
25.0
 10
1.447572232080044
 20
-10.97724032762315
 30
0.0
 10
1.447572232080044
 20
-10.96688199428983
 30
0.0
 10
1.447152787646195
 20
-10.95875143873428
 30
0.0
 10
1.446748620989739
 20
-10.95068477206759
 30
0.0
 10
1.446748620989739
 20
-10.95068477206759
 30
0.0
 10
1.462381953928141
 20
-10.95068477206759
 30
0.0
 10
1.462381953928141
 20
-10.95068477206759
 30
0.0
 10
1.462381953928141
 20
-10.95068477206759
 30
0.0
 10
1.463187509463346
 20
-10.96668893873428
 30
0.0
 10
1.463187509463346
 20
-10.96668893873428
 30
0.0
 10
1.463187509463346
 20
-10.96668893873428
 30
0.0
 10
1.463800009447873
 20
-10.96668893873428
 30
0.0
 10
1.463800009447873
 20
-10.96668893873428
 30
0.0
 10
1.46928473153154
 20
-10.95733199428981
 30
0.0
 10
1.478416675745292
 20
-10.94861949428981
 30
0.0
 10
1.494838897552654
 20
-10.94861949428981
 30
0.0
 10
1.508034730552632
 20
-10.94861949428981
 30
0.0
 10
1.51819861918476
 20
-10.95671949428983
 30
0.0
 10
1.522440285744273
 20
-10.96833477206759
 30
0.0
 10
1.522440285744273
 20
-10.96833477206759
 30
0.0
 10
1.522859730178121
 20
-10.96833477206759
 30
0.0
 10
1.522859730178121
 20
-10.96833477206759
 30
0.0
 10
1.525909730101072
 20
-10.9626236609565
 30
0.0
 10
1.529941674443661
 20
-10.95855838317872
 30
0.0
 10
1.534023618784987
 20
-10.95549171651204
 30
0.0
 10
1.539897229747718
 20
-10.95107366095648
 30
0.0
 10
1.546204174032836
 20
-10.94861949428981
 30
0.0
 10
1.555527784908413
 20
-10.94861949428981
 30
0.0
 10
1.568708340130999
 20
-10.94861949428981
 30
0.0
 10
1.58798611742178
 20
-10.95713893873426
 30
0.0
 10
1.58798611742178
 20
-10.99124171651205
 30
0.0
 10
1.58798611742178
 20
-10.99124171651205
 30
0.0
 10
1.58798611742178
 20
-11.04886532762316
 30
0.0
 10
1.58798611742178
 20
-11.04886532762316
 30
0.0
 10
1.58798611742178
 20
-11.04886532762316
 30
0.0
 10
1.570547228973434
 20
-11.04886532762316
 30
0.0
 10
1.570547228973434
 20
-11.04886532762316
 30
0.0
 10
1.570547228973434
 20
-11.04886532762316
 30
0.0
 10
1.570547228973434
 20
-10.99346810540093
 30
0.0
 10
1.570547228973434
 20
-10.99346810540093
 30
0.0
 10
1.570547228973434
 20
-10.97440004984537
 30
0.0
 10
1.563448618041649
 20
-10.96323616095649
 30
0.0
 10
1.549252785066932
 20
-10.96323616095649
 30
0.0
 10
1.538895840884126
 20
-10.96323616095649
 30
0.0
 10
1.531168175591372
 20
-10.9707208831787
 30
0.0
 10
1.52792500782794
 20
-10.97927088317872
 30
0.0
 10
1.527119452292734
 20
-10.98191810540094
 30
0.0
 10
1.526505563419353
 20
-10.98491810540094
 30
0.0
 10
1.526505563419353
 20
-10.98817643873427
 30
0.0
 10
1.526505563419353
 20
-10.98817643873427
 30
0.0
 10
1.526505563419353
 20
-11.04886532762316
 30
0.0
 10
1.526505563419353
 20
-11.04886532762316
 30
0.0
 10
1.526505563419353
 20
-11.04886532762316
 30
0.0
 10
1.509051397193616
 20
-11.04886532762316
 30
0.0
 10
1.509051397193616
 20
-11.04886532762316
 30
0.0
 10
1.509051397193616
 20
-11.04886532762316
 30
0.0
 10
1.509051397193616
 20
-10.99001532762317
 30
0.0
 10
1.509051397193616
 20
-10.99001532762317
 30
0.0
 10
1.509051397193616
 20
-10.97440004984537
 30
0.0
 10
1.502147230701363
 20
-10.96323616095649
 30
0.0
 10
1.488547231044928
 20
-10.96323616095649
 30
0.0
 10
1.477594453543841
 20
-10.96323616095649
 30
0.0
 10
1.46928473153154
 20
-10.97217366095649
 30
0.0
 10
1.466430564936976
 20
-10.98107921651204
 30
0.0
 10
1.465429176073384
 20
-10.98353060540093
 30
0.0
 10
1.465009731639535
 20
-10.98675699428981
 30
0.0
 10
1.465009731639535
 20
-10.98982227206761
 30
0.0
 10
1.465009731639535
 20
-10.98982227206761
 30
0.0
 10
1.465009731639535
 20
-11.04886532762316
 30
0.0
 10
1.465009731639535
 20
-11.04886532762316
 30
0.0
 10
1.465009731639535
 20
-11.04886532762316
 30
0.0
 10
1.447572232080044
 20
-11.04886532762316
 30
0.0
 10
1.447572232080044
 20
-11.04886532762316
 30
0.0
 10
1.447572232080044
 20
-11.04886532762316
 30
0.0
 10
1.447572232080044
 20
-10.97724032762315
 30
0.0
 10
1.447572232080044
 20
-10.97724032762315
 30
0.0
  0
HATCH
  5
74
330
68
100
AcDbEntity
  8
Layer 2
 62
   179
420
  2301728
100
AcDbHatch
 10
0.0
 20
0.0
 30
0.0
210
0.0
220
0.0
230
1.0
  2
SOLID
 70
     1
 71
     0
 91
        1
 92
        1
 93
        1
 72
     4
 94
        3
 73
     0
 74
     1
 95
       80
 96
       76
 40
0.0
 40
0.0
 40
0.0
 40
0.0
 40
1.0
 40
1.0
 40
1.0
 40
2.0
 40
2.0
 40
2.0
 40
3.0
 40
3.0
 40
3.0
 40
4.0
 40
4.0
 40
4.0
 40
5.0
 40
5.0
 40
5.0
 40
6.0
 40
6.0
 40
6.0
 40
7.0
 40
7.0
 40
7.0
 40
8.0
 40
8.0
 40
8.0
 40
9.0
 40
9.0
 40
9.0
 40
10.0
 40
10.0
 40
10.0
 40
11.0
 40
11.0
 40
11.0
 40
12.0
 40
12.0
 40
12.0
 40
13.0
 40
13.0
 40
13.0
 40
14.0
 40
14.0
 40
14.0
 40
15.0
 40
15.0
 40
15.0
 40
16.0
 40
16.0
 40
16.0
 40
17.0
 40
17.0
 40
17.0
 40
18.0
 40
18.0
 40
18.0
 40
19.0
 40
19.0
 40
19.0
 40
20.0
 40
20.0
 40
20.0
 40
21.0
 40
21.0
 40
21.0
 40
22.0
 40
22.0
 40
22.0
 40
23.0
 40
23.0
 40
23.0
 40
24.0
 40
24.0
 40
24.0
 40
25.0
 40
25.0
 40
25.0
 40
25.0
 10
1.447572232080044
 20
-10.97724032762315
 10
1.447572232080044
 20
-10.96688199428983
 10
1.447152787646195
 20
-10.95875143873428
 10
1.446748620989739
 20
-10.95068477206759
 10
1.446748620989739
 20
-10.95068477206759
 10
1.462381953928141
 20
-10.95068477206759
 10
1.462381953928141
 20
-10.95068477206759
 10
1.462381953928141
 20
-10.95068477206759
 10
1.463187509463346
 20
-10.96668893873428
 10
1.463187509463346
 20
-10.96668893873428
 10
1.463187509463346
 20
-10.96668893873428
 10
1.463800009447873
 20
-10.96668893873428
 10
1.463800009447873
 20
-10.96668893873428
 10
1.46928473153154
 20
-10.95733199428981
 10
1.478416675745292
 20
-10.94861949428981
 10
1.494838897552654
 20
-10.94861949428981
 10
1.508034730552632
 20
-10.94861949428981
 10
1.51819861918476
 20
-10.95671949428983
 10
1.522440285744273
 20
-10.96833477206759
 10
1.522440285744273
 20
-10.96833477206759
 10
1.522859730178121
 20
-10.96833477206759
 10
1.522859730178121
 20
-10.96833477206759
 10
1.525909730101072
 20
-10.9626236609565
 10
1.529941674443661
 20
-10.95855838317872
 10
1.534023618784987
 20
-10.95549171651204
 10
1.539897229747718
 20
-10.95107366095648
 10
1.546204174032836
 20
-10.94861949428981
 10
1.555527784908413
 20
-10.94861949428981
 10
1.568708340130999
 20
-10.94861949428981
 10
1.58798611742178
 20
-10.95713893873426
 10
1.58798611742178
 20
-10.99124171651205
 10
1.58798611742178
 20
-10.99124171651205
 10
1.58798611742178
 20
-11.04886532762316
 10
1.58798611742178
 20
-11.04886532762316
 10
1.58798611742178
 20
-11.04886532762316
 10
1.570547228973434
 20
-11.04886532762316
 10
1.570547228973434
 20
-11.04886532762316
 10
1.570547228973434
 20
-11.04886532762316
 10
1.570547228973434
 20
-10.99346810540093
 10
1.570547228973434
 20
-10.99346810540093
 10
1.570547228973434
 20
-10.97440004984537
 10
1.563448618041649
 20
-10.96323616095649
 10
1.549252785066932
 20
-10.96323616095649
 10
1.538895840884126
 20
-10.96323616095649
 10
1.531168175591372
 20
-10.9707208831787
 10
1.52792500782794
 20
-10.97927088317872
 10
1.527119452292734
 20
-10.98191810540094
 10
1.526505563419353
 20
-10.98491810540094
 10
1.526505563419353
 20
-10.98817643873427
 10
1.526505563419353
 20
-10.98817643873427
 10
1.526505563419353
 20
-11.04886532762316
 10
1.526505563419353
 20
-11.04886532762316
 10
1.526505563419353
 20
-11.04886532762316
 10
1.509051397193616
 20
-11.04886532762316
 10
1.509051397193616
 20
-11.04886532762316
 10
1.509051397193616
 20
-11.04886532762316
 10
1.509051397193616
 20
-10.99001532762317
 10
1.509051397193616
 20
-10.99001532762317
 10
1.509051397193616
 20
-10.97440004984537
 10
1.502147230701363
 20
-10.96323616095649
 10
1.488547231044928
 20
-10.96323616095649
 10
1.477594453543841
 20
-10.96323616095649
 10
1.46928473153154
 20
-10.97217366095649
 10
1.466430564936976
 20
-10.98107921651204
 10
1.465429176073384
 20
-10.98353060540093
 10
1.465009731639535
 20
-10.98675699428981
 10
1.465009731639535
 20
-10.98982227206761
 10
1.465009731639535
 20
-10.98982227206761
 10
1.465009731639535
 20
-11.04886532762316
 10
1.465009731639535
 20
-11.04886532762316
 10
1.465009731639535
 20
-11.04886532762316
 10
1.447572232080044
 20
-11.04886532762316
 10
1.447572232080044
 20
-11.04886532762316
 10
1.447572232080044
 20
-11.04886532762316
 10
1.447572232080044
 20
-10.97724032762315
 10
1.447572232080044
 20
-10.97724032762315
 97
        0
 97
        0
 75
     2
 76
     1
 98
        0
  0
ENDBLK
  5
6B
330
68
100
AcDbEntity
  8
0
100
AcDbBlockEnd
  0
BLOCK
  5
77
330
75
100
AcDbEntity
  8
0
100
AcDbBlockBegin
  2
block 3
 70
     0
 10
0.0
 20
0.0
 30
0.0
  3
block 3
  1

  0
INSERT
  5
7A
330
75
100
AcDbEntity
  8
Layer 2
100
AcDbBlockReference
  2
block 4
 10
0.0
 20
0.0
 30
0.0
  0
ENDBLK
  5
78
330
75
100
AcDbEntity
  8
0
100
AcDbBlockEnd
  0
BLOCK
  5
7B
330
79
100
AcDbEntity
  8
0
100
AcDbBlockBegin
  2
block 4
 70
     0
 10
0.0
 20
0.0
 30
0.0
  3
block 4
  1

  0
SPLINE
  5
7D
330
79
100
AcDbEntity
  8
Layer 2
370
     0
100
AcDbSpline
210
0.0
220
0.0
230
1.0
 70
    11
 71
     3
 72
    23
 73
    19
 74
     0
 42
0.0000000001
 43
0.0000000001
 12
1.0
 22
0.0
 32
0.0
 13
1.0
 23
0.0
 33
0.0
 40
0.0
 40
0.0
 40
0.0
 40
0.0
 40
1.0
 40
1.0
 40
1.0
 40
2.0
 40
2.0
 40
2.0
 40
3.0
 40
3.0
 40
3.0
 40
4.0
 40
4.0
 40
4.0
 40
5.0
 40
5.0
 40
5.0
 40
6.0
 40
6.0
 40
6.0
 40
6.0
 10
0.5652000321484189
 20
-10.23121532762315
 30
0.0
 10
0.5652000321484189
 20
-10.23121532762315
 30
0.0
 10
1.561605562532653
 20
-10.23297921651205
 30
0.0
 10
1.561605562532653
 20
-10.23297921651205
 30
0.0
 10
1.575548617735977
 20
-10.23297921651205
 30
0.0
 10
1.58798611742178
 20
-10.23091671651203
 30
0.0
 10
1.58798611742178
 20
-10.26075699428982
 30
0.0
 10
1.58798611742178
 20
-10.26075699428982
 30
0.0
 10
1.586765397813577
 20
-10.58889449428981
 30
0.0
 10
1.586765397813577
 20
-10.58889449428981
 30
0.0
 10
1.586765397813577
 20
-10.58889449428981
 30
0.0
 10
0.5400528105614689
 20
-10.58889449428981
 30
0.0
 10
0.5400528105614689
 20
-10.58889449428981
 30
0.0
 10
0.5400528105614689
 20
-10.58889449428981
 30
0.0
 10
0.5400528105614689
 20
-10.25953616095649
 30
0.0
 10
0.5400528105614689
 20
-10.25953616095649
 30
0.0
 10
0.5400528105614689
 20
-10.24481949428981
 30
0.0
 10
0.5414778105254704
 20
-10.23121532762315
 30
0.0
 10
0.5652000321484189
 20
-10.23121532762315
 30
0.0
  0
HATCH
  5
7E
330
79
100
AcDbEntity
  8
Layer 2
 62
   253
420
 10398115
100
AcDbHatch
 10
0.0
 20
0.0
 30
0.0
210
0.0
220
0.0
230
1.0
  2
SOLID
 70
     1
 71
     0
 91
        1
 92
        1
 93
        1
 72
     4
 94
        3
 73
     0
 74
     1
 95
       23
 96
       19
 40
0.0
 40
0.0
 40
0.0
 40
0.0
 40
1.0
 40
1.0
 40
1.0
 40
2.0
 40
2.0
 40
2.0
 40
3.0
 40
3.0
 40
3.0
 40
4.0
 40
4.0
 40
4.0
 40
5.0
 40
5.0
 40
5.0
 40
6.0
 40
6.0
 40
6.0
 40
6.0
 10
0.5652000321484189
 20
-10.23121532762315
 10
0.5652000321484189
 20
-10.23121532762315
 10
1.561605562532653
 20
-10.23297921651205
 10
1.561605562532653
 20
-10.23297921651205
 10
1.575548617735977
 20
-10.23297921651205
 10
1.58798611742178
 20
-10.23091671651203
 10
1.58798611742178
 20
-10.26075699428982
 10
1.58798611742178
 20
-10.26075699428982
 10
1.586765397813577
 20
-10.58889449428981
 10
1.586765397813577
 20
-10.58889449428981
 10
1.586765397813577
 20
-10.58889449428981
 10
0.5400528105614689
 20
-10.58889449428981
 10
0.5400528105614689
 20
-10.58889449428981
 10
0.5400528105614689
 20
-10.58889449428981
 10
0.5400528105614689
 20
-10.25953616095649
 10
0.5400528105614689
 20
-10.25953616095649
 10
0.5400528105614689
 20
-10.24481949428981
 10
0.5414778105254704
 20
-10.23121532762315
 10
0.5652000321484189
 20
-10.23121532762315
 97
        0
 97
        0
 75
     2
 76
     1
 98
        0
  0
SPLINE
  5
7F
330
79
100
AcDbEntity
  8
Layer 2
370
     0
100
AcDbSpline
210
0.0
220
0.0
230
1.0
 70
    11
 71
     3
 72
    29
 73
    25
 74
     0
 42
0.0000000001
 43
0.0000000001
 12
1.0
 22
0.0
 32
0.0
 13
1.0
 23
0.0
 33
0.0
 40
0.0
 40
0.0
 40
0.0
 40
0.0
 40
1.0
 40
1.0
 40
1.0
 40
2.0
 40
2.0
 40
2.0
 40
3.0
 40
3.0
 40
3.0
 40
4.0
 40
4.0
 40
4.0
 40
5.0
 40
5.0
 40
5.0
 40
6.0
 40
6.0
 40
6.0
 40
7.0
 40
7.0
 40
7.0
 40
8.0
 40
8.0
 40
8.0
 40
8.0
 10
1.570340284534217
 20
-10.22722782762316
 30
0.0
 10
1.570340284534217
 20
-10.22722782762316
 30
0.0
 10
0.5549861435175545
 20
-10.22722782762316
 30
0.0
 10
0.5549861435175545
 20
-10.22722782762316
 30
0.0
 10
0.5441083660145725
 20
-10.22722782762316
 30
0.0
 10
0.5352376200358119
 20
-10.23608477206759
 30
0.0
 10
0.5352376200358119
 20
-10.24697643873426
 30
0.0
 10
0.5352376200358119
 20
-10.24697643873426
 30
0.0
 10
0.5352376200358119
 20
-10.59197366095648
 30
0.0
 10
0.5352376200358119
 20
-10.59197366095648
 30
0.0
 10
0.5352376200358119
 20
-10.59442921651205
 30
0.0
 10
0.5372319772993958
 20
-10.59642227206761
 30
0.0
 10
0.539700032792603
 20
-10.59642227206761
 30
0.0
 10
0.539700032792603
 20
-10.59642227206761
 30
0.0
 10
1.585612620035818
 20
-10.59642227206761
 30
0.0
 10
1.585612620035818
 20
-10.59642227206761
 30
0.0
 10
1.588080561863838
 20
-10.59642227206761
 30
0.0
 10
1.590088895146437
 20
-10.59442921651205
 30
0.0
 10
1.590088895146437
 20
-10.59197366095648
 30
0.0
 10
1.590088895146437
 20
-10.59197366095648
 30
0.0
 10
1.590088895146437
 20
-10.24697643873426
 30
0.0
 10
1.590088895146437
 20
-10.24697643873426
 30
0.0
 10
1.590088895146437
 20
-10.23608477206759
 30
0.0
 10
1.581218062037199
 20
-10.22722782762316
 30
0.0
 10
1.570340284534217
 20
-10.22722782762316
 30
0.0
  0
SPLINE
  5
80
330
79
100
AcDbEntity
  8
Layer 2
370
     0
100
AcDbSpline
210
0.0
220
0.0
230
1.0
 70
    11
 71
     3
 72
    32
 73
    28
 74
     0
 42
0.0000000001
 43
0.0000000001
 12
1.0
 22
0.0
 32
0.0
 13
1.0
 23
0.0
 33
0.0
 40
0.0
 40
0.0
 40
0.0
 40
0.0
 40
1.0
 40
1.0
 40
1.0
 40
2.0
 40
2.0
 40
2.0
 40
3.0
 40
3.0
 40
3.0
 40
4.0
 40
4.0
 40
4.0
 40
5.0
 40
5.0
 40
5.0
 40
6.0
 40
6.0
 40
6.0
 40
7.0
 40
7.0
 40
7.0
 40
8.0
 40
8.0
 40
8.0
 40
9.0
 40
9.0
 40
9.0
 40
9.0
 10
0.5549861435175545
 20
-10.23615282762315
 30
0.0
 10
0.5549861435175545
 20
-10.23615282762315
 30
0.0
 10
1.570340284534217
 20
-10.23615282762315
 30
0.0
 10
1.570340284534217
 20
-10.23615282762315
 30
0.0
 10
1.576308339939007
 20
-10.23615282762315
 30
0.0
 10
1.581150006483363
 20
-10.24100838317872
 30
0.0
 10
1.581150006483363
 20
-10.24697643873426
 30
0.0
 10
1.581150006483363
 20
-10.24697643873426
 30
0.0
 10
1.581150006483363
 20
-10.38583754984537
 30
0.0
 10
1.581150006483363
 20
-10.4862611609565
 30
0.0
 10
1.581150006483363
 20
-10.4862611609565
 30
0.0
 10
0.8554555803715023
 20
-10.4862611609565
 30
0.0
 10
0.8554555803715023
 20
-10.4862611609565
 30
0.0
 10
0.8288583588211824
 20
-10.53434310540092
 30
0.0
 10
0.7776014156715974
 20
-10.56700421651203
 30
0.0
 10
0.7187916949350336
 20
-10.56700421651203
 30
0.0
 10
0.6599666964210781
 20
-10.56700421651203
 30
0.0
 10
0.6087237311469127
 20
-10.5343708831787
 30
0.0
 10
0.5821403978135701
 20
-10.4862611609565
 30
0.0
 10
0.5821403978135701
 20
-10.4862611609565
 30
0.0
 10
0.5441625326798708
 20
-10.4862611609565
 30
0.0
 10
0.5441625326798708
 20
-10.4862611609565
 30
0.0
 10
0.5441625326798708
 20
-10.38583754984537
 30
0.0
 10
0.5441625326798708
 20
-10.24697643873426
 30
0.0
 10
0.5441625326798708
 20
-10.24697643873426
 30
0.0
 10
0.5441625326798708
 20
-10.24100838317872
 30
0.0
 10
0.5490180881127646
 20
-10.23615282762315
 30
0.0
 10
0.5549861435175545
 20
-10.23615282762315
 30
0.0
  0
HATCH
  5
81
330
79
100
AcDbEntity
  8
Layer 2
 62
     7
420
 16777215
100
AcDbHatch
 10
0.0
 20
0.0
 30
0.0
210
0.0
220
0.0
230
1.0
  2
SOLID
 70
     1
 71
     0
 91
        2
 92
        1
 93
        1
 72
     4
 94
        3
 73
     0
 74
     1
 95
       29
 96
       25
 40
0.0
 40
0.0
 40
0.0
 40
0.0
 40
1.0
 40
1.0
 40
1.0
 40
2.0
 40
2.0
 40
2.0
 40
3.0
 40
3.0
 40
3.0
 40
4.0
 40
4.0
 40
4.0
 40
5.0
 40
5.0
 40
5.0
 40
6.0
 40
6.0
 40
6.0
 40
7.0
 40
7.0
 40
7.0
 40
8.0
 40
8.0
 40
8.0
 40
8.0
 10
1.570340284534217
 20
-10.22722782762316
 10
1.570340284534217
 20
-10.22722782762316
 10
0.5549861435175545
 20
-10.22722782762316
 10
0.5549861435175545
 20
-10.22722782762316
 10
0.5441083660145725
 20
-10.22722782762316
 10
0.5352376200358119
 20
-10.23608477206759
 10
0.5352376200358119
 20
-10.24697643873426
 10
0.5352376200358119
 20
-10.24697643873426
 10
0.5352376200358119
 20
-10.59197366095648
 10
0.5352376200358119
 20
-10.59197366095648
 10
0.5352376200358119
 20
-10.59442921651205
 10
0.5372319772993958
 20
-10.59642227206761
 10
0.539700032792603
 20
-10.59642227206761
 10
0.539700032792603
 20
-10.59642227206761
 10
1.585612620035818
 20
-10.59642227206761
 10
1.585612620035818
 20
-10.59642227206761
 10
1.588080561863838
 20
-10.59642227206761
 10
1.590088895146437
 20
-10.59442921651205
 10
1.590088895146437
 20
-10.59197366095648
 10
1.590088895146437
 20
-10.59197366095648
 10
1.590088895146437
 20
-10.24697643873426
 10
1.590088895146437
 20
-10.24697643873426
 10
1.590088895146437
 20
-10.23608477206759
 10
1.581218062037199
 20
-10.22722782762316
 10
1.570340284534217
 20
-10.22722782762316
 97
        0
 97
        0
 92
        1
 93
        1
 72
     4
 94
        3
 73
     0
 74
     1
 95
       32
 96
       28
 40
0.0
 40
0.0
 40
0.0
 40
0.0
 40
1.0
 40
1.0
 40
1.0
 40
2.0
 40
2.0
 40
2.0
 40
3.0
 40
3.0
 40
3.0
 40
4.0
 40
4.0
 40
4.0
 40
5.0
 40
5.0
 40
5.0
 40
6.0
 40
6.0
 40
6.0
 40
7.0
 40
7.0
 40
7.0
 40
8.0
 40
8.0
 40
8.0
 40
9.0
 40
9.0
 40
9.0
 40
9.0
 10
0.5549861435175545
 20
-10.23615282762315
 10
0.5549861435175545
 20
-10.23615282762315
 10
1.570340284534217
 20
-10.23615282762315
 10
1.570340284534217
 20
-10.23615282762315
 10
1.576308339939007
 20
-10.23615282762315
 10
1.581150006483363
 20
-10.24100838317872
 10
1.581150006483363
 20
-10.24697643873426
 10
1.581150006483363
 20
-10.24697643873426
 10
1.581150006483363
 20
-10.38583754984537
 10
1.581150006483363
 20
-10.4862611609565
 10
1.581150006483363
 20
-10.4862611609565
 10
0.8554555803715023
 20
-10.4862611609565
 10
0.8554555803715023
 20
-10.4862611609565
 10
0.8288583588211824
 20
-10.53434310540092
 10
0.7776014156715974
 20
-10.56700421651203
 10
0.7187916949350336
 20
-10.56700421651203
 10
0.6599666964210781
 20
-10.56700421651203
 10
0.6087237311469127
 20
-10.5343708831787
 10
0.5821403978135701
 20
-10.4862611609565
 10
0.5821403978135701
 20
-10.4862611609565
 10
0.5441625326798708
 20
-10.4862611609565
 10
0.5441625326798708
 20
-10.4862611609565
 10
0.5441625326798708
 20
-10.38583754984537
 10
0.5441625326798708
 20
-10.24697643873426
 10
0.5441625326798708
 20
-10.24697643873426
 10
0.5441625326798708
 20
-10.24100838317872
 10
0.5490180881127646
 20
-10.23615282762315
 10
0.5549861435175545
 20
-10.23615282762315
 97
        0
 97
        0
 75
     2
 76
     1
 98
        0
  0
INSERT
  5
83
330
79
100
AcDbEntity
  8
Layer 2
100
AcDbBlockReference
  2
block 5
 10
0.0
 20
0.0
 30
0.0
  0
INSERT
  5
91
330
79
100
AcDbEntity
  8
Layer 2
100
AcDbBlockReference
  2
block 7
 10
0.0
 20
0.0
 30
0.0
  0
INSERT
  5
A1
330
79
100
AcDbEntity
  8
Layer 2
100
AcDbBlockReference
  2
block 9
 10
0.0
 20
0.0
 30
0.0
  0
INSERT
  5
B4
330
79
100
AcDbEntity
  8
Layer 2
100
AcDbBlockReference
  2
block 10
 10
0.0
 20
0.0
 30
0.0
  0
INSERT
  5
CB
330
79
100
AcDbEntity
  8
Layer 2
100
AcDbBlockReference
  2
block 11
 10
0.0
 20
0.0
 30
0.0
  0
INSERT
  5
DF
330
79
100
AcDbEntity
  8
Layer 2
100
AcDbBlockReference
  2
block 12
 10
0.0
 20
0.0
 30
0.0
  0
INSERT
  5
ED
330
79
100
AcDbEntity
  8
Layer 2
100
AcDbBlockReference
  2
block 14
 10
0.0
 20
0.0
 30
0.0
  0
ENDBLK
  5
7C
330
79
100
AcDbEntity
  8
0
100
AcDbBlockEnd
  0
BLOCK
  5
84
330
82
100
AcDbEntity
  8
0
100
AcDbBlockBegin
  2
block 5
 70
     0
 10
0.0
 20
0.0
 30
0.0
  3
block 5
  1

  0
SPLINE
  5
86
330
82
100
AcDbEntity
  8
Layer 2
370
     0
100
AcDbSpline
210
0.0
220
0.0
230
1.0
 70
    11
 71
     3
 72
    23
 73
    19
 74
     0
 42
0.0000000001
 43
0.0000000001
 12
1.0
 22
0.0
 32
0.0
 13
1.0
 23
0.0
 33
0.0
 40
0.0
 40
0.0
 40
0.0
 40
0.0
 40
1.0
 40
1.0
 40
1.0
 40
2.0
 40
2.0
 40
2.0
 40
3.0
 40
3.0
 40
3.0
 40
4.0
 40
4.0
 40
4.0
 40
5.0
 40
5.0
 40
5.0
 40
6.0
 40
6.0
 40
6.0
 40
6.0
 10
0.838704191905789
 20
-10.39908893873427
 30
0.0
 10
0.8387319696828651
 20
-10.46527782762317
 30
0.0
 10
0.7851028043709851
 20
-10.51896254984538
 30
0.0
 10
0.7189125282653145
 20
-10.51900282762315
 30
0.0
 10
0.6527237311469333
 20
-10.51904310540092
 30
0.0
 10
0.5990403090713193
 20
-10.46541393873427
 30
0.0
 10
0.598986142406021
 20
-10.39923893873427
 30
0.0
 10
0.598986142406021
 20
-10.3991847720676
 30
0.0
 10
0.598986142406021
 20
-10.39914310540093
 30
0.0
 10
0.598986142406021
 20
-10.39908893873427
 30
0.0
 10
0.5989444757404069
 20
-10.33290004984537
 30
0.0
 10
0.6525889188296787
 20
-10.27921671651203
 30
0.0
 10
0.7187778060464957
 20
-10.27917504984538
 30
0.0
 10
0.7849666932633125
 20
-10.27913477206759
 30
0.0
 10
0.8386639141290289
 20
-10.33276393873426
 30
0.0
 10
0.838704191905789
 20
-10.39895421651204
 30
0.0
 10
0.838704191905789
 20
-10.39899449428983
 30
0.0
 10
0.838704191905789
 20
-10.3990486609565
 30
0.0
 10
0.838704191905789
 20
-10.39908893873427
 30
0.0
  0
INSERT
  5
88
330
82
100
AcDbEntity
  8
Layer 2
100
AcDbBlockReference
  2
block 6
 10
0.0
 20
0.0
 30
0.0
  0
ENDBLK
  5
85
330
82
100
AcDbEntity
  8
0
100
AcDbBlockEnd
  0
BLOCK
  5
89
330
87
100
AcDbEntity
  8
0
100
AcDbBlockBegin
  2
block 6
 70
     0
 10
0.0
 20
0.0
 30
0.0
  3
block 6
  1

  0
SPLINE
  5
8B
330
87
100
AcDbEntity
  8
Layer 2
370
     0
100
AcDbSpline
210
0.0
220
0.0
230
1.0
 70
    11
 71
     3
 72
    29
 73
    25
 74
     0
 42
0.0000000001
 43
0.0000000001
 12
1.0
 22
0.0
 32
0.0
 13
1.0
 23
0.0
 33
0.0
 40
0.0
 40
0.0
 40
0.0
 40
0.0
 40
1.0
 40
1.0
 40
1.0
 40
2.0
 40
2.0
 40
2.0
 40
3.0
 40
3.0
 40
3.0
 40
4.0
 40
4.0
 40
4.0
 40
5.0
 40
5.0
 40
5.0
 40
6.0
 40
6.0
 40
6.0
 40
7.0
 40
7.0
 40
7.0
 40
8.0
 40
8.0
 40
8.0
 40
8.0
 10
0.8162708591391694
 20
-10.30148754984538
 30
0.0
 10
0.842855580689805
 20
-10.32805838317871
 30
0.0
 10
0.856147247020696
 20
-10.3605958831787
 30
0.0
 10
0.856147247020696
 20
-10.39908893873427
 30
0.0
 10
0.856147247020696
 20
-10.4375958831787
 30
0.0
 10
0.8430861362395363
 20
-10.46978199428981
 30
0.0
 10
0.8169625257883631
 20
-10.49567366095648
 30
0.0
 10
0.7892389153776094
 20
-10.52293616095648
 30
0.0
 10
0.7564833606495287
 20
-10.53656810540092
 30
0.0
 10
0.718669472715899
 20
-10.53656810540092
 30
0.0
 10
0.681315306992878
 20
-10.53656810540092
 30
0.0
 10
0.6491291966948564
 20
-10.5230583831787
 30
0.0
 10
0.6220972529332963
 20
-10.49602643873426
 30
0.0
 10
0.595052809172052
 20
-10.46898060540093
 30
0.0
 10
0.5815431755913778
 20
-10.43667366095648
 30
0.0
 10
0.5815431755913778
 20
-10.39908893873427
 30
0.0
 10
0.5815431755913778
 20
-10.36150560540093
 30
0.0
 10
0.595052809172052
 20
-10.32896671651204
 30
0.0
 10
0.6220972529332963
 20
-10.30148754984538
 30
0.0
 10
0.6484375300456627
 20
-10.27488893873427
 30
0.0
 10
0.6806375292322223
 20
-10.2615972720676
 30
0.0
 10
0.718669472715899
 20
-10.2615972720676
 30
0.0
 10
0.7571611384101844
 20
-10.2615972720676
 30
0.0
 10
0.7897000264770718
 20
-10.27488893873427
 30
0.0
 10
0.8162708591391694
 20
-10.30148754984538
 30
0.0
  0
SPLINE
  5
8C
330
87
100
AcDbEntity
  8
Layer 2
370
     0
100
AcDbSpline
210
0.0
220
0.0
230
1.0
 70
    11
 71
     3
 72
    29
 73
    25
 74
     0
 42
0.0000000001
 43
0.0000000001
 12
1.0
 22
0.0
 32
0.0
 13
1.0
 23
0.0
 33
0.0
 40
0.0
 40
0.0
 40
0.0
 40
0.0
 40
1.0
 40
1.0
 40
1.0
 40
2.0
 40
2.0
 40
2.0
 40
3.0
 40
3.0
 40
3.0
 40
4.0
 40
4.0
 40
4.0
 40
5.0
 40
5.0
 40
5.0
 40
6.0
 40
6.0
 40
6.0
 40
7.0
 40
7.0
 40
7.0
 40
8.0
 40
8.0
 40
8.0
 40
8.0
 10
0.6399876200358044
 20
-10.31935004984537
 30
0.0
 10
0.6175139197157478
 20
-10.34205560540093
 30
0.0
 10
0.6062833644438999
 20
-10.36862643873426
 30
0.0
 10
0.6062833644438999
 20
-10.39911671651205
 30
0.0
 10
0.6062833644438999
 20
-10.42960699428982
 30
0.0
 10
0.6174042867024683
 20
-10.45597366095649
 30
0.0
 10
0.6396486413787998
 20
-10.47820421651204
 30
0.0
 10
0.6618930852613023
 20
-10.50044866095648
 30
0.0
 10
0.6883541957039495
 20
-10.51155699428983
 30
0.0
 10
0.7190764171500632
 20
-10.51155699428983
 30
0.0
 10
0.749797249707323
 20
-10.51155699428983
 30
0.0
 10
0.7765028045882395
 20
-10.50032643873427
 30
0.0
 10
0.7992083595702044
 20
-10.47786532762315
 30
0.0
 10
0.8207472479149752
 20
-10.45699171651204
 30
0.0
 10
0.8315166920873606
 20
-10.4307597720676
 30
0.0
 10
0.8315166920873606
 20
-10.39911671651205
 30
0.0
 10
0.8315166920873606
 20
-10.36773060540094
 30
0.0
 10
0.8205709533691434
 20
-10.34107921651204
 30
0.0
 10
0.7986653040283676
 20
-10.31918754984538
 30
0.0
 10
0.7767750268035848
 20
-10.2972958831787
 30
0.0
 10
0.7502444719182474
 20
-10.28635004984537
 30
0.0
 10
0.7190764171500632
 20
-10.28635004984537
 30
0.0
 10
0.6879069734930251
 20
-10.28635004984537
 30
0.0
 10
0.6615403074924365
 20
-10.29735004984539
 30
0.0
 10
0.6399876200358044
 20
-10.31935004984537
 30
0.0
  0
SPLINE
  5
8D
330
87
100
AcDbEntity
  8
Layer 2
370
     0
100
AcDbSpline
210
0.0
220
0.0
230
1.0
 70
    11
 71
     3
 72
    41
 73
    37
 74
     0
 42
0.0000000001
 43
0.0000000001
 12
1.0
 22
0.0
 32
0.0
 13
1.0
 23
0.0
 33
0.0
 40
0.0
 40
0.0
 40
0.0
 40
0.0
 40
1.0
 40
1.0
 40
1.0
 40
2.0
 40
2.0
 40
2.0
 40
3.0
 40
3.0
 40
3.0
 40
4.0
 40
4.0
 40
4.0
 40
5.0
 40
5.0
 40
5.0
 40
6.0
 40
6.0
 40
6.0
 40
7.0
 40
7.0
 40
7.0
 40
8.0
 40
8.0
 40
8.0
 40
9.0
 40
9.0
 40
9.0
 40
10.0
 40
10.0
 40
10.0
 40
11.0
 40
11.0
 40
11.0
 40
12.0
 40
12.0
 40
12.0
 40
12.0
 10
0.6991111398766507
 20
-10.38571532762315
 30
0.0
 10
0.6956930844074425
 20
-10.37822921651206
 30
0.0
 10
0.6905514178706653
 20
-10.37448477206759
 30
0.0
 10
0.6836889180440267
 20
-10.37448477206759
 30
0.0
 10
0.6715764183500141
 20
-10.37448477206759
 30
0.0
 10
0.6655278073917038
 20
-10.38263616095648
 30
0.0
 10
0.6655278073917038
 20
-10.39895421651204
 30
0.0
 10
0.6655278073917038
 20
-10.41527088317871
 30
0.0
 10
0.6715764183500141
 20
-10.42340838317871
 30
0.0
 10
0.6836889180440267
 20
-10.42340838317871
 30
0.0
 10
0.6917055845081752
 20
-10.42340838317871
 30
0.0
 10
0.6974014176976198
 20
-10.4194472720676
 30
0.0
 10
0.700847250943904
 20
-10.41148616095648
 30
0.0
 10
0.700847250943904
 20
-10.41148616095648
 30
0.0
 10
0.7176375282975237
 20
-10.42042504984538
 30
0.0
 10
0.7176375282975237
 20
-10.42042504984538
 30
0.0
 10
0.7096361396107669
 20
-10.43466532762315
 30
0.0
 10
0.6976180843588129
 20
-10.44177366095649
 30
0.0
 10
0.6816000292079075
 20
-10.44177366095649
 30
0.0
 10
0.6692444739644795
 20
-10.44177366095649
 30
0.0
 10
0.6593569742142588
 20
-10.43798893873425
 30
0.0
 10
0.6519236410687073
 20
-10.43042088317871
 30
0.0
 10
0.6444778079234715
 20
-10.42285282762315
 30
0.0
 10
0.6407611413506957
 20
-10.41239449428983
 30
0.0
 10
0.6407611413506957
 20
-10.39908893873427
 30
0.0
 10
0.6407611413506957
 20
-10.38601393873427
 30
0.0
 10
0.6446000301426061
 20
-10.37563754984538
 30
0.0
 10
0.6522625299490351
 20
-10.36794727206759
 30
0.0
 10
0.6599264186443179
 20
-10.36025699428981
 30
0.0
 10
0.6694876200358016
 20
-10.35640560540092
 30
0.0
 10
0.6809222514472518
 20
-10.35640560540092
 30
0.0
 10
0.6978626200358222
 20
-10.35640560540092
 30
0.0
 10
0.7099611396025567
 20
-10.36307782762315
 30
0.0
 10
0.7173125283057339
 20
-10.3764111609565
 30
0.0
 10
0.7173125283057339
 20
-10.3764111609565
 30
0.0
 10
0.6991111398766507
 20
-10.38571532762315
 30
0.0
 10
0.6991111398766507
 20
-10.38571532762315
 30
0.0
  0
SPLINE
  5
8E
330
87
100
AcDbEntity
  8
Layer 2
370
     0
100
AcDbSpline
210
0.0
220
0.0
230
1.0
 70
    11
 71
     3
 72
    41
 73
    37
 74
     0
 42
0.0000000001
 43
0.0000000001
 12
1.0
 22
0.0
 32
0.0
 13
1.0
 23
0.0
 33
0.0
 40
0.0
 40
0.0
 40
0.0
 40
0.0
 40
1.0
 40
1.0
 40
1.0
 40
2.0
 40
2.0
 40
2.0
 40
3.0
 40
3.0
 40
3.0
 40
4.0
 40
4.0
 40
4.0
 40
5.0
 40
5.0
 40
5.0
 40
6.0
 40
6.0
 40
6.0
 40
7.0
 40
7.0
 40
7.0
 40
8.0
 40
8.0
 40
8.0
 40
9.0
 40
9.0
 40
9.0
 40
10.0
 40
10.0
 40
10.0
 40
11.0
 40
11.0
 40
11.0
 40
12.0
 40
12.0
 40
12.0
 40
12.0
 10
0.7781583601019721
 20
-10.38571532762315
 30
0.0
 10
0.7747125268556879
 20
-10.37822921651206
 30
0.0
 10
0.769666693649823
 20
-10.37448477206759
 30
0.0
 10
0.7630347493729156
 20
-10.37448477206759
 30
0.0
 10
0.7506791941294876
 20
-10.37448477206759
 30
0.0
 10
0.7444930831746508
 20
-10.38263616095648
 30
0.0
 10
0.7444930831746508
 20
-10.39895421651204
 30
0.0
 10
0.7444930831746508
 20
-10.41527088317871
 30
0.0
 10
0.7506791941294876
 20
-10.42340838317871
 30
0.0
 10
0.7630347493729156
 20
-10.42340838317871
 30
0.0
 10
0.7710500269482105
 20
-10.42340838317871
 30
0.0
 10
0.7766653045841344
 20
-10.4194472720676
 30
0.0
 10
0.7798666933921493
 20
-10.41148616095648
 30
0.0
 10
0.7798666933921493
 20
-10.41148616095648
 30
0.0
 10
0.797037526291711
 20
-10.42042504984538
 30
0.0
 10
0.797037526291711
 20
-10.42042504984538
 30
0.0
 10
0.7890361376049542
 20
-10.43466532762315
 30
0.0
 10
0.7770458601300763
 20
-10.44177366095649
 30
0.0
 10
0.761054193867393
 20
-10.44177366095649
 30
0.0
 10
0.7487250275121874
 20
-10.44177366095649
 30
0.0
 10
0.7388514166505047
 20
-10.43798893873425
 30
0.0
 10
0.7314181755913675
 20
-10.43042088317871
 30
0.0
 10
0.7240125281364777
 20
-10.42285282762315
 30
0.0
 10
0.7202972504525557
 20
-10.41239449428983
 30
0.0
 10
0.7202972504525557
 20
-10.39908893873427
 30
0.0
 10
0.7202972504525557
 20
-10.38601393873427
 30
0.0
 10
0.7240666948017759
 20
-10.37563754984538
 30
0.0
 10
0.7316083612779241
 20
-10.36794727206759
 30
0.0
 10
0.7391361388655342
 20
-10.36025699428981
 30
0.0
 10
0.7487250275121874
 20
-10.35640560540092
 30
0.0
 10
0.760376508924714
 20
-10.35640560540092
 30
0.0
 10
0.7772764156798075
 20
-10.35640560540092
 30
0.0
 10
0.78938891537382
 20
-10.36307782762315
 30
0.0
 10
0.7966861374116989
 20
-10.3764111609565
 30
0.0
 10
0.7966861374116989
 20
-10.3764111609565
 30
0.0
 10
0.7781583601019721
 20
-10.38571532762315
 30
0.0
 10
0.7781583601019721
 20
-10.38571532762315
 30
0.0
  0
HATCH
  5
8F
330
87
100
AcDbEntity
  8
Layer 2
 62
     7
420
 16777215
100
AcDbHatch
 10
0.0
 20
0.0
 30
0.0
210
0.0
220
0.0
230
1.0
  2
SOLID
 70
     1
 71
     0
 91
        4
 92
        1
 93
        1
 72
     4
 94
        3
 73
     0
 74
     1
 95
       29
 96
       25
 40
0.0
 40
0.0
 40
0.0
 40
0.0
 40
1.0
 40
1.0
 40
1.0
 40
2.0
 40
2.0
 40
2.0
 40
3.0
 40
3.0
 40
3.0
 40
4.0
 40
4.0
 40
4.0
 40
5.0
 40
5.0
 40
5.0
 40
6.0
 40
6.0
 40
6.0
 40
7.0
 40
7.0
 40
7.0
 40
8.0
 40
8.0
 40
8.0
 40
8.0
 10
0.8162708591391694
 20
-10.30148754984538
 10
0.842855580689805
 20
-10.32805838317871
 10
0.856147247020696
 20
-10.3605958831787
 10
0.856147247020696
 20
-10.39908893873427
 10
0.856147247020696
 20
-10.4375958831787
 10
0.8430861362395363
 20
-10.46978199428981
 10
0.8169625257883631
 20
-10.49567366095648
 10
0.7892389153776094
 20
-10.52293616095648
 10
0.7564833606495287
 20
-10.53656810540092
 10
0.718669472715899
 20
-10.53656810540092
 10
0.681315306992878
 20
-10.53656810540092
 10
0.6491291966948564
 20
-10.5230583831787
 10
0.6220972529332963
 20
-10.49602643873426
 10
0.595052809172052
 20
-10.46898060540093
 10
0.5815431755913778
 20
-10.43667366095648
 10
0.5815431755913778
 20
-10.39908893873427
 10
0.5815431755913778
 20
-10.36150560540093
 10
0.595052809172052
 20
-10.32896671651204
 10
0.6220972529332963
 20
-10.30148754984538
 10
0.6484375300456627
 20
-10.27488893873427
 10
0.6806375292322223
 20
-10.2615972720676
 10
0.718669472715899
 20
-10.2615972720676
 10
0.7571611384101844
 20
-10.2615972720676
 10
0.7897000264770718
 20
-10.27488893873427
 10
0.8162708591391694
 20
-10.30148754984538
 97
        0
 97
        0
 92
        1
 93
        1
 72
     4
 94
        3
 73
     0
 74
     1
 95
       29
 96
       25
 40
0.0
 40
0.0
 40
0.0
 40
0.0
 40
1.0
 40
1.0
 40
1.0
 40
2.0
 40
2.0
 40
2.0
 40
3.0
 40
3.0
 40
3.0
 40
4.0
 40
4.0
 40
4.0
 40
5.0
 40
5.0
 40
5.0
 40
6.0
 40
6.0
 40
6.0
 40
7.0
 40
7.0
 40
7.0
 40
8.0
 40
8.0
 40
8.0
 40
8.0
 10
0.6399876200358044
 20
-10.31935004984537
 10
0.6175139197157478
 20
-10.34205560540093
 10
0.6062833644438999
 20
-10.36862643873426
 10
0.6062833644438999
 20
-10.39911671651205
 10
0.6062833644438999
 20
-10.42960699428982
 10
0.6174042867024683
 20
-10.45597366095649
 10
0.6396486413787998
 20
-10.47820421651204
 10
0.6618930852613023
 20
-10.50044866095648
 10
0.6883541957039495
 20
-10.51155699428983
 10
0.7190764171500632
 20
-10.51155699428983
 10
0.749797249707323
 20
-10.51155699428983
 10
0.7765028045882395
 20
-10.50032643873427
 10
0.7992083595702044
 20
-10.47786532762315
 10
0.8207472479149752
 20
-10.45699171651204
 10
0.8315166920873606
 20
-10.4307597720676
 10
0.8315166920873606
 20
-10.39911671651205
 10
0.8315166920873606
 20
-10.36773060540094
 10
0.8205709533691434
 20
-10.34107921651204
 10
0.7986653040283676
 20
-10.31918754984538
 10
0.7767750268035848
 20
-10.2972958831787
 10
0.7502444719182474
 20
-10.28635004984537
 10
0.7190764171500632
 20
-10.28635004984537
 10
0.6879069734930251
 20
-10.28635004984537
 10
0.6615403074924365
 20
-10.29735004984539
 10
0.6399876200358044
 20
-10.31935004984537
 97
        0
 97
        0
 92
        1
 93
        1
 72
     4
 94
        3
 73
     0
 74
     1
 95
       41
 96
       37
 40
0.0
 40
0.0
 40
0.0
 40
0.0
 40
1.0
 40
1.0
 40
1.0
 40
2.0
 40
2.0
 40
2.0
 40
3.0
 40
3.0
 40
3.0
 40
4.0
 40
4.0
 40
4.0
 40
5.0
 40
5.0
 40
5.0
 40
6.0
 40
6.0
 40
6.0
 40
7.0
 40
7.0
 40
7.0
 40
8.0
 40
8.0
 40
8.0
 40
9.0
 40
9.0
 40
9.0
 40
10.0
 40
10.0
 40
10.0
 40
11.0
 40
11.0
 40
11.0
 40
12.0
 40
12.0
 40
12.0
 40
12.0
 10
0.6991111398766507
 20
-10.38571532762315
 10
0.6956930844074425
 20
-10.37822921651206
 10
0.6905514178706653
 20
-10.37448477206759
 10
0.6836889180440267
 20
-10.37448477206759
 10
0.6715764183500141
 20
-10.37448477206759
 10
0.6655278073917038
 20
-10.38263616095648
 10
0.6655278073917038
 20
-10.39895421651204
 10
0.6655278073917038
 20
-10.41527088317871
 10
0.6715764183500141
 20
-10.42340838317871
 10
0.6836889180440267
 20
-10.42340838317871
 10
0.6917055845081752
 20
-10.42340838317871
 10
0.6974014176976198
 20
-10.4194472720676
 10
0.700847250943904
 20
-10.41148616095648
 10
0.700847250943904
 20
-10.41148616095648
 10
0.7176375282975237
 20
-10.42042504984538
 10
0.7176375282975237
 20
-10.42042504984538
 10
0.7096361396107669
 20
-10.43466532762315
 10
0.6976180843588129
 20
-10.44177366095649
 10
0.6816000292079075
 20
-10.44177366095649
 10
0.6692444739644795
 20
-10.44177366095649
 10
0.6593569742142588
 20
-10.43798893873425
 10
0.6519236410687073
 20
-10.43042088317871
 10
0.6444778079234715
 20
-10.42285282762315
 10
0.6407611413506957
 20
-10.41239449428983
 10
0.6407611413506957
 20
-10.39908893873427
 10
0.6407611413506957
 20
-10.38601393873427
 10
0.6446000301426061
 20
-10.37563754984538
 10
0.6522625299490351
 20
-10.36794727206759
 10
0.6599264186443179
 20
-10.36025699428981
 10
0.6694876200358016
 20
-10.35640560540092
 10
0.6809222514472518
 20
-10.35640560540092
 10
0.6978626200358222
 20
-10.35640560540092
 10
0.7099611396025567
 20
-10.36307782762315
 10
0.7173125283057339
 20
-10.3764111609565
 10
0.7173125283057339
 20
-10.3764111609565
 10
0.6991111398766507
 20
-10.38571532762315
 10
0.6991111398766507
 20
-10.38571532762315
 97
        0
 97
        0
 92
        1
 93
        1
 72
     4
 94
        3
 73
     0
 74
     1
 95
       41
 96
       37
 40
0.0
 40
0.0
 40
0.0
 40
0.0
 40
1.0
 40
1.0
 40
1.0
 40
2.0
 40
2.0
 40
2.0
 40
3.0
 40
3.0
 40
3.0
 40
4.0
 40
4.0
 40
4.0
 40
5.0
 40
5.0
 40
5.0
 40
6.0
 40
6.0
 40
6.0
 40
7.0
 40
7.0
 40
7.0
 40
8.0
 40
8.0
 40
8.0
 40
9.0
 40
9.0
 40
9.0
 40
10.0
 40
10.0
 40
10.0
 40
11.0
 40
11.0
 40
11.0
 40
12.0
 40
12.0
 40
12.0
 40
12.0
 10
0.7781583601019721
 20
-10.38571532762315
 10
0.7747125268556879
 20
-10.37822921651206
 10
0.769666693649823
 20
-10.37448477206759
 10
0.7630347493729156
 20
-10.37448477206759
 10
0.7506791941294876
 20
-10.37448477206759
 10
0.7444930831746508
 20
-10.38263616095648
 10
0.7444930831746508
 20
-10.39895421651204
 10
0.7444930831746508
 20
-10.41527088317871
 10
0.7506791941294876
 20
-10.42340838317871
 10
0.7630347493729156
 20
-10.42340838317871
 10
0.7710500269482105
 20
-10.42340838317871
 10
0.7766653045841344
 20
-10.4194472720676
 10
0.7798666933921493
 20
-10.41148616095648
 10
0.7798666933921493
 20
-10.41148616095648
 10
0.797037526291711
 20
-10.42042504984538
 10
0.797037526291711
 20
-10.42042504984538
 10
0.7890361376049542
 20
-10.43466532762315
 10
0.7770458601300763
 20
-10.44177366095649
 10
0.761054193867393
 20
-10.44177366095649
 10
0.7487250275121874
 20
-10.44177366095649
 10
0.7388514166505047
 20
-10.43798893873425
 10
0.7314181755913675
 20
-10.43042088317871
 10
0.7240125281364777
 20
-10.42285282762315
 10
0.7202972504525557
 20
-10.41239449428983
 10
0.7202972504525557
 20
-10.39908893873427
 10
0.7202972504525557
 20
-10.38601393873427
 10
0.7240666948017759
 20
-10.37563754984538
 10
0.7316083612779241
 20
-10.36794727206759
 10
0.7391361388655342
 20
-10.36025699428981
 10
0.7487250275121874
 20
-10.35640560540092
 10
0.760376508924714
 20
-10.35640560540092
 10
0.7772764156798075
 20
-10.35640560540092
 10
0.78938891537382
 20
-10.36307782762315
 10
0.7966861374116989
 20
-10.3764111609565
 10
0.7966861374116989
 20
-10.3764111609565
 10
0.7781583601019721
 20
-10.38571532762315
 10
0.7781583601019721
 20
-10.38571532762315
 97
        0
 97
        0
 75
     2
 76
     1
 98
        0
  0
ENDBLK
  5
8A
330
87
100
AcDbEntity
  8
0
100
AcDbBlockEnd
  0
BLOCK
  5
92
330
90
100
AcDbEntity
  8
0
100
AcDbBlockBegin
  2
block 7
 70
     0
 10
0.0
 20
0.0
 30
0.0
  3
block 7
  1

  0
SPLINE
  5
94
330
90
100
AcDbEntity
  8
Layer 2
370
     0
100
AcDbSpline
210
0.0
220
0.0
230
1.0
 70
    11
 71
     3
 72
    17
 73
    13
 74
     0
 42
0.0000000001
 43
0.0000000001
 12
1.0
 22
0.0
 32
0.0
 13
1.0
 23
0.0
 33
0.0
 40
0.0
 40
0.0
 40
0.0
 40
0.0
 40
1.0
 40
1.0
 40
1.0
 40
2.0
 40
2.0
 40
2.0
 40
3.0
 40
3.0
 40
3.0
 40
4.0
 40
4.0
 40
4.0
 40
4.0
 10
0.9902625214104369
 20
-10.26666949428982
 30
0.0
 10
1.042400020093333
 20
-10.26666949428982
 30
0.0
 10
1.084648630137154
 20
-10.30891949428981
 30
0.0
 10
1.084648630137154
 20
-10.36104449428982
 30
0.0
 10
1.084648630137154
 20
-10.41318199428982
 30
0.0
 10
1.042400020093333
 20
-10.45543199428981
 30
0.0
 10
0.9902625214104369
 20
-10.45543199428981
 30
0.0
 10
0.9381236338386871
 20
-10.45543199428981
 30
0.0
 10
0.8958611349063277
 20
-10.41318199428982
 30
0.0
 10
0.8958611349063277
 20
-10.36104449428982
 30
0.0
 10
0.8958611349063277
 20
-10.30891949428981
 30
0.0
 10
0.9381236338386871
 20
-10.26666949428982
 30
0.0
 10
0.9902625214104369
 20
-10.26666949428982
 30
0.0
  0
INSERT
  5
96
330
90
100
AcDbEntity
  8
Layer 2
100
AcDbBlockReference
  2
block 8
 10
0.0
 20
0.0
 30
0.0
  0
SPLINE
  5
9D
330
90
100
AcDbEntity
  8
Layer 2
370
     0
100
AcDbSpline
210
0.0
220
0.0
230
1.0
 70
    11
 71
     3
 72
    29
 73
    25
 74
     0
 42
0.0000000001
 43
0.0000000001
 12
1.0
 22
0.0
 32
0.0
 13
1.0
 23
0.0
 33
0.0
 40
0.0
 40
0.0
 40
0.0
 40
0.0
 40
1.0
 40
1.0
 40
1.0
 40
2.0
 40
2.0
 40
2.0
 40
3.0
 40
3.0
 40
3.0
 40
4.0
 40
4.0
 40
4.0
 40
5.0
 40
5.0
 40
5.0
 40
6.0
 40
6.0
 40
6.0
 40
7.0
 40
7.0
 40
7.0
 40
8.0
 40
8.0
 40
8.0
 40
8.0
 10
0.9900180769721676
 20
-10.25705421651204
 30
0.0
 10
0.9617792867024693
 20
-10.25705421651204
 30
0.0
 10
0.9378805782892716
 20
-10.26690004984539
 30
0.0
 10
0.9183222454500234
 20
-10.28660838317872
 30
0.0
 10
0.8982486348460144
 20
-10.30699449428981
 30
0.0
 10
0.8882111350995829
 20
-10.3311097720676
 30
0.0
 10
0.8882111350995829
 20
-10.35896810540094
 30
0.0
 10
0.8882111350995829
 20
-10.38682782762316
 30
0.0
 10
0.8982486348460144
 20
-10.41078060540094
 30
0.0
 10
0.9183222454500234
 20
-10.43082782762316
 30
0.0
 10
0.9383958560540324
 20
-10.45086116095649
 30
0.0
 10
0.9622944665614138
 20
-10.46089727206759
 30
0.0
 10
0.9900180769721676
 20
-10.46089727206759
 30
0.0
 10
1.018080576263249
 20
-10.46089727206759
 30
0.0
 10
1.042400020093333
 20
-10.45079310540094
 30
0.0
 10
1.062988908462103
 20
-10.43056949428981
 30
0.0
 10
1.082384741305456
 20
-10.41137782762315
 30
0.0
 10
1.092068074394168
 20
-10.38751949428982
 30
0.0
 10
1.092068074394168
 20
-10.35896810540094
 30
0.0
 10
1.092068074394168
 20
-10.33043199428981
 30
0.0
 10
1.082220852420707
 20
-10.30630282762316
 30
0.0
 10
1.062473731146914
 20
-10.28660838317872
 30
0.0
 10
1.04275150892469
 20
-10.26690004984539
 30
0.0
 10
1.018609742916548
 20
-10.25705421651204
 30
0.0
 10
0.9900180769721676
 20
-10.25705421651204
 30
0.0
  0
SPLINE
  5
9E
330
90
100
AcDbEntity
  8
Layer 2
370
     0
100
AcDbSpline
210
0.0
220
0.0
230
1.0
 70
    11
 71
     3
 72
    29
 73
    25
 74
     0
 42
0.0000000001
 43
0.0000000001
 12
1.0
 22
0.0
 32
0.0
 13
1.0
 23
0.0
 33
0.0
 40
0.0
 40
0.0
 40
0.0
 40
0.0
 40
1.0
 40
1.0
 40
1.0
 40
2.0
 40
2.0
 40
2.0
 40
3.0
 40
3.0
 40
3.0
 40
4.0
 40
4.0
 40
4.0
 40
5.0
 40
5.0
 40
5.0
 40
6.0
 40
6.0
 40
6.0
 40
7.0
 40
7.0
 40
7.0
 40
8.0
 40
8.0
 40
8.0
 40
8.0
 10
0.9902750214101211
 20
-10.27539171651205
 30
0.0
 10
1.013413909714473
 20
-10.27539171651205
 30
0.0
 10
1.033054186996095
 20
-10.28354310540094
 30
0.0
 10
1.049208353254673
 20
-10.2998458831787
 30
0.0
 10
1.065538908397684
 20
-10.31598616095648
 30
0.0
 10
1.073716685968874
 20
-10.33569449428983
 30
0.0
 10
1.073716685968874
 20
-10.35896810540094
 30
0.0
 10
1.073716685968874
 20
-10.38241949428983
 30
0.0
 10
1.065715297282117
 20
-10.40186949428981
 30
0.0
 10
1.049723731146918
 20
-10.41731810540093
 30
0.0
 10
1.032877798111662
 20
-10.43397366095648
 30
0.0
 10
1.01306252083446
 20
-10.44228893873426
 30
0.0
 10
0.9902750214101211
 20
-10.44228893873426
 30
0.0
 10
0.9674750219860976
 20
-10.44228893873426
 30
0.0
 10
0.9478361335933287
 20
-10.43405560540092
 30
0.0
 10
0.9313291895658847
 20
-10.41757643873426
 30
0.0
 10
0.9148222455384408
 20
-10.40109588317872
 30
0.0
 10
0.9065764124134148
 20
-10.38156532762314
 30
0.0
 10
0.9065764124134148
 20
-10.35896810540094
 30
0.0
 10
0.9065764124134148
 20
-10.33637227206759
 30
0.0
 10
0.9149166899804994
 20
-10.31667782762315
 30
0.0
 10
0.9315861340038383
 20
-10.2998458831787
 30
0.0
 10
0.9475916891550594
 20
-10.28354310540094
 30
0.0
 10
0.9671500219943078
 20
-10.27539171651205
 30
0.0
 10
0.9902750214101211
 20
-10.27539171651205
 30
0.0
  0
HATCH
  5
9F
330
90
100
AcDbEntity
  8
Layer 2
 62
     7
420
 16777215
100
AcDbHatch
 10
0.0
 20
0.0
 30
0.0
210
0.0
220
0.0
230
1.0
  2
SOLID
 70
     1
 71
     0
 91
        2
 92
        1
 93
        1
 72
     4
 94
        3
 73
     0
 74
     1
 95
       29
 96
       25
 40
0.0
 40
0.0
 40
0.0
 40
0.0
 40
1.0
 40
1.0
 40
1.0
 40
2.0
 40
2.0
 40
2.0
 40
3.0
 40
3.0
 40
3.0
 40
4.0
 40
4.0
 40
4.0
 40
5.0
 40
5.0
 40
5.0
 40
6.0
 40
6.0
 40
6.0
 40
7.0
 40
7.0
 40
7.0
 40
8.0
 40
8.0
 40
8.0
 40
8.0
 10
0.9900180769721676
 20
-10.25705421651204
 10
0.9617792867024693
 20
-10.25705421651204
 10
0.9378805782892716
 20
-10.26690004984539
 10
0.9183222454500234
 20
-10.28660838317872
 10
0.8982486348460144
 20
-10.30699449428981
 10
0.8882111350995829
 20
-10.3311097720676
 10
0.8882111350995829
 20
-10.35896810540094
 10
0.8882111350995829
 20
-10.38682782762316
 10
0.8982486348460144
 20
-10.41078060540094
 10
0.9183222454500234
 20
-10.43082782762316
 10
0.9383958560540324
 20
-10.45086116095649
 10
0.9622944665614138
 20
-10.46089727206759
 10
0.9900180769721676
 20
-10.46089727206759
 10
1.018080576263249
 20
-10.46089727206759
 10
1.042400020093333
 20
-10.45079310540094
 10
1.062988908462103
 20
-10.43056949428981
 10
1.082384741305456
 20
-10.41137782762315
 10
1.092068074394168
 20
-10.38751949428982
 10
1.092068074394168
 20
-10.35896810540094
 10
1.092068074394168
 20
-10.33043199428981
 10
1.082220852420707
 20
-10.30630282762316
 10
1.062473731146914
 20
-10.28660838317872
 10
1.04275150892469
 20
-10.26690004984539
 10
1.018609742916548
 20
-10.25705421651204
 10
0.9900180769721676
 20
-10.25705421651204
 97
        0
 97
        0
 92
        1
 93
        1
 72
     4
 94
        3
 73
     0
 74
     1
 95
       29
 96
       25
 40
0.0
 40
0.0
 40
0.0
 40
0.0
 40
1.0
 40
1.0
 40
1.0
 40
2.0
 40
2.0
 40
2.0
 40
3.0
 40
3.0
 40
3.0
 40
4.0
 40
4.0
 40
4.0
 40
5.0
 40
5.0
 40
5.0
 40
6.0
 40
6.0
 40
6.0
 40
7.0
 40
7.0
 40
7.0
 40
8.0
 40
8.0
 40
8.0
 40
8.0
 10
0.9902750214101211
 20
-10.27539171651205
 10
1.013413909714473
 20
-10.27539171651205
 10
1.033054186996095
 20
-10.28354310540094
 10
1.049208353254673
 20
-10.2998458831787
 10
1.065538908397684
 20
-10.31598616095648
 10
1.073716685968874
 20
-10.33569449428983
 10
1.073716685968874
 20
-10.35896810540094
 10
1.073716685968874
 20
-10.38241949428983
 10
1.065715297282117
 20
-10.40186949428981
 10
1.049723731146918
 20
-10.41731810540093
 10
1.032877798111662
 20
-10.43397366095648
 10
1.01306252083446
 20
-10.44228893873426
 10
0.9902750214101211
 20
-10.44228893873426
 10
0.9674750219860976
 20
-10.44228893873426
 10
0.9478361335933287
 20
-10.43405560540092
 10
0.9313291895658847
 20
-10.41757643873426
 10
0.9148222455384408
 20
-10.40109588317872
 10
0.9065764124134148
 20
-10.38156532762314
 10
0.9065764124134148
 20
-10.35896810540094
 10
0.9065764124134148
 20
-10.33637227206759
 10
0.9149166899804994
 20
-10.31667782762315
 10
0.9315861340038383
 20
-10.2998458831787
 10
0.9475916891550594
 20
-10.28354310540094
 10
0.9671500219943078
 20
-10.27539171651205
 10
0.9902750214101211
 20
-10.27539171651205
 97
        0
 97
        0
 75
     2
 76
     1
 98
        0
  0
ENDBLK
  5
93
330
90
100
AcDbEntity
  8
0
100
AcDbBlockEnd
  0
BLOCK
  5
97
330
95
100
AcDbEntity
  8
0
100
AcDbBlockBegin
  2
block 8
 70
     0
 10
0.0
 20
0.0
 30
0.0
  3
block 8
  1

  0
SPLINE
  5
99
330
95
100
AcDbEntity
  8
Layer 2
370
     0
100
AcDbSpline
210
0.0
220
0.0
230
1.0
 70
    11
 71
     3
 72
    38
 73
    34
 74
     0
 42
0.0000000001
 43
0.0000000001
 12
1.0
 22
0.0
 32
0.0
 13
1.0
 23
0.0
 33
0.0
 40
0.0
 40
0.0
 40
0.0
 40
0.0
 40
1.0
 40
1.0
 40
1.0
 40
2.0
 40
2.0
 40
2.0
 40
3.0
 40
3.0
 40
3.0
 40
4.0
 40
4.0
 40
4.0
 40
5.0
 40
5.0
 40
5.0
 40
6.0
 40
6.0
 40
6.0
 40
7.0
 40
7.0
 40
7.0
 40
8.0
 40
8.0
 40
8.0
 40
9.0
 40
9.0
 40
9.0
 40
10.0
 40
10.0
 40
10.0
 40
11.0
 40
11.0
 40
11.0
 40
11.0
 10
1.017577798498173
 20
-10.33374032762317
 30
0.0
 10
1.017577798498173
 20
-10.33010560540093
 30
0.0
 10
1.014622243017281
 20
-10.32714866095648
 30
0.0
 10
1.010986131998026
 20
-10.32714866095648
 30
0.0
 10
1.010986131998026
 20
-10.32714866095648
 30
0.0
 10
0.9692931755913479
 20
-10.32714866095648
 30
0.0
 10
0.9692931755913479
 20
-10.32714866095648
 30
0.0
 10
0.9656583553653237
 20
-10.32714866095648
 30
0.0
 10
0.962715299884116
 20
-10.33010560540093
 30
0.0
 10
0.962715299884116
 20
-10.33374032762317
 30
0.0
 10
0.962715299884116
 20
-10.33374032762317
 30
0.0
 10
0.962715299884116
 20
-10.3754208831787
 30
0.0
 10
0.962715299884116
 20
-10.3754208831787
 30
0.0
 10
0.962715299884116
 20
-10.3754208831787
 30
0.0
 10
0.9743389107015901
 20
-10.3754208831787
 30
0.0
 10
0.9743389107015901
 20
-10.3754208831787
 30
0.0
 10
0.9743389107015901
 20
-10.3754208831787
 30
0.0
 10
0.9743389107015901
 20
-10.42479171651204
 30
0.0
 10
0.9743389107015901
 20
-10.42479171651204
 30
0.0
 10
0.9743389107015901
 20
-10.42479171651204
 30
0.0
 10
1.005941687681015
 20
-10.42479171651204
 30
0.0
 10
1.005941687681015
 20
-10.42479171651204
 30
0.0
 10
1.005941687681015
 20
-10.42479171651204
 30
0.0
 10
1.005941687681015
 20
-10.3754208831787
 30
0.0
 10
1.005941687681015
 20
-10.3754208831787
 30
0.0
 10
1.005941687681015
 20
-10.3754208831787
 30
0.0
 10
1.017577798498173
 20
-10.3754208831787
 30
0.0
 10
1.017577798498173
 20
-10.3754208831787
 30
0.0
 10
1.017577798498173
 20
-10.3754208831787
 30
0.0
 10
1.017577798498173
 20
-10.33374032762317
 30
0.0
 10
1.017577798498173
 20
-10.33374032762317
 30
0.0
 10
1.017577798498173
 20
-10.33374032762317
 30
0.0
 10
1.017577798498173
 20
-10.33374032762317
 30
0.0
 10
1.017577798498173
 20
-10.33374032762317
 30
0.0
  0
HATCH
  5
9A
330
95
100
AcDbEntity
  8
Layer 2
 62
     7
420
 16777215
100
AcDbHatch
 10
0.0
 20
0.0
 30
0.0
210
0.0
220
0.0
230
1.0
  2
SOLID
 70
     1
 71
     0
 91
        1
 92
        1
 93
        1
 72
     4
 94
        3
 73
     0
 74
     1
 95
       38
 96
       34
 40
0.0
 40
0.0
 40
0.0
 40
0.0
 40
1.0
 40
1.0
 40
1.0
 40
2.0
 40
2.0
 40
2.0
 40
3.0
 40
3.0
 40
3.0
 40
4.0
 40
4.0
 40
4.0
 40
5.0
 40
5.0
 40
5.0
 40
6.0
 40
6.0
 40
6.0
 40
7.0
 40
7.0
 40
7.0
 40
8.0
 40
8.0
 40
8.0
 40
9.0
 40
9.0
 40
9.0
 40
10.0
 40
10.0
 40
10.0
 40
11.0
 40
11.0
 40
11.0
 40
11.0
 10
1.017577798498173
 20
-10.33374032762317
 10
1.017577798498173
 20
-10.33010560540093
 10
1.014622243017281
 20
-10.32714866095648
 10
1.010986131998026
 20
-10.32714866095648
 10
1.010986131998026
 20
-10.32714866095648
 10
0.9692931755913479
 20
-10.32714866095648
 10
0.9692931755913479
 20
-10.32714866095648
 10
0.9656583553653237
 20
-10.32714866095648
 10
0.962715299884116
 20
-10.33010560540093
 10
0.962715299884116
 20
-10.33374032762317
 10
0.962715299884116
 20
-10.33374032762317
 10
0.962715299884116
 20
-10.3754208831787
 10
0.962715299884116
 20
-10.3754208831787
 10
0.962715299884116
 20
-10.3754208831787
 10
0.9743389107015901
 20
-10.3754208831787
 10
0.9743389107015901
 20
-10.3754208831787
 10
0.9743389107015901
 20
-10.3754208831787
 10
0.9743389107015901
 20
-10.42479171651204
 10
0.9743389107015901
 20
-10.42479171651204
 10
0.9743389107015901
 20
-10.42479171651204
 10
1.005941687681015
 20
-10.42479171651204
 10
1.005941687681015
 20
-10.42479171651204
 10
1.005941687681015
 20
-10.42479171651204
 10
1.005941687681015
 20
-10.3754208831787
 10
1.005941687681015
 20
-10.3754208831787
 10
1.005941687681015
 20
-10.3754208831787
 10
1.017577798498173
 20
-10.3754208831787
 10
1.017577798498173
 20
-10.3754208831787
 10
1.017577798498173
 20
-10.3754208831787
 10
1.017577798498173
 20
-10.33374032762317
 10
1.017577798498173
 20
-10.33374032762317
 10
1.017577798498173
 20
-10.33374032762317
 10
1.017577798498173
 20
-10.33374032762317
 10
1.017577798498173
 20
-10.33374032762317
 97
        0
 97
        0
 75
     2
 76
     1
 98
        0
  0
SPLINE
  5
9B
330
95
100
AcDbEntity
  8
Layer 2
370
     0
100
AcDbSpline
210
0.0
220
0.0
230
1.0
 70
    11
 71
     3
 72
    17
 73
    13
 74
     0
 42
0.0000000001
 43
0.0000000001
 12
1.0
 22
0.0
 32
0.0
 13
1.0
 23
0.0
 33
0.0
 40
0.0
 40
0.0
 40
0.0
 40
0.0
 40
1.0
 40
1.0
 40
1.0
 40
2.0
 40
2.0
 40
2.0
 40
3.0
 40
3.0
 40
3.0
 40
4.0
 40
4.0
 40
4.0
 40
4.0
 10
0.9901527991909864
 20
-10.29314588317872
 30
0.0
 10
0.9980194656589244
 20
-10.29314588317872
 30
0.0
 10
1.004408354386416
 20
-10.29953338317872
 30
0.0
 10
1.004408354386416
 20
-10.30740143873426
 30
0.0
 10
1.004408354386416
 20
-10.31528060540093
 30
0.0
 10
0.9980194656589244
 20
-10.32166949428981
 30
0.0
 10
0.9901527991909864
 20
-10.32166949428981
 30
0.0
 10
0.9822736327233643
 20
-10.32166949428981
 30
0.0
 10
0.9758847439958723
 20
-10.31528060540093
 30
0.0
 10
0.9758847439958723
 20
-10.30740143873426
 30
0.0
 10
0.9758847439958723
 20
-10.29953338317872
 30
0.0
 10
0.9822736327233643
 20
-10.29314588317872
 30
0.0
 10
0.9901527991909864
 20
-10.29314588317872
 30
0.0
  0
HATCH
  5
9C
330
95
100
AcDbEntity
  8
Layer 2
 62
     7
420
 16777215
100
AcDbHatch
 10
0.0
 20
0.0
 30
0.0
210
0.0
220
0.0
230
1.0
  2
SOLID
 70
     1
 71
     0
 91
        1
 92
        1
 93
        1
 72
     4
 94
        3
 73
     0
 74
     1
 95
       17
 96
       13
 40
0.0
 40
0.0
 40
0.0
 40
0.0
 40
1.0
 40
1.0
 40
1.0
 40
2.0
 40
2.0
 40
2.0
 40
3.0
 40
3.0
 40
3.0
 40
4.0
 40
4.0
 40
4.0
 40
4.0
 10
0.9901527991909864
 20
-10.29314588317872
 10
0.9980194656589244
 20
-10.29314588317872
 10
1.004408354386416
 20
-10.29953338317872
 10
1.004408354386416
 20
-10.30740143873426
 10
1.004408354386416
 20
-10.31528060540093
 10
0.9980194656589244
 20
-10.32166949428981
 10
0.9901527991909864
 20
-10.32166949428981
 10
0.9822736327233643
 20
-10.32166949428981
 10
0.9758847439958723
 20
-10.31528060540093
 10
0.9758847439958723
 20
-10.30740143873426
 10
0.9758847439958723
 20
-10.29953338317872
 10
0.9822736327233643
 20
-10.29314588317872
 10
0.9901527991909864
 20
-10.29314588317872
 97
        0
 97
        0
 75
     2
 76
     1
 98
        0
  0
ENDBLK
  5
98
330
95
100
AcDbEntity
  8
0
100
AcDbBlockEnd
  0
BLOCK
  5
A2
330
A0
100
AcDbEntity
  8
0
100
AcDbBlockBegin
  2
block 9
 70
     0
 10
0.0
 20
0.0
 30
0.0
  3
block 9
  1

  0
SPLINE
  5
A4
330
A0
100
AcDbEntity
  8
Layer 2
370
     0
100
AcDbSpline
210
0.0
220
0.0
230
1.0
 70
    11
 71
     3
 72
    53
 73
    49
 74
     0
 42
0.0000000001
 43
0.0000000001
 12
1.0
 22
0.0
 32
0.0
 13
1.0
 23
0.0
 33
0.0
 40
0.0
 40
0.0
 40
0.0
 40
0.0
 40
1.0
 40
1.0
 40
1.0
 40
2.0
 40
2.0
 40
2.0
 40
3.0
 40
3.0
 40
3.0
 40
4.0
 40
4.0
 40
4.0
 40
5.0
 40
5.0
 40
5.0
 40
6.0
 40
6.0
 40
6.0
 40
7.0
 40
7.0
 40
7.0
 40
8.0
 40
8.0
 40
8.0
 40
9.0
 40
9.0
 40
9.0
 40
10.0
 40
10.0
 40
10.0
 40
11.0
 40
11.0
 40
11.0
 40
12.0
 40
12.0
 40
12.0
 40
13.0
 40
13.0
 40
13.0
 40
14.0
 40
14.0
 40
14.0
 40
15.0
 40
15.0
 40
15.0
 40
16.0
 40
16.0
 40
16.0
 40
16.0
 10
0.9606930777129794
 20
-10.5150972720676
 30
0.0
 10
0.9634737311469305
 20
-10.5150972720676
 30
0.0
 10
0.9660111331341896
 20
-10.51534032762316
 30
0.0
 10
0.9682889108544259
 20
-10.51582921651205
 30
0.0
 10
0.970581966352054
 20
-10.51631671651204
 30
0.0
 10
0.9725486329690385
 20
-10.51711810540094
 30
0.0
 10
0.9741750218168413
 20
-10.51822921651205
 30
0.0
 10
0.9758027995534979
 20
-10.51932782762315
 30
0.0
 10
0.9770777995212887
 20
-10.52082088317871
 30
0.0
 10
0.9779737311469034
 20
-10.52266532762314
 30
0.0
 10
0.9788680772538403
 20
-10.5245236609565
 30
0.0
 10
0.9793291883533027
 20
-10.52678893873427
 30
0.0
 10
0.9793291883533027
 20
-10.52951393873428
 30
0.0
 10
0.9793291883533027
 20
-10.53245838317871
 30
0.0
 10
0.9786514105926472
 20
-10.53488616095648
 30
0.0
 10
0.977322243959558
 20
-10.53683893873426
 30
0.0
 10
0.9759930773264689
 20
-10.53880560540094
 30
0.0
 10
0.9740125218209464
 20
-10.54040560540094
 30
0.0
 10
0.9714083552200665
 20
-10.54165421651204
 30
0.0
 10
0.9750027995737076
 20
-10.54268477206761
 30
0.0
 10
0.977688910616962
 20
-10.54448893873428
 30
0.0
 10
0.9794652994609754
 20
-10.54707921651205
 30
0.0
 10
0.9812291883053047
 20
-10.54966949428982
 30
0.0
 10
0.9821236327271536
 20
-10.55277504984537
 30
0.0
 10
0.9821236327271536
 20
-10.5564236609565
 30
0.0
 10
0.9821236327271536
 20
-10.55935421651204
 30
0.0
 10
0.9815541882970945
 20
-10.56189032762316
 30
0.0
 10
0.9804152994369764
 20
-10.56404727206761
 30
0.0
 10
0.9792625216883203
 20
-10.56619032762316
 30
0.0
 10
0.9777291883937221
 20
-10.56793893873426
 30
0.0
 10
0.9757764106652758
 20
-10.56929588317871
 30
0.0
 10
0.9738500218250515
 20
-10.57066532762315
 30
0.0
 10
0.9716527996583357
 20
-10.57166949428981
 30
0.0
 10
0.9691708552765905
 20
-10.57232088317872
 30
0.0
 10
0.9666889108948453
 20
-10.57297088317872
 30
0.0
 10
0.9641527998478017
 20
-10.5732972720676
 30
0.0
 10
0.9615347443583838
 20
-10.5732972720676
 30
0.0
 10
0.9615347443583838
 20
-10.5732972720676
 30
0.0
 10
0.9332680784057932
 20
-10.5732972720676
 30
0.0
 10
0.9332680784057932
 20
-10.5732972720676
 30
0.0
 10
0.9332680784057932
 20
-10.5732972720676
 30
0.0
 10
0.9332680784057932
 20
-10.5150972720676
 30
0.0
 10
0.9332680784057932
 20
-10.5150972720676
 30
0.0
 10
0.9332680784057932
 20
-10.5150972720676
 30
0.0
 10
0.9606930777129794
 20
-10.5150972720676
 30
0.0
 10
0.9606930777129794
 20
-10.5150972720676
 30
0.0
 10
0.9606930777129794
 20
-10.5150972720676
 30
0.0
 10
0.9606930777129794
 20
-10.5150972720676
 30
0.0
 10
0.9606930777129794
 20
-10.5150972720676
 30
0.0
  0
SPLINE
  5
A5
330
A0
100
AcDbEntity
  8
Layer 2
370
     0
100
AcDbSpline
210
0.0
220
0.0
230
1.0
 70
    11
 71
     3
 72
    32
 73
    28
 74
     0
 42
0.0000000001
 43
0.0000000001
 12
1.0
 22
0.0
 32
0.0
 13
1.0
 23
0.0
 33
0.0
 40
0.0
 40
0.0
 40
0.0
 40
0.0
 40
1.0
 40
1.0
 40
1.0
 40
2.0
 40
2.0
 40
2.0
 40
3.0
 40
3.0
 40
3.0
 40
4.0
 40
4.0
 40
4.0
 40
5.0
 40
5.0
 40
5.0
 40
6.0
 40
6.0
 40
6.0
 40
7.0
 40
7.0
 40
7.0
 40
8.0
 40
8.0
 40
8.0
 40
9.0
 40
9.0
 40
9.0
 40
9.0
 10
0.9590666888651765
 20
-10.53862921651204
 30
0.0
 10
0.9613444665854128
 20
-10.53862921651204
 30
0.0
 10
0.9632305776488768
 20
-10.53808616095648
 30
0.0
 10
0.9646944665007847
 20
-10.53700143873428
 30
0.0
 10
0.9661736331300845
 20
-10.53591671651204
 30
0.0
 10
0.9669055775560385
 20
-10.53416671651204
 30
0.0
 10
0.9669055775560385
 20
-10.53172504984539
 30
0.0
 10
0.9669055775560385
 20
-10.53036949428982
 30
0.0
 10
0.9666611331177692
 20
-10.52925699428983
 30
0.0
 10
0.9661736331300845
 20
-10.52838893873427
 30
0.0
 10
0.965670855365008
 20
-10.52752088317872
 30
0.0
 10
0.9650333553811126
 20
-10.52684310540093
 30
0.0
 10
0.9642069665131
 20
-10.52635421651204
 30
0.0
 10
0.9633930776447717
 20
-10.52586532762315
 30
0.0
 10
0.9624569665573087
 20
-10.52551393873427
 30
0.0
 10
0.9613986332507112
 20
-10.52533754984536
 30
0.0
 10
0.9603277999444293
 20
-10.52514727206759
 30
0.0
 10
0.9592291888610714
 20
-10.52505282762316
 30
0.0
 10
0.9580889111120996
 20
-10.52505282762316
 30
0.0
 10
0.9580889111120996
 20
-10.52505282762316
 30
0.0
 10
0.9460861336375375
 20
-10.52505282762316
 30
0.0
 10
0.9460861336375375
 20
-10.52505282762316
 30
0.0
 10
0.9460861336375375
 20
-10.52505282762316
 30
0.0
 10
0.9460861336375375
 20
-10.53862921651204
 30
0.0
 10
0.9460861336375375
 20
-10.53862921651204
 30
0.0
 10
0.9460861336375375
 20
-10.53862921651204
 30
0.0
 10
0.9590666888651765
 20
-10.53862921651204
 30
0.0
 10
0.9590666888651765
 20
-10.53862921651204
 30
0.0
  0
SPLINE
  5
A6
330
A0
100
AcDbEntity
  8
Layer 2
370
     0
100
AcDbSpline
210
0.0
220
0.0
230
1.0
 70
    11
 71
     3
 72
    32
 73
    28
 74
     0
 42
0.0000000001
 43
0.0000000001
 12
1.0
 22
0.0
 32
0.0
 13
1.0
 23
0.0
 33
0.0
 40
0.0
 40
0.0
 40
0.0
 40
0.0
 40
1.0
 40
1.0
 40
1.0
 40
2.0
 40
2.0
 40
2.0
 40
3.0
 40
3.0
 40
3.0
 40
4.0
 40
4.0
 40
4.0
 40
5.0
 40
5.0
 40
5.0
 40
6.0
 40
6.0
 40
6.0
 40
7.0
 40
7.0
 40
7.0
 40
8.0
 40
8.0
 40
8.0
 40
9.0
 40
9.0
 40
9.0
 40
9.0
 10
0.9598125221796686
 20
-10.56334171651204
 30
0.0
 10
0.9610736332589214
 20
-10.56334171651204
 30
0.0
 10
0.9622666887843377
 20
-10.56321949428982
 30
0.0
 10
0.9634069665333097
 20
-10.56297504984539
 30
0.0
 10
0.9645458553934279
 20
-10.56271810540094
 30
0.0
 10
0.9655500220347272
 20
-10.5623111609565
 30
0.0
 10
0.966430577568038
 20
-10.56175421651205
 30
0.0
 10
0.9673125219902027
 20
-10.56117088317872
 30
0.0
 10
0.9679902997508583
 20
-10.56039866095648
 30
0.0
 10
0.968505577515619
 20
-10.5594222720676
 30
0.0
 10
0.9690222441692337
 20
-10.55844588317872
 30
0.0
 10
0.9692931755913479
 20
-10.5571972720676
 30
0.0
 10
0.9692931755913479
 20
-10.55567782762316
 30
0.0
 10
0.9692931755913479
 20
-10.55269449428983
 30
0.0
 10
0.9684514108503208
 20
-10.55055143873427
 30
0.0
 10
0.9667569664486816
 20
-10.54927643873427
 30
0.0
 10
0.9650611331581886
 20
-10.54800143873427
 30
0.0
 10
0.9628361332143969
 20
-10.54737782762315
 30
0.0
 10
0.960055577729084
 20
-10.54737782762315
 30
0.0
 10
0.960055577729084
 20
-10.54737782762315
 30
0.0
 10
0.9460861336375375
 20
-10.54737782762315
 30
0.0
 10
0.9460861336375375
 20
-10.54737782762315
 30
0.0
 10
0.9460861336375375
 20
-10.54737782762315
 30
0.0
 10
0.9460861336375375
 20
-10.56334171651204
 30
0.0
 10
0.9460861336375375
 20
-10.56334171651204
 30
0.0
 10
0.9460861336375375
 20
-10.56334171651204
 30
0.0
 10
0.9598125221796686
 20
-10.56334171651204
 30
0.0
 10
0.9598125221796686
 20
-10.56334171651204
 30
0.0
  0
POLYLINE
  5
A7
330
A0
100
AcDbEntity
  8
Layer 2
370
     0
100
AcDb2dPolyline
 66
     1
 10
0.0
 20
0.0
 30
0.0
  0
VERTEX
  5
A8
330
A7
100
AcDbEntity
  8
Layer 2
370
     0
100
AcDbVertex
100
AcDb2dVertex
 10
0.9843750215591677
 20
-10.5150972720676
 30
0.0
  0
VERTEX
  5
A9
330
A7
100
AcDbEntity
  8
Layer 2
370
     0
100
AcDbVertex
100
AcDb2dVertex
 10
0.9987250211966562
 20
-10.5150972720676
 30
0.0
  0
VERTEX
  5
AA
330
A7
100
AcDbEntity
  8
Layer 2
370
     0
100
AcDbVertex
100
AcDb2dVertex
 10
1.012369465296413
 20
-10.53808616095648
 30
0.0
  0
VERTEX
  5
AB
330
A7
100
AcDbEntity
  8
Layer 2
370
     0
100
AcDbVertex
100
AcDb2dVertex
 10
1.025919464954111
 20
-10.5150972720676
 30
0.0
  0
VERTEX
  5
AC
330
A7
100
AcDbEntity
  8
Layer 2
370
     0
100
AcDbVertex
100
AcDb2dVertex
 10
1.040202797926617
 20
-10.5150972720676
 30
0.0
  0
VERTEX
  5
AD
330
A7
100
AcDbEntity
  8
Layer 2
370
     0
100
AcDbVertex
100
AcDb2dVertex
 10
1.018581965139472
 20
-10.55095838317872
 30
0.0
  0
VERTEX
  5
AE
330
A7
100
AcDbEntity
  8
Layer 2
370
     0
100
AcDbVertex
100
AcDb2dVertex
 10
1.018581965139472
 20
-10.5732972720676
 30
0.0
  0
VERTEX
  5
AF
330
A7
100
AcDbEntity
  8
Layer 2
370
     0
100
AcDbVertex
100
AcDb2dVertex
 10
1.005751508924681
 20
-10.5732972720676
 30
0.0
  0
VERTEX
  5
B0
330
A7
100
AcDbEntity
  8
Layer 2
370
     0
100
AcDbVertex
100
AcDb2dVertex
 10
1.005751508924681
 20
-10.55063338317872
 30
0.0
  0
VERTEX
  5
B1
330
A7
100
AcDbEntity
  8
Layer 2
370
     0
100
AcDbVertex
100
AcDb2dVertex
 10
0.9843750215591677
 20
-10.5150972720676
 30
0.0
  0
SEQEND
  5
B2
330
A7
100
AcDbEntity
  8
Layer 2
370
     0
  0
ENDBLK
  5
A3
330
A0
100
AcDbEntity
  8
0
100
AcDbBlockEnd
  0
BLOCK
  5
B5
330
B3
100
AcDbEntity
  8
0
100
AcDbBlockBegin
  2
block 10
 70
     0
 10
0.0
 20
0.0
 30
0.0
  3
block 10
  1

  0
SPLINE
  5
B7
330
B3
100
AcDbEntity
  8
Layer 2
370
     0
100
AcDbSpline
210
0.0
220
0.0
230
1.0
 70
    11
 71
     3
 72
   155
 73
   151
 74
     0
 42
0.0000000001
 43
0.0000000001
 12
1.0
 22
0.0
 32
0.0
 13
1.0
 23
0.0
 33
0.0
 40
0.0
 40
0.0
 40
0.0
 40
0.0
 40
1.0
 40
1.0
 40
1.0
 40
2.0
 40
2.0
 40
2.0
 40
3.0
 40
3.0
 40
3.0
 40
4.0
 40
4.0
 40
4.0
 40
5.0
 40
5.0
 40
5.0
 40
6.0
 40
6.0
 40
6.0
 40
7.0
 40
7.0
 40
7.0
 40
8.0
 40
8.0
 40
8.0
 40
9.0
 40
9.0
 40
9.0
 40
10.0
 40
10.0
 40
10.0
 40
11.0
 40
11.0
 40
11.0
 40
12.0
 40
12.0
 40
12.0
 40
13.0
 40
13.0
 40
13.0
 40
14.0
 40
14.0
 40
14.0
 40
15.0
 40
15.0
 40
15.0
 40
16.0
 40
16.0
 40
16.0
 40
17.0
 40
17.0
 40
17.0
 40
18.0
 40
18.0
 40
18.0
 40
19.0
 40
19.0
 40
19.0
 40
20.0
 40
20.0
 40
20.0
 40
21.0
 40
21.0
 40
21.0
 40
22.0
 40
22.0
 40
22.0
 40
23.0
 40
23.0
 40
23.0
 40
24.0
 40
24.0
 40
24.0
 40
25.0
 40
25.0
 40
25.0
 40
26.0
 40
26.0
 40
26.0
 40
27.0
 40
27.0
 40
27.0
 40
28.0
 40
28.0
 40
28.0
 40
29.0
 40
29.0
 40
29.0
 40
30.0
 40
30.0
 40
30.0
 40
31.0
 40
31.0
 40
31.0
 40
32.0
 40
32.0
 40
32.0
 40
33.0
 40
33.0
 40
33.0
 40
34.0
 40
34.0
 40
34.0
 40
35.0
 40
35.0
 40
35.0
 40
36.0
 40
36.0
 40
36.0
 40
37.0
 40
37.0
 40
37.0
 40
38.0
 40
38.0
 40
38.0
 40
39.0
 40
39.0
 40
39.0
 40
40.0
 40
40.0
 40
40.0
 40
41.0
 40
41.0
 40
41.0
 40
42.0
 40
42.0
 40
42.0
 40
43.0
 40
43.0
 40
43.0
 40
44.0
 40
44.0
 40
44.0
 40
45.0
 40
45.0
 40
45.0
 40
46.0
 40
46.0
 40
46.0
 40
47.0
 40
47.0
 40
47.0
 40
48.0
 40
48.0
 40
48.0
 40
49.0
 40
49.0
 40
49.0
 40
50.0
 40
50.0
 40
50.0
 40
50.0
 10
1.400566677711949
 20
-10.55890699428983
 30
0.0
 10
1.401286122138218
 20
-10.56026254984537
 30
0.0
 10
1.402208344337143
 20
-10.56136116095649
 30
0.0
 10
1.403375010974337
 20
-10.56220282762314
 30
0.0
 10
1.404541677611532
 20
-10.56305699428983
 30
0.0
 10
1.405897233132843
 20
-10.56368060540093
 30
0.0
 10
1.407484733092739
 20
-10.56408754984538
 30
0.0
 10
1.409044455275559
 20
-10.56449449428982
 30
0.0
 10
1.410672233012216
 20
-10.56469727206761
 30
0.0
 10
1.412368066302709
 20
-10.56469727206761
 30
0.0
 10
1.413493066274289
 20
-10.56469727206761
 30
0.0
 10
1.414713899576782
 20
-10.56460282762315
 30
0.0
 10
1.416015397813579
 20
-10.56441254984538
 30
0.0
 10
1.417318066177662
 20
-10.56422366095649
 30
0.0
 10
1.418538899480154
 20
-10.56385699428981
 30
0.0
 10
1.419677788340272
 20
-10.56330143873427
 30
0.0
 10
1.420818066089244
 20
-10.5627722720676
 30
0.0
 10
1.421766677176391
 20
-10.56201254984537
 30
0.0
 10
1.422526399379421
 20
-10.56106254984537
 30
0.0
 10
1.423286121582451
 20
-10.56011393873428
 30
0.0
 10
1.42366528823954
 20
-10.55890699428983
 30
0.0
 10
1.42366528823954
 20
-10.55744171651205
 30
0.0
 10
1.42366528823954
 20
-10.55586810540093
 30
0.0
 10
1.423163899363317
 20
-10.55459310540093
 30
0.0
 10
1.422147232722333
 20
-10.55361671651205
 30
0.0
 10
1.421156954969572
 20
-10.55262643873428
 30
0.0
 10
1.419840288336167
 20
-10.55181254984538
 30
0.0
 10
1.418213899488364
 20
-10.55116116095648
 30
0.0
 10
1.416586121751708
 20
-10.55051116095648
 30
0.0
 10
1.414741677353858
 20
-10.54994032762316
 30
0.0
 10
1.412679177405961
 20
-10.54945282762315
 30
0.0
 10
1.410618066346918
 20
-10.54896393873426
 30
0.0
 10
1.408529286702484
 20
-10.54842227206761
 30
0.0
 10
1.406412510897604
 20
-10.5478111609565
 30
0.0
 10
1.404229177619426
 20
-10.54726949428982
 30
0.0
 10
1.40212650892469
 20
-10.54660421651205
 30
0.0
 10
1.400065288835726
 20
-10.54583060540093
 30
0.0
 10
1.398004177776683
 20
-10.54503060540093
 30
0.0
 10
1.396145844490295
 20
-10.54401393873427
 30
0.0
 10
1.3945041778651
 20
-10.54276532762315
 30
0.0
 10
1.392904286702484
 20
-10.54151810540093
 30
0.0
 10
1.39157501127243
 20
-10.5399583831787
 30
0.0
 10
1.39057095336913
 20
-10.53808616095648
 30
0.0
 10
1.389568066878686
 20
-10.53620143873427
 30
0.0
 10
1.389079178002147
 20
-10.53392227206761
 30
0.0
 10
1.389079178002147
 20
-10.53126393873425
 30
0.0
 10
1.389079178002147
 20
-10.52828060540092
 30
0.0
 10
1.389702789097504
 20
-10.52569032762315
 30
0.0
 10
1.390977789065295
 20
-10.52347921651204
 30
0.0
 10
1.392252789033086
 20
-10.52128199428982
 30
0.0
 10
1.393934733435041
 20
-10.51945004984537
 30
0.0
 10
1.395995844494084
 20
-10.51797227206761
 30
0.0
 10
1.398058344441981
 20
-10.51650699428981
 30
0.0
 10
1.400390397813579
 20
-10.5154222720676
 30
0.0
 10
1.402994455428395
 20
-10.51471671651204
 30
0.0
 10
1.405598731146913
 20
-10.51401116095649
 30
0.0
 10
1.408202788630155
 20
-10.51365838317871
 30
0.0
 10
1.410807064480246
 20
-10.51365838317871
 30
0.0
 10
1.413859732931693
 20
-10.51365838317871
 30
0.0
 10
1.416775010635825
 20
-10.51399866095648
 30
0.0
 10
1.419569455009676
 20
-10.51469032762316
 30
0.0
 10
1.422363899383527
 20
-10.51535421651205
 30
0.0
 10
1.424845843765272
 20
-10.51646671651204
 30
0.0
 10
1.427029286702464
 20
-10.51797227206761
 30
0.0
 10
1.429200010321943
 20
-10.51950421651206
 30
0.0
 10
1.43090834361212
 20
-10.52144449428983
 30
0.0
 10
1.432197232468449
 20
-10.52381810540093
 30
0.0
 10
1.433458343547702
 20
-10.52619171651205
 30
0.0
 10
1.434109732420135
 20
-10.52905282762317
 30
0.0
 10
1.434109732420135
 20
-10.53241671651204
 30
0.0
 10
1.434109732420135
 20
-10.53241671651204
 30
0.0
 10
1.421686121622871
 20
-10.53241671651204
 30
0.0
 10
1.421686121622871
 20
-10.53241671651204
 30
0.0
 10
1.421576399403421
 20
-10.53068060540093
 30
0.0
 10
1.421223731146913
 20
-10.52924310540094
 30
0.0
 10
1.420600010539197
 20
-10.52810421651204
 30
0.0
 10
1.41997639944384
 20
-10.52695143873426
 30
0.0
 10
1.419148621686974
 20
-10.52606949428981
 30
0.0
 10
1.418118066157452
 20
-10.52541810540093
 30
0.0
 10
1.41708751062793
 20
-10.52475421651204
 30
0.0
 10
1.415906955102198
 20
-10.52429310540093
 30
0.0
 10
1.414591677357647
 20
-10.5240347720676
 30
0.0
 10
1.413276399613096
 20
-10.52375004984538
 30
0.0
 10
1.411811121872334
 20
-10.52361393873427
 30
0.0
 10
1.410237620035812
 20
-10.52361393873427
 30
0.0
 10
1.40923473304853
 20
-10.52361393873427
 30
0.0
 10
1.408202788630155
 20
-10.5237236609565
 30
0.0
 10
1.407172233100634
 20
-10.52394032762315
 30
0.0
 10
1.406141677571112
 20
-10.52415699428982
 30
0.0
 10
1.405205566483649
 20
-10.52453616095648
 30
0.0
 10
1.404365288727099
 20
-10.52507921651204
 30
0.0
 10
1.403523622081694
 20
-10.52563477206761
 30
0.0
 10
1.4028319554325
 20
-10.52630004984538
 30
0.0
 10
1.402290288779517
 20
-10.52712782762316
 30
0.0
 10
1.401761122126219
 20
-10.52794171651203
 30
0.0
 10
1.401476399911189
 20
-10.5289722720676
 30
0.0
 10
1.401476399911189
 20
-10.53021949428982
 30
0.0
 10
1.401476399911189
 20
-10.5313722720676
 30
0.0
 10
1.40170695546092
 20
-10.53229449428982
 30
0.0
 10
1.40212650892469
 20
-10.5329861609565
 30
0.0
 10
1.402561122106009
 20
-10.53370560540093
 30
0.0
 10
1.403429177639636
 20
-10.53435699428981
 30
0.0
 10
1.404704177607426
 20
-10.53495282762315
 30
0.0
 10
1.405979177575217
 20
-10.53555004984537
 30
0.0
 10
1.407741677530693
 20
-10.53614727206761
 30
0.0
 10
1.40999445525156
 20
-10.53674449428983
 30
0.0
 10
1.412245844083575
 20
-10.53734032762314
 30
0.0
 10
1.41520278845332
 20
-10.53811393873426
 30
0.0
 10
1.418837510583722
 20
-10.53902227206759
 30
0.0
 10
1.419922232778541
 20
-10.53925282762316
 30
0.0
 10
1.421413899407526
 20
-10.53964588317871
 30
0.0
 10
1.42334028824775
 20
-10.54021671651205
 30
0.0
 10
1.425266677087974
 20
-10.5407986609565
 30
0.0
 10
1.427191677039344
 20
-10.54169449428981
 30
0.0
 10
1.429091676991346
 20
-10.54294171651206
 30
0.0
 10
1.430990288054494
 20
-10.54420421651204
 30
0.0
 10
1.432618065791151
 20
-10.5458722720676
 30
0.0
 10
1.434013899089223
 20
-10.5479611609565
 30
0.0
 10
1.435398621276464
 20
-10.55005004984537
 30
0.0
 10
1.436090287925658
 20
-10.55272088317871
 30
0.0
 10
1.436090287925658
 20
-10.55600421651204
 30
0.0
 10
1.436090287925658
 20
-10.55866254984537
 30
0.0
 10
1.435561121272359
 20
-10.56113060540093
 30
0.0
 10
1.434530565742837
 20
-10.5634222720676
 30
0.0
 10
1.433498621324462
 20
-10.56570143873427
 30
0.0
 10
1.431966676918718
 20
-10.56768199428982
 30
0.0
 10
1.429932064480252
 20
-10.56932366095649
 30
0.0
 10
1.427897232577076
 20
-10.57099171651205
 30
0.0
 10
1.425361121530033
 20
-10.57227921651204
 30
0.0
 10
1.422336121606451
 20
-10.57320282762316
 30
0.0
 10
1.419338899459945
 20
-10.57413754984537
 30
0.0
 10
1.4158527884369
 20
-10.57458616095649
 30
0.0
 10
1.411865288537633
 20
-10.57458616095649
 30
0.0
 10
1.408665288618471
 20
-10.57458616095649
 30
0.0
 10
1.405544455363977
 20
-10.57419171651206
 30
0.0
 10
1.402533344328933
 20
-10.57340560540092
 30
0.0
 10
1.399522233293889
 20
-10.57260560540094
 30
0.0
 10
1.396863900027711
 20
-10.57137088317871
 30
0.0
 10
1.39454445564186
 20
-10.56968893873426
 30
0.0
 10
1.392238900144548
 20
-10.56799449428983
 30
0.0
 10
1.390408344635236
 20
-10.56585143873427
 30
0.0
 10
1.389038900225387
 20
-10.56323338317871
 30
0.0
 10
1.387682064480259
 20
-10.56062921651205
 30
0.0
 10
1.387018066943104
 20
-10.5575222720676
 30
0.0
 10
1.387084842258042
 20
-10.55392921651204
 30
0.0
 10
1.387084842258042
 20
-10.55392921651204
 30
0.0
 10
1.399509733294205
 20
-10.55392921651204
 30
0.0
 10
1.399509733294205
 20
-10.55392921651204
 30
0.0
 10
1.399509733294205
 20
-10.55588199428982
 30
0.0
 10
1.399848731146929
 20
-10.55755004984538
 30
0.0
 10
1.400566677711949
 20
-10.55890699428983
 30
0.0
  0
POLYLINE
  5
B8
330
B3
100
AcDbEntity
  8
Layer 2
370
     0
100
AcDb2dPolyline
 66
     1
 10
0.0
 20
0.0
 30
0.0
  0
VERTEX
  5
B9
330
B8
100
AcDbEntity
  8
Layer 2
370
     0
100
AcDbVertex
100
AcDb2dVertex
 10
1.472697231445333
 20
-10.5150972720676
 30
0.0
  0
VERTEX
  5
BA
330
B8
100
AcDbEntity
  8
Layer 2
370
     0
100
AcDbVertex
100
AcDb2dVertex
 10
1.494466675339835
 20
-10.5732972720676
 30
0.0
  0
VERTEX
  5
BB
330
B8
100
AcDbEntity
  8
Layer 2
370
     0
100
AcDbVertex
100
AcDb2dVertex
 10
1.481175009008944
 20
-10.5732972720676
 30
0.0
  0
VERTEX
  5
BC
330
B8
100
AcDbEntity
  8
Layer 2
370
     0
100
AcDbVertex
100
AcDb2dVertex
 10
1.476766675786975
 20
-10.56033060540092
 30
0.0
  0
VERTEX
  5
BD
330
B8
100
AcDbEntity
  8
Layer 2
370
     0
100
AcDbVertex
100
AcDb2dVertex
 10
1.454997231892472
 20
-10.56033060540092
 30
0.0
  0
VERTEX
  5
BE
330
B8
100
AcDbEntity
  8
Layer 2
370
     0
100
AcDbVertex
100
AcDb2dVertex
 10
1.450440287563146
 20
-10.5732972720676
 30
0.0
  0
VERTEX
  5
BF
330
B8
100
AcDbEntity
  8
Layer 2
370
     0
100
AcDbVertex
100
AcDb2dVertex
 10
1.437554176777566
 20
-10.5732972720676
 30
0.0
  0
VERTEX
  5
C0
330
B8
100
AcDbEntity
  8
Layer 2
370
     0
100
AcDbVertex
100
AcDb2dVertex
 10
1.459554176221799
 20
-10.5150972720676
 30
0.0
  0
VERTEX
  5
C1
330
B8
100
AcDbEntity
  8
Layer 2
370
     0
100
AcDbVertex
100
AcDb2dVertex
 10
1.472697231445333
 20
-10.5150972720676
 30
0.0
  0
SEQEND
  5
C2
330
B8
100
AcDbEntity
  8
Layer 2
370
     0
  0
POLYLINE
  5
C3
330
B3
100
AcDbEntity
  8
Layer 2
370
     0
100
AcDb2dPolyline
 66
     1
 10
0.0
 20
0.0
 30
0.0
  0
VERTEX
  5
C4
330
C3
100
AcDbEntity
  8
Layer 2
370
     0
100
AcDbVertex
100
AcDb2dVertex
 10
1.473429175871287
 20
-10.55078199428981
 30
0.0
  0
VERTEX
  5
C5
330
C3
100
AcDbEntity
  8
Layer 2
370
     0
100
AcDbVertex
100
AcDb2dVertex
 10
1.466091676056648
 20
-10.52943338317871
 30
0.0
  0
VERTEX
  5
C6
330
C3
100
AcDbEntity
  8
Layer 2
370
     0
100
AcDbVertex
100
AcDb2dVertex
 10
1.465915287172215
 20
-10.52943338317871
 30
0.0
  0
VERTEX
  5
C7
330
C3
100
AcDbEntity
  8
Layer 2
370
     0
100
AcDbVertex
100
AcDb2dVertex
 10
1.458347231807844
 20
-10.55078199428981
 30
0.0
  0
VERTEX
  5
C8
330
C3
100
AcDbEntity
  8
Layer 2
370
     0
100
AcDbVertex
100
AcDb2dVertex
 10
1.473429175871287
 20
-10.55078199428981
 30
0.0
  0
SEQEND
  5
C9
330
C3
100
AcDbEntity
  8
Layer 2
370
     0
  0
ENDBLK
  5
B6
330
B3
100
AcDbEntity
  8
0
100
AcDbBlockEnd
  0
BLOCK
  5
CC
330
CA
100
AcDbEntity
  8
0
100
AcDbBlockBegin
  2
block 11
 70
     0
 10
0.0
 20
0.0
 30
0.0
  3
block 11
  1

  0
POLYLINE
  5
CE
330
CA
100
AcDbEntity
  8
Layer 2
370
     0
100
AcDb2dPolyline
 66
     1
 10
0.0
 20
0.0
 30
0.0
  0
VERTEX
  5
CF
330
CE
100
AcDbEntity
  8
Layer 2
370
     0
100
AcDbVertex
100
AcDb2dVertex
 10
1.172688905690848
 20
-10.5150972720676
 30
0.0
  0
VERTEX
  5
D0
330
CE
100
AcDbEntity
  8
Layer 2
370
     0
100
AcDbVertex
100
AcDb2dVertex
 10
1.197022238409469
 20
-10.55413199428982
 30
0.0
  0
VERTEX
  5
D1
330
CE
100
AcDbEntity
  8
Layer 2
370
     0
100
AcDbVertex
100
AcDb2dVertex
 10
1.197156960628288
 20
-10.55413199428982
 30
0.0
  0
VERTEX
  5
D2
330
CE
100
AcDbEntity
  8
Layer 2
370
     0
100
AcDbVertex
100
AcDb2dVertex
 10
1.197156960628288
 20
-10.5150972720676
 30
0.0
  0
VERTEX
  5
D3
330
CE
100
AcDbEntity
  8
Layer 2
370
     0
100
AcDbVertex
100
AcDb2dVertex
 10
1.209161126991704
 20
-10.5150972720676
 30
0.0
  0
VERTEX
  5
D4
330
CE
100
AcDbEntity
  8
Layer 2
370
     0
100
AcDbVertex
100
AcDb2dVertex
 10
1.209161126991704
 20
-10.5732972720676
 30
0.0
  0
VERTEX
  5
D5
330
CE
100
AcDbEntity
  8
Layer 2
370
     0
100
AcDbVertex
100
AcDb2dVertex
 10
1.196356960648498
 20
-10.5732972720676
 30
0.0
  0
VERTEX
  5
D6
330
CE
100
AcDbEntity
  8
Layer 2
370
     0
100
AcDbVertex
100
AcDb2dVertex
 10
1.172119461260788
 20
-10.53432921651205
 30
0.0
  0
VERTEX
  5
D7
330
CE
100
AcDbEntity
  8
Layer 2
370
     0
100
AcDbVertex
100
AcDb2dVertex
 10
1.171970850153432
 20
-10.53432921651205
 30
0.0
  0
VERTEX
  5
D8
330
CE
100
AcDbEntity
  8
Layer 2
370
     0
100
AcDbVertex
100
AcDb2dVertex
 10
1.171970850153432
 20
-10.5732972720676
 30
0.0
  0
VERTEX
  5
D9
330
CE
100
AcDbEntity
  8
Layer 2
370
     0
100
AcDbVertex
100
AcDb2dVertex
 10
1.159952794901478
 20
-10.5732972720676
 30
0.0
  0
VERTEX
  5
DA
330
CE
100
AcDbEntity
  8
Layer 2
370
     0
100
AcDbVertex
100
AcDb2dVertex
 10
1.159952794901478
 20
-10.5150972720676
 30
0.0
  0
VERTEX
  5
DB
330
CE
100
AcDbEntity
  8
Layer 2
370
     0
100
AcDbVertex
100
AcDb2dVertex
 10
1.172688905690848
 20
-10.5150972720676
 30
0.0
  0
SEQEND
  5
DC
330
CE
100
AcDbEntity
  8
Layer 2
370
     0
  0
SPLINE
  5
DD
330
CA
100
AcDbEntity
  8
Layer 2
370
     0
100
AcDbSpline
210
0.0
220
0.0
230
1.0
 70
    11
 71
     3
 72
   101
 73
    97
 74
     0
 42
0.0000000001
 43
0.0000000001
 12
1.0
 22
0.0
 32
0.0
 13
1.0
 23
0.0
 33
0.0
 40
0.0
 40
0.0
 40
0.0
 40
0.0
 40
1.0
 40
1.0
 40
1.0
 40
2.0
 40
2.0
 40
2.0
 40
3.0
 40
3.0
 40
3.0
 40
4.0
 40
4.0
 40
4.0
 40
5.0
 40
5.0
 40
5.0
 40
6.0
 40
6.0
 40
6.0
 40
7.0
 40
7.0
 40
7.0
 40
8.0
 40
8.0
 40
8.0
 40
9.0
 40
9.0
 40
9.0
 40
10.0
 40
10.0
 40
10.0
 40
11.0
 40
11.0
 40
11.0
 40
12.0
 40
12.0
 40
12.0
 40
13.0
 40
13.0
 40
13.0
 40
14.0
 40
14.0
 40
14.0
 40
15.0
 40
15.0
 40
15.0
 40
16.0
 40
16.0
 40
16.0
 40
17.0
 40
17.0
 40
17.0
 40
18.0
 40
18.0
 40
18.0
 40
19.0
 40
19.0
 40
19.0
 40
20.0
 40
20.0
 40
20.0
 40
21.0
 40
21.0
 40
21.0
 40
22.0
 40
22.0
 40
22.0
 40
23.0
 40
23.0
 40
23.0
 40
24.0
 40
24.0
 40
24.0
 40
25.0
 40
25.0
 40
25.0
 40
26.0
 40
26.0
 40
26.0
 40
27.0
 40
27.0
 40
27.0
 40
28.0
 40
28.0
 40
28.0
 40
29.0
 40
29.0
 40
29.0
 40
30.0
 40
30.0
 40
30.0
 40
31.0
 40
31.0
 40
31.0
 40
32.0
 40
32.0
 40
32.0
 40
32.0
 10
1.257758347986257
 20
-10.53060004984539
 30
0.0
 10
1.256998625783227
 20
-10.52936532762316
 30
0.0
 10
1.25605001469608
 20
-10.52829449428982
 30
0.0
 10
1.254909736947108
 20
-10.52737088317872
 30
0.0
 10
1.25377084808699
 20
-10.5264486609565
 30
0.0
 10
1.252469459230977
 20
-10.52571671651205
 30
0.0
 10
1.251030570378437
 20
-10.52521532762315
 30
0.0
 10
1.249593070414752
 20
-10.52468616095648
 30
0.0
 10
1.248075014897545
 20
-10.52442782762316
 30
0.0
 10
1.246527792714409
 20
-10.52442782762316
 30
0.0
 10
1.243625015009962
 20
-10.52442782762316
 30
0.0
 10
1.24118473729383
 20
-10.52499727206759
 30
0.0
 10
1.239176404011232
 20
-10.52610977206761
 30
0.0
 10
1.237155570728949
 20
-10.5272222720676
 30
0.0
 10
1.235527792992293
 20
-10.52871393873427
 30
0.0
 10
1.234280570801578
 20
-10.53058616095649
 30
0.0
 10
1.233019459722325
 20
-10.5324708831787
 30
0.0
 10
1.232123626411622
 20
-10.53460143873427
 30
0.0
 10
1.231554181981563
 20
-10.53698754984538
 30
0.0
 10
1.230970848662966
 20
-10.53937504984538
 30
0.0
 10
1.230686126447937
 20
-10.54184310540093
 30
0.0
 10
1.230686126447937
 20
-10.54440699428983
 30
0.0
 10
1.230686126447937
 20
-10.54684866095648
 30
0.0
 10
1.230970848662966
 20
-10.54922227206761
 30
0.0
 10
1.231554181981563
 20
-10.55152782762315
 30
0.0
 10
1.232123626411622
 20
-10.55384727206759
 30
0.0
 10
1.233019459722325
 20
-10.55592227206759
 30
0.0
 10
1.234280570801578
 20
-10.55776671651205
 30
0.0
 10
1.235527792992293
 20
-10.55961116095649
 30
0.0
 10
1.237155570728949
 20
-10.56109032762316
 30
0.0
 10
1.239176404011232
 20
-10.56220282762314
 30
0.0
 10
1.24118473729383
 20
-10.56332782762315
 30
0.0
 10
1.243625015009962
 20
-10.56388477206759
 30
0.0
 10
1.246527792714409
 20
-10.56388477206759
 30
0.0
 10
1.25040695928308
 20
-10.56388477206759
 30
0.0
 10
1.25348612587196
 20
-10.56269032762316
 30
0.0
 10
1.255683348038676
 20
-10.56029032762315
 30
0.0
 10
1.257880570205392
 20
-10.55790282762316
 30
0.0
 10
1.259223731146929
 20
-10.55474171651205
 30
0.0
 10
1.259711125714704
 20
-10.55083616095648
 30
0.0
 10
1.259711125714704
 20
-10.55083616095648
 30
0.0
 10
1.272108347623746
 20
-10.55083616095648
 30
0.0
 10
1.272108347623746
 20
-10.55083616095648
 30
0.0
 10
1.271783347631956
 20
-10.55447088317871
 30
0.0
 10
1.270941680986551
 20
-10.55776671651205
 30
0.0
 10
1.26958612546524
 20
-10.5606972720676
 30
0.0
 10
1.268229181055075
 20
-10.56365421651205
 30
0.0
 10
1.266438903322523
 20
-10.56613616095648
 30
0.0
 10
1.264201403379047
 20
-10.56821116095648
 30
0.0
 10
1.261976403435256
 20
-10.57028616095648
 30
0.0
 10
1.259372236834376
 20
-10.57185977206761
 30
0.0
 10
1.25637501468787
 20
-10.5729583831787
 30
0.0
 10
1.253391681429902
 20
-10.57405699428983
 30
0.0
 10
1.250095848179828
 20
-10.57458616095649
 30
0.0
 10
1.246527792714409
 20
-10.57458616095649
 30
0.0
 10
1.242052792827457
 20
-10.57458616095649
 30
0.0
 10
1.238037515151114
 20
-10.57382643873426
 30
0.0
 10
1.234483348574233
 20
-10.57226671651205
 30
0.0
 10
1.230930570886206
 20
-10.57071949428983
 30
0.0
 10
1.227905570962624
 20
-10.56857643873428
 30
0.0
 10
1.225463904357639
 20
-10.56587782762315
 30
0.0
 10
1.22300973775297
 20
-10.56315143873427
 30
0.0
 10
1.221123626689506
 20
-10.55995004984538
 30
0.0
 10
1.219822237833493
 20
-10.55627504984538
 30
0.0
 10
1.218519460088626
 20
-10.55261254984538
 30
0.0
 10
1.217855571216508
 20
-10.54865282762315
 30
0.0
 10
1.217855571216508
 20
-10.54440699428983
 30
0.0
 10
1.217855571216508
 20
-10.54005282762316
 30
0.0
 10
1.218519460088626
 20
-10.53602504984537
 30
0.0
 10
1.219822237833493
 20
-10.53229449428982
 30
0.0
 10
1.221123626689506
 20
-10.52857921651204
 30
0.0
 10
1.22300973775297
 20
-10.5253236609565
 30
0.0
 10
1.225463904357639
 20
-10.52254310540093
 30
0.0
 10
1.227905570962624
 20
-10.51977643873427
 30
0.0
 10
1.230930570886206
 20
-10.51760560540093
 30
0.0
 10
1.234483348574233
 20
-10.51601949428982
 30
0.0
 10
1.238037515151114
 20
-10.51444588317872
 30
0.0
 10
1.242052792827457
 20
-10.51365838317871
 30
0.0
 10
1.246527792714409
 20
-10.51365838317871
 30
0.0
 10
1.249729181522424
 20
-10.51365838317871
 30
0.0
 10
1.252754181446006
 20
-10.51411949428982
 30
0.0
 10
1.255601403596302
 20
-10.51504310540094
 30
0.0
 10
1.258463903523989
 20
-10.51596532762316
 30
0.0
 10
1.26101390345957
 20
-10.5173208831787
 30
0.0
 10
1.263265397813585
 20
-10.51909727206761
 30
0.0
 10
1.265516681123598
 20
-10.52084727206759
 30
0.0
 10
1.267388903298524
 20
-10.52304449428983
 30
0.0
 10
1.268852792150432
 20
-10.5256486609565
 30
0.0
 10
1.270318069891194
 20
-10.52826671651203
 30
0.0
 10
1.271240292090119
 20
-10.53126393873425
 30
0.0
 10
1.271620847636061
 20
-10.53462782762315
 30
0.0
 10
1.271620847636061
 20
-10.53462782762315
 30
0.0
 10
1.259223731146929
 20
-10.53462782762315
 30
0.0
 10
1.259223731146929
 20
-10.53462782762315
 30
0.0
 10
1.25901945906551
 20
-10.53316254984538
 30
0.0
 10
1.258518070189287
 20
-10.5318208831787
 30
0.0
 10
1.257758347986257
 20
-10.53060004984539
 30
0.0
  0
ENDBLK
  5
CD
330
CA
100
AcDbEntity
  8
0
100
AcDbBlockEnd
  0
BLOCK
  5
E0
330
DE
100
AcDbEntity
  8
0
100
AcDbBlockBegin
  2
block 12
 70
     0
 10
0.0
 20
0.0
 30
0.0
  3
block 12
  1

  0
SPLINE
  5
E2
330
DE
100
AcDbEntity
  8
Layer 2
370
     0
100
AcDbSpline
210
0.0
220
0.0
230
1.0
 70
    11
 71
     3
 72
    23
 73
    19
 74
     0
 42
0.0000000001
 43
0.0000000001
 12
1.0
 22
0.0
 32
0.0
 13
1.0
 23
0.0
 33
0.0
 40
0.0
 40
0.0
 40
0.0
 40
0.0
 40
1.0
 40
1.0
 40
1.0
 40
2.0
 40
2.0
 40
2.0
 40
3.0
 40
3.0
 40
3.0
 40
4.0
 40
4.0
 40
4.0
 40
5.0
 40
5.0
 40
5.0
 40
6.0
 40
6.0
 40
6.0
 40
6.0
 10
1.542440285239031
 20
-10.35891393873428
 30
0.0
 10
1.542480563015791
 20
-10.41029310540092
 30
0.0
 10
1.500841675178789
 20
-10.45198616095649
 30
0.0
 10
1.449450009810385
 20
-10.45201393873428
 30
0.0
 10
1.398058344441981
 20
-10.45205421651205
 30
0.0
 10
1.356377789939365
 20
-10.41044171651204
 30
0.0
 10
1.356337512162604
 20
-10.35903616095649
 30
0.0
 10
1.356337512162604
 20
-10.35900977206759
 30
0.0
 10
1.356337512162604
 20
-10.35895560540093
 30
0.0
 10
1.356337512162604
 20
-10.35891393873428
 30
0.0
 10
1.356309734385528
 20
-10.30753616095649
 30
0.0
 10
1.397936122222846
 20
-10.26584310540094
 30
0.0
 10
1.449313898702712
 20
-10.26580143873427
 30
0.0
 10
1.500705564071116
 20
-10.26577504984539
 30
0.0
 10
1.542386118573732
 20
-10.30740143873426
 30
0.0
 10
1.542440285239031
 20
-10.35877921651205
 30
0.0
 10
1.542440285239031
 20
-10.35881949428982
 30
0.0
 10
1.542440285239031
 20
-10.35885977206759
 30
0.0
 10
1.542440285239031
 20
-10.35891393873428
 30
0.0
  0
INSERT
  5
E4
330
DE
100
AcDbEntity
  8
Layer 2
100
AcDbBlockReference
  2
block 13
 10
0.0
 20
0.0
 30
0.0
  0
ENDBLK
  5
E1
330
DE
100
AcDbEntity
  8
0
100
AcDbBlockEnd
  0
BLOCK
  5
E5
330
E3
100
AcDbEntity
  8
0
100
AcDbBlockBegin
  2
block 13
 70
     0
 10
0.0
 20
0.0
 30
0.0
  3
block 13
  1

  0
SPLINE
  5
E7
330
E3
100
AcDbEntity
  8
Layer 2
370
     0
100
AcDbSpline
210
0.0
220
0.0
230
1.0
 70
    11
 71
     3
 72
    29
 73
    25
 74
     0
 42
0.0000000001
 43
0.0000000001
 12
1.0
 22
0.0
 32
0.0
 13
1.0
 23
0.0
 33
0.0
 40
0.0
 40
0.0
 40
0.0
 40
0.0
 40
1.0
 40
1.0
 40
1.0
 40
2.0
 40
2.0
 40
2.0
 40
3.0
 40
3.0
 40
3.0
 40
4.0
 40
4.0
 40
4.0
 40
5.0
 40
5.0
 40
5.0
 40
6.0
 40
6.0
 40
6.0
 40
7.0
 40
7.0
 40
7.0
 40
8.0
 40
8.0
 40
8.0
 40
8.0
 10
1.448730565384115
 20
-10.25698616095648
 30
0.0
 10
1.420491677208601
 20
-10.25698616095648
 30
0.0
 10
1.396579177812681
 20
-10.2668458831787
 30
0.0
 10
1.377034733861971
 20
-10.28654032762317
 30
0.0
 10
1.356961123257962
 20
-10.30692643873426
 30
0.0
 10
1.346911123511846
 20
-10.33105560540093
 30
0.0
 10
1.346911123511846
 20
-10.35891393873428
 30
0.0
 10
1.346911123511846
 20
-10.38677366095648
 30
0.0
 10
1.356961123257962
 20
-10.41072643873427
 30
0.0
 10
1.377034733861971
 20
-10.4307736609565
 30
0.0
 10
1.397081955577758
 20
-10.45081949428982
 30
0.0
 10
1.420993066084823
 20
-10.46084310540093
 30
0.0
 10
1.448730565384115
 20
-10.46084310540093
 30
0.0
 10
1.476779286702468
 20
-10.46084310540093
 30
0.0
 10
1.501112620035807
 20
-10.45072504984538
 30
0.0
 10
1.52170139687405
 20
-10.43051532762315
 30
0.0
 10
1.541083340828866
 20
-10.41132366095649
 30
0.0
 10
1.550781951694969
 20
-10.38743893873427
 30
0.0
 10
1.550781951694969
 20
-10.35891393873428
 30
0.0
 10
1.550781951694969
 20
-10.33037782762315
 30
0.0
 10
1.540934729721509
 20
-10.30624727206759
 30
0.0
 10
1.521186119109289
 20
-10.28654032762317
 30
0.0
 10
1.501465286274146
 20
-10.2668458831787
 30
0.0
 10
1.477295842440273
 20
-10.25698616095648
 30
0.0
 10
1.448730565384115
 20
-10.25698616095648
 30
0.0
  0
SPLINE
  5
E8
330
E3
100
AcDbEntity
  8
Layer 2
370
     0
100
AcDbSpline
210
0.0
220
0.0
230
1.0
 70
    11
 71
     3
 72
    29
 73
    25
 74
     0
 42
0.0000000001
 43
0.0000000001
 12
1.0
 22
0.0
 32
0.0
 13
1.0
 23
0.0
 33
0.0
 40
0.0
 40
0.0
 40
0.0
 40
0.0
 40
1.0
 40
1.0
 40
1.0
 40
2.0
 40
2.0
 40
2.0
 40
3.0
 40
3.0
 40
3.0
 40
4.0
 40
4.0
 40
4.0
 40
5.0
 40
5.0
 40
5.0
 40
6.0
 40
6.0
 40
6.0
 40
7.0
 40
7.0
 40
7.0
 40
8.0
 40
8.0
 40
8.0
 40
8.0
 10
1.448975009822384
 20
-10.27533754984536
 30
0.0
 10
1.472113898126736
 20
-10.27533754984536
 30
0.0
 10
1.491754175408359
 20
-10.28348893873426
 30
0.0
 10
1.507920841666621
 20
-10.29980560540093
 30
0.0
 10
1.524251508924686
 20
-10.31593199428981
 30
0.0
 10
1.532416674381137
 20
-10.33562643873428
 30
0.0
 10
1.532416674381137
 20
-10.35891393873428
 30
0.0
 10
1.532416674381137
 20
-10.38235143873428
 30
0.0
 10
1.524413896805527
 20
-10.40180143873426
 30
0.0
 10
1.508423619431697
 20
-10.41726393873427
 30
0.0
 10
1.491591675412464
 20
-10.43390699428983
 30
0.0
 10
1.47176112035787
 20
-10.4422347720676
 30
0.0
 10
1.448975009822384
 20
-10.4422347720676
 30
0.0
 10
1.426188899286899
 20
-10.4422347720676
 30
0.0
 10
1.406522233117054
 20
-10.43398754984537
 30
0.0
 10
1.390029286702479
 20
-10.4175222720676
 30
0.0
 10
1.373536122839242
 20
-10.40104171651205
 30
0.0
 10
1.365288900825362
 20
-10.38151116095648
 30
0.0
 10
1.365288900825362
 20
-10.35891393873428
 30
0.0
 10
1.365288900825362
 20
-10.33631810540093
 30
0.0
 10
1.373616678392763
 20
-10.3166097720676
 30
0.0
 10
1.390286122416102
 20
-10.29980560540093
 30
0.0
 10
1.406277788678785
 20
-10.28348893873426
 30
0.0
 10
1.425836121518033
 20
-10.27533754984536
 30
0.0
 10
1.448975009822384
 20
-10.27533754984536
 30
0.0
  0
HATCH
  5
E9
330
E3
100
AcDbEntity
  8
Layer 2
 62
     7
420
 16777215
100
AcDbHatch
 10
0.0
 20
0.0
 30
0.0
210
0.0
220
0.0
230
1.0
  2
SOLID
 70
     1
 71
     0
 91
        2
 92
        1
 93
        1
 72
     4
 94
        3
 73
     0
 74
     1
 95
       29
 96
       25
 40
0.0
 40
0.0
 40
0.0
 40
0.0
 40
1.0
 40
1.0
 40
1.0
 40
2.0
 40
2.0
 40
2.0
 40
3.0
 40
3.0
 40
3.0
 40
4.0
 40
4.0
 40
4.0
 40
5.0
 40
5.0
 40
5.0
 40
6.0
 40
6.0
 40
6.0
 40
7.0
 40
7.0
 40
7.0
 40
8.0
 40
8.0
 40
8.0
 40
8.0
 10
1.448730565384115
 20
-10.25698616095648
 10
1.420491677208601
 20
-10.25698616095648
 10
1.396579177812681
 20
-10.2668458831787
 10
1.377034733861971
 20
-10.28654032762317
 10
1.356961123257962
 20
-10.30692643873426
 10
1.346911123511846
 20
-10.33105560540093
 10
1.346911123511846
 20
-10.35891393873428
 10
1.346911123511846
 20
-10.38677366095648
 10
1.356961123257962
 20
-10.41072643873427
 10
1.377034733861971
 20
-10.4307736609565
 10
1.397081955577758
 20
-10.45081949428982
 10
1.420993066084823
 20
-10.46084310540093
 10
1.448730565384115
 20
-10.46084310540093
 10
1.476779286702468
 20
-10.46084310540093
 10
1.501112620035807
 20
-10.45072504984538
 10
1.52170139687405
 20
-10.43051532762315
 10
1.541083340828866
 20
-10.41132366095649
 10
1.550781951694969
 20
-10.38743893873427
 10
1.550781951694969
 20
-10.35891393873428
 10
1.550781951694969
 20
-10.33037782762315
 10
1.540934729721509
 20
-10.30624727206759
 10
1.521186119109289
 20
-10.28654032762317
 10
1.501465286274146
 20
-10.2668458831787
 10
1.477295842440273
 20
-10.25698616095648
 10
1.448730565384115
 20
-10.25698616095648
 97
        0
 97
        0
 92
        1
 93
        1
 72
     4
 94
        3
 73
     0
 74
     1
 95
       29
 96
       25
 40
0.0
 40
0.0
 40
0.0
 40
0.0
 40
1.0
 40
1.0
 40
1.0
 40
2.0
 40
2.0
 40
2.0
 40
3.0
 40
3.0
 40
3.0
 40
4.0
 40
4.0
 40
4.0
 40
5.0
 40
5.0
 40
5.0
 40
6.0
 40
6.0
 40
6.0
 40
7.0
 40
7.0
 40
7.0
 40
8.0
 40
8.0
 40
8.0
 40
8.0
 10
1.448975009822384
 20
-10.27533754984536
 10
1.472113898126736
 20
-10.27533754984536
 10
1.491754175408359
 20
-10.28348893873426
 10
1.507920841666621
 20
-10.29980560540093
 10
1.524251508924686
 20
-10.31593199428981
 10
1.532416674381137
 20
-10.33562643873428
 10
1.532416674381137
 20
-10.35891393873428
 10
1.532416674381137
 20
-10.38235143873428
 10
1.524413896805527
 20
-10.40180143873426
 10
1.508423619431697
 20
-10.41726393873427
 10
1.491591675412464
 20
-10.43390699428983
 10
1.47176112035787
 20
-10.4422347720676
 10
1.448975009822384
 20
-10.4422347720676
 10
1.426188899286899
 20
-10.4422347720676
 10
1.406522233117054
 20
-10.43398754984537
 10
1.390029286702479
 20
-10.4175222720676
 10
1.373536122839242
 20
-10.40104171651205
 10
1.365288900825362
 20
-10.38151116095648
 10
1.365288900825362
 20
-10.35891393873428
 10
1.365288900825362
 20
-10.33631810540093
 10
1.373616678392763
 20
-10.3166097720676
 10
1.390286122416102
 20
-10.29980560540093
 10
1.406277788678785
 20
-10.28348893873426
 10
1.425836121518033
 20
-10.27533754984536
 10
1.448975009822384
 20
-10.27533754984536
 97
        0
 97
        0
 75
     2
 76
     1
 98
        0
  0
SPLINE
  5
EA
330
E3
100
AcDbEntity
  8
Layer 2
370
     0
100
AcDbSpline
210
0.0
220
0.0
230
1.0
 70
    11
 71
     3
 72
    44
 73
    40
 74
     0
 42
0.0000000001
 43
0.0000000001
 12
1.0
 22
0.0
 32
0.0
 13
1.0
 23
0.0
 33
0.0
 40
0.0
 40
0.0
 40
0.0
 40
0.0
 40
1.0
 40
1.0
 40
1.0
 40
2.0
 40
2.0
 40
2.0
 40
3.0
 40
3.0
 40
3.0
 40
4.0
 40
4.0
 40
4.0
 40
5.0
 40
5.0
 40
5.0
 40
6.0
 40
6.0
 40
6.0
 40
7.0
 40
7.0
 40
7.0
 40
8.0
 40
8.0
 40
8.0
 40
9.0
 40
9.0
 40
9.0
 40
10.0
 40
10.0
 40
10.0
 40
11.0
 40
11.0
 40
11.0
 40
12.0
 40
12.0
 40
12.0
 40
13.0
 40
13.0
 40
13.0
 40
13.0
 10
1.403537510970232
 20
-10.34453754984538
 30
0.0
 10
1.407606955311874
 20
-10.31888893873426
 30
0.0
 10
1.4256597326336
 20
-10.30517643873425
 30
0.0
 10
1.448283343173191
 20
-10.30517643873425
 30
0.0
 10
1.480822231240078
 20
-10.30517643873425
 30
0.0
 10
1.500651397405818
 20
-10.32877643873427
 30
0.0
 10
1.500651397405818
 20
-10.3602708831787
 30
0.0
 10
1.500651397405818
 20
-10.39100560540093
 30
0.0
 10
1.479547231272287
 20
-10.41485004984538
 30
0.0
 10
1.44776806540843
 20
-10.41485004984538
 30
0.0
 10
1.425916677071554
 20
-10.41485004984538
 30
0.0
 10
1.406331955344083
 20
-10.4014083831787
 30
0.0
 10
1.402777788767202
 20
-10.37500004984539
 30
0.0
 10
1.402777788767202
 20
-10.37500004984539
 30
0.0
 10
1.428454177007451
 20
-10.37500004984539
 30
0.0
 10
1.428454177007451
 20
-10.37500004984539
 30
0.0
 10
1.429226399210165
 20
-10.38870004984538
 30
0.0
 10
1.438123621207625
 20
-10.39352782762315
 30
0.0
 10
1.450819454220234
 20
-10.39352782762315
 30
0.0
 10
1.465319453853933
 20
-10.39352782762315
 30
0.0
 10
1.474718064727616
 20
-10.38008754984538
 30
0.0
 10
1.474718064727616
 20
-10.3595111609565
 30
0.0
 10
1.474718064727616
 20
-10.33791810540093
 30
0.0
 10
1.46659306493287
 20
-10.32651116095649
 30
0.0
 10
1.451334842258019
 20
-10.32651116095649
 30
0.0
 10
1.440145843378761
 20
-10.32651116095649
 30
0.0
 10
1.430487620035819
 20
-10.33056671651204
 30
0.0
 10
1.428454177007451
 20
-10.34453754984538
 30
0.0
 10
1.428454177007451
 20
-10.34453754984538
 30
0.0
 10
1.435926399040909
 20
-10.34448338317871
 30
0.0
 10
1.435926399040909
 20
-10.34448338317871
 30
0.0
 10
1.435926399040909
 20
-10.34448338317871
 30
0.0
 10
1.415704177329543
 20
-10.36469310540092
 30
0.0
 10
1.415704177329543
 20
-10.36469310540092
 30
0.0
 10
1.415704177329543
 20
-10.36469310540092
 30
0.0
 10
1.395480566729323
 20
-10.34448338317871
 30
0.0
 10
1.395480566729323
 20
-10.34448338317871
 30
0.0
 10
1.395480566729323
 20
-10.34448338317871
 30
0.0
 10
1.403537510970232
 20
-10.34453754984538
 30
0.0
 10
1.403537510970232
 20
-10.34453754984538
 30
0.0
  0
HATCH
  5
EB
330
E3
100
AcDbEntity
  8
Layer 2
 62
     7
420
 16777215
100
AcDbHatch
 10
0.0
 20
0.0
 30
0.0
210
0.0
220
0.0
230
1.0
  2
SOLID
 70
     1
 71
     0
 91
        1
 92
        1
 93
        1
 72
     4
 94
        3
 73
     0
 74
     1
 95
       44
 96
       40
 40
0.0
 40
0.0
 40
0.0
 40
0.0
 40
1.0
 40
1.0
 40
1.0
 40
2.0
 40
2.0
 40
2.0
 40
3.0
 40
3.0
 40
3.0
 40
4.0
 40
4.0
 40
4.0
 40
5.0
 40
5.0
 40
5.0
 40
6.0
 40
6.0
 40
6.0
 40
7.0
 40
7.0
 40
7.0
 40
8.0
 40
8.0
 40
8.0
 40
9.0
 40
9.0
 40
9.0
 40
10.0
 40
10.0
 40
10.0
 40
11.0
 40
11.0
 40
11.0
 40
12.0
 40
12.0
 40
12.0
 40
13.0
 40
13.0
 40
13.0
 40
13.0
 10
1.403537510970232
 20
-10.34453754984538
 10
1.407606955311874
 20
-10.31888893873426
 10
1.4256597326336
 20
-10.30517643873425
 10
1.448283343173191
 20
-10.30517643873425
 10
1.480822231240078
 20
-10.30517643873425
 10
1.500651397405818
 20
-10.32877643873427
 10
1.500651397405818
 20
-10.3602708831787
 10
1.500651397405818
 20
-10.39100560540093
 10
1.479547231272287
 20
-10.41485004984538
 10
1.44776806540843
 20
-10.41485004984538
 10
1.425916677071554
 20
-10.41485004984538
 10
1.406331955344083
 20
-10.4014083831787
 10
1.402777788767202
 20
-10.37500004984539
 10
1.402777788767202
 20
-10.37500004984539
 10
1.428454177007451
 20
-10.37500004984539
 10
1.428454177007451
 20
-10.37500004984539
 10
1.429226399210165
 20
-10.38870004984538
 10
1.438123621207625
 20
-10.39352782762315
 10
1.450819454220234
 20
-10.39352782762315
 10
1.465319453853933
 20
-10.39352782762315
 10
1.474718064727616
 20
-10.38008754984538
 10
1.474718064727616
 20
-10.3595111609565
 10
1.474718064727616
 20
-10.33791810540093
 10
1.46659306493287
 20
-10.32651116095649
 10
1.451334842258019
 20
-10.32651116095649
 10
1.440145843378761
 20
-10.32651116095649
 10
1.430487620035819
 20
-10.33056671651204
 10
1.428454177007451
 20
-10.34453754984538
 10
1.428454177007451
 20
-10.34453754984538
 10
1.435926399040909
 20
-10.34448338317871
 10
1.435926399040909
 20
-10.34448338317871
 10
1.435926399040909
 20
-10.34448338317871
 10
1.415704177329543
 20
-10.36469310540092
 10
1.415704177329543
 20
-10.36469310540092
 10
1.415704177329543
 20
-10.36469310540092
 10
1.395480566729323
 20
-10.34448338317871
 10
1.395480566729323
 20
-10.34448338317871
 10
1.395480566729323
 20
-10.34448338317871
 10
1.403537510970232
 20
-10.34453754984538
 10
1.403537510970232
 20
-10.34453754984538
 97
        0
 97
        0
 75
     2
 76
     1
 98
        0
  0
ENDBLK
  5
E6
330
E3
100
AcDbEntity
  8
0
100
AcDbBlockEnd
  0
BLOCK
  5
EE
330
EC
100
AcDbEntity
  8
0
100
AcDbBlockBegin
  2
block 14
 70
     0
 10
0.0
 20
0.0
 30
0.0
  3
block 14
  1

  0
SPLINE
  5
F0
330
EC
100
AcDbEntity
  8
Layer 2
370
     0
100
AcDbSpline
210
0.0
220
0.0
230
1.0
 70
    11
 71
     3
 72
    23
 73
    19
 74
     0
 42
0.0000000001
 43
0.0000000001
 12
1.0
 22
0.0
 32
0.0
 13
1.0
 23
0.0
 33
0.0
 40
0.0
 40
0.0
 40
0.0
 40
0.0
 40
1.0
 40
1.0
 40
1.0
 40
2.0
 40
2.0
 40
2.0
 40
3.0
 40
3.0
 40
3.0
 40
4.0
 40
4.0
 40
4.0
 40
5.0
 40
5.0
 40
5.0
 40
6.0
 40
6.0
 40
6.0
 40
6.0
 10
1.314318068779661
 20
-10.35891393873428
 30
0.0
 10
1.314372235444959
 20
-10.41129588317871
 30
0.0
 10
1.271945953369141
 20
-10.45375004984539
 30
0.0
 10
1.219563904506686
 20
-10.45380421651205
 30
0.0
 10
1.167195953369123
 20
-10.45383060540093
 30
0.0
 10
1.124701406903114
 20
-10.41141810540092
 30
0.0
 10
1.124675018014891
 20
-10.35905004984539
 30
0.0
 10
1.124675018014891
 20
-10.35900977206759
 30
0.0
 10
1.124675018014891
 20
-10.35896810540094
 30
0.0
 10
1.124675018014891
 20
-10.35891393873428
 30
0.0
 10
1.124620851349593
 20
-10.30654588317872
 30
0.0
 10
1.167059739166386
 20
-10.26406532762316
 30
0.0
 10
1.219429182287867
 20
-10.26402504984538
 30
0.0
 10
1.271797236520494
 20
-10.26399866095648
 30
0.0
 10
1.314290291002584
 20
-10.30641116095649
 30
0.0
 10
1.314318068779661
 20
-10.35877921651205
 30
0.0
 10
1.314318068779661
 20
-10.35881949428982
 30
0.0
 10
1.314318068779661
 20
-10.35887366095648
 30
0.0
 10
1.314318068779661
 20
-10.35891393873428
 30
0.0
  0
SPLINE
  5
F1
330
EC
100
AcDbEntity
  8
Layer 2
370
     0
100
AcDbSpline
210
0.0
220
0.0
230
1.0
 70
    11
 71
     3
 72
    29
 73
    25
 74
     0
 42
0.0000000001
 43
0.0000000001
 12
1.0
 22
0.0
 32
0.0
 13
1.0
 23
0.0
 33
0.0
 40
0.0
 40
0.0
 40
0.0
 40
0.0
 40
1.0
 40
1.0
 40
1.0
 40
2.0
 40
2.0
 40
2.0
 40
3.0
 40
3.0
 40
3.0
 40
4.0
 40
4.0
 40
4.0
 40
5.0
 40
5.0
 40
5.0
 40
6.0
 40
6.0
 40
6.0
 40
7.0
 40
7.0
 40
7.0
 40
8.0
 40
8.0
 40
8.0
 40
8.0
 10
1.219373626733715
 20
-10.25698616095648
 30
0.0
 10
1.247938903789873
 20
-10.25698616095648
 30
0.0
 10
1.272108347623746
 20
-10.2668458831787
 30
0.0
 10
1.291829180458889
 20
-10.28654032762317
 30
0.0
 10
1.311577791071108
 20
-10.30624727206759
 30
0.0
 10
1.321425013044568
 20
-10.33037782762315
 30
0.0
 10
1.321425013044568
 20
-10.35891393873428
 30
0.0
 10
1.321425013044568
 20
-10.38743893873427
 30
0.0
 10
1.311740291067003
 20
-10.41132366095649
 30
0.0
 10
1.292345847112503
 20
-10.43051532762315
 30
0.0
 10
1.27175556985488
 20
-10.45072504984538
 30
0.0
 10
1.24743751491365
 20
-10.46084310540093
 30
0.0
 10
1.219373626733715
 20
-10.46084310540093
 30
0.0
 10
1.191651405211815
 20
-10.46084310540093
 30
0.0
 10
1.167738905815895
 20
-10.45081949428982
 30
0.0
 10
1.14767779521157
 20
-10.4307736609565
 30
0.0
 10
1.127604184607561
 20
-10.41074032762316
 30
0.0
 10
1.117568073749984
 20
-10.38677366095648
 30
0.0
 10
1.117568073749984
 20
-10.35891393873428
 30
0.0
 10
1.117568073749984
 20
-10.33105560540093
 30
0.0
 10
1.127604184607561
 20
-10.30692643873426
 30
0.0
 10
1.14767779521157
 20
-10.28654032762317
 30
0.0
 10
1.167236128050819
 20
-10.2668458831787
 30
0.0
 10
1.1911347385582
 20
-10.25698616095648
 30
0.0
 10
1.219373626733715
 20
-10.25698616095648
 30
0.0
  0
SPLINE
  5
F2
330
EC
100
AcDbEntity
  8
Layer 2
370
     0
100
AcDbSpline
210
0.0
220
0.0
230
1.0
 70
    11
 71
     3
 72
    62
 73
    58
 74
     0
 42
0.0000000001
 43
0.0000000001
 12
1.0
 22
0.0
 32
0.0
 13
1.0
 23
0.0
 33
0.0
 40
0.0
 40
0.0
 40
0.0
 40
0.0
 40
1.0
 40
1.0
 40
1.0
 40
2.0
 40
2.0
 40
2.0
 40
3.0
 40
3.0
 40
3.0
 40
4.0
 40
4.0
 40
4.0
 40
5.0
 40
5.0
 40
5.0
 40
6.0
 40
6.0
 40
6.0
 40
7.0
 40
7.0
 40
7.0
 40
8.0
 40
8.0
 40
8.0
 40
9.0
 40
9.0
 40
9.0
 40
10.0
 40
10.0
 40
10.0
 40
11.0
 40
11.0
 40
11.0
 40
12.0
 40
12.0
 40
12.0
 40
13.0
 40
13.0
 40
13.0
 40
14.0
 40
14.0
 40
14.0
 40
15.0
 40
15.0
 40
15.0
 40
16.0
 40
16.0
 40
16.0
 40
17.0
 40
17.0
 40
17.0
 40
18.0
 40
18.0
 40
18.0
 40
19.0
 40
19.0
 40
19.0
 40
19.0
 10
1.140502795392826
 20
-10.33153060540093
 30
0.0
 10
1.137451406581022
 20
-10.34012921651204
 30
0.0
 10
1.135932064480256
 20
-10.34925699428982
 30
0.0
 10
1.135932064480256
 20
-10.35891393873428
 30
0.0
 10
1.135932064480256
 20
-10.38151116095648
 30
0.0
 10
1.144179184188842
 20
-10.40104171651205
 30
0.0
 10
1.160686128216285
 20
-10.4175222720676
 30
0.0
 10
1.177191683354876
 20
-10.43398754984537
 30
0.0
 10
1.196831960636498
 20
-10.4422347720676
 30
0.0
 10
1.219618071171984
 20
-10.4422347720676
 30
0.0
 10
1.24241817559136
 20
-10.4422347720676
 30
0.0
 10
1.262234736762063
 20
-10.43390699428983
 30
0.0
 10
1.279066680781297
 20
-10.41726393873427
 30
0.0
 10
1.284695953369136
 20
-10.41181116095648
 30
0.0
 10
1.289361124965682
 20
-10.4058708831787
 30
0.0
 10
1.292995847096083
 20
-10.39944171651205
 30
0.0
 10
1.292995847096083
 20
-10.39944171651205
 30
0.0
 10
1.254570953369138
 20
-10.38232504984537
 30
0.0
 10
1.254570953369138
 20
-10.38232504984537
 30
0.0
 10
1.251980570354438
 20
-10.39525143873427
 30
0.0
 10
1.240451403979023
 20
-10.40398616095649
 30
0.0
 10
1.226508348775698
 20
-10.40501671651204
 30
0.0
 10
1.226508348775698
 20
-10.40501671651204
 30
0.0
 10
1.226508348775698
 20
-10.4207222720676
 30
0.0
 10
1.226508348775698
 20
-10.4207222720676
 30
0.0
 10
1.226508348775698
 20
-10.4207222720676
 30
0.0
 10
1.214816682404388
 20
-10.4207222720676
 30
0.0
 10
1.214816682404388
 20
-10.4207222720676
 30
0.0
 10
1.214816682404388
 20
-10.4207222720676
 30
0.0
 10
1.214816682404388
 20
-10.40501671651204
 30
0.0
 10
1.214816682404388
 20
-10.40501671651204
 30
0.0
 10
1.203383349359885
 20
-10.40488060540093
 30
0.0
 10
1.19232918297247
 20
-10.40020143873426
 30
0.0
 10
1.183865294297397
 20
-10.3928097720676
 30
0.0
 10
1.183865294297397
 20
-10.3928097720676
 30
0.0
 10
1.197916682831318
 20
-10.37864866095649
 30
0.0
 10
1.197916682831318
 20
-10.37864866095649
 30
0.0
 10
1.204672238216214
 20
-10.38500977206761
 30
0.0
 10
1.211426404712256
 20
-10.3878722720676
 30
0.0
 10
1.220662515590043
 20
-10.3878722720676
 30
0.0
 10
1.226658348771909
 20
-10.3878722720676
 30
0.0
 10
1.233290293048817
 20
-10.38552643873426
 30
0.0
 10
1.233290293048817
 20
-10.37774032762316
 30
0.0
 10
1.233290293048817
 20
-10.37498754984537
 30
0.0
 10
1.232205570853997
 20
-10.37306116095649
 30
0.0
 10
1.230523626452042
 20
-10.37162366095648
 30
0.0
 10
1.230523626452042
 20
-10.37162366095648
 30
0.0
 10
1.220812515586254
 20
-10.3672833831787
 30
0.0
 10
1.220812515586254
 20
-10.3672833831787
 30
0.0
 10
1.220812515586254
 20
-10.3672833831787
 30
0.0
 10
1.20871390478078
 20
-10.36189866095649
 30
0.0
 10
1.20871390478078
 20
-10.36189866095649
 30
0.0
 10
1.202718071598914
 20
-10.35924032762316
 30
0.0
 10
1.197645849504827
 20
-10.35697504984538
 30
0.0
 10
1.192559738522201
 20
-10.35470977206761
 30
0.0
 10
1.192559738522201
 20
-10.35470977206761
 30
0.0
 10
1.140502795392826
 20
-10.33153060540093
 30
0.0
 10
1.140502795392826
 20
-10.33153060540093
 30
0.0
  0
SPLINE
  5
F3
330
EC
100
AcDbEntity
  8
Layer 2
370
     0
100
AcDbSpline
210
0.0
220
0.0
230
1.0
 70
    11
 71
     3
 72
    62
 73
    58
 74
     0
 42
0.0000000001
 43
0.0000000001
 12
1.0
 22
0.0
 32
0.0
 13
1.0
 23
0.0
 33
0.0
 40
0.0
 40
0.0
 40
0.0
 40
0.0
 40
1.0
 40
1.0
 40
1.0
 40
2.0
 40
2.0
 40
2.0
 40
3.0
 40
3.0
 40
3.0
 40
4.0
 40
4.0
 40
4.0
 40
5.0
 40
5.0
 40
5.0
 40
6.0
 40
6.0
 40
6.0
 40
7.0
 40
7.0
 40
7.0
 40
8.0
 40
8.0
 40
8.0
 40
9.0
 40
9.0
 40
9.0
 40
10.0
 40
10.0
 40
10.0
 40
11.0
 40
11.0
 40
11.0
 40
12.0
 40
12.0
 40
12.0
 40
13.0
 40
13.0
 40
13.0
 40
14.0
 40
14.0
 40
14.0
 40
15.0
 40
15.0
 40
15.0
 40
16.0
 40
16.0
 40
16.0
 40
17.0
 40
17.0
 40
17.0
 40
18.0
 40
18.0
 40
18.0
 40
19.0
 40
19.0
 40
19.0
 40
19.0
 10
1.219618071171984
 20
-10.27533754984536
 30
0.0
 10
1.196479182867632
 20
-10.27533754984536
 30
0.0
 10
1.176934738916922
 20
-10.28348893873426
 30
0.0
 10
1.160943072654239
 20
-10.29980560540093
 30
0.0
 10
1.156588906097568
 20
-10.30420004984537
 30
0.0
 10
1.152805572859809
 20
-10.30878477206761
 30
0.0
 10
1.149577795163572
 20
-10.3135722720676
 30
0.0
 10
1.149577795163572
 20
-10.3135722720676
 30
0.0
 10
1.188558349734396
 20
-10.33090560540093
 30
0.0
 10
1.188558349734396
 20
-10.33090560540093
 30
0.0
 10
1.192084842258029
 20
-10.3201097720676
 30
0.0
 10
1.202338904941826
 20
-10.31354449428982
 30
0.0
 10
1.214816682404388
 20
-10.31281254984538
 30
0.0
 10
1.214816682404388
 20
-10.31281254984538
 30
0.0
 10
1.214816682404388
 20
-10.29710560540093
 30
0.0
 10
1.214816682404388
 20
-10.29710560540093
 30
0.0
 10
1.214816682404388
 20
-10.29710560540093
 30
0.0
 10
1.226508348775698
 20
-10.29710560540093
 30
0.0
 10
1.226508348775698
 20
-10.29710560540093
 30
0.0
 10
1.226508348775698
 20
-10.29710560540093
 30
0.0
 10
1.226508348775698
 20
-10.31281254984538
 30
0.0
 10
1.226508348775698
 20
-10.31281254984538
 30
0.0
 10
1.234579181905145
 20
-10.31320560540093
 30
0.0
 10
1.243408348348769
 20
-10.31541671651204
 30
0.0
 10
1.252129181461795
 20
-10.32217088317872
 30
0.0
 10
1.252129181461795
 20
-10.32217088317872
 30
0.0
 10
1.238743070688846
 20
-10.33592504984537
 30
0.0
 10
1.238743070688846
 20
-10.33592504984537
 30
0.0
 10
1.233805570813577
 20
-10.33242504984537
 30
0.0
 10
1.227552793193758
 20
-10.3299708831787
 30
0.0
 10
1.221313904462477
 20
-10.3299708831787
 30
0.0
 10
1.216254182368074
 20
-10.3299708831787
 30
0.0
 10
1.209093071437868
 20
-10.33150282762315
 30
0.0
 10
1.209093071437868
 20
-10.33787782762316
 30
0.0
 10
1.209093071437868
 20
-10.33884032762315
 30
0.0
 10
1.209418175591357
 20
-10.33969588317872
 30
0.0
 10
1.2100153978136
 20
-10.34045421651204
 30
0.0
 10
1.2100153978136
 20
-10.34045421651204
 30
0.0
 10
1.22305001552973
 20
-10.3462597720676
 30
0.0
 10
1.22305001552973
 20
-10.3462597720676
 30
0.0
 10
1.22305001552973
 20
-10.3462597720676
 30
0.0
 10
1.231866681973669
 20
-10.35019310540093
 30
0.0
 10
1.231866681973669
 20
-10.35019310540093
 30
0.0
 10
1.237522237386353
 20
-10.35271671651205
 30
0.0
 10
1.242893070584008
 20
-10.35510282762316
 30
0.0
 10
1.248237620035803
 20
-10.35749032762316
 30
0.0
 10
1.248237620035803
 20
-10.35749032762316
 30
0.0
 10
1.300469458018395
 20
-10.38073754984538
 30
0.0
 10
1.300469458018395
 20
-10.38073754984538
 30
0.0
 10
1.30219168019711
 20
-10.37388893873428
 30
0.0
 10
1.303059735730737
 20
-10.36661810540093
 30
0.0
 10
1.303059735730737
 20
-10.35891393873428
 30
0.0
 10
1.303059735730737
 20
-10.33562643873428
 30
0.0
 10
1.294894458159231
 20
-10.31593199428981
 30
0.0
 10
1.278565291905074
 20
-10.29980560540093
 30
0.0
 10
1.262411125646496
 20
-10.28348893873426
 30
0.0
 10
1.242756959476335
 20
-10.27533754984536
 30
0.0
 10
1.219618071171984
 20
-10.27533754984536
 30
0.0
  0
HATCH
  5
F4
330
EC
100
AcDbEntity
  8
Layer 2
 62
     7
420
 16777215
100
AcDbHatch
 10
0.0
 20
0.0
 30
0.0
210
0.0
220
0.0
230
1.0
  2
SOLID
 70
     1
 71
     0
 91
        3
 92
        1
 93
        1
 72
     4
 94
        3
 73
     0
 74
     1
 95
       29
 96
       25
 40
0.0
 40
0.0
 40
0.0
 40
0.0
 40
1.0
 40
1.0
 40
1.0
 40
2.0
 40
2.0
 40
2.0
 40
3.0
 40
3.0
 40
3.0
 40
4.0
 40
4.0
 40
4.0
 40
5.0
 40
5.0
 40
5.0
 40
6.0
 40
6.0
 40
6.0
 40
7.0
 40
7.0
 40
7.0
 40
8.0
 40
8.0
 40
8.0
 40
8.0
 10
1.219373626733715
 20
-10.25698616095648
 10
1.247938903789873
 20
-10.25698616095648
 10
1.272108347623746
 20
-10.2668458831787
 10
1.291829180458889
 20
-10.28654032762317
 10
1.311577791071108
 20
-10.30624727206759
 10
1.321425013044568
 20
-10.33037782762315
 10
1.321425013044568
 20
-10.35891393873428
 10
1.321425013044568
 20
-10.38743893873427
 10
1.311740291067003
 20
-10.41132366095649
 10
1.292345847112503
 20
-10.43051532762315
 10
1.27175556985488
 20
-10.45072504984538
 10
1.24743751491365
 20
-10.46084310540093
 10
1.219373626733715
 20
-10.46084310540093
 10
1.191651405211815
 20
-10.46084310540093
 10
1.167738905815895
 20
-10.45081949428982
 10
1.14767779521157
 20
-10.4307736609565
 10
1.127604184607561
 20
-10.41074032762316
 10
1.117568073749984
 20
-10.38677366095648
 10
1.117568073749984
 20
-10.35891393873428
 10
1.117568073749984
 20
-10.33105560540093
 10
1.127604184607561
 20
-10.30692643873426
 10
1.14767779521157
 20
-10.28654032762317
 10
1.167236128050819
 20
-10.2668458831787
 10
1.1911347385582
 20
-10.25698616095648
 10
1.219373626733715
 20
-10.25698616095648
 97
        0
 97
        0
 92
        1
 93
        1
 72
     4
 94
        3
 73
     0
 74
     1
 95
       62
 96
       58
 40
0.0
 40
0.0
 40
0.0
 40
0.0
 40
1.0
 40
1.0
 40
1.0
 40
2.0
 40
2.0
 40
2.0
 40
3.0
 40
3.0
 40
3.0
 40
4.0
 40
4.0
 40
4.0
 40
5.0
 40
5.0
 40
5.0
 40
6.0
 40
6.0
 40
6.0
 40
7.0
 40
7.0
 40
7.0
 40
8.0
 40
8.0
 40
8.0
 40
9.0
 40
9.0
 40
9.0
 40
10.0
 40
10.0
 40
10.0
 40
11.0
 40
11.0
 40
11.0
 40
12.0
 40
12.0
 40
12.0
 40
13.0
 40
13.0
 40
13.0
 40
14.0
 40
14.0
 40
14.0
 40
15.0
 40
15.0
 40
15.0
 40
16.0
 40
16.0
 40
16.0
 40
17.0
 40
17.0
 40
17.0
 40
18.0
 40
18.0
 40
18.0
 40
19.0
 40
19.0
 40
19.0
 40
19.0
 10
1.140502795392826
 20
-10.33153060540093
 10
1.137451406581022
 20
-10.34012921651204
 10
1.135932064480256
 20
-10.34925699428982
 10
1.135932064480256
 20
-10.35891393873428
 10
1.135932064480256
 20
-10.38151116095648
 10
1.144179184188842
 20
-10.40104171651205
 10
1.160686128216285
 20
-10.4175222720676
 10
1.177191683354876
 20
-10.43398754984537
 10
1.196831960636498
 20
-10.4422347720676
 10
1.219618071171984
 20
-10.4422347720676
 10
1.24241817559136
 20
-10.4422347720676
 10
1.262234736762063
 20
-10.43390699428983
 10
1.279066680781297
 20
-10.41726393873427
 10
1.284695953369136
 20
-10.41181116095648
 10
1.289361124965682
 20
-10.4058708831787
 10
1.292995847096083
 20
-10.39944171651205
 10
1.292995847096083
 20
-10.39944171651205
 10
1.254570953369138
 20
-10.38232504984537
 10
1.254570953369138
 20
-10.38232504984537
 10
1.251980570354438
 20
-10.39525143873427
 10
1.240451403979023
 20
-10.40398616095649
 10
1.226508348775698
 20
-10.40501671651204
 10
1.226508348775698
 20
-10.40501671651204
 10
1.226508348775698
 20
-10.4207222720676
 10
1.226508348775698
 20
-10.4207222720676
 10
1.226508348775698
 20
-10.4207222720676
 10
1.214816682404388
 20
-10.4207222720676
 10
1.214816682404388
 20
-10.4207222720676
 10
1.214816682404388
 20
-10.4207222720676
 10
1.214816682404388
 20
-10.40501671651204
 10
1.214816682404388
 20
-10.40501671651204
 10
1.203383349359885
 20
-10.40488060540093
 10
1.19232918297247
 20
-10.40020143873426
 10
1.183865294297397
 20
-10.3928097720676
 10
1.183865294297397
 20
-10.3928097720676
 10
1.197916682831318
 20
-10.37864866095649
 10
1.197916682831318
 20
-10.37864866095649
 10
1.204672238216214
 20
-10.38500977206761
 10
1.211426404712256
 20
-10.3878722720676
 10
1.220662515590043
 20
-10.3878722720676
 10
1.226658348771909
 20
-10.3878722720676
 10
1.233290293048817
 20
-10.38552643873426
 10
1.233290293048817
 20
-10.37774032762316
 10
1.233290293048817
 20
-10.37498754984537
 10
1.232205570853997
 20
-10.37306116095649
 10
1.230523626452042
 20
-10.37162366095648
 10
1.230523626452042
 20
-10.37162366095648
 10
1.220812515586254
 20
-10.3672833831787
 10
1.220812515586254
 20
-10.3672833831787
 10
1.220812515586254
 20
-10.3672833831787
 10
1.20871390478078
 20
-10.36189866095649
 10
1.20871390478078
 20
-10.36189866095649
 10
1.202718071598914
 20
-10.35924032762316
 10
1.197645849504827
 20
-10.35697504984538
 10
1.192559738522201
 20
-10.35470977206761
 10
1.192559738522201
 20
-10.35470977206761
 10
1.140502795392826
 20
-10.33153060540093
 10
1.140502795392826
 20
-10.33153060540093
 97
        0
 97
        0
 92
        1
 93
        1
 72
     4
 94
        3
 73
     0
 74
     1
 95
       62
 96
       58
 40
0.0
 40
0.0
 40
0.0
 40
0.0
 40
1.0
 40
1.0
 40
1.0
 40
2.0
 40
2.0
 40
2.0
 40
3.0
 40
3.0
 40
3.0
 40
4.0
 40
4.0
 40
4.0
 40
5.0
 40
5.0
 40
5.0
 40
6.0
 40
6.0
 40
6.0
 40
7.0
 40
7.0
 40
7.0
 40
8.0
 40
8.0
 40
8.0
 40
9.0
 40
9.0
 40
9.0
 40
10.0
 40
10.0
 40
10.0
 40
11.0
 40
11.0
 40
11.0
 40
12.0
 40
12.0
 40
12.0
 40
13.0
 40
13.0
 40
13.0
 40
14.0
 40
14.0
 40
14.0
 40
15.0
 40
15.0
 40
15.0
 40
16.0
 40
16.0
 40
16.0
 40
17.0
 40
17.0
 40
17.0
 40
18.0
 40
18.0
 40
18.0
 40
19.0
 40
19.0
 40
19.0
 40
19.0
 10
1.219618071171984
 20
-10.27533754984536
 10
1.196479182867632
 20
-10.27533754984536
 10
1.176934738916922
 20
-10.28348893873426
 10
1.160943072654239
 20
-10.29980560540093
 10
1.156588906097568
 20
-10.30420004984537
 10
1.152805572859809
 20
-10.30878477206761
 10
1.149577795163572
 20
-10.3135722720676
 10
1.149577795163572
 20
-10.3135722720676
 10
1.188558349734396
 20
-10.33090560540093
 10
1.188558349734396
 20
-10.33090560540093
 10
1.192084842258029
 20
-10.3201097720676
 10
1.202338904941826
 20
-10.31354449428982
 10
1.214816682404388
 20
-10.31281254984538
 10
1.214816682404388
 20
-10.31281254984538
 10
1.214816682404388
 20
-10.29710560540093
 10
1.214816682404388
 20
-10.29710560540093
 10
1.214816682404388
 20
-10.29710560540093
 10
1.226508348775698
 20
-10.29710560540093
 10
1.226508348775698
 20
-10.29710560540093
 10
1.226508348775698
 20
-10.29710560540093
 10
1.226508348775698
 20
-10.31281254984538
 10
1.226508348775698
 20
-10.31281254984538
 10
1.234579181905145
 20
-10.31320560540093
 10
1.243408348348769
 20
-10.31541671651204
 10
1.252129181461795
 20
-10.32217088317872
 10
1.252129181461795
 20
-10.32217088317872
 10
1.238743070688846
 20
-10.33592504984537
 10
1.238743070688846
 20
-10.33592504984537
 10
1.233805570813577
 20
-10.33242504984537
 10
1.227552793193758
 20
-10.3299708831787
 10
1.221313904462477
 20
-10.3299708831787
 10
1.216254182368074
 20
-10.3299708831787
 10
1.209093071437868
 20
-10.33150282762315
 10
1.209093071437868
 20
-10.33787782762316
 10
1.209093071437868
 20
-10.33884032762315
 10
1.209418175591357
 20
-10.33969588317872
 10
1.2100153978136
 20
-10.34045421651204
 10
1.2100153978136
 20
-10.34045421651204
 10
1.22305001552973
 20
-10.3462597720676
 10
1.22305001552973
 20
-10.3462597720676
 10
1.22305001552973
 20
-10.3462597720676
 10
1.231866681973669
 20
-10.35019310540093
 10
1.231866681973669
 20
-10.35019310540093
 10
1.237522237386353
 20
-10.35271671651205
 10
1.242893070584008
 20
-10.35510282762316
 10
1.248237620035803
 20
-10.35749032762316
 10
1.248237620035803
 20
-10.35749032762316
 10
1.300469458018395
 20
-10.38073754984538
 10
1.300469458018395
 20
-10.38073754984538
 10
1.30219168019711
 20
-10.37388893873428
 10
1.303059735730737
 20
-10.36661810540093
 10
1.303059735730737
 20
-10.35891393873428
 10
1.303059735730737
 20
-10.33562643873428
 10
1.294894458159231
 20
-10.31593199428981
 10
1.278565291905074
 20
-10.29980560540093
 10
1.262411125646496
 20
-10.28348893873426
 10
1.242756959476335
 20
-10.27533754984536
 10
1.219618071171984
 20
-10.27533754984536
 97
        0
 97
        0
 75
     2
 76
     1
 98
        0
  0
ENDBLK
  5
EF
330
EC
100
AcDbEntity
  8
0
100
AcDbBlockEnd
  0
ENDSEC
  0
SECTION
  2
ENTITIES
  0
SPLINE
  5
42
330
1F
100
AcDbEntity
  8
Layer 2
 62
   179
420
  2301728
370
     5
100
AcDbSpline
210
0.0
220
0.0
230
1.0
 70
    11
 71
     3
 72
    11
 73
     7
 74
     0
 42
0.0000000001
 43
0.0000000001
 12
1.0
 22
0.0
 32
0.0
 13
1.0
 23
0.0
 33
0.0
 40
0.0
 40
0.0
 40
0.0
 40
0.0
 40
1.0
 40
1.0
 40
1.0
 40
2.0
 40
2.0
 40
2.0
 40
2.0
 10
3.259660508897569
 20
-0.348849614461263
 30
0.0
 10
3.261009216308594
 20
-0.3488140106201172
 30
0.0
 10
3.261914571126302
 20
-0.3487572140163845
 30
0.0
 10
3.261914571126302
 20
-0.3487572140163845
 30
0.0
 10
3.261914571126302
 20
-0.3487572140163845
 30
0.0
 10
3.260887993706597
 20
-0.348758061726888
 30
0.0
 10
3.259660508897569
 20
-0.348849614461263
 30
0.0
  0
SPLINE
  5
43
330
1F
100
AcDbEntity
  8
Layer 2
 62
   179
420
  2301728
370
     5
100
AcDbSpline
210
0.0
220
0.0
230
1.0
 70
    11
 71
     3
 72
    11
 73
     7
 74
     0
 42
0.0000000001
 43
0.0000000001
 12
1.0
 22
0.0
 32
0.0
 13
1.0
 23
0.0
 33
0.0
 40
0.0
 40
0.0
 40
0.0
 40
0.0
 40
1.0
 40
1.0
 40
1.0
 40
2.0
 40
2.0
 40
2.0
 40
2.0
 10
3.181857638888889
 20
-0.2977928585476345
 30
0.0
 10
3.180594550238728
 20
-0.2928447723388672
 30
0.0
 10
3.179345024956597
 20
-0.287936528523763
 30
0.0
 10
3.178037007649739
 20
-0.2828536563449436
 30
0.0
 10
3.178948296440972
 20
-0.2883230845133463
 30
0.0
 10
3.180312262641059
 20
-0.2931880950927734
 30
0.0
 10
3.181857638888889
 20
-0.2977928585476345
 30
0.0
  0
SPLINE
  5
44
330
1F
100
AcDbEntity
  8
Layer 2
 62
   179
420
  2301728
370
     5
100
AcDbSpline
210
0.0
220
0.0
230
1.0
 70
    11
 71
     3
 72
    11
 73
     7
 74
     0
 42
0.0000000001
 43
0.0000000001
 12
1.0
 22
0.0
 32
0.0
 13
1.0
 23
0.0
 33
0.0
 40
0.0
 40
0.0
 40
0.0
 40
0.0
 40
1.0
 40
1.0
 40
1.0
 40
2.0
 40
2.0
 40
2.0
 40
2.0
 10
4.018048475500816
 20
-1.673175613030569
 30
0.0
 10
4.019410217118699
 20
-1.673566148188822
 30
0.0
 10
4.020334716678854
 20
-1.673795364934335
 30
0.0
 10
4.020334716678854
 20
-1.673795364934335
 30
0.0
 10
4.020334716678854
 20
-1.673795364934335
 30
0.0
 10
4.019306513835115
 20
-1.673471819457
 30
0.0
 10
4.018048475500816
 20
-1.673175613030569
 30
0.0
  0
SPLINE
  5
45
330
1F
100
AcDbEntity
  8
Layer 2
 62
   179
420
  2301728
370
     5
100
AcDbSpline
210
0.0
220
0.0
230
1.0
 70
    11
 71
     3
 72
    11
 73
     7
 74
     0
 42
0.0000000001
 43
0.0000000001
 12
1.0
 22
0.0
 32
0.0
 13
1.0
 23
0.0
 33
0.0
 40
0.0
 40
0.0
 40
0.0
 40
0.0
 40
1.0
 40
1.0
 40
1.0
 40
2.0
 40
2.0
 40
2.0
 40
2.0
 10
3.956276446783123
 20
-1.597465947452254
 30
0.0
 10
3.956575263029701
 20
-1.592112186970111
 30
0.0
 10
3.95687507054548
 20
-1.586802607538781
 30
0.0
 10
3.957171490542388
 20
-1.581299685571341
 30
0.0
 10
3.956355667266267
 20
-1.587064310106964
 30
0.0
 10
3.956184113533141
 20
-1.592366761997571
 30
0.0
 10
3.956276446783123
 20
-1.597465947452254
 30
0.0
  0
SPLINE
  5
46
330
1F
100
AcDbEntity
  8
Layer 2
 62
   179
420
  2301728
370
     5
100
AcDbSpline
210
0.0
220
0.0
230
1.0
 70
    11
 71
     3
 72
    17
 73
    13
 74
     0
 42
0.0000000001
 43
0.0000000001
 12
1.0
 22
0.0
 32
0.0
 13
1.0
 23
0.0
 33
0.0
 40
0.0
 40
0.0
 40
0.0
 40
0.0
 40
1.0
 40
1.0
 40
1.0
 40
2.0
 40
2.0
 40
2.0
 40
3.0
 40
3.0
 40
3.0
 40
4.0
 40
4.0
 40
4.0
 40
4.0
 10
7.339774553534981
 20
-1.698952551427472
 30
0.0
 10
7.076727607325968
 20
-1.615940556746371
 30
0.0
 10
6.798599488328919
 20
-1.754256776882092
 30
0.0
 10
6.718557938314259
 20
-2.007891030366459
 30
0.0
 10
6.638516388299599
 20
-2.261525283850839
 30
0.0
 10
6.786871514982446
 20
-2.534431435371087
 30
0.0
 10
7.049918461191459
 20
-2.6174434300522
 30
0.0
 10
7.312965407400472
 20
-2.700455424733314
 30
0.0
 10
7.591093794270591
 20
-2.562138355766049
 30
0.0
 10
7.671135344285251
 20
-2.308504102281681
 30
0.0
 10
7.751176894299887
 20
-2.054869848797302
 30
0.0
 10
7.602821499743994
 20
-1.781964546108586
 30
0.0
 10
7.339774553534981
 20
-1.698952551427472
 30
0.0
  0
SPLINE
  5
47
330
1F
100
AcDbEntity
  8
Layer 2
 62
   179
420
  2301728
370
     5
100
AcDbSpline
210
0.0
220
0.0
230
1.0
 70
    11
 71
     3
 72
   287
 73
   283
 74
     0
 42
0.0000000001
 43
0.0000000001
 12
1.0
 22
0.0
 32
0.0
 13
1.0
 23
0.0
 33
0.0
 40
0.0
 40
0.0
 40
0.0
 40
0.0
 40
1.0
 40
1.0
 40
1.0
 40
2.0
 40
2.0
 40
2.0
 40
3.0
 40
3.0
 40
3.0
 40
4.0
 40
4.0
 40
4.0
 40
5.0
 40
5.0
 40
5.0
 40
6.0
 40
6.0
 40
6.0
 40
7.0
 40
7.0
 40
7.0
 40
8.0
 40
8.0
 40
8.0
 40
9.0
 40
9.0
 40
9.0
 40
10.0
 40
10.0
 40
10.0
 40
11.0
 40
11.0
 40
11.0
 40
12.0
 40
12.0
 40
12.0
 40
13.0
 40
13.0
 40
13.0
 40
14.0
 40
14.0
 40
14.0
 40
15.0
 40
15.0
 40
15.0
 40
16.0
 40
16.0
 40
16.0
 40
17.0
 40
17.0
 40
17.0
 40
18.0
 40
18.0
 40
18.0
 40
19.0
 40
19.0
 40
19.0
 40
20.0
 40
20.0
 40
20.0
 40
21.0
 40
21.0
 40
21.0
 40
22.0
 40
22.0
 40
22.0
 40
23.0
 40
23.0
 40
23.0
 40
24.0
 40
24.0
 40
24.0
 40
25.0
 40
25.0
 40
25.0
 40
26.0
 40
26.0
 40
26.0
 40
27.0
 40
27.0
 40
27.0
 40
28.0
 40
28.0
 40
28.0
 40
29.0
 40
29.0
 40
29.0
 40
30.0
 40
30.0
 40
30.0
 40
31.0
 40
31.0
 40
31.0
 40
32.0
 40
32.0
 40
32.0
 40
33.0
 40
33.0
 40
33.0
 40
34.0
 40
34.0
 40
34.0
 40
35.0
 40
35.0
 40
35.0
 40
36.0
 40
36.0
 40
36.0
 40
37.0
 40
37.0
 40
37.0
 40
38.0
 40
38.0
 40
38.0
 40
39.0
 40
39.0
 40
39.0
 40
40.0
 40
40.0
 40
40.0
 40
41.0
 40
41.0
 40
41.0
 40
42.0
 40
42.0
 40
42.0
 40
43.0
 40
43.0
 40
43.0
 40
44.0
 40
44.0
 40
44.0
 40
45.0
 40
45.0
 40
45.0
 40
46.0
 40
46.0
 40
46.0
 40
47.0
 40
47.0
 40
47.0
 40
48.0
 40
48.0
 40
48.0
 40
49.0
 40
49.0
 40
49.0
 40
50.0
 40
50.0
 40
50.0
 40
51.0
 40
51.0
 40
51.0
 40
52.0
 40
52.0
 40
52.0
 40
53.0
 40
53.0
 40
53.0
 40
54.0
 40
54.0
 40
54.0
 40
55.0
 40
55.0
 40
55.0
 40
56.0
 40
56.0
 40
56.0
 40
57.0
 40
57.0
 40
57.0
 40
58.0
 40
58.0
 40
58.0
 40
59.0
 40
59.0
 40
59.0
 40
60.0
 40
60.0
 40
60.0
 40
61.0
 40
61.0
 40
61.0
 40
62.0
 40
62.0
 40
62.0
 40
63.0
 40
63.0
 40
63.0
 40
64.0
 40
64.0
 40
64.0
 40
65.0
 40
65.0
 40
65.0
 40
66.0
 40
66.0
 40
66.0
 40
67.0
 40
67.0
 40
67.0
 40
68.0
 40
68.0
 40
68.0
 40
69.0
 40
69.0
 40
69.0
 40
70.0
 40
70.0
 40
70.0
 40
71.0
 40
71.0
 40
71.0
 40
72.0
 40
72.0
 40
72.0
 40
73.0
 40
73.0
 40
73.0
 40
74.0
 40
74.0
 40
74.0
 40
75.0
 40
75.0
 40
75.0
 40
76.0
 40
76.0
 40
76.0
 40
77.0
 40
77.0
 40
77.0
 40
78.0
 40
78.0
 40
78.0
 40
79.0
 40
79.0
 40
79.0
 40
80.0
 40
80.0
 40
80.0
 40
81.0
 40
81.0
 40
81.0
 40
82.0
 40
82.0
 40
82.0
 40
83.0
 40
83.0
 40
83.0
 40
84.0
 40
84.0
 40
84.0
 40
85.0
 40
85.0
 40
85.0
 40
86.0
 40
86.0
 40
86.0
 40
87.0
 40
87.0
 40
87.0
 40
88.0
 40
88.0
 40
88.0
 40
89.0
 40
89.0
 40
89.0
 40
90.0
 40
90.0
 40
90.0
 40
91.0
 40
91.0
 40
91.0
 40
92.0
 40
92.0
 40
92.0
 40
93.0
 40
93.0
 40
93.0
 40
94.0
 40
94.0
 40
94.0
 40
94.0
 10
8.145836880332455
 20
-2.368914715013046
 30
0.0
 10
7.932694442941838
 20
-2.229088836405456
 30
0.0
 10
7.677781616956786
 20
-1.594528409273456
 30
0.0
 10
7.677781616956786
 20
-1.594528409273456
 30
0.0
 10
7.677781616956786
 20
-1.594528409273456
 30
0.0
 10
7.555586119552193
 20
-1.542773004303222
 30
0.0
 10
7.555586119552193
 20
-1.542773004303222
 30
0.0
 10
7.584623217671251
 20
-1.492566911163762
 30
0.0
 10
7.583984404925609
 20
-1.452784975724424
 30
0.0
 10
7.583984404925609
 20
-1.452784975724424
 30
0.0
 10
7.529006901348439
 20
-1.416451517368525
 30
0.0
 10
7.473943570956685
 20
-1.381925039093239
 30
0.0
 10
7.419339521615433
 20
-1.349036886437476
 30
0.0
 10
7.400408555556522
 20
-1.372569196150809
 30
0.0
 10
7.368445720362615
 20
-1.383470092333331
 30
0.0
 10
7.337909005135164
 20
-1.373833362124969
 30
0.0
 10
7.298149735051689
 20
-1.361286192063555
 30
0.0
 10
7.276090156701179
 20
-1.31888380438761
 30
0.0
 10
7.288637326762606
 20
-1.279124534304123
 30
0.0
 10
7.28919664553051
 20
-1.277352174015176
 30
0.0
 10
7.290117545148556
 20
-1.275815258506959
 30
0.0
 10
7.290792311813751
 20
-1.274114799017159
 30
0.0
 10
7.272642983502565
 20
-1.263890301749673
 30
0.0
 10
7.254592146874655
 20
-1.253838758046312
 30
0.0
 10
7.236689221816479
 20
-1.244022432084838
 30
0.0
 10
7.217991125821476
 20
-1.268907876053466
 30
0.0
 10
7.18521038403906
 20
-1.280764968336232
 30
0.0
 10
7.153838418560528
 20
-1.270864651122325
 30
0.0
 10
7.114079148477028
 20
-1.258317481060898
 30
0.0
 10
7.092019570126517
 20
-1.215915093384928
 30
0.0
 10
7.104566740187945
 20
-1.176155823301441
 30
0.0
 10
7.10477300237724
 20
-1.175502223003314
 30
0.0
 10
7.105138587234655
 20
-1.174953036767912
 30
0.0
 10
7.105360486690213
 20
-1.17430903808703
 30
0.0
 10
7.082343541114597
 20
-1.162470022770637
 30
0.0
 10
7.059733598598111
 20
-1.151047859110551
 30
0.0
 10
7.037479628613558
 20
-1.139967640880892
 30
0.0
 10
7.019761277673044
 20
-1.16873146480926
 30
0.0
 10
6.984378748500325
 20
-1.18310707432344
 30
0.0
 10
6.950697112357879
 20
-1.172477874749638
 30
0.0
 10
6.91093784227438
 20
-1.159930704688223
 30
0.0
 10
6.888878263923894
 20
-1.117528317012253
 30
0.0
 10
6.901425433985322
 20
-1.077769046928766
 30
0.0
 10
6.901741524093596
 20
-1.076767425692676
 30
0.0
 10
6.902288913507391
 20
-1.075917200326267
 30
0.0
 10
6.902642533054707
 20
-1.074938622971558
 30
0.0
 10
6.882626593502512
 20
-1.065595115604525
 30
0.0
 10
6.86295557465779
 20
-1.056501396132249
 30
0.0
 10
6.844034796503593
 20
-1.047916979496108
 30
0.0
 10
6.830245194732343
 20
-1.085600371698155
 30
0.0
 10
6.789324419229009
 20
-1.106259848597157
 30
0.0
 10
6.750672025494572
 20
-1.094061984892707
 30
0.0
 10
6.710912755411073
 20
-1.081514814831293
 30
0.0
 10
6.688853177060562
 20
-1.039112427155336
 30
0.0
 10
6.701400347121989
 20
-0.9993531570718485
 30
0.0
 10
6.702712121071398
 20
-0.9951964289420832
 30
0.0
 10
6.704525807756353
 20
-0.9913539658768462
 30
0.0
 10
6.706453293291032
 20
-0.9876034172698761
 30
0.0
 10
6.685951668936998
 20
-0.9789382677840497
 30
0.0
 10
6.666674782113255
 20
-0.9709321621263471
 30
0.0
 10
6.648849625740669
 20
-0.9636436672469068
 30
0.0
 10
6.633037516083353
 20
-0.9973753484002827
 30
0.0
 10
6.594602322642332
 20
-1.015222027012404
 30
0.0
 10
6.558103414565468
 20
-1.003703757040777
 30
0.0
 10
6.518404411522472
 20
-0.9911756059604562
 30
0.0
 10
6.496370228110461
 20
-0.9488820359628359
 30
0.0
 10
6.508794111950136
 20
-0.9091762626844431
 30
0.0
 10
6.504899057784137
 20
-0.9077687944051654
 30
0.0
 10
6.502850455329861
 20
-0.9070466968676731
 30
0.0
 10
6.502850455329861
 20
-0.9070466968676731
 30
0.0
 10
5.536985399704008
 20
-0.60224046969419
 30
0.0
 10
4.625439156419916
 20
-0.4597621835640666
 30
0.0
 10
4.625439156419916
 20
-0.4597621835640666
 30
0.0
 10
4.617718108677005
 20
-0.4620521550111789
 30
0.0
 10
4.60991057151629
 20
-0.464092691031687
 30
0.0
 10
4.602133428455292
 20
-0.4662202881957127
 30
0.0
 10
4.5997079362482
 20
-0.4844264625685734
 30
0.0
 10
4.594405143693948
 20
-0.5069262743839241
 30
0.0
 10
4.582819799013729
 20
-0.5100212288159456
 30
0.0
 10
4.570908182148994
 20
-0.513203625533985
 30
0.0
 10
4.561360083126424
 20
-0.4939190727181363
 30
0.0
 10
4.555609668121835
 20
-0.4779890638758641
 30
0.0
 10
4.541192122556418
 20
-0.4813158766558748
 30
0.0
 10
4.526714182093959
 20
-0.4844229563080565
 30
0.0
 10
4.512159931386628
 20
-0.4872483449345408
 30
0.0
 10
4.51173662669809
 20
-0.5054778116440275
 30
0.0
 10
4.509579528551866
 20
-0.5278792314817338
 30
0.0
 10
4.501671563798078
 20
-0.5317641413839864
 30
0.0
 10
4.493228158426013
 20
-0.5359112930731398
 30
0.0
 10
4.481517438889441
 20
-0.5125748106881676
 30
0.0
 10
4.473783472776985
 20
-0.4941017010050675
 30
0.0
 10
4.457580859244849
 20
-0.4967615810657738
 30
0.0
 10
4.441338226175806
 20
-0.4992258919874706
 30
0.0
 10
4.425034276942774
 20
-0.5013255072414924
 30
0.0
 10
4.421959328960838
 20
-0.5174105259188511
 30
0.0
 10
4.416932389719275
 20
-0.5350197475484669
 30
0.0
 10
4.409473448149078
 20
-0.5362070586059214
 30
0.0
 10
4.402023798513406
 20
-0.5373945018984109
 30
0.0
 10
4.391033261402602
 20
-0.5213527447425577
 30
0.0
 10
4.382412330920791
 20
-0.506195989323146
 30
0.0
 10
4.366367030783294
 20
-0.5078013415341679
 30
0.0
 10
4.350297502002983
 20
-0.5090901033947325
 30
0.0
 10
4.334221329392323
 20
-0.5102106293680132
 30
0.0
 10
4.330809484732324
 20
-0.5264226723289261
 30
0.0
 10
4.325668659618612
 20
-0.5439520858024152
 30
0.0
 10
4.319173790404092
 20
-0.5450982917437714
 30
0.0
 10
4.312684817797819
 20
-0.5462435584282603
 30
0.0
 10
4.302272963598827
 20
-0.5290039720902718
 30
0.0
 10
4.293903648006739
 20
-0.5125471052256722
 30
0.0
 10
4.275547285822187
 20
-0.5133895347921553
 30
0.0
 10
4.257213106051696
 20
-0.5138954857783978
 30
0.0
 10
4.238906267314329
 20
-0.5141757900143804
 30
0.0
 10
4.235100855029891
 20
-0.5315432769764104
 30
0.0
 10
4.229549085552687
 20
-0.5502329177576004
 30
0.0
 10
4.223008746965257
 20
-0.5516503846929102
 30
0.0
 10
4.216104564944595
 20
-0.5531471707026487
 30
0.0
 10
4.207930609014107
 20
-0.5327646134468169
 30
0.0
 10
4.2020325736804
 20
-0.5143920669947116
 30
0.0
 10
4.186401604975446
 20
-0.5143295760404953
 30
0.0
 10
4.170819785856793
 20
-0.5140847219396897
 30
0.0
 10
4.155286312705534
 20
-0.5136600511869018
 30
0.0
 10
4.147848693296447
 20
-0.530981730847442
 30
0.0
 10
4.138033805358696
 20
-0.5510243857374917
 30
0.0
 10
4.13238255513526
 20
-0.5511151727118254
 30
0.0
 10
4.126209798066636
 20
-0.5512140561509619
 30
0.0
 10
4.117577946638688
 20
-0.528964002366883
 30
0.0
 10
4.111905249324423
 20
-0.5120364832355967
 30
0.0
 10
4.096075889831152
 20
-0.5112776285629176
 30
0.0
 10
4.080315836026847
 20
-0.5103819729689703
 30
0.0
 10
4.064658850114711
 20
-0.5092957687898862
 30
0.0
 10
4.056323135794084
 20
-0.5271031230200202
 30
0.0
 10
4.045573780068821
 20
-0.5480483892071358
 30
0.0
 10
4.040255048155624
 20
-0.5501052446097042
 30
0.0
 10
4.034320817584962
 20
-0.5524000105712805
 30
0.0
 10
4.027947626282311
 20
-0.5269500689424578
 30
0.0
 10
4.023769861901719
 20
-0.5061046958168163
 30
0.0
 10
4.008446979692735
 20
-0.5047701816726607
 30
0.0
 10
3.99320136254807
 20
-0.5033387130748805
 30
0.0
 10
3.978113183727765
 20
-0.5017366541298871
 30
0.0
 10
3.978113183727765
 20
-0.5017366541298871
 30
0.0
 10
3.967255757072356
 20
-0.5328706925677251
 30
0.0
 10
3.967255757072356
 20
-0.5328706925677251
 30
0.0
 10
3.966200231255761
 20
-0.5358974485743854
 30
0.0
 10
3.963368091824425
 20
-0.5379437315247817
 30
0.0
 10
3.960162991467756
 20
-0.5379958695829019
 30
0.0
 10
3.956957891111099
 20
-0.5380480076410095
 30
0.0
 10
3.954057459589219
 20
-0.5360955128056099
 30
0.0
 10
3.952905494373352
 20
-0.533104131383109
 30
0.0
 10
3.948944148890632
 20
-0.5228174533464577
 30
0.0
 10
3.944044425837104
 20
-0.5097447216327409
 30
0.0
 10
3.939785003670572
 20
-0.4973488458586467
 30
0.0
 10
3.916388904449794
 20
-0.4945017016032504
 30
0.0
 10
3.89332940681134
 20
-0.4913865015966444
 30
0.0
 10
3.870701444251621
 20
-0.4880248045088693
 30
0.0
 10
3.870701444251621
 20
-0.4880248045088693
 30
0.0
 10
3.86104397845664
 20
-0.5186272263286658
 30
0.0
 10
3.86104397845664
 20
-0.5186272263286658
 30
0.0
 10
3.860470465361193
 20
-0.5204445653737871
 30
0.0
 10
3.858725038401417
 20
-0.5216309549744235
 30
0.0
 10
3.856824152361241
 20
-0.5214957856812185
 30
0.0
 10
3.854923266321066
 20
-0.5213606163880133
 30
0.0
 10
3.853360090355245
 20
-0.5199392869130103
 30
0.0
 10
3.853050903900099
 20
-0.5180588502053448
 30
0.0
 10
3.851345967758423
 20
-0.5076896233142507
 30
0.0
 10
3.848538172597879
 20
-0.4947137486867126
 30
0.0
 10
3.844099799752737
 20
-0.4839336508846246
 30
0.0
 10
3.826780851744704
 20
-0.4811870601988125
 30
0.0
 10
3.809744210725082
 20
-0.4783148852281127
 30
0.0
 10
3.792995063511285
 20
-0.4753420969830889
 30
0.0
 10
3.792995063511285
 20
-0.4753420969830889
 30
0.0
 10
3.774065838490615
 20
-0.5084218553068922
 30
0.0
 10
3.774065838490615
 20
-0.5084218553068922
 30
0.0
 10
3.77197036113964
 20
-0.5120838057706452
 30
0.0
 10
3.767779371630404
 20
-0.5140093812131756
 30
0.0
 10
3.763635920620307
 20
-0.5132139440664534
 30
0.0
 10
3.759492469610223
 20
-0.5124185069197185
 30
0.0
 10
3.756312455704283
 20
-0.5090778864070746
 30
0.0
 10
3.755721970038419
 20
-0.504900299399512
 30
0.0
 10
3.755721970038419
 20
-0.504900299399512
 30
0.0
 10
3.750431337991118
 20
-0.4674699653870801
 30
0.0
 10
3.750431337991118
 20
-0.4674699653870801
 30
0.0
 10
3.733478962712802
 20
-0.4642006344791727
 30
0.0
 10
3.716910041015959
 20
-0.4608460392731027
 30
0.0
 10
3.700712382978887
 20
-0.4574359340859675
 30
0.0
 10
3.700712382978887
 20
-0.4574359340859675
 30
0.0
 10
3.682495760977543
 20
-0.4839992771786557
 30
0.0
 10
3.682495760977543
 20
-0.4839992771786557
 30
0.0
 10
3.680231282415484
 20
-0.4873013230225827
 30
0.0
 10
3.676171763642211
 20
-0.488874284021108
 30
0.0
 10
3.672273604318725
 20
-0.4879601047158783
 30
0.0
 10
3.668375444995238
 20
-0.4870459254106486
 30
0.0
 10
3.665438483609099
 20
-0.4838321804317173
 30
0.0
 10
3.664878126907044
 20
-0.4798676665548479
 30
0.0
 10
3.664878126907044
 20
-0.4798676665548479
 30
0.0
 10
3.660470483063945
 20
-0.4486836633723467
 30
0.0
 10
3.660470483063945
 20
-0.4486836633723467
 30
0.0
 10
3.642462344131748
 20
-0.4446368737192188
 30
0.0
 10
3.625003403594822
 20
-0.4405533917984914
 30
0.0
 10
3.608207985840181
 20
-0.4364702292931497
 30
0.0
 10
3.608207985840181
 20
-0.4364702292931497
 30
0.0
 10
3.587045421845447
 20
-0.4673288234492171
 30
0.0
 10
3.587045421845447
 20
-0.4673288234492171
 30
0.0
 10
3.58603652038596
 20
-0.4687999722518725
 30
0.0
 10
3.584217388484527
 20
-0.4694860740202608
 30
0.0
 10
3.582488255515614
 20
-0.4690475992429254
 30
0.0
 10
3.580759122546712
 20
-0.4686091244655775
 30
0.0
 10
3.579486748654441
 20
-0.4671390764426759
 30
0.0
 10
3.579300790408638
 20
-0.4653649342597216
 30
0.0
 10
3.579300790408638
 20
-0.4653649342597216
 30
0.0
 10
3.575415717547318
 20
-0.4282992391235767
 30
0.0
 10
3.575415717547318
 20
-0.4282992391235767
 30
0.0
 10
3.437898523409861
 20
-0.3932619356349202
 30
0.0
 10
3.350517002349142
 20
-0.3608691034281719
 30
0.0
 10
3.350517002349142
 20
-0.3608691034281719
 30
0.0
 10
3.350517002349142
 20
-0.3608691034281719
 30
0.0
 10
3.159097653122065
 20
-0.3928141578574645
 30
0.0
 10
3.159097653122065
 20
-0.3928141578574645
 30
0.0
 10
3.159097653122065
 20
-0.3928141578574645
 30
0.0
 10
3.162646608412792
 20
-0.4416142261651304
 30
0.0
 10
3.162646608412792
 20
-0.4416142261651304
 30
0.0
 10
0.1362739584888383
 20
-0.9699069887030242
 30
0.0
 10
0.1218995075875884
 20
-3.16521476292899
 30
0.0
 10
0.1218995075875884
 20
-3.16521476292899
 30
0.0
 10
0.1218995075875884
 20
-3.16521476292899
 30
0.0
 10
0.1197858379914325
 20
-3.282877139311103
 30
0.0
 10
0.1612829120089777
 20
-3.213436056493985
 30
0.0
 10
1.123468914994153
 20
-1.60328697744703
 30
0.0
 10
2.976006007045435
 20
-1.693936665036302
 30
0.0
 10
3.129132509701789
 20
-1.689487552133743
 30
0.0
 10
3.28225816352656
 20
-1.685038171358188
 30
0.0
 10
3.340996204896593
 20
-1.749750140821233
 30
0.0
 10
3.340996204896593
 20
-1.749750140821233
 30
0.0
 10
3.340996204896593
 20
-1.749750140821233
 30
0.0
 10
3.482763554127347
 20
-1.781295730051233
 30
0.0
 10
3.482763554127347
 20
-1.781295730051233
 30
0.0
 10
3.473133846894661
 20
-1.8493662619902
 30
0.0
 10
3.531613702644247
 20
-1.869724380338413
 30
0.0
 10
3.543640551456722
 20
-1.873171649313475
 30
0.0
 10
3.5448985898309
 20
-1.873467855570513
 30
0.0
 10
3.545926792718205
 20
-1.873791400909429
 30
0.0
 10
3.545926792718205
 20
-1.873791400909429
 30
0.0
 10
3.545926792718205
 20
-1.873791400909429
 30
0.0
 10
3.545002293127178
 20
-1.87356218428839
 30
0.0
 10
3.543640551456722
 20
-1.873171649313475
 30
0.0
 10
3.536858983345761
 20
-1.871576618386914
 30
0.0
 10
3.663328846639009
 20
-1.910518017950608
 30
0.0
 10
3.668487545546137
 20
-1.912570674074434
 30
0.0
 10
3.780135277353894
 20
-1.95700822276942
 30
0.0
 10
3.789974889888665
 20
-1.83206857580549
 30
0.0
 10
3.789974889888665
 20
-1.83206857580549
 30
0.0
 10
3.831625386988776
 20
-1.700087152487817
 30
0.0
 10
4.016911794980451
 20
-1.468308707828063
 30
0.0
 10
4.016911794980451
 20
-1.468308707828063
 30
0.0
 10
4.431692279369902
 20
-1.031895009494987
 30
0.0
 10
4.823923073810167
 20
-1.544875372032228
 30
0.0
 10
4.823923073810167
 20
-1.544875372032228
 30
0.0
 10
4.864982053782165
 20
-1.623799313460735
 30
0.0
 10
4.908230542908111
 20
-1.591271165014746
 30
0.0
 10
4.908230542908111
 20
-1.591271165014746
 30
0.0
 10
5.437978083180724
 20
-1.375844359362191
 30
0.0
 10
5.693801408250894
 20
-1.819390255531175
 30
0.0
 10
5.693801408250894
 20
-1.819390255531175
 30
0.0
 10
5.736753714397006
 20
-1.89231465552181
 30
0.0
 10
5.796106652830935
 20
-1.871465759162978
 30
0.0
 10
5.796106652830935
 20
-1.871465759162978
 30
0.0
 10
6.199895378073885
 20
-1.741624315972609
 30
0.0
 10
6.381172395445901
 20
-2.003326442154781
 30
0.0
 10
6.420339165948361
 20
-2.088249344062597
 30
0.0
 10
6.45950508761929
 20
-2.173171978097419
 30
0.0
 10
6.491075173489611
 20
-2.156748546832381
 30
0.0
 10
6.491075173489611
 20
-2.156748546832381
 30
0.0
 10
6.562202490991719
 20
-2.621168103873502
 30
0.0
 10
6.976783349172465
 20
-2.791581241262482
 30
0.0
 10
6.976783349172465
 20
-2.791581241262482
 30
0.0
 10
7.375579856706836
 20
-2.970205379388896
 30
0.0
 10
7.736072529333342
 20
-2.622205633290541
 30
0.0
 10
7.736072529333342
 20
-2.622205633290541
 30
0.0
 10
7.87243158638138
 20
-2.440953380431829
 30
0.0
 10
8.06755175164959
 20
-2.449755630424382
 30
0.0
 10
8.06755175164959
 20
-2.449755630424382
 30
0.0
 10
8.150901158171893
 20
-2.436479503015953
 30
0.0
 10
8.145836880332455
 20
-2.368914715013046
 30
0.0
 10
8.145836880332455
 20
-2.368914715013046
 30
0.0
  0
SPLINE
  5
48
330
1F
100
AcDbEntity
  8
Layer 2
 62
   179
420
  2301728
370
     5
100
AcDbSpline
210
0.0
220
0.0
230
1.0
 70
    11
 71
     3
 72
    17
 73
    13
 74
     0
 42
0.0000000001
 43
0.0000000001
 12
1.0
 22
0.0
 32
0.0
 13
1.0
 23
0.0
 33
0.0
 40
0.0
 40
0.0
 40
0.0
 40
0.0
 40
1.0
 40
1.0
 40
1.0
 40
2.0
 40
2.0
 40
2.0
 40
3.0
 40
3.0
 40
3.0
 40
4.0
 40
4.0
 40
4.0
 40
4.0
 10
3.952178576398789
 20
-1.0800466464895
 30
0.0
 10
3.921096132091242
 20
-1.178540148389074
 30
0.0
 10
3.81605407326736
 20
-1.233187607923292
 30
0.0
 10
3.717560571367787
 20
-1.202105163615758
 30
0.0
 10
3.619067069468226
 20
-1.171022719308212
 30
0.0
 10
3.564419609933995
 20
-1.06598066048433
 30
0.0
 10
3.595502054241542
 20
-0.9674871585847565
 30
0.0
 10
3.626584498549088
 20
-0.8689936566851959
 30
0.0
 10
3.73162655737297
 20
-0.8143461971509648
 30
0.0
 10
3.830120059272531
 20
-0.8454286414585113
 30
0.0
 10
3.928613561172104
 20
-0.8765110857660576
 30
0.0
 10
3.983261020706323
 20
-0.9815531445899397
 30
0.0
 10
3.952178576398789
 20
-1.0800466464895
 30
0.0
  0
SPLINE
  5
49
330
1F
100
AcDbEntity
  8
Layer 2
 62
   179
420
  2301728
370
     5
100
AcDbSpline
210
0.0
220
0.0
230
1.0
 70
    11
 71
     3
 72
    17
 73
    13
 74
     0
 42
0.0000000001
 43
0.0000000001
 12
1.0
 22
0.0
 32
0.0
 13
1.0
 23
0.0
 33
0.0
 40
0.0
 40
0.0
 40
0.0
 40
0.0
 40
1.0
 40
1.0
 40
1.0
 40
2.0
 40
2.0
 40
2.0
 40
3.0
 40
3.0
 40
3.0
 40
4.0
 40
4.0
 40
4.0
 40
4.0
 10
6.502751553806294
 20
-1.492755071709793
 30
0.0
 10
6.471669109498761
 20
-1.591248573609366
 30
0.0
 10
6.366627050674879
 20
-1.645896033143584
 30
0.0
 10
6.268133548775292
 20
-1.614813588836038
 30
0.0
 10
6.169640046875732
 20
-1.583731144528504
 30
0.0
 10
6.114992587341527
 20
-1.478689085704622
 30
0.0
 10
6.14607503164906
 20
-1.380195583805049
 30
0.0
 10
6.177157475956619
 20
-1.281702081905476
 30
0.0
 10
6.282199534780475
 20
-1.227054622371257
 30
0.0
 10
6.380693036680036
 20
-1.258137066678804
 30
0.0
 10
6.479186538579622
 20
-1.28921951098635
 30
0.0
 10
6.533833998113853
 20
-1.394261569810232
 30
0.0
 10
6.502751553806294
 20
-1.492755071709793
 30
0.0
  0
SPLINE
  5
4A
330
1F
100
AcDbEntity
  8
Layer 2
 62
   179
420
  2301728
370
     5
100
AcDbSpline
210
0.0
220
0.0
230
1.0
 70
    11
 71
     3
 72
   290
 73
   286
 74
     0
 42
0.0000000001
 43
0.0000000001
 12
1.0
 22
0.0
 32
0.0
 13
1.0
 23
0.0
 33
0.0
 40
0.0
 40
0.0
 40
0.0
 40
0.0
 40
1.0
 40
1.0
 40
1.0
 40
2.0
 40
2.0
 40
2.0
 40
3.0
 40
3.0
 40
3.0
 40
4.0
 40
4.0
 40
4.0
 40
5.0
 40
5.0
 40
5.0
 40
6.0
 40
6.0
 40
6.0
 40
7.0
 40
7.0
 40
7.0
 40
8.0
 40
8.0
 40
8.0
 40
9.0
 40
9.0
 40
9.0
 40
10.0
 40
10.0
 40
10.0
 40
11.0
 40
11.0
 40
11.0
 40
12.0
 40
12.0
 40
12.0
 40
13.0
 40
13.0
 40
13.0
 40
14.0
 40
14.0
 40
14.0
 40
15.0
 40
15.0
 40
15.0
 40
16.0
 40
16.0
 40
16.0
 40
17.0
 40
17.0
 40
17.0
 40
18.0
 40
18.0
 40
18.0
 40
19.0
 40
19.0
 40
19.0
 40
20.0
 40
20.0
 40
20.0
 40
21.0
 40
21.0
 40
21.0
 40
22.0
 40
22.0
 40
22.0
 40
23.0
 40
23.0
 40
23.0
 40
24.0
 40
24.0
 40
24.0
 40
25.0
 40
25.0
 40
25.0
 40
26.0
 40
26.0
 40
26.0
 40
27.0
 40
27.0
 40
27.0
 40
28.0
 40
28.0
 40
28.0
 40
29.0
 40
29.0
 40
29.0
 40
30.0
 40
30.0
 40
30.0
 40
31.0
 40
31.0
 40
31.0
 40
32.0
 40
32.0
 40
32.0
 40
33.0
 40
33.0
 40
33.0
 40
34.0
 40
34.0
 40
34.0
 40
35.0
 40
35.0
 40
35.0
 40
36.0
 40
36.0
 40
36.0
 40
37.0
 40
37.0
 40
37.0
 40
38.0
 40
38.0
 40
38.0
 40
39.0
 40
39.0
 40
39.0
 40
40.0
 40
40.0
 40
40.0
 40
41.0
 40
41.0
 40
41.0
 40
42.0
 40
42.0
 40
42.0
 40
43.0
 40
43.0
 40
43.0
 40
44.0
 40
44.0
 40
44.0
 40
45.0
 40
45.0
 40
45.0
 40
46.0
 40
46.0
 40
46.0
 40
47.0
 40
47.0
 40
47.0
 40
48.0
 40
48.0
 40
48.0
 40
49.0
 40
49.0
 40
49.0
 40
50.0
 40
50.0
 40
50.0
 40
51.0
 40
51.0
 40
51.0
 40
52.0
 40
52.0
 40
52.0
 40
53.0
 40
53.0
 40
53.0
 40
54.0
 40
54.0
 40
54.0
 40
55.0
 40
55.0
 40
55.0
 40
56.0
 40
56.0
 40
56.0
 40
57.0
 40
57.0
 40
57.0
 40
58.0
 40
58.0
 40
58.0
 40
59.0
 40
59.0
 40
59.0
 40
60.0
 40
60.0
 40
60.0
 40
61.0
 40
61.0
 40
61.0
 40
62.0
 40
62.0
 40
62.0
 40
63.0
 40
63.0
 40
63.0
 40
64.0
 40
64.0
 40
64.0
 40
65.0
 40
65.0
 40
65.0
 40
66.0
 40
66.0
 40
66.0
 40
67.0
 40
67.0
 40
67.0
 40
68.0
 40
68.0
 40
68.0
 40
69.0
 40
69.0
 40
69.0
 40
70.0
 40
70.0
 40
70.0
 40
71.0
 40
71.0
 40
71.0
 40
72.0
 40
72.0
 40
72.0
 40
73.0
 40
73.0
 40
73.0
 40
74.0
 40
74.0
 40
74.0
 40
75.0
 40
75.0
 40
75.0
 40
76.0
 40
76.0
 40
76.0
 40
77.0
 40
77.0
 40
77.0
 40
78.0
 40
78.0
 40
78.0
 40
79.0
 40
79.0
 40
79.0
 40
80.0
 40
80.0
 40
80.0
 40
81.0
 40
81.0
 40
81.0
 40
82.0
 40
82.0
 40
82.0
 40
83.0
 40
83.0
 40
83.0
 40
84.0
 40
84.0
 40
84.0
 40
85.0
 40
85.0
 40
85.0
 40
86.0
 40
86.0
 40
86.0
 40
87.0
 40
87.0
 40
87.0
 40
88.0
 40
88.0
 40
88.0
 40
89.0
 40
89.0
 40
89.0
 40
90.0
 40
90.0
 40
90.0
 40
91.0
 40
91.0
 40
91.0
 40
92.0
 40
92.0
 40
92.0
 40
93.0
 40
93.0
 40
93.0
 40
94.0
 40
94.0
 40
94.0
 40
95.0
 40
95.0
 40
95.0
 40
95.0
 10
6.480938740215707
 20
-3.082984599587121
 30
0.0
 10
6.498410030144138
 20
-3.027680659215535
 30
0.0
 10
6.489167881765322
 20
-2.988981344827835
 30
0.0
 10
6.489167881765322
 20
-2.988981344827835
 30
0.0
 10
6.427625130883926
 20
-2.965420787856778
 30
0.0
 10
6.366389190036645
 20
-2.943643456017791
 30
0.0
 10
6.305957208340335
 20
-2.923365254288961
 30
0.0
 10
6.292573970752275
 20
-2.950440171560369
 30
0.0
 10
6.263731675591063
 20
-2.968006232784281
 30
0.0
 10
6.231832259651027
 20
-2.965213674624528
 30
0.0
 10
6.190299007287952
 20
-2.96157774527065
 30
0.0
 10
6.159577915524197
 20
-2.924960860249181
 30
0.0
 10
6.163213844878075
 20
-2.883427607886107
 30
0.0
 10
6.163375895163628
 20
-2.881576506076903
 30
0.0
 10
6.163941686803026
 20
-2.879876478394522
 30
0.0
 10
6.16423251896395
 20
-2.878070688591214
 30
0.0
 10
6.144298447835758
 20
-2.872020638719176
 30
0.0
 10
6.124499561798554
 20
-2.866117724767453
 30
0.0
 10
6.104895204794047
 20
-2.860413093300432
 30
0.0
 10
6.092032189460345
 20
-2.888758072987583
 30
0.0
 10
6.062598191337681
 20
-2.907435587202952
 30
0.0
 10
6.029826426780422
 20
-2.904566661367565
 30
0.0
 10
5.988293174417347
 20
-2.900930732013686
 30
0.0
 10
5.957571238172855
 20
-2.864313773064168
 30
0.0
 10
5.961207167526734
 20
-2.822780520701094
 30
0.0
 10
5.961266901391101
 20
-2.822098180253179
 30
0.0
 10
5.96150545189577
 20
-2.821482551037257
 30
0.0
 10
5.961582550215679
 20
-2.820805985482151
 30
0.0
 10
5.936547565165584
 20
-2.814234504457646
 30
0.0
 10
5.911999538282442
 20
-2.807981361667152
 30
0.0
 10
5.887874027467862
 20
-2.801985603761649
 30
0.0
 10
5.876807658798649
 20
-2.833904441305448
 30
0.0
 10
5.84538000203146
 20
-2.855603603429169
 30
0.0
 10
5.810195555964683
 20
-2.852523465155008
 30
0.0
 10
5.76866230360161
 20
-2.84888753580113
 30
0.0
 10
5.737940293429069
 20
-2.812271421332373
 30
0.0
 10
5.741576222782947
 20
-2.770738168969299
 30
0.0
 10
5.741667819636859
 20
-2.769691857317108
 30
0.0
 10
5.742018077778615
 20
-2.768743073378826
 30
0.0
 10
5.742150937605528
 20
-2.767711436378906
 30
0.0
 10
5.720586346858934
 20
-2.762926122174033
 30
0.0
 10
5.699412892799349
 20
-2.758309499607865
 30
0.0
 10
5.679081491118849
 20
-2.754027834955852
 30
0.0
 10
5.673782615085328
 20
-2.793803804387254
 30
0.0
 10
5.638309095377129
 20
-2.822837137908739
 30
0.0
 10
5.597932781644809
 20
-2.819302489983329
 30
0.0
 10
5.55639952928171
 20
-2.815666560629451
 30
0.0
 10
5.525677519109169
 20
-2.779050446160682
 30
0.0
 10
5.529313448463047
 20
-2.737517193797607
 30
0.0
 10
5.529693586496023
 20
-2.733174873768917
 30
0.0
 10
5.530631656108855
 20
-2.72903031323368
 30
0.0
 10
5.531700955727602
 20
-2.724951701882635
 30
0.0
 10
5.509808831144078
 20
-2.720933355197935
 30
0.0
 10
5.489255313622051
 20
-2.717293436120763
 30
0.0
 10
5.470274588769876
 20
-2.71403968158164
 30
0.0
 10
5.462146160780194
 20
-2.750395593328449
 30
0.0
 10
5.428489285874219
 20
-2.776145006431648
 30
0.0
 10
5.390361824385435
 20
-2.772807228903313
 30
0.0
 10
5.348891908078788
 20
-2.769176844153195
 30
0.0
 10
5.318218968727757
 20
-2.732661183116849
 30
0.0
 10
5.321745871874151
 20
-2.691206885386022
 30
0.0
 10
5.317637976379122
 20
-2.690676228014809
 30
0.0
 10
5.315481545056551
 20
-2.690415117414874
 30
0.0
 10
5.315481545056551
 20
-2.690415117414874
 30
0.0
 10
4.306522121027759
 20
-2.602088175074161
 30
0.0
 10
3.385756680176542
 20
-2.660467202623093
 30
0.0
 10
3.385756680176542
 20
-2.660467202623093
 30
0.0
 10
3.378715007771411
 20
-2.664375271245982
 30
0.0
 10
3.371534743958831
 20
-2.668058469063503
 30
0.0
 10
3.364403710207524
 20
-2.671820860438515
 30
0.0
 10
3.3659792288943
 20
-2.690119815994207
 30
0.0
 10
3.365677214065322
 20
-2.713234182019278
 30
0.0
 10
3.355036852746227
 20
-2.718765682057071
 30
0.0
 10
3.344097769772386
 20
-2.72445313507914
 30
0.0
 10
3.33059913973524
 20
-2.707694742292081
 30
0.0
 10
3.321533714118307
 20
-2.693388854819242
 30
0.0
 10
3.308179336113325
 20
-2.69976006875048
 30
0.0
 10
3.294718371657798
 20
-2.705929636536375
 30
0.0
 10
3.281121772916827
 20
-2.711840554286785
 30
0.0
 10
3.28465807385165
 20
-2.729729110256901
 30
0.0
 10
3.287404984815554
 20
-2.752066268357869
 30
0.0
 10
3.280526441385303
 20
-2.757571389565959
 30
0.0
 10
3.273182128219825
 20
-2.763449299042274
 30
0.0
 10
3.256693856018905
 20
-2.743204074794246
 30
0.0
 10
3.24514129052784
 20
-2.726844951829915
 30
0.0
 10
3.229899628887589
 20
-2.732952237521684
 30
0.0
 10
3.214576999547919
 20
-2.738876287899997
 30
0.0
 10
3.199115002621915
 20
-2.744457968064454
 30
0.0
 10
3.199597471300624
 20
-2.76082743230068
 30
0.0
 10
3.198505223998621
 20
-2.779107284713203
 30
0.0
 10
3.191480183051137
 20
-2.781882489472347
 30
0.0
 10
3.184464653176065
 20
-2.784655973997777
 30
0.0
 10
3.170259887535912
 20
-2.771375727100993
 30
0.0
 10
3.15856021569007
 20
-2.758446680309766
 30
0.0
 10
3.143244083907727
 20
-2.763489712600479
 30
0.0
 10
3.12783537785338
 20
-2.768229360143121
 30
0.0
 10
3.112383071653236
 20
-2.772806062677685
 30
0.0
 10
3.11256495909231
 20
-2.789372162830381
 30
0.0
 10
3.111343750786634
 20
-2.807599028982193
 30
0.0
 10
3.105251062255623
 20
-2.810124833742141
 30
0.0
 10
3.099164506874028
 20
-2.812648622556177
 30
0.0
 10
3.085265404145515
 20
-2.798073604790261
 30
0.0
 10
3.073529306578557
 20
-2.783820690750392
 30
0.0
 10
3.055791405894006
 20
-2.788620229821794
 30
0.0
 10
3.038001889693318
 20
-2.793085931677284
 30
0.0
 10
3.020190510940956
 20
-2.797325068139697
 30
0.0
 10
3.020238074123249
 20
-2.815104780950163
 30
0.0
 10
3.018867372179443
 20
-2.834553292271165
 30
0.0
 10
3.012788880450191
 20
-2.837354346595614
 30
0.0
 10
3.006373369720146
 20
-2.840311405065095
 30
0.0
 10
2.993977492982101
 20
-2.822183358839437
 30
0.0
 10
2.984239873251441
 20
-2.80552445751064
 30
0.0
 10
2.968966048858647
 20
-2.808849716376964
 30
0.0
 10
2.953701036166169
 20
-2.811986835163806
 30
0.0
 10
2.93844476124597
 20
-2.81493665835194
 30
0.0
 10
2.934936741456163
 20
-2.83345858547284
 30
0.0
 10
2.929696815025409
 20
-2.855151866894339
 30
0.0
 10
2.924198789456568
 20
-2.856464363476195
 30
0.0
 10
2.918194015639351
 20
-2.85789843375163
 30
0.0
 10
2.90494745761661
 20
-2.838046770513049
 30
0.0
 10
2.895742417377012
 20
-2.822750065313686
 30
0.0
 10
2.880124397730229
 20
-2.82543846322009
 30
0.0
 10
2.864544945626966
 20
-2.827977916913305
 30
0.0
 10
2.849024510612316
 20
-2.83030979896484
 30
0.0
 10
2.844744023708043
 20
-2.849500176302614
 30
0.0
 10
2.838787274692031
 20
-2.872276087412274
 30
0.0
 10
2.834040571633838
 20
-2.87543625148722
 30
0.0
 10
2.828744421317866
 20
-2.87896272943418
 30
0.0
 10
2.81700894554745
 20
-2.855497456905823
 30
0.0
 10
2.808414705917572
 20
-2.836052218813809
 30
0.0
 10
2.793166904723484
 20
-2.838069288804288
 30
0.0
 10
2.777973144671376
 20
-2.839974509190294
 30
0.0
 10
2.762896523023679
 20
-2.841678947931554
 30
0.0
 10
2.762896523023679
 20
-2.841678947931554
 30
0.0
 10
2.75904098773444
 20
-2.874425610708891
 30
0.0
 10
2.75904098773444
 20
-2.874425610708891
 30
0.0
 10
2.758666113380514
 20
-2.877609394083202
 30
0.0
 10
2.756345055149167
 20
-2.880220302856401
 30
0.0
 10
2.753227410814601
 20
-2.880965966401732
 30
0.0
 10
2.750109840408072
 20
-2.881710785466301
 30
0.0
 10
2.746855348586021
 20
-2.880432817062582
 30
0.0
 10
2.745082594287661
 20
-2.877762209616738
 30
0.0
 10
2.738986252422731
 20
-2.868577735730885
 30
0.0
 10
2.731371708848693
 20
-2.856876836251558
 30
0.0
 10
2.724527470809448
 20
-2.845698630974665
 30
0.0
 10
2.70107055700814
 20
-2.847987562648187
 30
0.0
 10
2.6778837549688
 20
-2.849941889563107
 30
0.0
 10
2.655064919258431
 20
-2.851561668637651
 30
0.0
 10
2.655064919258431
 20
-2.851561668637651
 30
0.0
 10
2.652266372926622
 20
-2.883529487518634
 30
0.0
 10
2.652266372926622
 20
-2.883529487518634
 30
0.0
 10
2.652100182670286
 20
-2.885427880249962
 30
0.0
 10
2.65065269345972
 20
-2.886963924658984
 30
0.0
 10
2.648767994164902
 20
-2.887243981375225
 30
0.0
 10
2.646883294870084
 20
-2.887524038091467
 30
0.0
 10
2.645048571330891
 20
-2.886475027080855
 30
0.0
 10
2.644339723035487
 20
-2.884705961720872
 30
0.0
 10
2.640429045607637
 20
-2.874952925928596
 30
0.0
 10
2.634877147973194
 20
-2.862893091907558
 30
0.0
 10
2.628208842592572
 20
-2.853330930088507
 30
0.0
 10
2.610705538903011
 20
-2.854400858254823
 30
0.0
 10
2.593451439599638
 20
-2.855287522845502
 30
0.0
 10
2.576456445283687
 20
-2.856013915352807
 30
0.0
 10
2.576456445283687
 20
-2.856013915352807
 30
0.0
 10
2.565142854670183
 20
-2.892409245922143
 30
0.0
 10
2.565142854670183
 20
-2.892409245922143
 30
0.0
 10
2.563889881927151
 20
-2.896437739944038
 30
0.0
 10
2.560215646919737
 20
-2.899225468643749
 30
0.0
 10
2.555998722075931
 20
-2.899347307686841
 30
0.0
 10
2.551781026679426
 20
-2.899468228321135
 30
0.0
 10
2.547953121699278
 20
-2.896895969121121
 30
0.0
 10
2.546471113987574
 20
-2.892945453091632
 30
0.0
 10
2.546471113987574
 20
-2.892945453091632
 30
0.0
 10
2.533197429762468
 20
-2.857549616742252
 30
0.0
 10
2.533197429762468
 20
-2.857549616742252
 30
0.0
 10
2.515939674096267
 20
-2.858030907804505
 30
0.0
 10
2.499037780447414
 20
-2.858345079999493
 30
0.0
 10
2.482485487698947
 20
-2.858524772364363
 30
0.0
 10
2.482485487698947
 20
-2.858524772364363
 30
0.0
 10
2.47045655699963
 20
-2.888403855624195
 30
0.0
 10
2.47045655699963
 20
-2.888403855624195
 30
0.0
 10
2.468961315107284
 20
-2.892118413075448
 30
0.0
 10
2.46533848273062
 20
-2.89453281873821
 30
0.0
 10
2.461334660001158
 20
-2.894485252770664
 30
0.0
 10
2.457331755680507
 20
-2.894436916250419
 30
0.0
 10
2.453768181680756
 20
-2.891936301573183
 30
0.0
 10
2.452362137328376
 20
-2.88818730372149
 30
0.0
 10
2.452362137328376
 20
-2.88818730372149
 30
0.0
 10
2.441303727871589
 20
-2.858698694111998
 30
0.0
 10
2.441303727871589
 20
-2.858698694111998
 30
0.0
 10
2.422846690336958
 20
-2.858648669652148
 30
0.0
 10
2.404917092268508
 20
-2.858444844757678
 30
0.0
 10
2.387636612822626
 20
-2.858097020587024
 30
0.0
 10
2.387636612822626
 20
-2.858097020587024
 30
0.0
 10
2.373661512498807
 20
-2.892807630499836
 30
0.0
 10
2.373661512498807
 20
-2.892807630499836
 30
0.0
 10
2.372995028633012
 20
-2.894462252359732
 30
0.0
 10
2.371367673789665
 20
-2.895525589311736
 30
0.0
 10
2.369584474434886
 20
-2.895472448649773
 30
0.0
 10
2.367801275080119
 20
-2.895419307987809
 30
0.0
 10
2.366240865686803
 20
-2.894259860641859
 30
0.0
 10
2.365675027472018
 20
-2.892567987155858
 30
0.0
 10
2.365675027472018
 20
-2.892567987155858
 30
0.0
 10
2.353852755482611
 20
-2.857224327393775
 30
0.0
 10
2.353852755482611
 20
-2.857224327393775
 30
0.0
 10
2.212011023149469
 20
-2.852809490116227
 30
0.0
 10
2.119686808161267
 20
-2.840115875103808
 30
0.0
 10
2.119686808161267
 20
-2.840115875103808
 30
0.0
 10
2.119686808161267
 20
-2.840115875103808
 30
0.0
 10
1.970318970083427
 20
-2.888967763151161
 30
0.0
 10
1.970318970083427
 20
-2.888967763151161
 30
0.0
 10
1.958101322060202
 20
-2.892963637906493
 30
0.0
 10
1.950146094012982
 20
-2.904732643630091
 30
0.0
 10
1.95099264502494
 20
-2.917559228899121
 30
0.0
 10
1.95099264502494
 20
-2.917559228899121
 30
0.0
 10
1.953770186268811
 20
-2.959643366888713
 30
0.0
 10
1.953770186268811
 20
-2.959643366888713
 30
0.0
 10
1.952705463522168
 20
-2.960082854611427
 30
0.0
 10
1.955991656364707
 20
-2.969817974150348
 30
0.0
 10
1.954927778098825
 20
-2.970257535801125
 30
0.0
 10
1.975839880964107
 20
-3.015173506483127
 30
0.0
 10
2.021684760413703
 20
-3.159135403611243
 30
0.0
 10
1.829278089391841
 20
-3.306724597301834
 30
0.0
 10
1.829278089391841
 20
-3.306724597301834
 30
0.0
 10
1.756445453792468
 20
-3.329115942046239
 30
0.0
 10
1.781359975118991
 20
-3.409782085132772
 30
0.0
 10
1.794375679752673
 20
-3.451925516215561
 30
0.0
 10
1.806273651964754
 20
-3.490448154291268
 30
0.0
 10
1.806273651964754
 20
-3.490448154291268
 30
0.0
 10
1.806273651964754
 20
-3.490448154291268
 30
0.0
 10
1.809763790646027
 20
-3.514093618245814
 30
0.0
 10
1.872696342150852
 20
-3.524130816940707
 30
0.0
 10
1.94731186929606
 20
-3.536031515002656
 30
0.0
 10
2.140070290736983
 20
-3.55265591043533
 30
0.0
 10
2.331028825935555
 20
-3.770125403447537
 30
0.0
 10
2.498167412644686
 20
-3.960466100755108
 30
0.0
 10
2.536434162258009
 20
-4.062381912385478
 30
0.0
 10
2.554496142591713
 20
-4.198160884267369
 30
0.0
 10
2.554496142591713
 20
-4.198160884267369
 30
0.0
 10
2.556507724268613
 20
-4.198161687142525
 30
0.0
 10
2.556507724268613
 20
-4.198161687142525
 30
0.0
 10
2.561853237854153
 20
-4.266702452099454
 30
0.0
 10
2.623354720033477
 20
-4.273908341959213
 30
0.0
 10
2.635843168849545
 20
-4.274668039953617
 30
0.0
 10
2.637135207390846
 20
-4.274684139783807
 30
0.0
 10
2.638209460835911
 20
-4.274777331782628
 30
0.0
 10
2.638209460835911
 20
-4.274777331782628
 30
0.0
 10
2.638209460835911
 20
-4.274777331782628
 30
0.0
 10
2.637256704540202
 20
-4.274754342643973
 30
0.0
 10
2.635843168849545
 20
-4.274668039953617
 30
0.0
 10
2.628876486708476
 20
-4.274579792357232
 30
0.0
 10
2.760779743175261
 20
-4.285198558529461
 30
0.0
 10
2.766260553841865
 20
-4.28608511835153
 30
0.0
 10
2.884883569178783
 20
-4.305280450126803
 30
0.0
 10
2.867423148814042
 20
-4.181176451080142
 30
0.0
 10
2.867423148814042
 20
-4.181176451080142
 30
0.0
 10
2.879492716181024
 20
-4.043305678967398
 30
0.0
 10
3.01016717237418
 20
-3.776892216848043
 30
0.0
 10
3.01016717237418
 20
-3.776892216848043
 30
0.0
 10
3.320555044214391
 20
-3.260985576892722
 30
0.0
 10
3.814601359842325
 20
-3.676813366891982
 30
0.0
 10
3.814601359842325
 20
-3.676813366891982
 30
0.0
 10
3.871783305334374
 20
-3.744967565705236
 30
0.0
 10
3.906957185654316
 20
-3.703843194908889
 30
0.0
 10
3.906957185654316
 20
-3.703843194908889
 30
0.0
 10
4.377455891867132
 20
-3.378769964766522
 30
0.0
 10
4.723292206219159
 20
-3.756362536146955
 30
0.0
 10
4.723292206219159
 20
-3.756362536146955
 30
0.0
 10
4.781021927289329
 20
-3.818249769368814
 30
0.0
 10
4.834448707021187
 20
-3.785038224340446
 30
0.0
 10
4.834448707021187
 20
-3.785038224340446
 30
0.0
 10
5.200520405021558
 20
-3.570804945957068
 30
0.0
 10
5.434186464144179
 20
-3.787021479129584
 30
0.0
 10
5.490820634058132
 20
-3.861442643534221
 30
0.0
 10
5.547453959491299
 20
-3.935863734010821
 30
0.0
 10
5.574716006380135
 20
-3.912990647592917
 30
0.0
 10
5.574716006380135
 20
-3.912990647592917
 30
0.0
 10
5.574716006380135
 20
-3.912990647592917
 30
0.0
 10
5.574721727233433
 20
-3.91300306174786
 30
0.0
 10
5.574724513732058
 20
-3.913010113306073
 30
0.0
 10
5.588234053934457
 20
-3.80356978578541
 30
0.0
 10
5.598427778559526
 20
-3.48684505445154
 30
0.0
 10
5.821750315531593
 20
-3.276151579587349
 30
0.0
 10
6.077779696048461
 20
-3.034600858465246
 30
0.0
 10
6.480938740215707
 20
-3.082984599587121
 30
0.0
 10
6.480938740215707
 20
-3.082984599587121
 30
0.0
  0
SPLINE
  5
4B
330
1F
100
AcDbEntity
  8
Layer 2
 62
   179
420
  2301728
370
     5
100
AcDbSpline
210
0.0
220
0.0
230
1.0
 70
    11
 71
     3
 72
    17
 73
    13
 74
     0
 42
0.0000000001
 43
0.0000000001
 12
1.0
 22
0.0
 32
0.0
 13
1.0
 23
0.0
 33
0.0
 40
0.0
 40
0.0
 40
0.0
 40
0.0
 40
1.0
 40
1.0
 40
1.0
 40
2.0
 40
2.0
 40
2.0
 40
3.0
 40
3.0
 40
3.0
 40
4.0
 40
4.0
 40
4.0
 40
4.0
 10
2.862859854051344
 20
-3.411872887441013
 30
0.0
 10
2.853852726772225
 20
-3.514760981595524
 30
0.0
 10
2.763143727332185
 20
-3.590866542339086
 30
0.0
 10
2.660255633177662
 20
-3.581859415059954
 30
0.0
 10
2.557367539023137
 20
-3.572852287780834
 30
0.0
 10
2.481261978279589
 20
-3.482143288340795
 30
0.0
 10
2.490269105558708
 20
-3.379255194186271
 30
0.0
 10
2.499276232837827
 20
-3.276367100031747
 30
0.0
 10
2.58998523227788
 20
-3.200261539288198
 30
0.0
 10
2.692873326432391
 20
-3.209268666567318
 30
0.0
 10
2.795761420586915
 20
-3.218275793846449
 30
0.0
 10
2.871866981330463
 20
-3.308984793286489
 30
0.0
 10
2.862859854051344
 20
-3.411872887441013
 30
0.0
  0
SPLINE
  5
4C
330
1F
100
AcDbEntity
  8
Layer 2
 62
   179
420
  2301728
370
     5
100
AcDbSpline
210
0.0
220
0.0
230
1.0
 70
    11
 71
     3
 72
    17
 73
    13
 74
     0
 42
0.0000000001
 43
0.0000000001
 12
1.0
 22
0.0
 32
0.0
 13
1.0
 23
0.0
 33
0.0
 40
0.0
 40
0.0
 40
0.0
 40
0.0
 40
1.0
 40
1.0
 40
1.0
 40
2.0
 40
2.0
 40
2.0
 40
3.0
 40
3.0
 40
3.0
 40
4.0
 40
4.0
 40
4.0
 40
4.0
 10
5.44227054848347
 20
-3.262235904116298
 30
0.0
 10
5.433263421204325
 20
-3.365123998270822
 30
0.0
 10
5.342554421764286
 20
-3.441229559014371
 30
0.0
 10
5.239666327609762
 20
-3.432222431735239
 30
0.0
 10
5.136778233455263
 20
-3.42321530445612
 30
0.0
 10
5.060672672711689
 20
-3.33250630501608
 30
0.0
 10
5.069679799990833
 20
-3.229618210861556
 30
0.0
 10
5.078686927269953
 20
-3.126730116707032
 30
0.0
 10
5.169395926709992
 20
-3.050624555963484
 30
0.0
 10
5.272284020864491
 20
-3.059631683242603
 30
0.0
 10
5.375172115019041
 20
-3.068638810521735
 30
0.0
 10
5.451277675762589
 20
-3.159347809961774
 30
0.0
 10
5.44227054848347
 20
-3.262235904116298
 30
0.0
  0
SPLINE
  5
4D
330
1F
100
AcDbEntity
  8
Layer 2
 62
   179
420
  2301728
370
     5
100
AcDbSpline
210
0.0
220
0.0
230
1.0
 70
    11
 71
     3
 72
   290
 73
   286
 74
     0
 42
0.0000000001
 43
0.0000000001
 12
1.0
 22
0.0
 32
0.0
 13
1.0
 23
0.0
 33
0.0
 40
0.0
 40
0.0
 40
0.0
 40
0.0
 40
1.0
 40
1.0
 40
1.0
 40
2.0
 40
2.0
 40
2.0
 40
3.0
 40
3.0
 40
3.0
 40
4.0
 40
4.0
 40
4.0
 40
5.0
 40
5.0
 40
5.0
 40
6.0
 40
6.0
 40
6.0
 40
7.0
 40
7.0
 40
7.0
 40
8.0
 40
8.0
 40
8.0
 40
9.0
 40
9.0
 40
9.0
 40
10.0
 40
10.0
 40
10.0
 40
11.0
 40
11.0
 40
11.0
 40
12.0
 40
12.0
 40
12.0
 40
13.0
 40
13.0
 40
13.0
 40
14.0
 40
14.0
 40
14.0
 40
15.0
 40
15.0
 40
15.0
 40
16.0
 40
16.0
 40
16.0
 40
17.0
 40
17.0
 40
17.0
 40
18.0
 40
18.0
 40
18.0
 40
19.0
 40
19.0
 40
19.0
 40
20.0
 40
20.0
 40
20.0
 40
21.0
 40
21.0
 40
21.0
 40
22.0
 40
22.0
 40
22.0
 40
23.0
 40
23.0
 40
23.0
 40
24.0
 40
24.0
 40
24.0
 40
25.0
 40
25.0
 40
25.0
 40
26.0
 40
26.0
 40
26.0
 40
27.0
 40
27.0
 40
27.0
 40
28.0
 40
28.0
 40
28.0
 40
29.0
 40
29.0
 40
29.0
 40
30.0
 40
30.0
 40
30.0
 40
31.0
 40
31.0
 40
31.0
 40
32.0
 40
32.0
 40
32.0
 40
33.0
 40
33.0
 40
33.0
 40
34.0
 40
34.0
 40
34.0
 40
35.0
 40
35.0
 40
35.0
 40
36.0
 40
36.0
 40
36.0
 40
37.0
 40
37.0
 40
37.0
 40
38.0
 40
38.0
 40
38.0
 40
39.0
 40
39.0
 40
39.0
 40
40.0
 40
40.0
 40
40.0
 40
41.0
 40
41.0
 40
41.0
 40
42.0
 40
42.0
 40
42.0
 40
43.0
 40
43.0
 40
43.0
 40
44.0
 40
44.0
 40
44.0
 40
45.0
 40
45.0
 40
45.0
 40
46.0
 40
46.0
 40
46.0
 40
47.0
 40
47.0
 40
47.0
 40
48.0
 40
48.0
 40
48.0
 40
49.0
 40
49.0
 40
49.0
 40
50.0
 40
50.0
 40
50.0
 40
51.0
 40
51.0
 40
51.0
 40
52.0
 40
52.0
 40
52.0
 40
53.0
 40
53.0
 40
53.0
 40
54.0
 40
54.0
 40
54.0
 40
55.0
 40
55.0
 40
55.0
 40
56.0
 40
56.0
 40
56.0
 40
57.0
 40
57.0
 40
57.0
 40
58.0
 40
58.0
 40
58.0
 40
59.0
 40
59.0
 40
59.0
 40
60.0
 40
60.0
 40
60.0
 40
61.0
 40
61.0
 40
61.0
 40
62.0
 40
62.0
 40
62.0
 40
63.0
 40
63.0
 40
63.0
 40
64.0
 40
64.0
 40
64.0
 40
65.0
 40
65.0
 40
65.0
 40
66.0
 40
66.0
 40
66.0
 40
67.0
 40
67.0
 40
67.0
 40
68.0
 40
68.0
 40
68.0
 40
69.0
 40
69.0
 40
69.0
 40
70.0
 40
70.0
 40
70.0
 40
71.0
 40
71.0
 40
71.0
 40
72.0
 40
72.0
 40
72.0
 40
73.0
 40
73.0
 40
73.0
 40
74.0
 40
74.0
 40
74.0
 40
75.0
 40
75.0
 40
75.0
 40
76.0
 40
76.0
 40
76.0
 40
77.0
 40
77.0
 40
77.0
 40
78.0
 40
78.0
 40
78.0
 40
79.0
 40
79.0
 40
79.0
 40
80.0
 40
80.0
 40
80.0
 40
81.0
 40
81.0
 40
81.0
 40
82.0
 40
82.0
 40
82.0
 40
83.0
 40
83.0
 40
83.0
 40
84.0
 40
84.0
 40
84.0
 40
85.0
 40
85.0
 40
85.0
 40
86.0
 40
86.0
 40
86.0
 40
87.0
 40
87.0
 40
87.0
 40
88.0
 40
88.0
 40
88.0
 40
89.0
 40
89.0
 40
89.0
 40
90.0
 40
90.0
 40
90.0
 40
91.0
 40
91.0
 40
91.0
 40
92.0
 40
92.0
 40
92.0
 40
93.0
 40
93.0
 40
93.0
 40
94.0
 40
94.0
 40
94.0
 40
95.0
 40
95.0
 40
95.0
 40
95.0
 10
1.784840676022201
 20
-4.894853364072787
 30
0.0
 10
1.76610053683204
 20
-4.839966398629977
 30
0.0
 10
1.77444910686236
 20
-4.801064526963146
 30
0.0
 10
1.77444910686236
 20
-4.801064526963146
 30
0.0
 10
1.83543301122255
 20
-4.776093074465835
 30
0.0
 10
1.896151249162901
 20
-4.752911439172067
 30
0.0
 10
1.95610026154255
 20
-4.73124704922442
 30
0.0
 10
1.9701034036488
 20
-4.758006612089755
 30
0.0
 10
1.999342544179917
 20
-4.774903865064427
 30
0.0
 10
2.031169197670212
 20
-4.771377500647683
 30
0.0
 10
2.072607712838312
 20
-4.766786150651783
 30
0.0
 10
2.102477483016451
 20
-4.729471561315474
 30
0.0
 10
2.097886133020552
 20
-4.688033046147376
 30
0.0
 10
2.097681500447846
 20
-4.686186166694559
 30
0.0
 10
2.097076712354149
 20
-4.684499618248221
 30
0.0
 10
2.096744375451269
 20
-4.682701004242239
 30
0.0
 10
2.116533846662959
 20
-4.676193537426406
 30
0.0
 10
2.136191556722401
 20
-4.669836280419253
 30
0.0
 10
2.155659355173371
 20
-4.663681732734213
 30
0.0
 10
2.169171658647378
 20
-4.691723000390399
 30
0.0
 10
2.199027938635153
 20
-4.709717786525326
 30
0.0
 10
2.231724950918685
 20
-4.706094987141594
 30
0.0
 10
2.273163466086784
 20
-4.701503637145707
 30
0.0
 10
2.3030340788194
 20
-4.664188954455122
 30
0.0
 10
2.298442728823514
 20
-4.622750439287024
 30
0.0
 10
2.298367298568615
 20
-4.622069655255144
 30
0.0
 10
2.298114635244865
 20
-4.621459682370831
 30
0.0
 10
2.298021978116948
 20
-4.620785071551217
 30
0.0
 10
2.322899003737512
 20
-4.613638853279351
 30
0.0
 10
2.347296530674031
 20
-4.606822102000743
 30
0.0
 10
2.371277580367178
 20
-4.600272396622598
 30
0.0
 10
2.383076008665954
 20
-4.631927945825686
 30
0.0
 10
2.414994998047531
 20
-4.652897670754883
 30
0.0
 10
2.45009918852299
 20
-4.649008158204992
 30
0.0
 10
2.491537703691089
 20
-4.644416808209106
 30
0.0
 10
2.521408409777981
 20
-4.60710296807301
 30
0.0
 10
2.516817059782094
 20
-4.565664452904912
 30
0.0
 10
2.516701393834296
 20
-4.564620527885735
 30
0.0
 10
2.516329380951359
 20
-4.563680060904731
 30
0.0
 10
2.516172800884406
 20
-4.562651756807782
 30
0.0
 10
2.537621482396275
 20
-4.557371144389789
 30
0.0
 10
2.55868301538966
 20
-4.552268185571594
 30
0.0
 10
2.578910432342961
 20
-4.547519485761819
 30
0.0
 10
2.585123823186968
 20
-4.587162891337597
 30
0.0
 10
2.621256486430639
 20
-4.615371679024721
 30
0.0
 10
2.661540701940718
 20
-4.610908224386763
 30
0.0
 10
2.702979217108817
 20
-4.606316874390877
 30
0.0
 10
2.732849923195722
 20
-4.569003034254782
 30
0.0
 10
2.728258573199835
 20
-4.527564519086682
 30
0.0
 10
2.7277785455133
 20
-4.523232103873915
 30
0.0
 10
2.726745287986495
 20
-4.519110243188252
 30
0.0
 10
2.725582353859674
 20
-4.515057336028664
 30
0.0
 10
2.747376143294926
 20
-4.51053594565499
 30
0.0
 10
2.767840394647085
 20
-4.506423706603957
 30
0.0
 10
2.786741162561434
 20
-4.502733746338284
 30
0.0
 10
2.795704601542727
 20
-4.538892845084698
 30
0.0
 10
2.829945482958894
 20
-4.563860414919203
 30
0.0
 10
2.867985975849062
 20
-4.559645562717896
 30
0.0
 10
2.909361299430038
 20
-4.555061214292701
 30
0.0
 10
2.93918526084446
 20
-4.517848930905289
 30
0.0
 10
2.934704726232654
 20
-4.47648683889156
 30
0.0
 10
2.938799313067307
 20
-4.475861729863279
 30
0.0
 10
2.940949160015293
 20
-4.475551032430707
 30
0.0
 10
2.940949160015293
 20
-4.475551032430707
 30
0.0
 10
3.947607151330683
 20
-4.364014237602494
 30
0.0
 10
4.869472737772614
 20
-4.40117535246284
 30
0.0
 10
4.869472737772614
 20
-4.40117535246284
 30
0.0
 10
4.876602533995739
 20
-4.404920236498279
 30
0.0
 10
4.883865706785955
 20
-4.408437118014692
 30
0.0
 10
4.891081486155801
 20
-4.412034305708858
 30
0.0
 10
4.889927754627479
 20
-4.430364688605083
 30
0.0
 10
4.890761943062342
 20
-4.453465971239439
 30
0.0
 10
4.901526856684186
 20
-4.458750989345668
 30
0.0
 10
4.912594003876873
 20
-4.464185040431389
 30
0.0
 10
4.925703159758844
 20
-4.447120258752534
 30
0.0
 10
4.934436760462934
 20
-4.432609415333104
 30
0.0
 10
4.947934307195687
 20
-4.438671429111852
 30
0.0
 10
4.961533768818399
 20
-4.444529395850471
 30
0.0
 10
4.975262872837144
 20
-4.450125657890263
 30
0.0
 10
4.972139428716673
 20
-4.468090900883996
 30
0.0
 10
4.969907603059406
 20
-4.490485389181496
 30
0.0
 10
4.976911088835499
 20
-4.495830658699661
 30
0.0
 10
4.984388805027518
 20
-4.501537892375924
 30
0.0
 10
5.000406519208203
 20
-4.480918361405227
 30
0.0
 10
5.011579320526228
 20
-4.464297555639708
 30
0.0
 10
5.026957573004034
 20
-4.470052252747715
 30
0.0
 10
5.04241255235921
 20
-4.475621898687842
 30
0.0
 10
5.057998978599799
 20
-4.480846055983029
 30
0.0
 10
5.057893576922904
 20
-4.497222289551638
 30
0.0
 10
5.059406464122629
 20
-4.515472143817166
 30
0.0
 10
5.066493546882005
 20
-4.518084847346156
 30
0.0
 10
5.073571081479157
 20
-4.520696050108679
 30
0.0
 10
5.087466276870347
 20
-4.507092231910392
 30
0.0
 10
5.09886512977947
 20
-4.493897205400899
 30
0.0
 10
5.114293326127861
 20
-4.498586216479402
 30
0.0
 10
5.129807086171846
 20
-4.502969791549554
 30
0.0
 10
5.145360682671909
 20
-4.507189460838402
 30
0.0
 10
5.145560310462113
 20
-4.523755356710795
 30
0.0
 10
5.147200904357962
 20
-4.54194926918477
 30
0.0
 10
5.153350138994534
 20
-4.544334108090425
 30
0.0
 10
5.159493195686789
 20
-4.546717072812523
 30
0.0
 10
5.173052994571713
 20
-4.53182586554999
 30
0.0
 10
5.184457778899286
 20
-4.517306484049034
 30
0.0
 10
5.202301495094313
 20
-4.521696300485208
 30
0.0
 10
5.220189125861654
 20
-4.525751179675631
 30
0.0
 10
5.238093396270364
 20
-4.52957905011989
 30
0.0
 10
5.238455258516145
 20
-4.547355143773845
 30
0.0
 10
5.24027343719106
 20
-4.566766935106127
 30
0.0
 10
5.246414816952185
 20
-4.569427277501543
 30
0.0
 10
5.252896718653523
 20
-4.572235822152025
 30
0.0
 10
5.264871874676524
 20
-4.553827143267085
 30
0.0
 10
5.274223308491602
 20
-4.53694843131671
 30
0.0
 10
5.289569653560799
 20
-4.53992109865899
 30
0.0
 10
5.304902856971188
 20
-4.542705878714931
 30
0.0
 10
5.320223012077046
 20
-4.545303614039009
 30
0.0
 10
5.324156605454442
 20
-4.56373985091803
 30
0.0
 10
5.329894672910894
 20
-4.585306720642152
 30
0.0
 10
5.33542146345917
 20
-4.586492266368244
 30
0.0
 10
5.341457667361738
 20
-4.587787684677992
 30
0.0
 10
5.354243589438637
 20
-4.567636257199246
 30
0.0
 10
5.363093952221081
 20
-4.552131643873293
 30
0.0
 10
5.378769736304194
 20
-4.554459693351064
 30
0.0
 10
5.394403533337027
 20
-4.556639726202522
 30
0.0
 10
5.409973549185148
 20
-4.558613601435493
 30
0.0
 10
5.414694797232388
 20
-4.577700323715135
 30
0.0
 10
5.421174426879942
 20
-4.600333029813732
 30
0.0
 10
5.425992640308878
 20
-4.603383053790139
 30
0.0
 10
5.431368590403003
 20
-4.606786642405849
 30
0.0
 10
5.442560620446683
 20
-4.583057359443867
 30
0.0
 10
5.450704816456891
 20
-4.563419378116388
 30
0.0
 10
5.465995021608705
 20
-4.565084802691849
 30
0.0
 10
5.481228624390951
 20
-4.566639651723841
 30
0.0
 10
5.496340496436915
 20
-4.567996469691378
 30
0.0
 10
5.496340496436915
 20
-4.567996469691378
 30
0.0
 10
5.500949065651588
 20
-4.600645668229983
 30
0.0
 10
5.500949065651588
 20
-4.600645668229983
 30
0.0
 10
5.501397153472326
 20
-4.603819975187522
 30
0.0
 10
5.503777717565551
 20
-4.606376744737783
 30
0.0
 10
5.506911705607004
 20
-4.607050420680631
 30
0.0
 10
5.510045600294132
 20
-4.607723254068977
 30
0.0
 10
5.513269801436005
 20
-4.60637068345808
 30
0.0
 10
5.51498058969552
 20
-4.603659962988659
 30
0.0
 10
5.520863824526107
 20
-4.594337544170482
 30
0.0
 10
5.528206912863121
 20
-4.58246440742649
 30
0.0
 10
5.534791935977106
 20
-4.571131564087826
 30
0.0
 10
5.55829533719245
 20
-4.572879747315735
 30
0.0
 10
5.581520993335592
 20
-4.574299634361371
 30
0.0
 10
5.604371077096857
 20
-4.575393535421502
 30
0.0
 10
5.604371077096857
 20
-4.575393535421502
 30
0.0
 10
5.607905003209958
 20
-4.607288435825883
 30
0.0
 10
5.607905003209958
 20
-4.607288435825883
 30
0.0
 10
5.608114863622126
 20
-4.609182498330407
 30
0.0
 10
5.609597339462804
 20
-4.610684804165771
 30
0.0
 10
5.611487987874928
 20
-4.610921387719549
 30
0.0
 10
5.613378636287052
 20
-4.611157971273327
 30
0.0
 10
5.615188717799507
 20
-4.610066990300083
 30
0.0
 10
5.615856641934442
 20
-4.608282071393305
 30
0.0
 10
5.619541699614526
 20
-4.598441570643621
 30
0.0
 10
5.62481442376126
 20
-4.586257091006372
 30
0.0
 10
5.63126077344158
 20
-4.576543913817507
 30
0.0
 10
5.648784073228297
 20
-4.577210510332861
 30
0.0
 10
5.666054014702947
 20
-4.577699630286538
 30
0.0
 10
5.683061229313757
 20
-4.578034487055257
 30
0.0
 10
5.683061229313757
 20
-4.578034487055257
 30
0.0
 10
5.69520989405065
 20
-4.614159649545286
 30
0.0
 10
5.69520989405065
 20
-4.614159649545286
 30
0.0
 10
5.696555298549811
 20
-4.6181582232301
 30
0.0
 10
5.700292752242805
 20
-4.620860606268429
 30
0.0
 10
5.704511364528267
 20
-4.620885310026349
 30
0.0
 10
5.708730726013932
 20
-4.620909077875504
 30
0.0
 10
5.71249838468187
 20
-4.618249355692442
 30
0.0
 10
5.713889031038282
 20
-4.614265761025775
 30
0.0
 10
5.713889031038282
 20
-4.614265761025775
 30
0.0
 10
5.726344137001838
 20
-4.578573657428251
 30
0.0
 10
5.726344137001838
 20
-4.578573657428251
 30
0.0
 10
5.743608399347926
 20
-4.57865742714566
 30
0.0
 10
5.760513045795303
 20
-4.578582316730389
 30
0.0
 10
5.77706508737866
 20
-4.578380812390618
 30
0.0
 10
5.77706508737866
 20
-4.578380812390618
 30
0.0
 10
5.789778853129165
 20
-4.607974983280491
 30
0.0
 10
5.789778853129165
 20
-4.607974983280491
 30
0.0
 10
5.791359233532299
 20
-4.611654124913621
 30
0.0
 10
5.795036701727895
 20
-4.61398446755028
 30
0.0
 10
5.799038367521058
 20
-4.613844718311106
 30
0.0
 10
5.803039097405468
 20
-4.613704219871718
 30
0.0
 10
5.806544144937763
 20
-4.611122209954588
 30
0.0
 10
5.807863488428867
 20
-4.607341829237598
 30
0.0
 10
5.807863488428867
 20
-4.607341829237598
 30
0.0
 10
5.818239932517523
 20
-4.577606397098647
 30
0.0
 10
5.818239932517523
 20
-4.577606397098647
 30
0.0
 10
5.836690924151955
 20
-4.577131376354234
 30
0.0
 10
5.854611074616614
 20
-4.576514741286145
 30
0.0
 10
5.87187896271002
 20
-4.575769092355623
 30
0.0
 10
5.87187896271002
 20
-4.575769092355623
 30
0.0
 10
5.88664963743996
 20
-4.610148694412701
 30
0.0
 10
5.88664963743996
 20
-4.610148694412701
 30
0.0
 10
5.887354045502636
 20
-4.611787530439819
 30
0.0
 10
5.889005454265871
 20
-4.612813112399698
 30
0.0
 10
5.890786957126996
 20
-4.612718924159973
 30
0.0
 10
5.89256845998817
 20
-4.61262473592026
 30
0.0
 10
5.894101757077098
 20
-4.611429664516613
 30
0.0
 10
5.894628486545924
 20
-4.609725210104001
 30
0.0
 10
5.894628486545924
 20
-4.609725210104001
 30
0.0
 10
5.905633766592422
 20
-4.574118690876932
 30
0.0
 10
5.905633766592422
 20
-4.574118690876932
 30
0.0
 10
6.047336228480061
 20
-4.56643883967787
 30
0.0
 10
6.139343667753463
 20
-4.5516226440251
 30
0.0
 10
6.139343667753463
 20
-4.5516226440251
 30
0.0
 10
6.139343667753463
 20
-4.5516226440251
 30
0.0
 10
6.289796810791181
 20
-4.597022090804885
 30
0.0
 10
6.289796810791181
 20
-4.597022090804885
 30
0.0
 10
6.302103232101672
 20
-4.600735570683443
 30
0.0
 10
6.310327355252284
 20
-4.612318271033915
 30
0.0
 10
6.309776386032303
 20
-4.625160948760859
 30
0.0
 10
6.309776386032303
 20
-4.625160948760859
 30
0.0
 10
6.307968651222533
 20
-4.667297886245048
 30
0.0
 10
6.307968651222533
 20
-4.667297886245048
 30
0.0
 10
6.309043211720058
 20
-4.667712740102147
 30
0.0
 10
6.30598206048272
 20
-4.677520949364697
 30
0.0
 10
6.307055778425769
 20
-4.677935896576072
 30
0.0
 10
6.287183498988017
 20
-4.723321499783499
 30
0.0
 10
6.244665781069923
 20
-4.868300893007206
 30
0.0
 10
6.440419965495594
 20
-5.011420410990594
 30
0.0
 10
6.440419965495594
 20
-5.011420410990594
 30
0.0
 10
6.513748893807789
 20
-5.032128704024924
 30
0.0
 10
6.49069847512515
 20
-5.11334716382281
 30
0.0
 10
6.478656656972917
 20
-5.15577913250364
 30
0.0
 10
6.467648898996988
 20
-5.194565530266421
 30
0.0
 10
6.467648898996988
 20
-5.194565530266421
 30
0.0
 10
6.467648898996988
 20
-5.194565530266421
 30
0.0
 10
6.464704169005876
 20
-5.218285091791055
 30
0.0
 10
6.402019430644335
 20
-5.229768774697428
 30
0.0
 10
6.327697725183902
 20
-5.243384486319175
 30
0.0
 10
6.135373224101587
 20
-5.264443115034005
 30
0.0
 10
5.949472984951626
 20
-5.486252140188904
 30
0.0
 10
5.786761684479289
 20
-5.680391061884797
 30
0.0
 10
5.750851893293302
 20
-5.783161017043059
 30
0.0
 10
5.735921279767555
 20
-5.919319898937045
 30
0.0
 10
5.735921279767555
 20
-5.919319898937045
 30
0.0
 10
5.733910249960799
 20
-5.919367022219249
 30
0.0
 10
5.733910249960799
 20
-5.919367022219249
 30
0.0
 10
5.730144439532877
 20
-5.988012704153334
 30
0.0
 10
5.6688251945925
 20
-5.996632875779647
 30
0.0
 10
5.656357550698632
 20
-5.997679943403833
 30
0.0
 10
5.655066225478953
 20
-5.99772579069074
 30
0.0
 10
5.653994402807156
 20
-5.997843694775156
 30
0.0
 10
5.653994402807156
 20
-5.997843694775156
 30
0.0
 10
5.653994402807156
 20
-5.997843694775156
 30
0.0
 10
5.654946377104048
 20
-5.997798772646775
 30
0.0
 10
5.656357550698632
 20
-5.997679943403833
 30
0.0
 10
5.66332035350994
 20
-5.997431297664181
 30
0.0
 10
5.531696589895798
 20
-6.011084579819453
 30
0.0
 10
5.526237647278978
 20
-6.012097110998007
 30
0.0
 10
5.408088095735062
 20
-6.034018880989454
 30
0.0
 10
5.422686147984424
 20
-5.909545728345139
 30
0.0
 10
5.422686147984424
 20
-5.909545728345139
 30
0.0
 10
5.407445035551417
 20
-5.77198943895352
 30
0.0
 10
5.270670535090074
 20
-5.508655653951766
 30
0.0
 10
5.270670535090074
 20
-5.508655653951766
 30
0.0
 10
4.948485200459396
 20
-5.000033100102251
 30
0.0
 10
4.464145135804251
 20
-5.427127017983366
 30
0.0
 10
4.464145135804251
 20
-5.427127017983366
 30
0.0
 10
4.40854773675043
 20
-5.496579871953397
 30
0.0
 10
4.372436213557345
 20
-5.456276353213322
 30
0.0
 10
4.372436213557345
 20
-5.456276353213322
 30
0.0
 10
3.894576813015596
 20
-5.142123475115719
 30
0.0
 10
3.557527009886106
 20
-5.527579486220298
 30
0.0
 10
3.557527009886106
 20
-5.527579486220298
 30
0.0
 10
3.501237671305552
 20
-5.590779649929421
 30
0.0
 10
3.447060296919251
 20
-5.558807167693986
 30
0.0
 10
3.447060296919251
 20
-5.558807167693986
 30
0.0
 10
3.076152522812145
 20
-5.353060214494993
 30
0.0
 10
2.847527232019818
 20
-5.574600036678652
 30
0.0
 10
2.792621772492756
 20
-5.650305580909617
 30
0.0
 10
2.737717155520184
 20
-5.72601103178628
 30
0.0
 10
2.70993563956866
 20
-5.703771772484666
 30
0.0
 10
2.70993563956866
 20
-5.703771772484666
 30
0.0
 10
2.70993563956866
 20
-5.703771772484666
 30
0.0
 10
2.709930206092571
 20
-5.703784315081823
 30
0.0
 10
2.70992758270879
 20
-5.703791428934866
 30
0.0
 10
2.69390154609688
 20
-5.59469120384425
 30
0.0
 10
2.676417315238508
 20
-5.278285184414269
 30
0.0
 10
2.44830236233583
 20
-5.072790016266203
 30
0.0
 10
2.186778689579051
 20
-4.837198923161534
 30
0.0
 10
1.784840676022201
 20
-4.894853364072787
 30
0.0
 10
1.784840676022201
 20
-4.894853364072787
 30
0.0
  0
SPLINE
  5
4E
330
1F
100
AcDbEntity
  8
Layer 2
 62
   179
420
  2301728
370
     5
100
AcDbSpline
210
0.0
220
0.0
230
1.0
 70
    11
 71
     3
 72
    17
 73
    13
 74
     0
 42
0.0000000001
 43
0.0000000001
 12
1.0
 22
0.0
 32
0.0
 13
1.0
 23
0.0
 33
0.0
 40
0.0
 40
0.0
 40
0.0
 40
0.0
 40
1.0
 40
1.0
 40
1.0
 40
2.0
 40
2.0
 40
2.0
 40
3.0
 40
3.0
 40
3.0
 40
4.0
 40
4.0
 40
4.0
 40
4.0
 10
5.40953346236549
 20
-5.140341728413583
 30
0.0
 10
5.420907383233876
 20
-5.242995136465374
 30
0.0
 10
5.513344797295404
 20
-5.316991781234694
 30
0.0
 10
5.615998205347195
 20
-5.305617860366358
 30
0.0
 10
5.718651613399035
 20
-5.294243939497973
 30
0.0
 10
5.79264825816833
 20
-5.201806525436445
 30
0.0
 10
5.781274337299995
 20
-5.099153117384629
 30
0.0
 10
5.76990041643166
 20
-4.996499709332814
 30
0.0
 10
5.677463002370081
 20
-4.922503064563468
 30
0.0
 10
5.574809594318291
 20
-4.933876985431854
 30
0.0
 10
5.472156186266501
 20
-4.945250906300189
 30
0.0
 10
5.39815954149713
 20
-5.037688320361743
 30
0.0
 10
5.40953346236549
 20
-5.140341728413583
 30
0.0
  0
SPLINE
  5
4F
330
1F
100
AcDbEntity
  8
Layer 2
 62
   179
420
  2301728
370
     5
100
AcDbSpline
210
0.0
220
0.0
230
1.0
 70
    11
 71
     3
 72
    17
 73
    13
 74
     0
 42
0.0000000001
 43
0.0000000001
 12
1.0
 22
0.0
 32
0.0
 13
1.0
 23
0.0
 33
0.0
 40
0.0
 40
0.0
 40
0.0
 40
0.0
 40
1.0
 40
1.0
 40
1.0
 40
2.0
 40
2.0
 40
2.0
 40
3.0
 40
3.0
 40
3.0
 40
4.0
 40
4.0
 40
4.0
 40
4.0
 10
2.827361044234509
 20
-5.050139952528625
 30
0.0
 10
2.838734965102844
 20
-5.152793360580416
 30
0.0
 10
2.931172379164384
 20
-5.226790005349762
 30
0.0
 10
3.033825787216213
 20
-5.215416084481401
 30
0.0
 10
3.136479195268016
 20
-5.20404216361304
 30
0.0
 10
3.210475840037348
 20
-5.111604749551512
 30
0.0
 10
3.199101919169013
 20
-5.008951341499697
 30
0.0
 10
3.18772799830064
 20
-4.906297933447882
 30
0.0
 10
3.095290584239112
 20
-4.832301288678536
 30
0.0
 10
2.992637176187297
 20
-4.843675209546896
 30
0.0
 10
2.889983768135481
 20
-4.855049130415257
 30
0.0
 10
2.815987123366135
 20
-4.947486544476811
 30
0.0
 10
2.827361044234509
 20
-5.050139952528625
 30
0.0
  0
SPLINE
  5
50
330
1F
100
AcDbEntity
  8
Layer 2
 62
   178
420
        0
370
    70
100
AcDbSpline
210
0.0
220
0.0
230
1.0
 70
    11
 71
     3
 72
    44
 73
    40
 74
     0
 42
0.0000000001
 43
0.0000000001
 12
1.0
 22
0.0
 32
0.0
 13
1.0
 23
0.0
 33
0.0
 40
0.0
 40
0.0
 40
0.0
 40
0.0
 40
1.0
 40
1.0
 40
1.0
 40
2.0
 40
2.0
 40
2.0
 40
3.0
 40
3.0
 40
3.0
 40
4.0
 40
4.0
 40
4.0
 40
5.0
 40
5.0
 40
5.0
 40
6.0
 40
6.0
 40
6.0
 40
7.0
 40
7.0
 40
7.0
 40
8.0
 40
8.0
 40
8.0
 40
9.0
 40
9.0
 40
9.0
 40
10.0
 40
10.0
 40
10.0
 40
11.0
 40
11.0
 40
11.0
 40
12.0
 40
12.0
 40
12.0
 40
13.0
 40
13.0
 40
13.0
 40
13.0
 10
0.5333291996202105
 20
-10.79049310540093
 30
0.0
 10
0.5333291996202105
 20
-10.7655861609565
 30
0.0
 10
0.5329737311469166
 20
-10.74932366095648
 30
0.0
 10
0.5319416996552617
 20
-10.7347722720676
 30
0.0
 10
0.5319416996552617
 20
-10.7347722720676
 30
0.0
 10
0.5769514207404427
 20
-10.7347722720676
 30
0.0
 10
0.5769514207404427
 20
-10.7347722720676
 30
0.0
 10
0.5769514207404427
 20
-10.7347722720676
 30
0.0
 10
0.5790000317998015
 20
-10.76593893873425
 30
0.0
 10
0.5790000317998015
 20
-10.76593893873425
 30
0.0
 10
0.5790000317998015
 20
-10.76593893873425
 30
0.0
 10
0.5804028095421422
 20
-10.76593893873425
 30
0.0
 10
0.5804028095421422
 20
-10.76593893873425
 30
0.0
 10
0.5890500315459172
 20
-10.74106393873426
 30
0.0
 10
0.6094569754748388
 20
-10.73064310540093
 30
0.0
 10
0.6260903083879789
 20
-10.73064310540093
 30
0.0
 10
0.6309139193772353
 20
-10.73064310540093
 30
0.0
 10
0.6333319748717056
 20
-10.73096393873427
 30
0.0
 10
0.6371403978135832
 20
-10.73170838317871
 30
0.0
 10
0.6371403978135832
 20
-10.73170838317871
 30
0.0
 10
0.6371403978135832
 20
-10.78116810540094
 30
0.0
 10
0.6371403978135832
 20
-10.78116810540094
 30
0.0
 10
0.6329791971028397
 20
-10.78045838317871
 30
0.0
 10
0.6288639194290226
 20
-10.77978060540093
 30
0.0
 10
0.6229430862452621
 20
-10.77978060540093
 30
0.0
 10
0.6036014200672071
 20
-10.77978060540093
 30
0.0
 10
0.590437531510866
 20
-10.79016949428983
 30
0.0
 10
0.5869694760429208
 20
-10.80643199428982
 30
0.0
 10
0.5862750316160196
 20
-10.80988338317871
 30
0.0
 10
0.5859361427356917
 20
-10.8140458831787
 30
0.0
 10
0.5859361427356917
 20
-10.81820838317872
 30
0.0
 10
0.5859361427356917
 20
-10.81820838317872
 30
0.0
 10
0.5859361427356917
 20
-10.90403060540092
 30
0.0
 10
0.5859361427356917
 20
-10.90403060540092
 30
0.0
 10
0.5859361427356917
 20
-10.90403060540092
 30
0.0
 10
0.5333291996202105
 20
-10.90403060540092
 30
0.0
 10
0.5333291996202105
 20
-10.90403060540092
 30
0.0
 10
0.5333291996202105
 20
-10.90403060540092
 30
0.0
 10
0.5333291996202105
 20
-10.79049310540093
 30
0.0
 10
0.5333291996202105
 20
-10.79049310540093
 30
0.0
  0
HATCH
  5
51
330
1F
100
AcDbEntity
  8
Layer 2
 62
   142
420
    43204
100
AcDbHatch
 10
0.0
 20
0.0
 30
0.0
210
0.0
220
0.0
230
1.0
  2
SOLID
 70
     1
 71
     0
 91
        1
 92
        1
 93
        1
 72
     4
 94
        3
 73
     0
 74
     1
 95
       44
 96
       40
 40
0.0
 40
0.0
 40
0.0
 40
0.0
 40
1.0
 40
1.0
 40
1.0
 40
2.0
 40
2.0
 40
2.0
 40
3.0
 40
3.0
 40
3.0
 40
4.0
 40
4.0
 40
4.0
 40
5.0
 40
5.0
 40
5.0
 40
6.0
 40
6.0
 40
6.0
 40
7.0
 40
7.0
 40
7.0
 40
8.0
 40
8.0
 40
8.0
 40
9.0
 40
9.0
 40
9.0
 40
10.0
 40
10.0
 40
10.0
 40
11.0
 40
11.0
 40
11.0
 40
12.0
 40
12.0
 40
12.0
 40
13.0
 40
13.0
 40
13.0
 40
13.0
 10
0.5333291996202105
 20
-10.79049310540093
 10
0.5333291996202105
 20
-10.7655861609565
 10
0.5329737311469166
 20
-10.74932366095648
 10
0.5319416996552617
 20
-10.7347722720676
 10
0.5319416996552617
 20
-10.7347722720676
 10
0.5769514207404427
 20
-10.7347722720676
 10
0.5769514207404427
 20
-10.7347722720676
 10
0.5769514207404427
 20
-10.7347722720676
 10
0.5790000317998015
 20
-10.76593893873425
 10
0.5790000317998015
 20
-10.76593893873425
 10
0.5790000317998015
 20
-10.76593893873425
 10
0.5804028095421422
 20
-10.76593893873425
 10
0.5804028095421422
 20
-10.76593893873425
 10
0.5890500315459172
 20
-10.74106393873426
 10
0.6094569754748388
 20
-10.73064310540093
 10
0.6260903083879789
 20
-10.73064310540093
 10
0.6309139193772353
 20
-10.73064310540093
 10
0.6333319748717056
 20
-10.73096393873427
 10
0.6371403978135832
 20
-10.73170838317871
 10
0.6371403978135832
 20
-10.73170838317871
 10
0.6371403978135832
 20
-10.78116810540094
 10
0.6371403978135832
 20
-10.78116810540094
 10
0.6329791971028397
 20
-10.78045838317871
 10
0.6288639194290226
 20
-10.77978060540093
 10
0.6229430862452621
 20
-10.77978060540093
 10
0.6036014200672071
 20
-10.77978060540093
 10
0.590437531510866
 20
-10.79016949428983
 10
0.5869694760429208
 20
-10.80643199428982
 10
0.5862750316160196
 20
-10.80988338317871
 10
0.5859361427356917
 20
-10.8140458831787
 10
0.5859361427356917
 20
-10.81820838317872
 10
0.5859361427356917
 20
-10.81820838317872
 10
0.5859361427356917
 20
-10.90403060540092
 10
0.5859361427356917
 20
-10.90403060540092
 10
0.5859361427356917
 20
-10.90403060540092
 10
0.5333291996202105
 20
-10.90403060540092
 10
0.5333291996202105
 20
-10.90403060540092
 10
0.5333291996202105
 20
-10.90403060540092
 10
0.5333291996202105
 20
-10.79049310540093
 10
0.5333291996202105
 20
-10.79049310540093
 97
        0
 97
        0
 75
     2
 76
     1
 98
        0
  0
SPLINE
  5
52
330
1F
100
AcDbEntity
  8
Layer 2
 62
   178
420
        0
370
    70
100
AcDbSpline
210
0.0
220
0.0
230
1.0
 70
    11
 71
     3
 72
    17
 73
    13
 74
     0
 42
0.0000000001
 43
0.0000000001
 12
1.0
 22
0.0
 32
0.0
 13
1.0
 23
0.0
 33
0.0
 40
0.0
 40
0.0
 40
0.0
 40
0.0
 40
1.0
 40
1.0
 40
1.0
 40
2.0
 40
2.0
 40
2.0
 40
3.0
 40
3.0
 40
3.0
 40
4.0
 40
4.0
 40
4.0
 40
4.0
 10
0.8209653034650222
 20
-10.81749727206761
 30
0.0
 10
0.8209653034650222
 20
-10.87944588317871
 30
0.0
 10
0.7770222490195616
 20
-10.90783893873426
 30
0.0
 10
0.731706972386544
 20
-10.90783893873426
 30
0.0
 10
0.6822125291924345
 20
-10.90783893873426
 30
0.0
 10
0.6441403978135692
 20
-10.87528338317871
 30
0.0
 10
0.6441403978135692
 20
-10.82062782762316
 30
0.0
 10
0.6441403978135692
 20
-10.7655861609565
 30
0.0
 10
0.6801486403556838
 20
-10.73064310540093
 30
0.0
 10
0.7348375278630151
 20
-10.73064310540093
 30
0.0
 10
0.7863958598938754
 20
-10.73064310540093
 30
0.0
 10
0.8209653034650222
 20
-10.76629449428982
 30
0.0
 10
0.8209653034650222
 20
-10.81749727206761
 30
0.0
  0
SPLINE
  5
53
330
1F
100
AcDbEntity
  8
Layer 2
 62
   178
420
        0
370
    70
100
AcDbSpline
210
0.0
220
0.0
230
1.0
 70
    11
 71
     3
 72
    17
 73
    13
 74
     0
 42
0.0000000001
 43
0.0000000001
 12
1.0
 22
0.0
 32
0.0
 13
1.0
 23
0.0
 33
0.0
 40
0.0
 40
0.0
 40
0.0
 40
0.0
 40
1.0
 40
1.0
 40
1.0
 40
2.0
 40
2.0
 40
2.0
 40
3.0
 40
3.0
 40
3.0
 40
4.0
 40
4.0
 40
4.0
 40
4.0
 10
0.6984750287816092
 20
-10.81924032762314
 30
0.0
 10
0.6984750287816092
 20
-10.84831116095648
 30
0.0
 10
0.7106069729195749
 20
-10.8701222720676
 30
0.0
 10
0.7330944723514928
 20
-10.8701222720676
 30
0.0
 10
0.7538555829381341
 20
-10.8701222720676
 30
0.0
 10
0.7666500270593638
 20
-10.84969727206759
 30
0.0
 10
0.7666500270593638
 20
-10.8188847720676
 30
0.0
 10
0.7666500270593638
 20
-10.79397782762317
 30
0.0
 10
0.7569694717483596
 20
-10.7683597720676
 30
0.0
 10
0.7330944723514928
 20
-10.7683597720676
 30
0.0
 10
0.708186139647397
 20
-10.7683597720676
 30
0.0
 10
0.6984750287816092
 20
-10.79430004984538
 30
0.0
 10
0.6984750287816092
 20
-10.81924032762314
 30
0.0
  0
HATCH
  5
54
330
1F
100
AcDbEntity
  8
Layer 2
 62
   142
420
    43204
100
AcDbHatch
 10
0.0
 20
0.0
 30
0.0
210
0.0
220
0.0
230
1.0
  2
SOLID
 70
     1
 71
     0
 91
        2
 92
        1
 93
        1
 72
     4
 94
        3
 73
     0
 74
     1
 95
       17
 96
       13
 40
0.0
 40
0.0
 40
0.0
 40
0.0
 40
1.0
 40
1.0
 40
1.0
 40
2.0
 40
2.0
 40
2.0
 40
3.0
 40
3.0
 40
3.0
 40
4.0
 40
4.0
 40
4.0
 40
4.0
 10
0.8209653034650222
 20
-10.81749727206761
 10
0.8209653034650222
 20
-10.87944588317871
 10
0.7770222490195616
 20
-10.90783893873426
 10
0.731706972386544
 20
-10.90783893873426
 10
0.6822125291924345
 20
-10.90783893873426
 10
0.6441403978135692
 20
-10.87528338317871
 10
0.6441403978135692
 20
-10.82062782762316
 10
0.6441403978135692
 20
-10.7655861609565
 10
0.6801486403556838
 20
-10.73064310540093
 10
0.7348375278630151
 20
-10.73064310540093
 10
0.7863958598938754
 20
-10.73064310540093
 10
0.8209653034650222
 20
-10.76629449428982
 10
0.8209653034650222
 20
-10.81749727206761
 97
        0
 97
        0
 92
        1
 93
        1
 72
     4
 94
        3
 73
     0
 74
     1
 95
       17
 96
       13
 40
0.0
 40
0.0
 40
0.0
 40
0.0
 40
1.0
 40
1.0
 40
1.0
 40
2.0
 40
2.0
 40
2.0
 40
3.0
 40
3.0
 40
3.0
 40
4.0
 40
4.0
 40
4.0
 40
4.0
 10
0.6984750287816092
 20
-10.81924032762314
 10
0.6984750287816092
 20
-10.84831116095648
 10
0.7106069729195749
 20
-10.8701222720676
 10
0.7330944723514928
 20
-10.8701222720676
 10
0.7538555829381341
 20
-10.8701222720676
 10
0.7666500270593638
 20
-10.84969727206759
 10
0.7666500270593638
 20
-10.8188847720676
 10
0.7666500270593638
 20
-10.79397782762317
 10
0.7569694717483596
 20
-10.7683597720676
 10
0.7330944723514928
 20
-10.7683597720676
 10
0.708186139647397
 20
-10.7683597720676
 10
0.6984750287816092
 20
-10.79430004984538
 10
0.6984750287816092
 20
-10.81924032762314
 97
        0
 97
        0
 75
     2
 76
     1
 98
        0
  0
SPLINE
  5
55
330
1F
100
AcDbEntity
  8
Layer 2
 62
   178
420
        0
370
    70
100
AcDbSpline
210
0.0
220
0.0
230
1.0
 70
    11
 71
     3
 72
    41
 73
    37
 74
     0
 42
0.0000000001
 43
0.0000000001
 12
1.0
 22
0.0
 32
0.0
 13
1.0
 23
0.0
 33
0.0
 40
0.0
 40
0.0
 40
0.0
 40
0.0
 40
1.0
 40
1.0
 40
1.0
 40
2.0
 40
2.0
 40
2.0
 40
3.0
 40
3.0
 40
3.0
 40
4.0
 40
4.0
 40
4.0
 40
5.0
 40
5.0
 40
5.0
 40
6.0
 40
6.0
 40
6.0
 40
7.0
 40
7.0
 40
7.0
 40
8.0
 40
8.0
 40
8.0
 40
9.0
 40
9.0
 40
9.0
 40
10.0
 40
10.0
 40
10.0
 40
11.0
 40
11.0
 40
11.0
 40
12.0
 40
12.0
 40
12.0
 40
12.0
 10
0.8370666919471558
 20
-10.65833893873426
 30
0.0
 10
0.8370666919471558
 20
-10.65833893873426
 30
0.0
 10
0.8896889128400289
 20
-10.65833893873426
 30
0.0
 10
0.8896889128400289
 20
-10.65833893873426
 30
0.0
 10
0.8896889128400289
 20
-10.65833893873426
 30
0.0
 10
0.8896889128400289
 20
-10.75490560540094
 30
0.0
 10
0.8896889128400289
 20
-10.75490560540094
 30
0.0
 10
0.8896889128400289
 20
-10.75490560540094
 30
0.0
 10
0.8903666906006845
 20
-10.75490560540094
 30
0.0
 10
0.8903666906006845
 20
-10.75490560540094
 30
0.0
 10
0.9004000236805546
 20
-10.74035421651203
 30
0.0
 10
0.9180333565684324
 20
-10.73096393873427
 30
0.0
 10
0.9415528004187257
 20
-10.73096393873427
 30
0.0
 10
0.9820625216175863
 20
-10.73096393873427
 30
0.0
 10
1.011486131985394
 20
-10.76455282762314
 30
0.0
 10
1.011163909771312
 20
-10.81646532762317
 30
0.0
 10
1.011163909771312
 20
-10.87738060540093
 30
0.0
 10
0.9727361329643018
 20
-10.90783893873426
 30
0.0
 10
0.933987620035825
 20
-10.90783893873426
 30
0.0
 10
0.9142416899975513
 20
-10.90783893873426
 30
0.0
 10
0.8948514127096132
 20
-10.90054727206759
 30
0.0
 10
0.8830916907844665
 20
-10.88047782762315
 30
0.0
 10
0.8830916907844665
 20
-10.88047782762315
 30
0.0
 10
0.8823972463575652
 20
-10.88047782762315
 30
0.0
 10
0.8823972463575652
 20
-10.88047782762315
 30
0.0
 10
0.8823972463575652
 20
-10.88047782762315
 30
0.0
 10
0.8803319686319607
 20
-10.90403060540092
 30
0.0
 10
0.8803319686319607
 20
-10.90403060540092
 30
0.0
 10
0.8803319686319607
 20
-10.90403060540092
 30
0.0
 10
0.835679191982207
 20
-10.90403060540092
 30
0.0
 10
0.835679191982207
 20
-10.90403060540092
 30
0.0
 10
0.8363875252976464
 20
-10.89293199428981
 30
0.0
 10
0.8370666919471558
 20
-10.87254171651203
 30
0.0
 10
0.8370666919471558
 20
-10.85350560540094
 30
0.0
 10
0.8370666919471558
 20
-10.85350560540094
 30
0.0
 10
0.8370666919471558
 20
-10.65833893873426
 30
0.0
 10
0.8370666919471558
 20
-10.65833893873426
 30
0.0
  0
SPLINE
  5
56
330
1F
100
AcDbEntity
  8
Layer 2
 62
   178
420
        0
370
    70
100
AcDbSpline
210
0.0
220
0.0
230
1.0
 70
    11
 71
     3
 72
    26
 73
    22
 74
     0
 42
0.0000000001
 43
0.0000000001
 12
1.0
 22
0.0
 32
0.0
 13
1.0
 23
0.0
 33
0.0
 40
0.0
 40
0.0
 40
0.0
 40
0.0
 40
1.0
 40
1.0
 40
1.0
 40
2.0
 40
2.0
 40
2.0
 40
3.0
 40
3.0
 40
3.0
 40
4.0
 40
4.0
 40
4.0
 40
5.0
 40
5.0
 40
5.0
 40
6.0
 40
6.0
 40
6.0
 40
7.0
 40
7.0
 40
7.0
 40
7.0
 10
0.8896889128400289
 20
-10.83205004984537
 30
0.0
 10
0.8896889128400289
 20
-10.83550282762316
 30
0.0
 10
0.8899958572767193
 20
-10.83860004984538
 30
0.0
 10
0.890722246147258
 20
-10.84137366095648
 30
0.0
 10
0.8941569682827119
 20
-10.85521532762315
 30
0.0
 10
0.906272245754432
 20
-10.86631393873427
 30
0.0
 10
0.9215015089246965
 20
-10.86631393873427
 30
0.0
 10
0.9440069670233949
 20
-10.86631393873427
 30
0.0
 10
0.9578639111177836
 20
-10.84898893873426
 30
0.0
 10
0.9578639111177836
 20
-10.81853060540094
 30
0.0
 10
0.9578639111177836
 20
-10.79223477206761
 30
0.0
 10
0.9460875225263913
 20
-10.77145699428982
 30
0.0
 10
0.9215015089246965
 20
-10.77145699428982
 30
0.0
 10
0.9073389123941524
 20
-10.77145699428982
 30
0.0
 10
0.8941569682827119
 20
-10.78220143873427
 30
0.0
 10
0.890722246147258
 20
-10.79743060540093
 30
0.0
 10
0.8899958572767193
 20
-10.80055838317872
 30
0.0
 10
0.8896889128400289
 20
-10.80365560540094
 30
0.0
 10
0.8896889128400289
 20
-10.8071083831787
 30
0.0
 10
0.8896889128400289
 20
-10.8071083831787
 30
0.0
 10
0.8896889128400289
 20
-10.83205004984537
 30
0.0
 10
0.8896889128400289
 20
-10.83205004984537
 30
0.0
  0
HATCH
  5
57
330
1F
100
AcDbEntity
  8
Layer 2
 62
   142
420
    43204
100
AcDbHatch
 10
0.0
 20
0.0
 30
0.0
210
0.0
220
0.0
230
1.0
  2
SOLID
 70
     1
 71
     0
 91
        2
 92
        1
 93
        1
 72
     4
 94
        3
 73
     0
 74
     1
 95
       41
 96
       37
 40
0.0
 40
0.0
 40
0.0
 40
0.0
 40
1.0
 40
1.0
 40
1.0
 40
2.0
 40
2.0
 40
2.0
 40
3.0
 40
3.0
 40
3.0
 40
4.0
 40
4.0
 40
4.0
 40
5.0
 40
5.0
 40
5.0
 40
6.0
 40
6.0
 40
6.0
 40
7.0
 40
7.0
 40
7.0
 40
8.0
 40
8.0
 40
8.0
 40
9.0
 40
9.0
 40
9.0
 40
10.0
 40
10.0
 40
10.0
 40
11.0
 40
11.0
 40
11.0
 40
12.0
 40
12.0
 40
12.0
 40
12.0
 10
0.8370666919471558
 20
-10.65833893873426
 10
0.8370666919471558
 20
-10.65833893873426
 10
0.8896889128400289
 20
-10.65833893873426
 10
0.8896889128400289
 20
-10.65833893873426
 10
0.8896889128400289
 20
-10.65833893873426
 10
0.8896889128400289
 20
-10.75490560540094
 10
0.8896889128400289
 20
-10.75490560540094
 10
0.8896889128400289
 20
-10.75490560540094
 10
0.8903666906006845
 20
-10.75490560540094
 10
0.8903666906006845
 20
-10.75490560540094
 10
0.9004000236805546
 20
-10.74035421651203
 10
0.9180333565684324
 20
-10.73096393873427
 10
0.9415528004187257
 20
-10.73096393873427
 10
0.9820625216175863
 20
-10.73096393873427
 10
1.011486131985394
 20
-10.76455282762314
 10
1.011163909771312
 20
-10.81646532762317
 10
1.011163909771312
 20
-10.87738060540093
 10
0.9727361329643018
 20
-10.90783893873426
 10
0.933987620035825
 20
-10.90783893873426
 10
0.9142416899975513
 20
-10.90783893873426
 10
0.8948514127096132
 20
-10.90054727206759
 10
0.8830916907844665
 20
-10.88047782762315
 10
0.8830916907844665
 20
-10.88047782762315
 10
0.8823972463575652
 20
-10.88047782762315
 10
0.8823972463575652
 20
-10.88047782762315
 10
0.8823972463575652
 20
-10.88047782762315
 10
0.8803319686319607
 20
-10.90403060540092
 10
0.8803319686319607
 20
-10.90403060540092
 10
0.8803319686319607
 20
-10.90403060540092
 10
0.835679191982207
 20
-10.90403060540092
 10
0.835679191982207
 20
-10.90403060540092
 10
0.8363875252976464
 20
-10.89293199428981
 10
0.8370666919471558
 20
-10.87254171651203
 10
0.8370666919471558
 20
-10.85350560540094
 10
0.8370666919471558
 20
-10.85350560540094
 10
0.8370666919471558
 20
-10.65833893873426
 10
0.8370666919471558
 20
-10.65833893873426
 97
        0
 97
        0
 92
        1
 93
        1
 72
     4
 94
        3
 73
     0
 74
     1
 95
       26
 96
       22
 40
0.0
 40
0.0
 40
0.0
 40
0.0
 40
1.0
 40
1.0
 40
1.0
 40
2.0
 40
2.0
 40
2.0
 40
3.0
 40
3.0
 40
3.0
 40
4.0
 40
4.0
 40
4.0
 40
5.0
 40
5.0
 40
5.0
 40
6.0
 40
6.0
 40
6.0
 40
7.0
 40
7.0
 40
7.0
 40
7.0
 10
0.8896889128400289
 20
-10.83205004984537
 10
0.8896889128400289
 20
-10.83550282762316
 10
0.8899958572767193
 20
-10.83860004984538
 10
0.890722246147258
 20
-10.84137366095648
 10
0.8941569682827119
 20
-10.85521532762315
 10
0.906272245754432
 20
-10.86631393873427
 10
0.9215015089246965
 20
-10.86631393873427
 10
0.9440069670233949
 20
-10.86631393873427
 10
0.9578639111177836
 20
-10.84898893873426
 10
0.9578639111177836
 20
-10.81853060540094
 10
0.9578639111177836
 20
-10.79223477206761
 10
0.9460875225263913
 20
-10.77145699428982
 10
0.9215015089246965
 20
-10.77145699428982
 10
0.9073389123941524
 20
-10.77145699428982
 10
0.8941569682827119
 20
-10.78220143873427
 10
0.890722246147258
 20
-10.79743060540093
 10
0.8899958572767193
 20
-10.80055838317872
 10
0.8896889128400289
 20
-10.80365560540094
 10
0.8896889128400289
 20
-10.8071083831787
 10
0.8896889128400289
 20
-10.8071083831787
 10
0.8896889128400289
 20
-10.83205004984537
 10
0.8896889128400289
 20
-10.83205004984537
 97
        0
 97
        0
 75
     2
 76
     1
 98
        0
  0
SPLINE
  5
58
330
1F
100
AcDbEntity
  8
Layer 2
 62
   178
420
        0
370
    70
100
AcDbSpline
210
0.0
220
0.0
230
1.0
 70
    11
 71
     3
 72
    17
 73
    13
 74
     0
 42
0.0000000001
 43
0.0000000001
 12
1.0
 22
0.0
 32
0.0
 13
1.0
 23
0.0
 33
0.0
 40
0.0
 40
0.0
 40
0.0
 40
0.0
 40
1.0
 40
1.0
 40
1.0
 40
2.0
 40
2.0
 40
2.0
 40
3.0
 40
3.0
 40
3.0
 40
4.0
 40
4.0
 40
4.0
 40
4.0
 10
1.090162518886751
 20
-10.68776254984538
 30
0.0
 10
1.090162518886751
 20
-10.70228199428983
 30
0.0
 10
1.079468074712471
 20
-10.7140583831787
 30
0.0
 10
1.061819464047201
 20
-10.7140583831787
 30
0.0
 10
1.045187520022915
 20
-10.7140583831787
 30
0.0
 10
1.034443075849898
 20
-10.70228199428983
 30
0.0
 10
1.034443075849898
 20
-10.68776254984538
 30
0.0
 10
1.034443075849898
 20
-10.67282504984539
 30
0.0
 10
1.045526408903243
 20
-10.66140282762315
 30
0.0
 10
1.062495852919003
 20
-10.66140282762315
 30
0.0
 10
1.079468074712471
 20
-10.66140282762315
 30
0.0
 10
1.089809741117885
 20
-10.67282504984539
 30
0.0
 10
1.090162518886751
 20
-10.68776254984538
 30
0.0
  0
POLYLINE
  5
59
330
1F
100
AcDbEntity
  8
Layer 2
 62
   178
420
        0
370
    70
100
AcDb2dPolyline
 66
     1
 10
0.0
 20
0.0
 30
0.0
  0
VERTEX
  5
5A
330
59
100
AcDbEntity
  8
Layer 2
 62
   178
420
        0
370
    70
100
AcDbVertex
100
AcDb2dVertex
 10
1.035847242481092
 20
-10.90403060540092
 30
0.0
  0
VERTEX
  5
5B
330
59
100
AcDbEntity
  8
Layer 2
 62
   178
420
        0
370
    70
100
AcDbVertex
100
AcDb2dVertex
 10
1.035847242481092
 20
-10.7347722720676
 30
0.0
  0
VERTEX
  5
5C
330
59
100
AcDbEntity
  8
Layer 2
 62
   178
420
        0
370
    70
100
AcDbVertex
100
AcDb2dVertex
 10
1.088469463373965
 20
-10.7347722720676
 30
0.0
  0
VERTEX
  5
5D
330
59
100
AcDbEntity
  8
Layer 2
 62
   178
420
        0
370
    70
100
AcDbVertex
100
AcDb2dVertex
 10
1.088469463373965
 20
-10.90403060540092
 30
0.0
  0
VERTEX
  5
5E
330
59
100
AcDbEntity
  8
Layer 2
 62
   178
420
        0
370
    70
100
AcDbVertex
100
AcDb2dVertex
 10
1.035847242481092
 20
-10.90403060540092
 30
0.0
  0
SEQEND
  5
5F
330
59
100
AcDbEntity
  8
Layer 2
 62
   178
420
        0
370
    70
  0
HATCH
  5
60
330
1F
100
AcDbEntity
  8
Layer 2
 62
    23
420
 13403438
100
AcDbHatch
 10
0.0
 20
0.0
 30
0.0
210
0.0
220
0.0
230
1.0
  2
SOLID
 70
     1
 71
     0
 91
        2
 92
        1
 93
        1
 72
     4
 94
        3
 73
     0
 74
     1
 95
       17
 96
       13
 40
0.0
 40
0.0
 40
0.0
 40
0.0
 40
1.0
 40
1.0
 40
1.0
 40
2.0
 40
2.0
 40
2.0
 40
3.0
 40
3.0
 40
3.0
 40
4.0
 40
4.0
 40
4.0
 40
4.0
 10
1.090162518886751
 20
-10.68776254984538
 10
1.090162518886751
 20
-10.70228199428983
 10
1.079468074712471
 20
-10.7140583831787
 10
1.061819464047201
 20
-10.7140583831787
 10
1.045187520022915
 20
-10.7140583831787
 10
1.034443075849898
 20
-10.70228199428983
 10
1.034443075849898
 20
-10.68776254984538
 10
1.034443075849898
 20
-10.67282504984539
 10
1.045526408903243
 20
-10.66140282762315
 10
1.062495852919003
 20
-10.66140282762315
 10
1.079468074712471
 20
-10.66140282762315
 10
1.089809741117885
 20
-10.67282504984539
 10
1.090162518886751
 20
-10.68776254984538
 97
        0
 97
        0
 92
        1
 93
        4
 72
     1
 10
1.035847242481092
 20
-10.90403060540092
 11
1.035847242481092
 21
-10.7347722720676
 72
     1
 10
1.035847242481092
 20
-10.7347722720676
 11
1.088469463373965
 21
-10.7347722720676
 72
     1
 10
1.088469463373965
 20
-10.7347722720676
 11
1.088469463373965
 21
-10.90403060540092
 72
     1
 10
1.088469463373965
 20
-10.90403060540092
 11
1.035847242481092
 21
-10.90403060540092
 97
        0
 75
     2
 76
     1
 98
        0
  0
SPLINE
  5
61
330
1F
100
AcDbEntity
  8
Layer 2
 62
   178
420
        0
370
    70
100
AcDbSpline
210
0.0
220
0.0
230
1.0
 70
    11
 71
     3
 72
    35
 73
    31
 74
     0
 42
0.0000000001
 43
0.0000000001
 12
1.0
 22
0.0
 32
0.0
 13
1.0
 23
0.0
 33
0.0
 40
0.0
 40
0.0
 40
0.0
 40
0.0
 40
1.0
 40
1.0
 40
1.0
 40
2.0
 40
2.0
 40
2.0
 40
3.0
 40
3.0
 40
3.0
 40
4.0
 40
4.0
 40
4.0
 40
5.0
 40
5.0
 40
5.0
 40
6.0
 40
6.0
 40
6.0
 40
7.0
 40
7.0
 40
7.0
 40
8.0
 40
8.0
 40
8.0
 40
9.0
 40
9.0
 40
9.0
 40
10.0
 40
10.0
 40
10.0
 40
10.0
 10
1.161533350417105
 20
-10.7347722720676
 30
0.0
 10
1.161533350417105
 20
-10.7347722720676
 30
0.0
 10
1.184376508924692
 20
-10.8133361609565
 30
0.0
 10
1.184376508924692
 20
-10.8133361609565
 30
0.0
 10
1.188520849735343
 20
-10.8278861609565
 30
0.0
 10
1.191295849665241
 20
-10.84105143873426
 30
0.0
 10
1.194054182928893
 20
-10.85453754984537
 30
0.0
 10
1.194054182928893
 20
-10.85453754984537
 30
0.0
 10
1.195119460679759
 20
-10.85453754984537
 30
0.0
 10
1.195119460679759
 20
-10.85453754984537
 30
0.0
 10
1.197845849499774
 20
-10.84069588317872
 30
0.0
 10
1.200620849429672
 20
-10.8278861609565
 30
0.0
 10
1.204426404889091
 20
-10.8133361609565
 30
0.0
 10
1.204426404889091
 20
-10.8133361609565
 30
0.0
 10
1.226237620035792
 20
-10.7347722720676
 30
0.0
 10
1.226237620035792
 20
-10.7347722720676
 30
0.0
 10
1.226237620035792
 20
-10.7347722720676
 30
0.0
 10
1.281604180717194
 20
-10.7347722720676
 30
0.0
 10
1.281604180717194
 20
-10.7347722720676
 30
0.0
 10
1.281604180717194
 20
-10.7347722720676
 30
0.0
 10
1.218640397813589
 20
-10.90403060540092
 30
0.0
 10
1.218640397813589
 20
-10.90403060540092
 30
0.0
 10
1.218640397813589
 20
-10.90403060540092
 30
0.0
 10
1.166048628080817
 20
-10.90403060540092
 30
0.0
 10
1.166048628080817
 20
-10.90403060540092
 30
0.0
 10
1.166048628080817
 20
-10.90403060540092
 30
0.0
 10
1.10440696297135
 20
-10.7347722720676
 30
0.0
 10
1.10440696297135
 20
-10.7347722720676
 30
0.0
 10
1.10440696297135
 20
-10.7347722720676
 30
0.0
 10
1.161533350417105
 20
-10.7347722720676
 30
0.0
 10
1.161533350417105
 20
-10.7347722720676
 30
0.0
  0
HATCH
  5
62
330
1F
100
AcDbEntity
  8
Layer 2
 62
    23
420
 13403438
100
AcDbHatch
 10
0.0
 20
0.0
 30
0.0
210
0.0
220
0.0
230
1.0
  2
SOLID
 70
     1
 71
     0
 91
        1
 92
        1
 93
        1
 72
     4
 94
        3
 73
     0
 74
     1
 95
       35
 96
       31
 40
0.0
 40
0.0
 40
0.0
 40
0.0
 40
1.0
 40
1.0
 40
1.0
 40
2.0
 40
2.0
 40
2.0
 40
3.0
 40
3.0
 40
3.0
 40
4.0
 40
4.0
 40
4.0
 40
5.0
 40
5.0
 40
5.0
 40
6.0
 40
6.0
 40
6.0
 40
7.0
 40
7.0
 40
7.0
 40
8.0
 40
8.0
 40
8.0
 40
9.0
 40
9.0
 40
9.0
 40
10.0
 40
10.0
 40
10.0
 40
10.0
 10
1.161533350417105
 20
-10.7347722720676
 10
1.161533350417105
 20
-10.7347722720676
 10
1.184376508924692
 20
-10.8133361609565
 10
1.184376508924692
 20
-10.8133361609565
 10
1.188520849735343
 20
-10.8278861609565
 10
1.191295849665241
 20
-10.84105143873426
 10
1.194054182928893
 20
-10.85453754984537
 10
1.194054182928893
 20
-10.85453754984537
 10
1.195119460679759
 20
-10.85453754984537
 10
1.195119460679759
 20
-10.85453754984537
 10
1.197845849499774
 20
-10.84069588317872
 10
1.200620849429672
 20
-10.8278861609565
 10
1.204426404889091
 20
-10.8133361609565
 10
1.204426404889091
 20
-10.8133361609565
 10
1.226237620035792
 20
-10.7347722720676
 10
1.226237620035792
 20
-10.7347722720676
 10
1.226237620035792
 20
-10.7347722720676
 10
1.281604180717194
 20
-10.7347722720676
 10
1.281604180717194
 20
-10.7347722720676
 10
1.281604180717194
 20
-10.7347722720676
 10
1.218640397813589
 20
-10.90403060540092
 10
1.218640397813589
 20
-10.90403060540092
 10
1.218640397813589
 20
-10.90403060540092
 10
1.166048628080817
 20
-10.90403060540092
 10
1.166048628080817
 20
-10.90403060540092
 10
1.166048628080817
 20
-10.90403060540092
 10
1.10440696297135
 20
-10.7347722720676
 10
1.10440696297135
 20
-10.7347722720676
 10
1.10440696297135
 20
-10.7347722720676
 10
1.161533350417105
 20
-10.7347722720676
 10
1.161533350417105
 20
-10.7347722720676
 97
        0
 97
        0
 75
     2
 76
     1
 98
        0
  0
SPLINE
  5
63
330
1F
100
AcDbEntity
  8
Layer 2
 62
   178
420
        0
370
    70
100
AcDbSpline
210
0.0
220
0.0
230
1.0
 70
    11
 71
     3
 72
    32
 73
    28
 74
     0
 42
0.0000000001
 43
0.0000000001
 12
1.0
 22
0.0
 32
0.0
 13
1.0
 23
0.0
 33
0.0
 40
0.0
 40
0.0
 40
0.0
 40
0.0
 40
1.0
 40
1.0
 40
1.0
 40
2.0
 40
2.0
 40
2.0
 40
3.0
 40
3.0
 40
3.0
 40
4.0
 40
4.0
 40
4.0
 40
5.0
 40
5.0
 40
5.0
 40
6.0
 40
6.0
 40
6.0
 40
7.0
 40
7.0
 40
7.0
 40
8.0
 40
8.0
 40
8.0
 40
9.0
 40
9.0
 40
9.0
 40
9.0
 10
1.332936123864884
 20
-10.83617921651204
 30
0.0
 10
1.334323623829833
 20
-10.85799032762316
 30
0.0
 10
1.356133345501096
 20
-10.86837921651204
 30
0.0
 10
1.380688900436326
 20
-10.86837921651204
 30
0.0
 10
1.398691677759315
 20
-10.86837921651204
 30
0.0
 10
1.413243066280605
 20
-10.86595838317872
 30
0.0
 10
1.427406954811684
 20
-10.8611208831787
 30
0.0
 10
1.427406954811684
 20
-10.8611208831787
 30
0.0
 10
1.434343065747574
 20
-10.89673893873426
 30
0.0
 10
1.434343065747574
 20
-10.89673893873426
 30
0.0
 10
1.417048621740024
 20
-10.90403060540092
 30
0.0
 10
1.395915288940563
 20
-10.90748338317871
 30
0.0
 10
1.373072233962072
 20
-10.90748338317871
 30
0.0
 10
1.31565834652358
 20
-10.90748338317871
 30
0.0
 10
1.282781958465218
 20
-10.87425143873426
 30
0.0
 10
1.282781958465218
 20
-10.82130560540094
 30
0.0
 10
1.282781958465218
 20
-10.77839310540094
 30
0.0
 10
1.309432064480259
 20
-10.73096393873427
 30
0.0
 10
1.368233345195424
 20
-10.73096393873427
 30
0.0
 10
1.422922232702755
 20
-10.73096393873427
 30
0.0
 10
1.443700009955642
 20
-10.77355421651204
 30
0.0
 10
1.443700009955642
 20
-10.81543338317872
 30
0.0
 10
1.443700009955642
 20
-10.82443616095649
 30
0.0
 10
1.442636121093629
 20
-10.83237227206761
 30
0.0
 10
1.44195695444412
 20
-10.83617921651204
 30
0.0
 10
1.44195695444412
 20
-10.83617921651204
 30
0.0
 10
1.332936123864884
 20
-10.83617921651204
 30
0.0
 10
1.332936123864884
 20
-10.83617921651204
 30
0.0
  0
SPLINE
  5
64
330
1F
100
AcDbEntity
  8
Layer 2
 62
   178
420
        0
370
    70
100
AcDbSpline
210
0.0
220
0.0
230
1.0
 70
    11
 71
     3
 72
    14
 73
    10
 74
     0
 42
0.0000000001
 43
0.0000000001
 12
1.0
 22
0.0
 32
0.0
 13
1.0
 23
0.0
 33
0.0
 40
0.0
 40
0.0
 40
0.0
 40
0.0
 40
1.0
 40
1.0
 40
1.0
 40
2.0
 40
2.0
 40
2.0
 40
3.0
 40
3.0
 40
3.0
 40
3.0
 10
1.394883344522188
 20
-10.80020560540093
 30
0.0
 10
1.394883344522188
 20
-10.78739588317871
 30
0.0
 10
1.38936528910603
 20
-10.76593893873425
 30
0.0
 10
1.365151400828836
 20
-10.76593893873425
 30
0.0
 10
1.342970845833608
 20
-10.76593893873425
 30
0.0
 10
1.33396806828326
 20
-10.78636393873426
 30
0.0
 10
1.332580568318311
 20
-10.80020560540093
 30
0.0
 10
1.332580568318311
 20
-10.80020560540093
 30
0.0
 10
1.394883344522188
 20
-10.80020560540093
 30
0.0
 10
1.394883344522188
 20
-10.80020560540093
 30
0.0
  0
HATCH
  5
65
330
1F
100
AcDbEntity
  8
Layer 2
 62
    23
420
 13403438
100
AcDbHatch
 10
0.0
 20
0.0
 30
0.0
210
0.0
220
0.0
230
1.0
  2
SOLID
 70
     1
 71
     0
 91
        2
 92
        1
 93
        1
 72
     4
 94
        3
 73
     0
 74
     1
 95
       32
 96
       28
 40
0.0
 40
0.0
 40
0.0
 40
0.0
 40
1.0
 40
1.0
 40
1.0
 40
2.0
 40
2.0
 40
2.0
 40
3.0
 40
3.0
 40
3.0
 40
4.0
 40
4.0
 40
4.0
 40
5.0
 40
5.0
 40
5.0
 40
6.0
 40
6.0
 40
6.0
 40
7.0
 40
7.0
 40
7.0
 40
8.0
 40
8.0
 40
8.0
 40
9.0
 40
9.0
 40
9.0
 40
9.0
 10
1.332936123864884
 20
-10.83617921651204
 10
1.334323623829833
 20
-10.85799032762316
 10
1.356133345501096
 20
-10.86837921651204
 10
1.380688900436326
 20
-10.86837921651204
 10
1.398691677759315
 20
-10.86837921651204
 10
1.413243066280605
 20
-10.86595838317872
 10
1.427406954811684
 20
-10.8611208831787
 10
1.427406954811684
 20
-10.8611208831787
 10
1.434343065747574
 20
-10.89673893873426
 10
1.434343065747574
 20
-10.89673893873426
 10
1.417048621740024
 20
-10.90403060540092
 10
1.395915288940563
 20
-10.90748338317871
 10
1.373072233962072
 20
-10.90748338317871
 10
1.31565834652358
 20
-10.90748338317871
 10
1.282781958465218
 20
-10.87425143873426
 10
1.282781958465218
 20
-10.82130560540094
 10
1.282781958465218
 20
-10.77839310540094
 10
1.309432064480259
 20
-10.73096393873427
 10
1.368233345195424
 20
-10.73096393873427
 10
1.422922232702755
 20
-10.73096393873427
 10
1.443700009955642
 20
-10.77355421651204
 10
1.443700009955642
 20
-10.81543338317872
 10
1.443700009955642
 20
-10.82443616095649
 10
1.442636121093629
 20
-10.83237227206761
 10
1.44195695444412
 20
-10.83617921651204
 10
1.44195695444412
 20
-10.83617921651204
 10
1.332936123864884
 20
-10.83617921651204
 10
1.332936123864884
 20
-10.83617921651204
 97
        0
 97
        0
 92
        1
 93
        1
 72
     4
 94
        3
 73
     0
 74
     1
 95
       14
 96
       10
 40
0.0
 40
0.0
 40
0.0
 40
0.0
 40
1.0
 40
1.0
 40
1.0
 40
2.0
 40
2.0
 40
2.0
 40
3.0
 40
3.0
 40
3.0
 40
3.0
 10
1.394883344522188
 20
-10.80020560540093
 10
1.394883344522188
 20
-10.78739588317871
 10
1.38936528910603
 20
-10.76593893873425
 10
1.365151400828836
 20
-10.76593893873425
 10
1.342970845833608
 20
-10.76593893873425
 10
1.33396806828326
 20
-10.78636393873426
 10
1.332580568318311
 20
-10.80020560540093
 10
1.332580568318311
 20
-10.80020560540093
 10
1.394883344522188
 20
-10.80020560540093
 10
1.394883344522188
 20
-10.80020560540093
 97
        0
 97
        0
 75
     2
 76
     1
 98
        0
  0
SPLINE
  5
66
330
1F
100
AcDbEntity
  8
Layer 2
 62
   178
420
        0
370
    70
100
AcDbSpline
210
0.0
220
0.0
230
1.0
 70
    11
 71
     3
 72
    47
 73
    43
 74
     0
 42
0.0000000001
 43
0.0000000001
 12
1.0
 22
0.0
 32
0.0
 13
1.0
 23
0.0
 33
0.0
 40
0.0
 40
0.0
 40
0.0
 40
0.0
 40
1.0
 40
1.0
 40
1.0
 40
2.0
 40
2.0
 40
2.0
 40
3.0
 40
3.0
 40
3.0
 40
4.0
 40
4.0
 40
4.0
 40
5.0
 40
5.0
 40
5.0
 40
6.0
 40
6.0
 40
6.0
 40
7.0
 40
7.0
 40
7.0
 40
8.0
 40
8.0
 40
8.0
 40
9.0
 40
9.0
 40
9.0
 40
10.0
 40
10.0
 40
10.0
 40
11.0
 40
11.0
 40
11.0
 40
12.0
 40
12.0
 40
12.0
 40
13.0
 40
13.0
 40
13.0
 40
14.0
 40
14.0
 40
14.0
 40
14.0
 10
1.466640397813585
 20
-10.85834449428982
 30
0.0
 10
1.476318064687196
 20
-10.86421810540092
 30
0.0
 10
1.496370841958398
 20
-10.8707986609565
 30
0.0
 10
1.511970841564309
 20
-10.8707986609565
 30
0.0
 10
1.527861118940665
 20
-10.8707986609565
 30
0.0
 10
1.534458340996227
 20
-10.86560421651203
 30
0.0
 10
1.534458340996227
 20
-10.85695699428983
 30
0.0
 10
1.534458340996227
 20
-10.84795560540094
 30
0.0
 10
1.529248618905614
 20
-10.84379310540094
 30
0.0
 10
1.509905563838705
 20
-10.83724310540093
 30
0.0
 10
1.474608342508165
 20
-10.82546810540094
 30
0.0
 10
1.461088898405251
 20
-10.80643199428982
 30
0.0
 10
1.461444453951824
 20
-10.78636393873426
 30
0.0
 10
1.461444453951824
 20
-10.75451810540092
 30
0.0
 10
1.488450008825162
 20
-10.73064310540093
 30
0.0
 10
1.53031389665648
 20
-10.73064310540093
 30
0.0
 10
1.550043175591352
 20
-10.73064310540093
 30
0.0
 10
1.567320953369138
 20
-10.73548199428983
 30
0.0
 10
1.577709842258021
 20
-10.74067643873428
 30
0.0
 10
1.577709842258021
 20
-10.74067643873428
 30
0.0
 10
1.568708340130999
 20
-10.77700699428983
 30
0.0
 10
1.568708340130999
 20
-10.77700699428983
 30
0.0
 10
1.561109729211845
 20
-10.77284449428983
 30
0.0
 10
1.546220840699081
 20
-10.76732643873427
 30
0.0
 10
1.532023618835511
 20
-10.76732643873427
 30
0.0
 10
1.51921389693689
 20
-10.76732643873427
 30
0.0
 10
1.511970841564309
 20
-10.77252227206759
 30
0.0
 10
1.511970841564309
 20
-10.78081393873428
 30
0.0
 10
1.511970841564309
 20
-10.78913754984539
 30
0.0
 10
1.518537508065088
 20
-10.79326671651203
 30
0.0
 10
1.539281951985483
 20
-10.80055838317872
 30
0.0
 10
1.571498617838289
 20
-10.81162643873427
 30
0.0
 10
1.58466250639463
 20
-10.82824171651204
 30
0.0
 10
1.58496945083132
 20
-10.85279449428981
 30
0.0
 10
1.58496945083132
 20
-10.88464032762315
 30
0.0
 10
1.560415284784944
 20
-10.90783893873426
 30
0.0
 10
1.511970841564309
 20
-10.90783893873426
 30
0.0
 10
1.489837508790111
 20
-10.90783893873426
 30
0.0
 10
1.470076398178207
 20
-10.90264310540094
 30
0.0
 10
1.457283342945832
 20
-10.89570699428982
 30
0.0
 10
1.457283342945832
 20
-10.89570699428982
 30
0.0
 10
1.466640397813585
 20
-10.85834449428982
 30
0.0
 10
1.466640397813585
 20
-10.85834449428982
 30
0.0
  0
HATCH
  5
67
330
1F
100
AcDbEntity
  8
Layer 2
 62
    23
420
 13403438
100
AcDbHatch
 10
0.0
 20
0.0
 30
0.0
210
0.0
220
0.0
230
1.0
  2
SOLID
 70
     1
 71
     0
 91
        1
 92
        1
 93
        1
 72
     4
 94
        3
 73
     0
 74
     1
 95
       47
 96
       43
 40
0.0
 40
0.0
 40
0.0
 40
0.0
 40
1.0
 40
1.0
 40
1.0
 40
2.0
 40
2.0
 40
2.0
 40
3.0
 40
3.0
 40
3.0
 40
4.0
 40
4.0
 40
4.0
 40
5.0
 40
5.0
 40
5.0
 40
6.0
 40
6.0
 40
6.0
 40
7.0
 40
7.0
 40
7.0
 40
8.0
 40
8.0
 40
8.0
 40
9.0
 40
9.0
 40
9.0
 40
10.0
 40
10.0
 40
10.0
 40
11.0
 40
11.0
 40
11.0
 40
12.0
 40
12.0
 40
12.0
 40
13.0
 40
13.0
 40
13.0
 40
14.0
 40
14.0
 40
14.0
 40
14.0
 10
1.466640397813585
 20
-10.85834449428982
 10
1.476318064687196
 20
-10.86421810540092
 10
1.496370841958398
 20
-10.8707986609565
 10
1.511970841564309
 20
-10.8707986609565
 10
1.527861118940665
 20
-10.8707986609565
 10
1.534458340996227
 20
-10.86560421651203
 10
1.534458340996227
 20
-10.85695699428983
 10
1.534458340996227
 20
-10.84795560540094
 10
1.529248618905614
 20
-10.84379310540094
 10
1.509905563838705
 20
-10.83724310540093
 10
1.474608342508165
 20
-10.82546810540094
 10
1.461088898405251
 20
-10.80643199428982
 10
1.461444453951824
 20
-10.78636393873426
 10
1.461444453951824
 20
-10.75451810540092
 10
1.488450008825162
 20
-10.73064310540093
 10
1.53031389665648
 20
-10.73064310540093
 10
1.550043175591352
 20
-10.73064310540093
 10
1.567320953369138
 20
-10.73548199428983
 10
1.577709842258021
 20
-10.74067643873428
 10
1.577709842258021
 20
-10.74067643873428
 10
1.568708340130999
 20
-10.77700699428983
 10
1.568708340130999
 20
-10.77700699428983
 10
1.561109729211845
 20
-10.77284449428983
 10
1.546220840699081
 20
-10.76732643873427
 10
1.532023618835511
 20
-10.76732643873427
 10
1.51921389693689
 20
-10.76732643873427
 10
1.511970841564309
 20
-10.77252227206759
 10
1.511970841564309
 20
-10.78081393873428
 10
1.511970841564309
 20
-10.78913754984539
 10
1.518537508065088
 20
-10.79326671651203
 10
1.539281951985483
 20
-10.80055838317872
 10
1.571498617838289
 20
-10.81162643873427
 10
1.58466250639463
 20
-10.82824171651204
 10
1.58496945083132
 20
-10.85279449428981
 10
1.58496945083132
 20
-10.88464032762315
 10
1.560415284784944
 20
-10.90783893873426
 10
1.511970841564309
 20
-10.90783893873426
 10
1.489837508790111
 20
-10.90783893873426
 10
1.470076398178207
 20
-10.90264310540094
 10
1.457283342945832
 20
-10.89570699428982
 10
1.457283342945832
 20
-10.89570699428982
 10
1.466640397813585
 20
-10.85834449428982
 10
1.466640397813585
 20
-10.85834449428982
 97
        0
 97
        0
 75
     2
 76
     1
 98
        0
  0
INSERT
  5
69
330
1F
100
AcDbEntity
  8
Layer 2
100
AcDbBlockReference
  2
block 2
 10
0.0
 20
0.0
 30
0.0
  0
INSERT
  5
76
330
1F
100
AcDbEntity
  8
Layer 2
100
AcDbBlockReference
  2
block 3
 10
0.0
 20
0.0
 30
0.0
  0
MTEXT
  5
F5
330
1F
100
AcDbEntity
  8
Layer 2
 62
   179
420
  2301728
100
AcDbMText
 10
0.5352372063530816
 20
-10.19272698296441
 30
0.0
 40
0.0777515765031179
 41
0.0
 46
0.0
 71
     7
 72
     1
  1
\fMyriad Pro|b0|i0|c0|p34;\W1;Rob Ives  / robives.com
 73
     1
 44
1.0
  0
ENDSEC
  0
SECTION
  2
OBJECTS
  0
DICTIONARY
  5
C
330
0
100
AcDbDictionary
281
     1
  3
ACAD_GROUP
350
D
  3
ACAD_LAYOUT
350
1A
  3
ACAD_MATERIAL
350
3B
  3
ACAD_MLEADERSTYLE
350
F7
  3
ACAD_MLINESTYLE
350
17
  3
ACAD_PLOTSETTINGS
350
19
  3
ACAD_PLOTSTYLENAME
350
E
  3
ACAD_TABLESTYLE
350
F6
  3
ACAD_VISUALSTYLE
350
2A
  0
SUN
  5
3F
330
29
100
AcDbSun
 90
        1
290
     0
 63
     7
421
 16777215
 40
1.0
291
     1
 91
  2455826
 92
 54000000
292
     0
 70
     2
 71
   256
280
     1
  0
DICTIONARY
  5
D
102
{ACAD_REACTORS
330
C
102
}
330
C
100
AcDbDictionary
281
     1
  0
DICTIONARY
  5
1A
102
{ACAD_REACTORS
330
C
102
}
330
C
100
AcDbDictionary
281
     1
  3
Layout1
350
1E
  3
Layout2
350
26
  3
Model
350
22
  0
DICTIONARY
  5
3B
102
{ACAD_REACTORS
330
C
102
}
330
C
100
AcDbDictionary
281
     1
  3
ByBlock
350
3D
  3
ByLayer
350
3C
  3
Global
350
3E
  0
DICTIONARY
  5
F7
102
{ACAD_REACTORS
330
C
102
}
330
C
100
AcDbDictionary
281
     1
  0
DICTIONARY
  5
17
102
{ACAD_REACTORS
330
C
102
}
330
C
100
AcDbDictionary
281
     1
  3
Standard
350
18
  0
DICTIONARY
  5
19
102
{ACAD_REACTORS
330
C
102
}
330
C
100
AcDbDictionary
281
     1
  0
ACDBDICTIONARYWDFLT
  5
E
102
{ACAD_REACTORS
330
C
102
}
330
C
100
AcDbDictionary
281
     1
  3
Normal
350
F
100
AcDbDictionaryWithDefault
340
F
  0
DICTIONARY
  5
F6
102
{ACAD_REACTORS
330
C
102
}
330
C
100
AcDbDictionary
281
     1
  0
DICTIONARY
  5
2A
102
{ACAD_REACTORS
330
C
102
}
330
C
100
AcDbDictionary
281
     1
  3
2dWireframe
350
2F
  3
3D Hidden
350
31
  3
3dWireframe
350
30
  3
Basic
350
32
  3
Brighten
350
36
  3
ColorChange
350
3A
  3
Conceptual
350
34
  3
Dim
350
35
  3
Facepattern
350
39
  3
Flat
350
2B
  3
FlatWithEdges
350
2C
  3
Gouraud
350
2D
  3
GouraudWithEdges
350
2E
  3
Linepattern
350
38
  3
Realistic
350
33
  3
Thicken
350
37
  0
LAYOUT
  5
1E
102
{ACAD_REACTORS
330
1A
102
}
330
1A
100
AcDbPlotSettings
  1

  2
none_device
  4

  6

 40
0.0
 41
0.0
 42
0.0
 43
0.0
 44
0.0
 45
0.0
 46
0.0
 47
0.0
 48
0.0
 49
0.0
140
0.0
141
0.0
142
1.0
143
1.0
 70
   688
 72
     0
 73
     0
 74
     5
  7

 75
    16
 76
     0
 77
     2
 78
   300
147
1.0
148
0.0
149
0.0
100
AcDbLayout
  1
Layout1
 70
     1
 71
     1
 10
0.0
 20
0.0
 11
12.0
 21
9.0
 12
0.0
 22
0.0
 32
0.0
 14
1.000000000000000E+20
 24
1.000000000000000E+20
 34
1.000000000000000E+20
 15
-1.000000000000000E+20
 25
-1.000000000000000E+20
 35
-1.000000000000000E+20
146
0.0
 13
0.0
 23
0.0
 33
0.0
 16
1.0
 26
0.0
 36
0.0
 17
0.0
 27
1.0
 37
0.0
 76
     0
330
1B
  0
LAYOUT
  5
26
102
{ACAD_REACTORS
330
1A
102
}
330
1A
100
AcDbPlotSettings
  1

  2
none_device
  4

  6

 40
0.0
 41
0.0
 42
0.0
 43
0.0
 44
0.0
 45
0.0
 46
0.0
 47
0.0
 48
0.0
 49
0.0
140
0.0
141
0.0
142
1.0
143
1.0
 70
   688
 72
     0
 73
     0
 74
     5
  7

 75
    16
 76
     0
 77
     2
 78
   300
147
1.0
148
0.0
149
0.0
100
AcDbLayout
  1
Layout2
 70
     1
 71
     2
 10
0.0
 20
0.0
 11
0.0
 21
0.0
 12
0.0
 22
0.0
 32
0.0
 14
0.0
 24
0.0
 34
0.0
 15
0.0
 25
0.0
 35
0.0
146
0.0
 13
0.0
 23
0.0
 33
0.0
 16
1.0
 26
0.0
 36
0.0
 17
0.0
 27
1.0
 37
0.0
 76
     0
330
23
  0
LAYOUT
  5
22
102
{ACAD_REACTORS
330
1A
102
}
330
1A
100
AcDbPlotSettings
  1

  2
none_device
  4

  6

 40
0.0
 41
0.0
 42
0.0
 43
0.0
 44
0.0
 45
0.0
 46
0.0
 47
0.0
 48
0.0
 49
0.0
140
0.0
141
0.0
142
1.0
143
1.0
 70
  1712
 72
     0
 73
     0
 74
     0
  7

 75
     0
 76
     0
 77
     2
 78
   300
147
1.0
148
0.0
149
0.0
100
AcDbLayout
  1
Model
 70
     1
 71
     0
 10
0.0
 20
0.0
 11
12.0
 21
9.0
 12
0.0
 22
0.0
 32
0.0
 14
1.000000000000000E+20
 24
1.000000000000000E+20
 34
1.000000000000000E+20
 15
-1.000000000000000E+20
 25
-1.000000000000000E+20
 35
-1.000000000000000E+20
146
0.0
 13
0.0
 23
0.0
 33
0.0
 16
1.0
 26
0.0
 36
0.0
 17
0.0
 27
1.0
 37
0.0
 76
     0
330
1F
331
29
  0
MATERIAL
  5
3D
102
{ACAD_REACTORS
330
3B
102
}
330
3B
100
AcDbMaterial
  1
ByBlock
 72
     1
 94
      127
  0
MATERIAL
  5
3C
102
{ACAD_REACTORS
330
3B
102
}
330
3B
100
AcDbMaterial
  1
ByLayer
 72
     1
 94
      127
  0
MATERIAL
  5
3E
102
{ACAD_REACTORS
330
3B
102
}
330
3B
100
AcDbMaterial
  1
Global
 72
     1
 94
      127
  0
MLINESTYLE
  5
18
102
{ACAD_REACTORS
330
17
102
}
330
17
100
AcDbMlineStyle
  2
Standard
 70
     0
  3

 62
   256
 51
90.0
 52
90.0
 71
     2
 49
0.5
 62
   256
  6
BYLAYER
 49
-0.5
 62
   256
  6
BYLAYER
  0
ACDBPLACEHOLDER
  5
F
102
{ACAD_REACTORS
330
E
102
}
330
E
  0
VISUALSTYLE
  5
2F
102
{ACAD_REACTORS
330
2A
102
}
330
2A
100
AcDbVisualStyle
  2
2dWireframe
 70
     4
177
     2
291
     0
 71
     0
176
     1
 72
     2
176
     1
 73
     0
176
     1
 90
        0
176
     1
 40
-0.6
176
     1
 41
-30.0
176
     1
 62
     5
 63
     7
421
 16777215
176
     1
 74
     1
176
     1
 91
        4
176
     1
 64
     7
176
     1
 65
   257
176
     1
 75
     1
176
     1
175
     1
176
     1
 42
1.0
176
     1
 92
        0
176
     1
 66
   257
176
     1
 43
1.0
176
     1
 76
     1
176
     1
 77
     6
176
     1
 78
     2
176
     1
 67
     7
176
     1
 79
     5
176
     1
170
     0
176
     1
171
     0
176
     1
290
     0
176
     1
 93
        1
176
     1
 44
0.0
176
     1
173
     0
176
     1
  0
VISUALSTYLE
  5
31
102
{ACAD_REACTORS
330
2A
102
}
330
2A
100
AcDbVisualStyle
  2
3D Hidden
 70
     6
177
     2
291
     0
 71
     1
176
     1
 72
     2
176
     1
 73
     2
176
     1
 90
        0
176
     1
 40
-0.6
176
     1
 41
-30.0
176
     1
 62
     5
 63
     7
421
 16777215
176
     1
 74
     2
176
     1
 91
        2
176
     1
 64
     7
176
     1
 65
   257
176
     1
 75
     2
176
     1
175
     1
176
     1
 42
40.0
176
     1
 92
        0
176
     1
 66
   257
176
     1
 43
1.0
176
     1
 76
     1
176
     1
 77
     6
176
     1
 78
     2
176
     1
 67
     7
176
     1
 79
     3
176
     1
170
     0
176
     1
171
     0
176
     1
290
     0
176
     1
 93
        1
176
     1
 44
0.0
176
     1
173
     0
176
     1
  0
VISUALSTYLE
  5
30
102
{ACAD_REACTORS
330
2A
102
}
330
2A
100
AcDbVisualStyle
  2
3dWireframe
 70
     5
177
     2
291
     0
 71
     0
176
     1
 72
     2
176
     1
 73
     0
176
     1
 90
        0
176
     1
 40
-0.6
176
     1
 41
-30.0
176
     1
 62
     5
 63
     7
421
 16777215
176
     1
 74
     1
176
     1
 91
        4
176
     1
 64
     7
176
     1
 65
   257
176
     1
 75
     1
176
     1
175
     1
176
     1
 42
1.0
176
     1
 92
        0
176
     1
 66
   257
176
     1
 43
1.0
176
     1
 76
     1
176
     1
 77
     6
176
     1
 78
     2
176
     1
 67
     7
176
     1
 79
     5
176
     1
170
     0
176
     1
171
     0
176
     1
290
     0
176
     1
 93
        1
176
     1
 44
0.0
176
     1
173
     0
176
     1
  0
VISUALSTYLE
  5
32
102
{ACAD_REACTORS
330
2A
102
}
330
2A
100
AcDbVisualStyle
  2
Basic
 70
     7
177
     2
291
     1
 71
     1
176
     1
 72
     0
176
     1
 73
     1
176
     1
 90
        0
176
     1
 40
-0.6
176
     1
 41
-30.0
176
     1
 62
     5
 63
     7
421
 16777215
176
     1
 74
     0
176
     1
 91
        4
176
     1
 64
     7
176
     1
 65
   257
176
     1
 75
     1
176
     1
175
     1
176
     1
 42
1.0
176
     1
 92
        8
176
     1
 66
     7
176
     1
 43
1.0
176
     1
 76
     1
176
     1
 77
     6
176
     1
 78
     2
176
     1
 67
     7
176
     1
 79
     5
176
     1
170
     0
176
     1
171
     0
176
     1
290
     0
176
     1
 93
        1
176
     1
 44
0.0
176
     1
173
     0
176
     1
  0
VISUALSTYLE
  5
36
102
{ACAD_REACTORS
330
2A
102
}
330
2A
100
AcDbVisualStyle
  2
Brighten
 70
    12
177
     2
291
     1
 71
     2
176
     1
 72
     2
176
     1
 73
     0
176
     1
 90
        0
176
     1
 40
-0.6
176
     1
 41
-30.0
176
     1
 62
     5
 63
     7
421
 16777215
176
     1
 74
     1
176
     1
 91
        4
176
     1
 64
     7
176
     1
 65
   257
176
     1
 75
     1
176
     1
175
     1
176
     1
 42
1.0
176
     1
 92
        8
176
     1
 66
     7
176
     1
 43
1.0
176
     1
 76
     1
176
     1
 77
     6
176
     1
 78
     2
176
     1
 67
     7
176
     1
 79
     5
176
     1
170
     0
176
     1
171
     0
176
     1
290
     0
176
     1
 93
        1
176
     1
 44
50.0
176
     1
173
     0
176
     1
  0
VISUALSTYLE
  5
3A
102
{ACAD_REACTORS
330
2A
102
}
330
2A
100
AcDbVisualStyle
  2
ColorChange
 70
    16
177
     2
291
     1
 71
     2
176
     1
 72
     2
176
     1
 73
     3
176
     1
 90
        0
176
     1
 40
-0.6
176
     1
 41
-30.0
176
     1
 62
     5
 63
     8
421
  8421504
176
     1
 74
     1
176
     1
 91
        4
176
     1
 64
     7
176
     1
 65
   257
176
     1
 75
     1
176
     1
175
     1
176
     1
 42
1.0
176
     1
 92
        8
176
     1
 66
     8
424
  8421504
176
     1
 43
1.0
176
     1
 76
     1
176
     1
 77
     6
176
     1
 78
     2
176
     1
 67
     7
176
     1
 79
     5
176
     1
170
     0
176
     1
171
     0
176
     1
290
     0
176
     1
 93
        1
176
     1
 44
0.0
176
     1
173
     0
176
     1
  0
VISUALSTYLE
  5
34
102
{ACAD_REACTORS
330
2A
102
}
330
2A
100
AcDbVisualStyle
  2
Conceptual
 70
     9
177
     2
291
     0
 71
     3
176
     1
 72
     2
176
     1
 73
     0
176
     1
 90
        0
176
     1
 40
-0.6
176
     1
 41
-30.0
176
     1
 62
     5
 63
     7
421
 16777215
176
     1
 74
     2
176
     1
 91
        2
176
     1
 64
     7
176
     1
 65
   257
176
     1
 75
     1
176
     1
175
     1
176
     1
 42
40.0
176
     1
 92
        8
176
     1
 66
     7
176
     1
 43
1.0
176
     1
 76
     1
176
     1
 77
     6
176
     1
 78
     2
176
     1
 67
     7
176
     1
 79
     3
176
     1
170
     0
176
     1
171
     0
176
     1
290
     0
176
     1
 93
        1
176
     1
 44
0.0
176
     1
173
     0
176
     1
  0
VISUALSTYLE
  5
35
102
{ACAD_REACTORS
330
2A
102
}
330
2A
100
AcDbVisualStyle
  2
Dim
 70
    11
177
     2
291
     1
 71
     2
176
     1
 72
     2
176
     1
 73
     0
176
     1
 90
        0
176
     1
 40
-0.6
176
     1
 41
-30.0
176
     1
 62
     5
 63
     7
421
 16777215
176
     1
 74
     1
176
     1
 91
        4
176
     1
 64
     7
176
     1
 65
   257
176
     1
 75
     1
176
     1
175
     1
176
     1
 42
1.0
176
     1
 92
        8
176
     1
 66
     7
176
     1
 43
1.0
176
     1
 76
     1
176
     1
 77
     6
176
     1
 78
     2
176
     1
 67
     7
176
     1
 79
     5
176
     1
170
     0
176
     1
171
     0
176
     1
290
     0
176
     1
 93
        1
176
     1
 44
-50.0
176
     1
173
     0
176
     1
  0
VISUALSTYLE
  5
39
102
{ACAD_REACTORS
330
2A
102
}
330
2A
100
AcDbVisualStyle
  2
Facepattern
 70
    15
177
     2
291
     1
 71
     2
176
     1
 72
     2
176
     1
 73
     0
176
     1
 90
        0
176
     1
 40
-0.6
176
     1
 41
-30.0
176
     1
 62
     5
 63
     7
421
 16777215
176
     1
 74
     1
176
     1
 91
        4
176
     1
 64
     7
176
     1
 65
   257
176
     1
 75
     1
176
     1
175
     1
176
     1
 42
1.0
176
     1
 92
        8
176
     1
 66
     7
176
     1
 43
1.0
176
     1
 76
     1
176
     1
 77
     6
176
     1
 78
     2
176
     1
 67
     7
176
     1
 79
     5
176
     1
170
     0
176
     1
171
     0
176
     1
290
     0
176
     1
 93
        1
176
     1
 44
0.0
176
     1
173
     0
176
     1
  0
VISUALSTYLE
  5
2B
102
{ACAD_REACTORS
330
2A
102
}
330
2A
100
AcDbVisualStyle
  2
Flat
 70
     0
177
     2
291
     1
 71
     2
176
     1
 72
     1
176
     1
 73
     1
176
     1
 90
        2
176
     1
 40
-0.6
176
     1
 41
30.0
176
     1
 62
     5
 63
     7
421
 16777215
176
     1
 74
     0
176
     1
 91
        4
176
     1
 64
     7
176
     1
 65
   257
176
     1
 75
     1
176
     1
175
     1
176
     1
 42
1.0
176
     1
 92
        8
176
     1
 66
     7
176
     1
 43
1.0
176
     1
 76
     1
176
     1
 77
     6
176
     1
 78
     2
176
     1
 67
     7
176
     1
 79
     5
176
     1
170
     0
176
     1
171
     0
176
     1
290
     0
176
     1
 93
       13
176
     1
 44
0.0
176
     1
173
     0
176
     1
  0
VISUALSTYLE
  5
2C
102
{ACAD_REACTORS
330
2A
102
}
330
2A
100
AcDbVisualStyle
  2
FlatWithEdges
 70
     1
177
     2
291
     1
 71
     2
176
     1
 72
     1
176
     1
 73
     1
176
     1
 90
        2
176
     1
 40
-0.6
176
     1
 41
30.0
176
     1
 62
     5
 63
     7
421
 16777215
176
     1
 74
     1
176
     1
 91
        4
176
     1
 64
     7
176
     1
 65
   257
176
     1
 75
     1
176
     1
175
     1
176
     1
 42
1.0
176
     1
 92
        0
176
     1
 66
   257
176
     1
 43
1.0
176
     1
 76
     1
176
     1
 77
     6
176
     1
 78
     2
176
     1
 67
     7
176
     1
 79
     5
176
     1
170
     0
176
     1
171
     0
176
     1
290
     0
176
     1
 93
       13
176
     1
 44
0.0
176
     1
173
     0
176
     1
  0
VISUALSTYLE
  5
2D
102
{ACAD_REACTORS
330
2A
102
}
330
2A
100
AcDbVisualStyle
  2
Gouraud
 70
     2
177
     2
291
     1
 71
     2
176
     1
 72
     2
176
     1
 73
     1
176
     1
 90
        2
176
     1
 40
-0.6
176
     1
 41
30.0
176
     1
 62
     5
 63
     7
421
 16777215
176
     1
 74
     0
176
     1
 91
        4
176
     1
 64
     7
176
     1
 65
   257
176
     1
 75
     1
176
     1
175
     1
176
     1
 42
1.0
176
     1
 92
        0
176
     1
 66
     7
176
     1
 43
1.0
176
     1
 76
     1
176
     1
 77
     6
176
     1
 78
     2
176
     1
 67
     7
176
     1
 79
     5
176
     1
170
     0
176
     1
171
     0
176
     1
290
     0
176
     1
 93
       13
176
     1
 44
0.0
176
     1
173
     0
176
     1
  0
VISUALSTYLE
  5
2E
102
{ACAD_REACTORS
330
2A
102
}
330
2A
100
AcDbVisualStyle
  2
GouraudWithEdges
 70
     3
177
     2
291
     1
 71
     2
176
     1
 72
     2
176
     1
 73
     1
176
     1
 90
        2
176
     1
 40
-0.6
176
     1
 41
30.0
176
     1
 62
     5
 63
     7
421
 16777215
176
     1
 74
     1
176
     1
 91
        4
176
     1
 64
     7
176
     1
 65
   257
176
     1
 75
     1
176
     1
175
     1
176
     1
 42
1.0
176
     1
 92
        0
176
     1
 66
   257
176
     1
 43
1.0
176
     1
 76
     1
176
     1
 77
     6
176
     1
 78
     2
176
     1
 67
     7
176
     1
 79
     5
176
     1
170
     0
176
     1
171
     0
176
     1
290
     0
176
     1
 93
       13
176
     1
 44
0.0
176
     1
173
     0
176
     1
  0
VISUALSTYLE
  5
38
102
{ACAD_REACTORS
330
2A
102
}
330
2A
100
AcDbVisualStyle
  2
Linepattern
 70
    14
177
     2
291
     1
 71
     2
176
     1
 72
     2
176
     1
 73
     0
176
     1
 90
        0
176
     1
 40
-0.6
176
     1
 41
-30.0
176
     1
 62
     5
 63
     7
421
 16777215
176
     1
 74
     1
176
     1
 91
        4
176
     1
 64
     7
176
     1
 65
   257
176
     1
 75
     7
176
     1
175
     7
176
     1
 42
1.0
176
     1
 92
        8
176
     1
 66
     7
176
     1
 43
1.0
176
     1
 76
     1
176
     1
 77
     6
176
     1
 78
     2
176
     1
 67
     7
176
     1
 79
     5
176
     1
170
     0
176
     1
171
     0
176
     1
290
     0
176
     1
 93
        1
176
     1
 44
0.0
176
     1
173
     0
176
     1
  0
VISUALSTYLE
  5
33
102
{ACAD_REACTORS
330
2A
102
}
330
2A
100
AcDbVisualStyle
  2
Realistic
 70
     8
177
     2
291
     0
 71
     2
176
     1
 72
     2
176
     1
 73
     0
176
     1
 90
        0
176
     1
 40
-0.6
176
     1
 41
-30.0
176
     1
 62
     5
 63
     7
421
 16777215
176
     1
 74
     1
176
     1
 91
        0
176
     1
 64
     7
176
     1
 65
   257
176
     1
 75
     1
176
     1
175
     1
176
     1
 42
1.0
176
     1
 92
        8
176
     1
 66
     8
424
  7895160
176
     1
 43
1.0
176
     1
 76
     1
176
     1
 77
     6
176
     1
 78
     2
176
     1
 67
     7
176
     1
 79
     5
176
     1
170
     0
176
     1
171
     0
176
     1
290
     0
176
     1
 93
       13
176
     1
 44
0.0
176
     1
173
     0
176
     1
  0
VISUALSTYLE
  5
37
102
{ACAD_REACTORS
330
2A
102
}
330
2A
100
AcDbVisualStyle
  2
Thicken
 70
    13
177
     2
291
     1
 71
     2
176
     1
 72
     2
176
     1
 73
     0
176
     1
 90
        0
176
     1
 40
-0.6
176
     1
 41
-30.0
176
     1
 62
     5
 63
     7
421
 16777215
176
     1
 74
     1
176
     1
 91
        4
176
     1
 64
     7
176
     1
 65
   257
176
     1
 75
     1
176
     1
175
     1
176
     1
 42
1.0
176
     1
 92
       12
176
     1
 66
     7
176
     1
 43
1.0
176
     1
 76
     1
176
     1
 77
     6
176
     1
 78
     2
176
     1
 67
     7
176
     1
 79
     5
176
     1
170
     0
176
     1
171
     0
176
     1
290
     0
176
     1
 93
        1
176
     1
 44
0.0
176
     1
173
     0
176
     1
  0
ENDSEC
  0
EOF
