999
dxfrw 0.6.3
  0
SECTION
  2
HEADER
  9
$ACADVER
  1
AC1021
  9
$DWGCODEPAGE
  3
ANSI_1252
  9
$INSBASE
 10
0
 20
0
 30
0
  9
$EXTMIN
 10
2.54
 20
2.54
 30
0
  9
$EXTMAX
 10
68.58
 20
66.04000000000001
 30
0
  9
$LIMMIN
 10
0
 20
0
  9
$LIMMAX
 10
101.6
 20
76.2
  9
$ORTHOMODE
 70
    0
  9
$REGENMODE
 70
    1
  9
$FILLMODE
 70
    1
  9
$QTEXTMODE
 70
    0
  9
$MIRRTEXT
 70
    0
  9
$LTSCALE
 40
10
  9
$ATTMODE
 70
    0
  9
$TEXTSIZE
 40
5.08
  9
$TRACEWID
 40
15.68
  9
$TEXTSTYLE
  7
STANDARD
  9
$CLAYER
  8
0
  9
$CELTYPE
  6
BYLAYER
  9
$CECOLOR
 62
  256
  9
$CELTSCALE
 40
1
  9
$DISPSILH
 70
    0
  9
$DIMSCALE
 40
2.5
  9
$DIMASZ
 40
2.5
  9
$DIMEXO
 40
0.625
  9
$DIMDLI
 40
3.75
  9
$DIMRND
 40
0
  9
$DIMDLE
 40
0
  9
$DIMEXE
 40
1.25
  9
$DIMTP
 40
0
  9
$DIMTM
 40
0
  9
$DIMTXT
 40
2.5
  9
$DIMCEN
 40
2.5
  9
$DIMTSZ
 40
0
  9
$DIMTOL
 70
    0
  9
$DIMLIM
 70
    0
  9
$DIMTIH
 70
    0
  9
$DIMTOH
 70
    0
  9
$DIMSE1
 70
    0
  9
$DIMSE2
 70
    0
  9
$DIMTAD
 70
    1
  9
$DIMZIN
 70
    8
  9
$DIMBLK
  1

  9
$DIMASO
 70
    1
  9
$DIMSHO
 70
    1
  9
$DIMPOST
  1

  9
$DIMAPOST
  1

  9
$DIMALT
 70
    0
  9
$DIMALTD
 70
    3
  9
$DIMALTF
 40
0.03937
  9
$DIMLFAC
 40
1
  9
$DIMTOFL
 70
    1
  9
$DIMTVP
 40
0
  9
$DIMTIX
 70
    0
  9
$DIMSOXD
 70
    0
  9
$DIMSAH
 70
    0
  9
$DIMBLK1
  1

  9
$DIMBLK2
  1

  9
$DIMSTYLE
  2
Standard
  9
$DIMCLRD
 70
    0
  9
$DIMCLRE
 70
    0
  9
$DIMCLRT
 70
    0
  9
$DIMTFAC
 40
1
  9
$DIMGAP
 40
0.625
  9
$DIMJUST
 70
    0
  9
$DIMSD1
 70
    0
  9
$DIMSD2
 70
    0
  9
$DIMTOLJ
 70
    0
  9
$DIMTZIN
 70
    8
  9
$DIMALTZ
 70
    0
  9
$DIMALTTZ
 70
    0
  9
$DIMUPT
 70
    0
  9
$DIMDEC
 70
    2
  9
$DIMTDEC
 70
    2
  9
$DIMALTU
 70
    2
  9
$DIMALTTD
 70
    3
  9
$DIMTXSTY
  7
STANDARD
  9
$DIMAUNIT
 70
    0
  9
$DIMADEC
 70
    0
  9
$DIMALTRND
 40
0
  9
$DIMAZIN
 70
    0
  9
$DIMDSEP
 70
   44
  9
$DIMATFIT
 70
    3
  9
$DIMFRAC
 70
    0
  9
$DIMLDRBLK
  1
STANDARD
  9
$DIMLUNIT
 70
    2
  9
$DIMLWD
 70
   -2
  9
$DIMLWE
 70
   -2
  9
$DIMTMOVE
 70
    0
  9
$DIMFXL
 40
1
  9
$DIMFXLON
 70
    0
  9
$DIMJOGANG
 40
0.7854
  9
$DIMTFILL
 70
    0
  9
$DIMTFILLCLR
 70
    0
  9
$DIMARCSYM
 70
    0
  9
$DIMLTYPE
  6

  9
$DIMLTEX1
  6

  9
$DIMLTEX2
  6

  9
$LUNITS
 70
    2
  9
$LUPREC
 70
    4
  9
$SKETCHINC
 40
1
  9
$FILLETRAD
 40
0
  9
$AUNITS
 70
    0
  9
$AUPREC
 70
    2
  9
$MENU
  1
.
  9
$ELEVATION
 40
0
  9
$PELEVATION
 40
0
  9
$THICKNESS
 40
0
  9
$LIMCHECK
 70
    0
  9
$CHAMFERA
 40
5.08
  9
$CHAMFERB
 40
5.08
  9
$CHAMFERC
 40
0
  9
$CHAMFERD
 40
0
  9
$SKPOLY
 70
    0
  9
$USRTIMER
 70
    1
  9
$ANGBASE
 50
0
  9
$ANGDIR
 70
    0
  9
$PDMODE
 70
   34
  9
$PDSIZE
 40
0
  9
$PLINEWID
 40
0
  9
$SPLFRAME
 70
    0
  9
$SPLINETYPE
 70
    2
  9
$SPLINESEGS
 70
    8
  9
$HANDSEED
  5
20000
  9
$SURFTAB1
 70
    6
  9
$SURFTAB2
 70
    6
  9
$SURFTYPE
 70
    6
  9
$SURFU
 70
    6
  9
$SURFV
 70
    6
  9
$UCSBASE
  2

  9
$UCSNAME
  2

  9
$UCSORG
 10
0
 20
0
 30
0
  9
$UCSXDIR
 10
1
 20
0
 30
0
  9
$UCSYDIR
 10
0
 20
1
 30
0
  9
$UCSORTHOREF
  2

  9
$UCSORTHOVIEW
 70
    0
  9
$UCSORGTOP
 10
0
 20
0
 30
0
  9
$UCSORGBOTTOM
 10
0
 20
0
 30
0
  9
$UCSORGLEFT
 10
0
 20
0
 30
0
  9
$UCSORGRIGHT
 10
0
 20
0
 30
0
  9
$UCSORGFRONT
 10
0
 20
0
 30
0
  9
$UCSORGBACK
 10
0
 20
0
 30
0
  9
$PUCSBASE
  2

  9
$PUCSNAME
  2

  9
$PUCSORG
 10
0
 20
0
 30
0
  9
$PUCSXDIR
 10
1
 20
0
 30
0
  9
$PUCSYDIR
 10
0
 20
1
 30
0
  9
$PUCSORTHOREF
  2

  9
$PUCSORTHOVIEW
 70
    0
  9
$PUCSORGTOP
 10
0
 20
0
 30
0
  9
$PUCSORGBOTTOM
 10
0
 20
0
 30
0
  9
$PUCSORGLEFT
 10
0
 20
0
 30
0
  9
$PUCSORGRIGHT
 10
0
 20
0
 30
0
  9
$PUCSORGFRONT
 10
0
 20
0
 30
0
  9
$PUCSORGBACK
 10
0
 20
0
 30
0
  9
$USERI1
 70
    0
  9
$USERI2
 70
    0
  9
$USERI3
 70
    0
  9
$USERI4
 70
    0
  9
$USERI5
 70
    0
  9
$USERR1
 40
0
  9
$USERR2
 40
0
  9
$USERR3
 40
0
  9
$USERR4
 40
0
  9
$USERR5
 40
0
  9
$WORLDVIEW
 70
    1
  9
$SHADEDGE
 70
    3
  9
$SHADEDIF
 70
   70
  9
$TILEMODE
 70
    1
  9
$MAXACTVP
 70
   64
  9
$PINSBASE
 10
0
 20
0
 30
0
  9
$PLIMCHECK
 70
    0
  9
$PEXTMIN
 10
0
 20
0
 30
0
  9
$PEXTMAX
 10
0
 20
0
 30
0
  9
$SNAPSTYLE
 70
    0
  9
$GRIDUNIT
 10
25.4
 20
25.4
  9
$PLIMMIN
 10
0
 20
0
  9
$PLIMMAX
 10
297
 20
210
  9
$UNITMODE
 70
    0
  9
$VISRETAIN
 70
    1
  9
$PLINEGEN
 70
    0
  9
$PSLTSCALE
 70
    1
  9
$TREEDEPTH
 70
 3020
  9
$CMLSTYLE
  2
Standard
  9
$CMLJUST
 70
    0
  9
$CMLSCALE
 40
20
  9
$PROXYGRAPHICS
 70
    1
  9
$MEASUREMENT
 70
    1
  9
$CELWEIGHT
370
   -1
  9
$ENDCAPS
280
    0
  9
$JOINSTYLE
280
    0
  9
$LWDISPLAY
290
    0
  9
$INSUNITS
 70
    4
  9
$HYPERLINKBASE
  1

  9
$STYLESHEET
  1

  9
$XEDIT
290
    1
  9
$CEPSNTYPE
380
    0
  9
$PSTYLEMODE
290
    1
  9
$EXTNAMES
290
    1
  9
$PSVPSCALE
 40
1
  9
$OLESTARTUP
290
    0
  9
$SORTENTS
280
  127
  9
$INDEXCTL
280
    0
  9
$HIDETEXT
280
    1
  9
$XCLIPFRAME
290
    0
  9
$HALOGAP
280
    0
  9
$OBSCOLOR
 70
  257
  9
$OBSLTYPE
280
    0
  9
$INTERSECTIONDISPLAY
280
    0
  9
$INTERSECTIONCOLOR
 70
  257
  9
$DIMASSOC
280
    1
  9
$PROJECTNAME
  1

  9
$CAMERADISPLAY
290
    0
  9
$LENSLENGTH
 40
50
  9
$CAMERAHEIGHT
 40
0
  9
$STEPSPERSEC
 40
2
  9
$STEPSIZE
 40
50
  9
$3DDWFPREC
 40
2
  9
$PSOLWIDTH
 40
5
  9
$PSOLHEIGHT
 40
80
  9
$LOFTANG1
 40
1.570796326794897
  9
$LOFTANG2
 40
1.570796326794897
  9
$LOFTMAG1
 40
0
  9
$LOFTMAG2
 40
0
  9
$LOFTPARAM
 70
    7
  9
$LOFTNORMALS
280
    1
  9
$LATITUDE
 40
1
  9
$LONGITUDE
 40
1
  9
$NORTHDIRECTION
 40
0
  9
$TIMEZONE
 70
-8000
  9
$LIGHTGLYPHDISPLAY
280
    1
  9
$TILEMODELIGHTSYNCH
280
    1
  9
$SOLIDHIST
280
    1
  9
$SHOWHIST
280
    1
  9
$DWFFRAME
280
    2
  9
$DGNFRAME
280
    0
  9
$REALWORLDSCALE
290
    1
  9
$INTERFERECOLOR
 62
    1
  9
$CSHADOW
280
    0
  9
$SHADOWPLANELOCATION
 40
0
  0
ENDSEC
  0
SECTION
  2
CLASSES
  0
ENDSEC
  0
SECTION
  2
TABLES
  0
TABLE
  2
VPORT
  5
8
330
0
100
AcDbSymbolTable
 70
    1
  0
VPORT
  5
31
330
2
100
AcDbSymbolTableRecord
100
AcDbViewportTableRecord
  2
*ACTIVE
 70
    0
 10
0
 20
0
 11
1
 21
1
 12
110.625
 22
65.875
 13
0
 23
0
 14
10
 24
10
 15
25.4
 25
25.4
 16
0
 26
0
 36
1
 17
0
 27
0
 37
0
 40
144.25
 41
1.620450606585789
 42
50
 43
0
 44
0
 50
0
 51
0
 71
    0
 72
  100
 73
    1
 74
    3
 75
    0
 76
    1
 77
    0
 78
    0
281
    0
 65
    1
110
0
120
0
130
0
111
1
121
0
131
0
112
0
122
1
132
0
 79
    0
146
0
348
10020
 60
    3
 61
    5
292
1
282
    1
141
0
142
0
 63
  250
421
3358443
  0
ENDTAB
  0
TABLE
  2
LTYPE
  5
5
330
0
100
AcDbSymbolTable
 70
    4
  0
LTYPE
  5
14
330
5
100
AcDbSymbolTableRecord
100
AcDbLinetypeTableRecord
  2
ByBlock
 70
    0
  3

 72
   65
 73
    0
 40
0
  0
LTYPE
  5
15
330
5
100
AcDbSymbolTableRecord
100
AcDbLinetypeTableRecord
  2
ByLayer
 70
    0
  3

 72
   65
 73
    0
 40
0
  0
LTYPE
  5
16
330
5
100
AcDbSymbolTableRecord
100
AcDbLinetypeTableRecord
  2
Continuous
 70
    0
  3
Solid line
 72
   65
 73
    0
 40
0
  0
LTYPE
  5
32
330
5
100
AcDbSymbolTableRecord
100
AcDbLinetypeTableRecord
  2
DOT
 70
    0
  3
Dot . . . . . . . . . . . . . . . . . . . . . .
 72
   65
 73
    2
 40
6.35
 49
0
 74
    0
 49
-6.35
 74
    0
  0
LTYPE
  5
33
330
5
100
AcDbSymbolTableRecord
100
AcDbLinetypeTableRecord
  2
DOTTINY
 70
    0
  3
Dot (.15x) .....................................
 72
   65
 73
    2
 40
0.9525
 49
0
 74
    0
 49
-0.9525
 74
    0
  0
LTYPE
  5
34
330
5
100
AcDbSymbolTableRecord
100
AcDbLinetypeTableRecord
  2
DOT2
 70
    0
  3
Dot (.5x) .....................................
 72
   65
 73
    2
 40
3.175
 49
0
 74
    0
 49
-3.175
 74
    0
  0
LTYPE
  5
35
330
5
100
AcDbSymbolTableRecord
100
AcDbLinetypeTableRecord
  2
DOTX2
 70
    0
  3
Dot (2x) .  .  .  .  .  .  .  .  .  .  .  .  .
 72
   65
 73
    2
 40
12.7
 49
0
 74
    0
 49
-12.7
 74
    0
  0
LTYPE
  5
36
330
5
100
AcDbSymbolTableRecord
100
AcDbLinetypeTableRecord
  2
DASHED
 70
    0
  3
Dashed _ _ _ _ _ _ _ _ _ _ _ _ _ _ _ _ _
 72
   65
 73
    2
 40
19.05
 49
12.7
 74
    0
 49
-6.35
 74
    0
  0
LTYPE
  5
37
330
5
100
AcDbSymbolTableRecord
100
AcDbLinetypeTableRecord
  2
DASHEDTINY
 70
    0
  3
Dashed (.15x) _ _ _ _ _ _ _ _ _ _ _ _ _ _ _ _ _
 72
   65
 73
    2
 40
2.8575
 49
1.905
 74
    0
 49
-0.9525
 74
    0
  0
LTYPE
  5
38
330
5
100
AcDbSymbolTableRecord
100
AcDbLinetypeTableRecord
  2
DASHED2
 70
    0
  3
Dashed (.5x) _ _ _ _ _ _ _ _ _ _ _ _ _ _ _ _ _
 72
   65
 73
    2
 40
9.524999999999999
 49
6.35
 74
    0
 49
-3.175
 74
    0
  0
LTYPE
  5
39
330
5
100
AcDbSymbolTableRecord
100
AcDbLinetypeTableRecord
  2
DASHEDX2
 70
    0
  3
Dashed (2x) ____  ____  ____  ____  ____  ___
 72
   65
 73
    2
 40
38.09999999999999
 49
25.4
 74
    0
 49
-12.7
 74
    0
  0
LTYPE
  5
3A
330
5
100
AcDbSymbolTableRecord
100
AcDbLinetypeTableRecord
  2
DASHDOT
 70
    0
  3
Dash dot __ . __ . __ . __ . __ . __ . __ . __
 72
   65
 73
    4
 40
25.4
 49
12.7
 74
    0
 49
-6.35
 74
    0
 49
0
 74
    0
 49
-6.35
 74
    0
  0
LTYPE
  5
3B
330
5
100
AcDbSymbolTableRecord
100
AcDbLinetypeTableRecord
  2
DASHDOTTINY
 70
    0
  3
Dash dot (.15x) _._._._._._._._._._._._._._._.
 72
   65
 73
    4
 40
3.81
 49
1.905
 74
    0
 49
-0.9525
 74
    0
 49
0
 74
    0
 49
-0.9525
 74
    0
  0
LTYPE
  5
3C
330
5
100
AcDbSymbolTableRecord
100
AcDbLinetypeTableRecord
  2
DASHDOT2
 70
    0
  3
Dash dot (.5x) _._._._._._._._._._._._._._._.
 72
   65
 73
    4
 40
12.7
 49
6.35
 74
    0
 49
-3.175
 74
    0
 49
0
 74
    0
 49
-3.175
 74
    0
  0
LTYPE
  5
3D
330
5
100
AcDbSymbolTableRecord
100
AcDbLinetypeTableRecord
  2
DASHDOTX2
 70
    0
  3
Dash dot (2x) ____  .  ____  .  ____  .  ___
 72
   65
 73
    4
 40
50.8
 49
25.4
 74
    0
 49
-12.7
 74
    0
 49
0
 74
    0
 49
-12.7
 74
    0
  0
LTYPE
  5
3E
330
5
100
AcDbSymbolTableRecord
100
AcDbLinetypeTableRecord
  2
DIVIDE
 70
    0
  3
Divide ____ . . ____ . . ____ . . ____ . . ____
 72
   65
 73
    6
 40
31.75
 49
12.7
 74
    0
 49
-6.35
 74
    0
 49
0
 74
    0
 49
-6.35
 74
    0
 49
0
 74
    0
 49
-6.35
 74
    0
  0
LTYPE
  5
3F
330
5
100
AcDbSymbolTableRecord
100
AcDbLinetypeTableRecord
  2
DIVIDETINY
 70
    0
  3
Divide (.15x) __..__..__..__..__..__..__..__.._
 72
   65
 73
    6
 40
4.7625
 49
1.905
 74
    0
 49
-0.9525
 74
    0
 49
0
 74
    0
 49
-0.9525
 74
    0
 49
0
 74
    0
 49
-0.9525
 74
    0
  0
LTYPE
  5
40
330
5
100
AcDbSymbolTableRecord
100
AcDbLinetypeTableRecord
  2
DIVIDE2
 70
    0
  3
Divide (.5x) __..__..__..__..__..__..__..__.._
 72
   65
 73
    6
 40
15.875
 49
6.35
 74
    0
 49
-3.175
 74
    0
 49
0
 74
    0
 49
-3.175
 74
    0
 49
0
 74
    0
 49
-3.175
 74
    0
  0
LTYPE
  5
41
330
5
100
AcDbSymbolTableRecord
100
AcDbLinetypeTableRecord
  2
DIVIDEX2
 70
    0
  3
Divide (2x) ________  .  .  ________  .  .  _
 72
   65
 73
    6
 40
63.5
 49
25.4
 74
    0
 49
-12.7
 74
    0
 49
0
 74
    0
 49
-12.7
 74
    0
 49
0
 74
    0
 49
-12.7
 74
    0
  0
LTYPE
  5
42
330
5
100
AcDbSymbolTableRecord
100
AcDbLinetypeTableRecord
  2
BORDER
 70
    0
  3
Border __ __ . __ __ . __ __ . __ __ . __ __ .
 72
   65
 73
    6
 40
44.45
 49
12.7
 74
    0
 49
-6.35
 74
    0
 49
12.7
 74
    0
 49
-6.35
 74
    0
 49
0
 74
    0
 49
-6.35
 74
    0
  0
LTYPE
  5
43
330
5
100
AcDbSymbolTableRecord
100
AcDbLinetypeTableRecord
  2
BORDERTINY
 70
    0
  3
Border (.15x) __.__.__.__.__.__.__.__.__.__.__.
 72
   65
 73
    6
 40
6.6675
 49
1.905
 74
    0
 49
-0.9525
 74
    0
 49
1.905
 74
    0
 49
-0.9525
 74
    0
 49
0
 74
    0
 49
-0.9525
 74
    0
  0
LTYPE
  5
44
330
5
100
AcDbSymbolTableRecord
100
AcDbLinetypeTableRecord
  2
BORDER2
 70
    0
  3
Border (.5x) __.__.__.__.__.__.__.__.__.__.__.
 72
   65
 73
    6
 40
22.225
 49
6.35
 74
    0
 49
-3.175
 74
    0
 49
6.35
 74
    0
 49
-3.175
 74
    0
 49
0
 74
    0
 49
-3.175
 74
    0
  0
LTYPE
  5
45
330
5
100
AcDbSymbolTableRecord
100
AcDbLinetypeTableRecord
  2
BORDERX2
 70
    0
  3
Border (2x) ____  ____  .  ____  ____  .  ___
 72
   65
 73
    6
 40
88.89999999999999
 49
25.4
 74
    0
 49
-12.7
 74
    0
 49
25.4
 74
    0
 49
-12.7
 74
    0
 49
0
 74
    0
 49
-12.7
 74
    0
  0
LTYPE
  5
46
330
5
100
AcDbSymbolTableRecord
100
AcDbLinetypeTableRecord
  2
CENTER
 70
    0
  3
Center ____ _ ____ _ ____ _ ____ _ ____ _ ____
 72
   65
 73
    4
 40
50.8
 49
31.75
 74
    0
 49
-6.35
 74
    0
 49
6.35
 74
    0
 49
-6.35
 74
    0
  0
LTYPE
  5
47
330
5
100
AcDbSymbolTableRecord
100
AcDbLinetypeTableRecord
  2
CENTERTINY
 70
    0
  3
Center (.15x) ___ _ ___ _ ___ _ ___ _ ___ _ ___
 72
   65
 73
    4
 40
7.619999999999999
 49
4.7625
 74
    0
 49
-0.9525
 74
    0
 49
0.9525
 74
    0
 49
-0.9525
 74
    0
  0
LTYPE
  5
48
330
5
100
AcDbSymbolTableRecord
100
AcDbLinetypeTableRecord
  2
CENTER2
 70
    0
  3
Center (.5x) ___ _ ___ _ ___ _ ___ _ ___ _ ___
 72
   65
 73
    4
 40
28.575
 49
19.05
 74
    0
 49
-3.175
 74
    0
 49
3.175
 74
    0
 49
-3.175
 74
    0
  0
LTYPE
  5
49
330
5
100
AcDbSymbolTableRecord
100
AcDbLinetypeTableRecord
  2
CENTERX2
 70
    0
  3
Center (2x) ________  __  ________  __  _____
 72
   65
 73
    4
 40
101.6
 49
63.5
 74
    0
 49
-12.7
 74
    0
 49
12.7
 74
    0
 49
-12.7
 74
    0
  0
ENDTAB
  0
TABLE
  2
LAYER
  5
2
330
0
100
AcDbSymbolTable
 70
    1
  0
LAYER
  5
10
330
2
100
AcDbSymbolTableRecord
100
AcDbLayerTableRecord
  2
0
 70
    0
 62
    7
  6
CONTINUOUS
370
    0
390
F
  0
LAYER
  5
4A
330
2
100
AcDbSymbolTableRecord
100
AcDbLayerTableRecord
  2
Make_Solder_Side
 70
    0
 62
    7
  6
CONTINUOUS
370
   -3
390
F
  0
ENDTAB
  0
TABLE
  2
STYLE
  5
3
330
0
100
AcDbSymbolTable
 70
    3
  0
STYLE
  5
4B
330
2
100
AcDbSymbolTableRecord
100
AcDbTextStyleTableRecord
  2
Standard
 70
    0
 40
0
 41
1
 50
0
 71
    0
 42
1
  3
txt
  4

  0
ENDTAB
  0
TABLE
  2
VIEW
  5
6
330
0
100
AcDbSymbolTable
 70
    0
  0
ENDTAB
  0
TABLE
  2
UCS
  5
7
330
0
100
AcDbSymbolTable
 70
    0
  0
ENDTAB
  0
TABLE
  2
APPID
  5
9
330
0
100
AcDbSymbolTable
 70
    1
  0
APPID
  5
12
330
9
100
AcDbSymbolTableRecord
100
AcDbRegAppTableRecord
  2
ACAD
 70
    0
  0
APPID
  5
4C
330
9
100
AcDbSymbolTableRecord
100
AcDbRegAppTableRecord
  2
LibreCad
 70
    0
  0
ENDTAB
  0
TABLE
  2
DIMSTYLE
  5
A
330
0
100
AcDbSymbolTable
 70
    1
100
AcDbDimStyleTable
 71
    1
  0
DIMSTYLE
105
4D
330
A
100
AcDbSymbolTableRecord
100
AcDbDimStyleTableRecord
  2
Standard
 70
    0
 40
1
 41
2.5
 42
0.625
 43
0.38
 44
1.25
 45
0
 46
0
 47
0
 48
0
 49
1
140
2.5
141
0.09
142
2.5
143
25.4
144
1
145
0
146
1
147
0.625
148
0
 71
    0
 72
    0
 73
    0
 74
    1
 75
    0
 76
    0
 77
    0
 78
    1
 79
    0
170
    0
171
    2
172
    0
173
    0
174
    0
175
    0
176
    0
177
    0
178
    0
179
    0
271
    2
272
    4
273
    2
274
    2
275
    0
276
    0
277
    2
278
    0
279
    0
280
    0
281
    0
282
    0
283
    1
284
    0
285
    0
286
    0
288
    0
289
    3
340
standard
341

371
   -2
372
   -2
  0
ENDTAB
  0
TABLE
  2
BLOCK_RECORD
  5
1
330
0
100
AcDbSymbolTable
 70
    2
  0
BLOCK_RECORD
  5
1F
330
1
100
AcDbSymbolTableRecord
100
AcDbBlockTableRecord
  2
*Model_Space
 70
    0
280
    1
281
    0
  0
BLOCK_RECORD
  5
1E
330
1
100
AcDbSymbolTableRecord
100
AcDbBlockTableRecord
  2
*Paper_Space
 70
    0
280
    1
281
    0
  0
ENDTAB
  0
ENDSEC
  0
SECTION
  2
BLOCKS
  0
BLOCK
  5
20
330
1F
100
AcDbEntity
  8
0
100
AcDbBlockBegin
  2
*Model_Space
 70
    0
 10
0
 20
0
 30
0
  3
*Model_Space
  1

  0
ENDBLK
  5
21
330
1F
100
AcDbEntity
  8
0
100
AcDbBlockEnd
  0
BLOCK
  5
1C
330
1B
100
AcDbEntity
  8
0
100
AcDbBlockBegin
  2
*Paper_Space
 70
    0
 10
0
 20
0
 30
0
  3
*Paper_Space
  1

  0
ENDBLK
  5
1D
330
1F
100
AcDbEntity
  8
0
100
AcDbBlockEnd
  0
ENDSEC
  0
SECTION
  2
ENTITIES
  0
LINE
  5
4E
100
AcDbEntity
  8
Make_Solder_Side
  6
CONTINUOUS
 62
    1
370
   -1
100
AcDbLine
 10
24.488
 20
16.637
 11
24.488
 21
18.923
  0
ARC
  5
4F
100
AcDbEntity
  8
Make_Solder_Side
  6
CONTINUOUS
 62
    1
370
   -1
100
AcDbCircle
 10
25.019
 20
18.923
 40
0.531
100
AcDbArc
 50
166.162
 51
180
  0
ARC
  5
50
100
AcDbEntity
  8
Make_Solder_Side
  6
CONTINUOUS
 62
    1
370
   -1
100
AcDbCircle
 10
25.019
 20
19.177
 40
0.531
100
AcDbArc
 50
180
 51
193.838
  0
LINE
  5
51
100
AcDbEntity
  8
Make_Solder_Side
  6
CONTINUOUS
 62
    1
370
   -1
100
AcDbLine
 10
24.488
 20
19.177
 11
24.488
 21
21.463
  0
ARC
  5
52
100
AcDbEntity
  8
Make_Solder_Side
  6
CONTINUOUS
 62
    1
370
   -1
100
AcDbCircle
 10
25.019
 20
21.463
 40
0.531
100
AcDbArc
 50
166.162
 51
180
  0
ARC
  5
53
100
AcDbEntity
  8
Make_Solder_Side
  6
CONTINUOUS
 62
    1
370
   -1
100
AcDbCircle
 10
25.019
 20
21.717
 40
0.531
100
AcDbArc
 50
180
 51
193.838
  0
LINE
  5
54
100
AcDbEntity
  8
Make_Solder_Side
  6
CONTINUOUS
 62
    1
370
   -1
100
AcDbLine
 10
24.488
 20
21.717
 11
24.488
 21
24.003
  0
ARC
  5
55
100
AcDbEntity
  8
Make_Solder_Side
  6
CONTINUOUS
 62
    1
370
   -1
100
AcDbCircle
 10
25.019
 20
24.003
 40
0.531
100
AcDbArc
 50
139.537
 51
180
  0
LINE
  5
56
100
AcDbEntity
  8
Make_Solder_Side
  6
CONTINUOUS
 62
    1
370
   -1
100
AcDbLine
 10
24.615
 20
24.3476
 11
24.615
 21
25.1824
  0
ARC
  5
57
100
AcDbEntity
  8
Make_Solder_Side
  6
CONTINUOUS
 62
    1
370
   -1
100
AcDbCircle
 10
25.019
 20
25.527
 40
0.531
100
AcDbArc
 50
180
 51
220.463
  0
LINE
  5
58
100
AcDbEntity
  8
Make_Solder_Side
  6
CONTINUOUS
 62
    1
370
   -1
100
AcDbLine
 10
24.488
 20
25.527
 11
24.488
 21
27.813
  0
ARC
  5
59
100
AcDbEntity
  8
Make_Solder_Side
  6
CONTINUOUS
 62
    1
370
   -1
100
AcDbCircle
 10
25.019
 20
27.813
 40
0.531
100
AcDbArc
 50
166.162
 51
180
  0
ARC
  5
5A
100
AcDbEntity
  8
Make_Solder_Side
  6
CONTINUOUS
 62
    1
370
   -1
100
AcDbCircle
 10
25.019
 20
28.067
 40
0.531
100
AcDbArc
 50
180
 51
193.838
  0
LINE
  5
5B
100
AcDbEntity
  8
Make_Solder_Side
  6
CONTINUOUS
 62
    1
370
   -1
100
AcDbLine
 10
24.488
 20
28.067
 11
24.488
 21
30.353
  0
ARC
  5
5C
100
AcDbEntity
  8
Make_Solder_Side
  6
CONTINUOUS
 62
    1
370
   -1
100
AcDbCircle
 10
25.019
 20
30.353
 40
0.531
100
AcDbArc
 50
90
 51
180
  0
LINE
  5
5D
100
AcDbEntity
  8
Make_Solder_Side
  6
CONTINUOUS
 62
    1
370
   -1
100
AcDbLine
 10
25.019
 20
30.884
 11
25.781
 21
30.884
  0
ARC
  5
5E
100
AcDbEntity
  8
Make_Solder_Side
  6
CONTINUOUS
 62
    1
370
   -1
100
AcDbCircle
 10
25.781
 20
30.353
 40
0.531
100
AcDbArc
 50
0
 51
90
  0
LINE
  5
5F
100
AcDbEntity
  8
Make_Solder_Side
  6
CONTINUOUS
 62
    1
370
   -1
100
AcDbLine
 10
26.312
 20
30.353
 11
26.312
 21
28.725
  0
LINE
  5
60
100
AcDbEntity
  8
Make_Solder_Side
  6
CONTINUOUS
 62
    1
370
   -1
100
AcDbLine
 10
26.312
 20
28.725
 11
33.02
 21
28.725
  0
ARC
  5
61
100
AcDbEntity
  8
Make_Solder_Side
  6
CONTINUOUS
 62
    1
370
   -1
100
AcDbCircle
 10
33.02
 20
27.94
 40
0.785
100
AcDbArc
 50
0
 51
90
  0
LINE
  5
62
100
AcDbEntity
  8
Make_Solder_Side
  6
CONTINUOUS
 62
    1
370
   -1
100
AcDbLine
 10
33.805
 20
27.94
 11
33.805
 21
26.185
  0
LINE
  5
63
100
AcDbEntity
  8
Make_Solder_Side
  6
CONTINUOUS
 62
    1
370
   -1
100
AcDbLine
 10
33.805
 20
26.185
 11
59.4724
 21
26.185
  0
ARC
  5
64
100
AcDbEntity
  8
Make_Solder_Side
  6
CONTINUOUS
 62
    1
370
   -1
100
AcDbCircle
 10
59.817
 20
25.781
 40
0.531
100
AcDbArc
 50
90
 51
130.463
  0
LINE
  5
65
100
AcDbEntity
  8
Make_Solder_Side
  6
CONTINUOUS
 62
    1
370
   -1
100
AcDbLine
 10
59.817
 20
26.312
 11
62.103
 21
26.312
  0
ARC
  5
66
100
AcDbEntity
  8
Make_Solder_Side
  6
CONTINUOUS
 62
    1
370
   -1
100
AcDbCircle
 10
62.103
 20
25.781
 40
0.531
100
AcDbArc
 50
0
 51
90
  0
LINE
  5
67
100
AcDbEntity
  8
Make_Solder_Side
  6
CONTINUOUS
 62
    1
370
   -1
100
AcDbLine
 10
62.634
 20
25.781
 11
62.634
 21
25.019
  0
ARC
  5
68
100
AcDbEntity
  8
Make_Solder_Side
  6
CONTINUOUS
 62
    1
370
   -1
100
AcDbCircle
 10
62.103
 20
25.019
 40
0.531
100
AcDbArc
 50
270
 51
0
  0
LINE
  5
69
100
AcDbEntity
  8
Make_Solder_Side
  6
CONTINUOUS
 62
    1
370
   -1
100
AcDbLine
 10
62.103
 20
24.488
 11
59.817
 21
24.488
  0
ARC
  5
6A
100
AcDbEntity
  8
Make_Solder_Side
  6
CONTINUOUS
 62
    1
370
   -1
100
AcDbCircle
 10
59.817
 20
25.019
 40
0.531
100
AcDbArc
 50
229.537
 51
270
  0
LINE
  5
6B
100
AcDbEntity
  8
Make_Solder_Side
  6
CONTINUOUS
 62
    1
370
   -1
100
AcDbLine
 10
59.4724
 20
24.615
 11
33.02
 21
24.615
  0
ARC
  5
6C
100
AcDbEntity
  8
Make_Solder_Side
  6
CONTINUOUS
 62
    1
370
   -1
100
AcDbCircle
 10
33.02
 20
25.4
 40
0.785
100
AcDbArc
 50
180
 51
270
  0
LINE
  5
6D
100
AcDbEntity
  8
Make_Solder_Side
  6
CONTINUOUS
 62
    1
370
   -1
100
AcDbLine
 10
32.235
 20
25.4
 11
32.235
 21
27.155
  0
LINE
  5
6E
100
AcDbEntity
  8
Make_Solder_Side
  6
CONTINUOUS
 62
    1
370
   -1
100
AcDbLine
 10
32.235
 20
27.155
 11
26.312
 21
27.155
  0
LINE
  5
6F
100
AcDbEntity
  8
Make_Solder_Side
  6
CONTINUOUS
 62
    1
370
   -1
100
AcDbLine
 10
26.312
 20
27.155
 11
26.312
 21
25.527
  0
ARC
  5
70
100
AcDbEntity
  8
Make_Solder_Side
  6
CONTINUOUS
 62
    1
370
   -1
100
AcDbCircle
 10
25.781
 20
25.527
 40
0.531
100
AcDbArc
 50
319.537
 51
0
  0
LINE
  5
71
100
AcDbEntity
  8
Make_Solder_Side
  6
CONTINUOUS
 62
    1
370
   -1
100
AcDbLine
 10
26.185
 20
25.1824
 11
26.185
 21
24.3476
  0
ARC
  5
72
100
AcDbEntity
  8
Make_Solder_Side
  6
CONTINUOUS
 62
    1
370
   -1
100
AcDbCircle
 10
25.781
 20
24.003
 40
0.531
100
AcDbArc
 50
0
 51
40.4627
  0
LINE
  5
73
100
AcDbEntity
  8
Make_Solder_Side
  6
CONTINUOUS
 62
    1
370
   -1
100
AcDbLine
 10
26.312
 20
24.003
 11
26.312
 21
21.717
  0
ARC
  5
74
100
AcDbEntity
  8
Make_Solder_Side
  6
CONTINUOUS
 62
    1
370
   -1
100
AcDbCircle
 10
25.781
 20
21.717
 40
0.531
100
AcDbArc
 50
346.162
 51
0
  0
ARC
  5
75
100
AcDbEntity
  8
Make_Solder_Side
  6
CONTINUOUS
 62
    1
370
   -1
100
AcDbCircle
 10
25.781
 20
21.463
 40
0.531
100
AcDbArc
 50
0
 51
13.8376
  0
LINE
  5
76
100
AcDbEntity
  8
Make_Solder_Side
  6
CONTINUOUS
 62
    1
370
   -1
100
AcDbLine
 10
26.312
 20
21.463
 11
26.312
 21
21.105
  0
LINE
  5
77
100
AcDbEntity
  8
Make_Solder_Side
  6
CONTINUOUS
 62
    1
370
   -1
100
AcDbLine
 10
26.312
 20
21.105
 11
58.42
 21
21.105
  0
ARC
  5
78
100
AcDbEntity
  8
Make_Solder_Side
  6
CONTINUOUS
 62
    1
370
   -1
100
AcDbCircle
 10
58.42
 20
20.32
 40
0.785
100
AcDbArc
 50
0
 51
90
  0
LINE
  5
79
100
AcDbEntity
  8
Make_Solder_Side
  6
CONTINUOUS
 62
    1
370
   -1
100
AcDbLine
 10
59.205
 20
20.32
 11
59.205
 21
15.24
  0
ARC
  5
7A
100
AcDbEntity
  8
Make_Solder_Side
  6
CONTINUOUS
 62
    1
370
   -1
100
AcDbCircle
 10
58.42
 20
15.24
 40
0.785
100
AcDbArc
 50
321.34
 51
0
  0
LINE
  5
7B
100
AcDbEntity
  8
Make_Solder_Side
  6
CONTINUOUS
 62
    1
370
   -1
100
AcDbLine
 10
59.033
 20
14.7496
 11
55.5603
 21
10.4087
  0
ARC
  5
7C
100
AcDbEntity
  8
Make_Solder_Side
  6
CONTINUOUS
 62
    1
370
   -1
100
AcDbCircle
 10
53.34
 20
8.890000000000001
 40
2.69
100
AcDbArc
 50
180
 51
34.3731
  0
ARC
  5
7D
100
AcDbEntity
  8
Make_Solder_Side
  6
CONTINUOUS
 62
    1
370
   -1
100
AcDbCircle
 10
53.34
 20
8.890000000000001
 40
2.69
100
AcDbArc
 50
68.30719999999999
 51
180
  0
LINE
  5
7E
100
AcDbEntity
  8
Make_Solder_Side
  6
CONTINUOUS
 62
    1
370
   -1
100
AcDbLine
 10
54.3343
 20
11.3895
 11
57.635
 21
15.5154
  0
LINE
  5
7F
100
AcDbEntity
  8
Make_Solder_Side
  6
CONTINUOUS
 62
    1
370
   -1
100
AcDbLine
 10
57.635
 20
15.5154
 11
57.635
 21
19.535
  0
LINE
  5
80
100
AcDbEntity
  8
Make_Solder_Side
  6
CONTINUOUS
 62
    1
370
   -1
100
AcDbLine
 10
57.635
 20
19.535
 11
26.312
 21
19.535
  0
LINE
  5
81
100
AcDbEntity
  8
Make_Solder_Side
  6
CONTINUOUS
 62
    1
370
   -1
100
AcDbLine
 10
26.312
 20
19.535
 11
26.312
 21
19.177
  0
ARC
  5
82
100
AcDbEntity
  8
Make_Solder_Side
  6
CONTINUOUS
 62
    1
370
   -1
100
AcDbCircle
 10
25.781
 20
19.177
 40
0.531
100
AcDbArc
 50
346.162
 51
0
  0
ARC
  5
83
100
AcDbEntity
  8
Make_Solder_Side
  6
CONTINUOUS
 62
    1
370
   -1
100
AcDbCircle
 10
25.781
 20
18.923
 40
0.531
100
AcDbArc
 50
0
 51
13.8376
  0
LINE
  5
84
100
AcDbEntity
  8
Make_Solder_Side
  6
CONTINUOUS
 62
    1
370
   -1
100
AcDbLine
 10
26.312
 20
18.923
 11
26.312
 21
16.637
  0
ARC
  5
85
100
AcDbEntity
  8
Make_Solder_Side
  6
CONTINUOUS
 62
    1
370
   -1
100
AcDbCircle
 10
25.781
 20
16.637
 40
0.531
100
AcDbArc
 50
346.162
 51
0
  0
ARC
  5
86
100
AcDbEntity
  8
Make_Solder_Side
  6
CONTINUOUS
 62
    1
370
   -1
100
AcDbCircle
 10
25.781
 20
16.383
 40
0.531
100
AcDbArc
 50
0
 51
13.8376
  0
LINE
  5
87
100
AcDbEntity
  8
Make_Solder_Side
  6
CONTINUOUS
 62
    1
370
   -1
100
AcDbLine
 10
26.312
 20
16.383
 11
26.312
 21
14.097
  0
ARC
  5
88
100
AcDbEntity
  8
Make_Solder_Side
  6
CONTINUOUS
 62
    1
370
   -1
100
AcDbCircle
 10
25.781
 20
14.097
 40
0.531
100
AcDbArc
 50
346.162
 51
0
  0
ARC
  5
89
100
AcDbEntity
  8
Make_Solder_Side
  6
CONTINUOUS
 62
    1
370
   -1
100
AcDbCircle
 10
25.781
 20
13.843
 40
0.531
100
AcDbArc
 50
0
 51
13.8376
  0
LINE
  5
8A
100
AcDbEntity
  8
Make_Solder_Side
  6
CONTINUOUS
 62
    1
370
   -1
100
AcDbLine
 10
26.312
 20
13.843
 11
26.312
 21
11.557
  0
ARC
  5
8B
100
AcDbEntity
  8
Make_Solder_Side
  6
CONTINUOUS
 62
    1
370
   -1
100
AcDbCircle
 10
25.781
 20
11.557
 40
0.531
100
AcDbArc
 50
346.162
 51
0
  0
ARC
  5
8C
100
AcDbEntity
  8
Make_Solder_Side
  6
CONTINUOUS
 62
    1
370
   -1
100
AcDbCircle
 10
25.781
 20
11.303
 40
0.531
100
AcDbArc
 50
0
 51
13.8376
  0
LINE
  5
8D
100
AcDbEntity
  8
Make_Solder_Side
  6
CONTINUOUS
 62
    1
370
   -1
100
AcDbLine
 10
26.312
 20
11.303
 11
26.312
 21
9.016999999999999
  0
ARC
  5
8E
100
AcDbEntity
  8
Make_Solder_Side
  6
CONTINUOUS
 62
    1
370
   -1
100
AcDbCircle
 10
25.781
 20
9.016999999999999
 40
0.531
100
AcDbArc
 50
270
 51
0
  0
LINE
  5
8F
100
AcDbEntity
  8
Make_Solder_Side
  6
CONTINUOUS
 62
    1
370
   -1
100
AcDbLine
 10
25.781
 20
8.486000000000001
 11
25.019
 21
8.486000000000001
  0
ARC
  5
90
100
AcDbEntity
  8
Make_Solder_Side
  6
CONTINUOUS
 62
    1
370
   -1
100
AcDbCircle
 10
25.019
 20
9.016999999999999
 40
0.531
100
AcDbArc
 50
180
 51
270
  0
LINE
  5
91
100
AcDbEntity
  8
Make_Solder_Side
  6
CONTINUOUS
 62
    1
370
   -1
100
AcDbLine
 10
24.488
 20
9.016999999999999
 11
24.488
 21
11.303
  0
ARC
  5
92
100
AcDbEntity
  8
Make_Solder_Side
  6
CONTINUOUS
 62
    1
370
   -1
100
AcDbCircle
 10
25.019
 20
11.303
 40
0.531
100
AcDbArc
 50
166.162
 51
180
  0
ARC
  5
93
100
AcDbEntity
  8
Make_Solder_Side
  6
CONTINUOUS
 62
    1
370
   -1
100
AcDbCircle
 10
25.019
 20
11.557
 40
0.531
100
AcDbArc
 50
180
 51
193.838
  0
LINE
  5
94
100
AcDbEntity
  8
Make_Solder_Side
  6
CONTINUOUS
 62
    1
370
   -1
100
AcDbLine
 10
24.488
 20
11.557
 11
24.488
 21
13.843
  0
ARC
  5
95
100
AcDbEntity
  8
Make_Solder_Side
  6
CONTINUOUS
 62
    1
370
   -1
100
AcDbCircle
 10
25.019
 20
13.843
 40
0.531
100
AcDbArc
 50
166.162
 51
180
  0
ARC
  5
96
100
AcDbEntity
  8
Make_Solder_Side
  6
CONTINUOUS
 62
    1
370
   -1
100
AcDbCircle
 10
25.019
 20
14.097
 40
0.531
100
AcDbArc
 50
180
 51
193.838
  0
LINE
  5
97
100
AcDbEntity
  8
Make_Solder_Side
  6
CONTINUOUS
 62
    1
370
   -1
100
AcDbLine
 10
24.488
 20
14.097
 11
24.488
 21
16.383
  0
ARC
  5
98
100
AcDbEntity
  8
Make_Solder_Side
  6
CONTINUOUS
 62
    1
370
   -1
100
AcDbCircle
 10
25.019
 20
16.383
 40
0.531
100
AcDbArc
 50
166.162
 51
180
  0
ARC
  5
99
100
AcDbEntity
  8
Make_Solder_Side
  6
CONTINUOUS
 62
    1
370
   -1
100
AcDbCircle
 10
25.019
 20
16.637
 40
0.531
100
AcDbArc
 50
180
 51
193.838
  0
LINE
  5
9A
100
AcDbEntity
  8
Make_Solder_Side
  6
CONTINUOUS
 62
    1
370
   -1
100
AcDbLine
 10
50.7638
 20
16.014
 11
49.2923
 21
16.995
  0
LINE
  5
9B
100
AcDbEntity
  8
Make_Solder_Side
  6
CONTINUOUS
 62
    1
370
   -1
100
AcDbLine
 10
49.2923
 20
16.995
 11
37.615
 21
16.995
  0
LINE
  5
9C
100
AcDbEntity
  8
Make_Solder_Side
  6
CONTINUOUS
 62
    1
370
   -1
100
AcDbLine
 10
37.615
 20
16.995
 11
37.615
 21
6.35
  0
ARC
  5
9D
100
AcDbEntity
  8
Make_Solder_Side
  6
CONTINUOUS
 62
    1
370
   -1
100
AcDbCircle
 10
36.83
 20
6.35
 40
0.785
100
AcDbArc
 50
270
 51
0
  0
LINE
  5
9E
100
AcDbEntity
  8
Make_Solder_Side
  6
CONTINUOUS
 62
    1
370
   -1
100
AcDbLine
 10
36.83
 20
5.565
 11
22.86
 21
5.565
  0
ARC
  5
9F
100
AcDbEntity
  8
Make_Solder_Side
  6
CONTINUOUS
 62
    1
370
   -1
100
AcDbCircle
 10
22.86
 20
6.35
 40
0.785
100
AcDbArc
 50
180
 51
270
  0
LINE
  5
A0
100
AcDbEntity
  8
Make_Solder_Side
  6
CONTINUOUS
 62
    1
370
   -1
100
AcDbLine
 10
22.075
 20
6.35
 11
22.075
 21
8.672409999999999
  0
ARC
  5
A1
100
AcDbEntity
  8
Make_Solder_Side
  6
CONTINUOUS
 62
    1
370
   -1
100
AcDbCircle
 10
22.479
 20
9.016999999999999
 40
0.531
100
AcDbArc
 50
180
 51
220.463
  0
LINE
  5
A2
100
AcDbEntity
  8
Make_Solder_Side
  6
CONTINUOUS
 62
    1
370
   -1
100
AcDbLine
 10
21.948
 20
9.016999999999999
 11
21.948
 21
11.303
  0
ARC
  5
A3
100
AcDbEntity
  8
Make_Solder_Side
  6
CONTINUOUS
 62
    1
370
   -1
100
AcDbCircle
 10
22.479
 20
11.303
 40
0.531
100
AcDbArc
 50
166.162
 51
180
  0
ARC
  5
A4
100
AcDbEntity
  8
Make_Solder_Side
  6
CONTINUOUS
 62
    1
370
   -1
100
AcDbCircle
 10
22.479
 20
11.557
 40
0.531
100
AcDbArc
 50
180
 51
193.838
  0
LINE
  5
A5
100
AcDbEntity
  8
Make_Solder_Side
  6
CONTINUOUS
 62
    1
370
   -1
100
AcDbLine
 10
21.948
 20
11.557
 11
21.948
 21
13.843
  0
ARC
  5
A6
100
AcDbEntity
  8
Make_Solder_Side
  6
CONTINUOUS
 62
    1
370
   -1
100
AcDbCircle
 10
22.479
 20
13.843
 40
0.531
100
AcDbArc
 50
166.162
 51
180
  0
ARC
  5
A7
100
AcDbEntity
  8
Make_Solder_Side
  6
CONTINUOUS
 62
    1
370
   -1
100
AcDbCircle
 10
22.479
 20
14.097
 40
0.531
100
AcDbArc
 50
180
 51
193.838
  0
LINE
  5
A8
100
AcDbEntity
  8
Make_Solder_Side
  6
CONTINUOUS
 62
    1
370
   -1
100
AcDbLine
 10
21.948
 20
14.097
 11
21.948
 21
16.383
  0
ARC
  5
A9
100
AcDbEntity
  8
Make_Solder_Side
  6
CONTINUOUS
 62
    1
370
   -1
100
AcDbCircle
 10
22.479
 20
16.383
 40
0.531
100
AcDbArc
 50
166.162
 51
180
  0
ARC
  5
AA
100
AcDbEntity
  8
Make_Solder_Side
  6
CONTINUOUS
 62
    1
370
   -1
100
AcDbCircle
 10
22.479
 20
16.637
 40
0.531
100
AcDbArc
 50
180
 51
193.838
  0
LINE
  5
AB
100
AcDbEntity
  8
Make_Solder_Side
  6
CONTINUOUS
 62
    1
370
   -1
100
AcDbLine
 10
21.948
 20
16.637
 11
21.948
 21
18.923
  0
ARC
  5
AC
100
AcDbEntity
  8
Make_Solder_Side
  6
CONTINUOUS
 62
    1
370
   -1
100
AcDbCircle
 10
22.479
 20
18.923
 40
0.531
100
AcDbArc
 50
166.162
 51
180
  0
ARC
  5
AD
100
AcDbEntity
  8
Make_Solder_Side
  6
CONTINUOUS
 62
    1
370
   -1
100
AcDbCircle
 10
22.479
 20
19.177
 40
0.531
100
AcDbArc
 50
180
 51
193.838
  0
LINE
  5
AE
100
AcDbEntity
  8
Make_Solder_Side
  6
CONTINUOUS
 62
    1
370
   -1
100
AcDbLine
 10
21.948
 20
19.177
 11
21.948
 21
21.463
  0
ARC
  5
AF
100
AcDbEntity
  8
Make_Solder_Side
  6
CONTINUOUS
 62
    1
370
   -1
100
AcDbCircle
 10
22.479
 20
21.463
 40
0.531
100
AcDbArc
 50
166.162
 51
180
  0
ARC
  5
B0
100
AcDbEntity
  8
Make_Solder_Side
  6
CONTINUOUS
 62
    1
370
   -1
100
AcDbCircle
 10
22.479
 20
21.717
 40
0.531
100
AcDbArc
 50
180
 51
193.838
  0
LINE
  5
B1
100
AcDbEntity
  8
Make_Solder_Side
  6
CONTINUOUS
 62
    1
370
   -1
100
AcDbLine
 10
21.948
 20
21.717
 11
21.948
 21
24.003
  0
ARC
  5
B2
100
AcDbEntity
  8
Make_Solder_Side
  6
CONTINUOUS
 62
    1
370
   -1
100
AcDbCircle
 10
22.479
 20
24.003
 40
0.531
100
AcDbArc
 50
139.537
 51
180
  0
LINE
  5
B3
100
AcDbEntity
  8
Make_Solder_Side
  6
CONTINUOUS
 62
    1
370
   -1
100
AcDbLine
 10
22.075
 20
24.3476
 11
22.075
 21
25.1824
  0
ARC
  5
B4
100
AcDbEntity
  8
Make_Solder_Side
  6
CONTINUOUS
 62
    1
370
   -1
100
AcDbCircle
 10
22.479
 20
25.527
 40
0.531
100
AcDbArc
 50
180
 51
220.463
  0
LINE
  5
B5
100
AcDbEntity
  8
Make_Solder_Side
  6
CONTINUOUS
 62
    1
370
   -1
100
AcDbLine
 10
21.948
 20
25.527
 11
21.948
 21
27.813
  0
ARC
  5
B6
100
AcDbEntity
  8
Make_Solder_Side
  6
CONTINUOUS
 62
    1
370
   -1
100
AcDbCircle
 10
22.479
 20
27.813
 40
0.531
100
AcDbArc
 50
166.162
 51
180
  0
ARC
  5
B7
100
AcDbEntity
  8
Make_Solder_Side
  6
CONTINUOUS
 62
    1
370
   -1
100
AcDbCircle
 10
22.479
 20
28.067
 40
0.531
100
AcDbArc
 50
180
 51
193.838
  0
LINE
  5
B8
100
AcDbEntity
  8
Make_Solder_Side
  6
CONTINUOUS
 62
    1
370
   -1
100
AcDbLine
 10
21.948
 20
28.067
 11
21.948
 21
30.353
  0
ARC
  5
B9
100
AcDbEntity
  8
Make_Solder_Side
  6
CONTINUOUS
 62
    1
370
   -1
100
AcDbCircle
 10
22.479
 20
30.353
 40
0.531
100
AcDbArc
 50
139.537
 51
180
  0
LINE
  5
BA
100
AcDbEntity
  8
Make_Solder_Side
  6
CONTINUOUS
 62
    1
370
   -1
100
AcDbLine
 10
22.075
 20
30.6976
 11
22.075
 21
31.75
  0
ARC
  5
BB
100
AcDbEntity
  8
Make_Solder_Side
  6
CONTINUOUS
 62
    1
370
   -1
100
AcDbCircle
 10
22.86
 20
31.75
 40
0.785
100
AcDbArc
 50
90
 51
180
  0
LINE
  5
BC
100
AcDbEntity
  8
Make_Solder_Side
  6
CONTINUOUS
 62
    1
370
   -1
100
AcDbLine
 10
22.86
 20
32.535
 11
35.918
 21
32.535
  0
LINE
  5
BD
100
AcDbEntity
  8
Make_Solder_Side
  6
CONTINUOUS
 62
    1
370
   -1
100
AcDbLine
 10
35.918
 20
32.535
 11
35.918
 21
32.893
  0
ARC
  5
BE
100
AcDbEntity
  8
Make_Solder_Side
  6
CONTINUOUS
 62
    1
370
   -1
100
AcDbCircle
 10
36.449
 20
32.893
 40
0.531
100
AcDbArc
 50
90
 51
180
  0
LINE
  5
BF
100
AcDbEntity
  8
Make_Solder_Side
  6
CONTINUOUS
 62
    1
370
   -1
100
AcDbLine
 10
36.449
 20
33.424
 11
37.211
 21
33.424
  0
ARC
  5
C0
100
AcDbEntity
  8
Make_Solder_Side
  6
CONTINUOUS
 62
    1
370
   -1
100
AcDbCircle
 10
37.211
 20
32.893
 40
0.531
100
AcDbArc
 50
0
 51
90
  0
LINE
  5
C1
100
AcDbEntity
  8
Make_Solder_Side
  6
CONTINUOUS
 62
    1
370
   -1
100
AcDbLine
 10
37.742
 20
32.893
 11
37.742
 21
30.607
  0
ARC
  5
C2
100
AcDbEntity
  8
Make_Solder_Side
  6
CONTINUOUS
 62
    1
370
   -1
100
AcDbCircle
 10
37.211
 20
30.607
 40
0.531
100
AcDbArc
 50
270
 51
0
  0
LINE
  5
C3
100
AcDbEntity
  8
Make_Solder_Side
  6
CONTINUOUS
 62
    1
370
   -1
100
AcDbLine
 10
37.211
 20
30.076
 11
36.449
 21
30.076
  0
ARC
  5
C4
100
AcDbEntity
  8
Make_Solder_Side
  6
CONTINUOUS
 62
    1
370
   -1
100
AcDbCircle
 10
36.449
 20
30.607
 40
0.531
100
AcDbArc
 50
180
 51
270
  0
LINE
  5
C5
100
AcDbEntity
  8
Make_Solder_Side
  6
CONTINUOUS
 62
    1
370
   -1
100
AcDbLine
 10
35.918
 20
30.607
 11
35.918
 21
30.965
  0
LINE
  5
C6
100
AcDbEntity
  8
Make_Solder_Side
  6
CONTINUOUS
 62
    1
370
   -1
100
AcDbLine
 10
35.918
 20
30.965
 11
23.645
 21
30.965
  0
LINE
  5
C7
100
AcDbEntity
  8
Make_Solder_Side
  6
CONTINUOUS
 62
    1
370
   -1
100
AcDbLine
 10
23.645
 20
30.965
 11
23.645
 21
30.6976
  0
ARC
  5
C8
100
AcDbEntity
  8
Make_Solder_Side
  6
CONTINUOUS
 62
    1
370
   -1
100
AcDbCircle
 10
23.241
 20
30.353
 40
0.531
100
AcDbArc
 50
0
 51
40.4627
  0
LINE
  5
C9
100
AcDbEntity
  8
Make_Solder_Side
  6
CONTINUOUS
 62
    1
370
   -1
100
AcDbLine
 10
23.772
 20
30.353
 11
23.772
 21
28.067
  0
ARC
  5
CA
100
AcDbEntity
  8
Make_Solder_Side
  6
CONTINUOUS
 62
    1
370
   -1
100
AcDbCircle
 10
23.241
 20
28.067
 40
0.531
100
AcDbArc
 50
346.162
 51
0
  0
ARC
  5
CB
100
AcDbEntity
  8
Make_Solder_Side
  6
CONTINUOUS
 62
    1
370
   -1
100
AcDbCircle
 10
23.241
 20
27.813
 40
0.531
100
AcDbArc
 50
0
 51
13.8376
  0
LINE
  5
CC
100
AcDbEntity
  8
Make_Solder_Side
  6
CONTINUOUS
 62
    1
370
   -1
100
AcDbLine
 10
23.772
 20
27.813
 11
23.772
 21
25.527
  0
ARC
  5
CD
100
AcDbEntity
  8
Make_Solder_Side
  6
CONTINUOUS
 62
    1
370
   -1
100
AcDbCircle
 10
23.241
 20
25.527
 40
0.531
100
AcDbArc
 50
319.537
 51
0
  0
LINE
  5
CE
100
AcDbEntity
  8
Make_Solder_Side
  6
CONTINUOUS
 62
    1
370
   -1
100
AcDbLine
 10
23.645
 20
25.1824
 11
23.645
 21
24.3476
  0
ARC
  5
CF
100
AcDbEntity
  8
Make_Solder_Side
  6
CONTINUOUS
 62
    1
370
   -1
100
AcDbCircle
 10
23.241
 20
24.003
 40
0.531
100
AcDbArc
 50
0
 51
40.4627
  0
LINE
  5
D0
100
AcDbEntity
  8
Make_Solder_Side
  6
CONTINUOUS
 62
    1
370
   -1
100
AcDbLine
 10
23.772
 20
24.003
 11
23.772
 21
21.717
  0
ARC
  5
D1
100
AcDbEntity
  8
Make_Solder_Side
  6
CONTINUOUS
 62
    1
370
   -1
100
AcDbCircle
 10
23.241
 20
21.717
 40
0.531
100
AcDbArc
 50
346.162
 51
0
  0
ARC
  5
D2
100
AcDbEntity
  8
Make_Solder_Side
  6
CONTINUOUS
 62
    1
370
   -1
100
AcDbCircle
 10
23.241
 20
21.463
 40
0.531
100
AcDbArc
 50
0
 51
13.8376
  0
LINE
  5
D3
100
AcDbEntity
  8
Make_Solder_Side
  6
CONTINUOUS
 62
    1
370
   -1
100
AcDbLine
 10
23.772
 20
21.463
 11
23.772
 21
19.177
  0
ARC
  5
D4
100
AcDbEntity
  8
Make_Solder_Side
  6
CONTINUOUS
 62
    1
370
   -1
100
AcDbCircle
 10
23.241
 20
19.177
 40
0.531
100
AcDbArc
 50
346.162
 51
0
  0
ARC
  5
D5
100
AcDbEntity
  8
Make_Solder_Side
  6
CONTINUOUS
 62
    1
370
   -1
100
AcDbCircle
 10
23.241
 20
18.923
 40
0.531
100
AcDbArc
 50
0
 51
13.8376
  0
LINE
  5
D6
100
AcDbEntity
  8
Make_Solder_Side
  6
CONTINUOUS
 62
    1
370
   -1
100
AcDbLine
 10
23.772
 20
18.923
 11
23.772
 21
16.637
  0
ARC
  5
D7
100
AcDbEntity
  8
Make_Solder_Side
  6
CONTINUOUS
 62
    1
370
   -1
100
AcDbCircle
 10
23.241
 20
16.637
 40
0.531
100
AcDbArc
 50
346.162
 51
0
  0
ARC
  5
D8
100
AcDbEntity
  8
Make_Solder_Side
  6
CONTINUOUS
 62
    1
370
   -1
100
AcDbCircle
 10
23.241
 20
16.383
 40
0.531
100
AcDbArc
 50
0
 51
13.8376
  0
LINE
  5
D9
100
AcDbEntity
  8
Make_Solder_Side
  6
CONTINUOUS
 62
    1
370
   -1
100
AcDbLine
 10
23.772
 20
16.383
 11
23.772
 21
14.097
  0
ARC
  5
DA
100
AcDbEntity
  8
Make_Solder_Side
  6
CONTINUOUS
 62
    1
370
   -1
100
AcDbCircle
 10
23.241
 20
14.097
 40
0.531
100
AcDbArc
 50
346.162
 51
0
  0
ARC
  5
DB
100
AcDbEntity
  8
Make_Solder_Side
  6
CONTINUOUS
 62
    1
370
   -1
100
AcDbCircle
 10
23.241
 20
13.843
 40
0.531
100
AcDbArc
 50
0
 51
13.8376
  0
LINE
  5
DC
100
AcDbEntity
  8
Make_Solder_Side
  6
CONTINUOUS
 62
    1
370
   -1
100
AcDbLine
 10
23.772
 20
13.843
 11
23.772
 21
11.557
  0
ARC
  5
DD
100
AcDbEntity
  8
Make_Solder_Side
  6
CONTINUOUS
 62
    1
370
   -1
100
AcDbCircle
 10
23.241
 20
11.557
 40
0.531
100
AcDbArc
 50
346.162
 51
0
  0
ARC
  5
DE
100
AcDbEntity
  8
Make_Solder_Side
  6
CONTINUOUS
 62
    1
370
   -1
100
AcDbCircle
 10
23.241
 20
11.303
 40
0.531
100
AcDbArc
 50
0
 51
13.8376
  0
LINE
  5
DF
100
AcDbEntity
  8
Make_Solder_Side
  6
CONTINUOUS
 62
    1
370
   -1
100
AcDbLine
 10
23.772
 20
11.303
 11
23.772
 21
9.016999999999999
  0
ARC
  5
E0
100
AcDbEntity
  8
Make_Solder_Side
  6
CONTINUOUS
 62
    1
370
   -1
100
AcDbCircle
 10
23.241
 20
9.016999999999999
 40
0.531
100
AcDbArc
 50
319.537
 51
0
  0
LINE
  5
E1
100
AcDbEntity
  8
Make_Solder_Side
  6
CONTINUOUS
 62
    1
370
   -1
100
AcDbLine
 10
23.645
 20
8.672409999999999
 11
23.645
 21
7.135
  0
LINE
  5
E2
100
AcDbEntity
  8
Make_Solder_Side
  6
CONTINUOUS
 62
    1
370
   -1
100
AcDbLine
 10
23.645
 20
7.135
 11
36.045
 21
7.135
  0
LINE
  5
E3
100
AcDbEntity
  8
Make_Solder_Side
  6
CONTINUOUS
 62
    1
370
   -1
100
AcDbLine
 10
36.045
 20
7.135
 11
36.045
 21
17.78
  0
ARC
  5
E4
100
AcDbEntity
  8
Make_Solder_Side
  6
CONTINUOUS
 62
    1
370
   -1
100
AcDbCircle
 10
36.83
 20
17.78
 40
0.785
100
AcDbArc
 50
90
 51
180
  0
LINE
  5
E5
100
AcDbEntity
  8
Make_Solder_Side
  6
CONTINUOUS
 62
    1
370
   -1
100
AcDbLine
 10
36.83
 20
18.565
 11
49.53
 21
18.565
  0
ARC
  5
E6
100
AcDbEntity
  8
Make_Solder_Side
  6
CONTINUOUS
 62
    1
370
   -1
100
AcDbCircle
 10
49.53
 20
17.78
 40
0.785
100
AcDbArc
 50
56.3099
 51
90
  0
LINE
  5
E7
100
AcDbEntity
  8
Make_Solder_Side
  6
CONTINUOUS
 62
    1
370
   -1
100
AcDbLine
 10
49.9654
 20
18.4332
 11
51.6346
 21
17.3204
  0
ARC
  5
E8
100
AcDbEntity
  8
Make_Solder_Side
  6
CONTINUOUS
 62
    1
370
   -1
100
AcDbCircle
 10
53.34
 20
15.24
 40
2.69
100
AcDbArc
 50
180
 51
129.343
  0
ARC
  5
E9
100
AcDbEntity
  8
Make_Solder_Side
  6
CONTINUOUS
 62
    1
370
   -1
100
AcDbCircle
 10
53.34
 20
15.24
 40
2.69
100
AcDbArc
 50
163.277
 51
180
  0
CIRCLE
  5
EA
100
AcDbEntity
  8
Make_Solder_Side
  6
CONTINUOUS
 62
    1
370
   -1
100
AcDbCircle
 10
48.26
 20
12.7
 40
2.69
  0
LINE
  5
EB
100
AcDbEntity
  8
Make_Solder_Side
  6
CONTINUOUS
 62
    1
370
   -1
100
AcDbLine
 10
36.345
 20
44.5367
 11
36.345
 21
38.5201
  0
LINE
  5
EC
100
AcDbEntity
  8
Make_Solder_Side
  6
CONTINUOUS
 62
    1
370
   -1
100
AcDbLine
 10
36.345
 20
38.5201
 11
39.8054
 21
36.2132
  0
ARC
  5
ED
100
AcDbEntity
  8
Make_Solder_Side
  6
CONTINUOUS
 62
    1
370
   -1
100
AcDbCircle
 10
39.37
 20
35.56
 40
0.785
100
AcDbArc
 50
0
 51
56.3099
  0
LINE
  5
EE
100
AcDbEntity
  8
Make_Solder_Side
  6
CONTINUOUS
 62
    1
370
   -1
100
AcDbLine
 10
40.155
 20
35.56
 11
40.155
 21
33.2376
  0
ARC
  5
EF
100
AcDbEntity
  8
Make_Solder_Side
  6
CONTINUOUS
 62
    1
370
   -1
100
AcDbCircle
 10
39.751
 20
32.893
 40
0.531
100
AcDbArc
 50
0
 51
40.4627
  0
LINE
  5
F0
100
AcDbEntity
  8
Make_Solder_Side
  6
CONTINUOUS
 62
    1
370
   -1
100
AcDbLine
 10
40.282
 20
32.893
 11
40.282
 21
31.265
  0
LINE
  5
F1
100
AcDbEntity
  8
Make_Solder_Side
  6
CONTINUOUS
 62
    1
370
   -1
100
AcDbLine
 10
40.282
 20
31.265
 11
59.4724
 21
31.265
  0
ARC
  5
F2
100
AcDbEntity
  8
Make_Solder_Side
  6
CONTINUOUS
 62
    1
370
   -1
100
AcDbCircle
 10
59.817
 20
30.861
 40
0.531
100
AcDbArc
 50
90
 51
130.463
  0
LINE
  5
F3
100
AcDbEntity
  8
Make_Solder_Side
  6
CONTINUOUS
 62
    1
370
   -1
100
AcDbLine
 10
59.817
 20
31.392
 11
62.103
 21
31.392
  0
ARC
  5
F4
100
AcDbEntity
  8
Make_Solder_Side
  6
CONTINUOUS
 62
    1
370
   -1
100
AcDbCircle
 10
62.103
 20
30.861
 40
0.531
100
AcDbArc
 50
0
 51
90
  0
LINE
  5
F5
100
AcDbEntity
  8
Make_Solder_Side
  6
CONTINUOUS
 62
    1
370
   -1
100
AcDbLine
 10
62.634
 20
30.861
 11
62.634
 21
30.099
  0
ARC
  5
F6
100
AcDbEntity
  8
Make_Solder_Side
  6
CONTINUOUS
 62
    1
370
   -1
100
AcDbCircle
 10
62.103
 20
30.099
 40
0.531
100
AcDbArc
 50
270
 51
0
  0
LINE
  5
F7
100
AcDbEntity
  8
Make_Solder_Side
  6
CONTINUOUS
 62
    1
370
   -1
100
AcDbLine
 10
62.103
 20
29.568
 11
59.817
 21
29.568
  0
ARC
  5
F8
100
AcDbEntity
  8
Make_Solder_Side
  6
CONTINUOUS
 62
    1
370
   -1
100
AcDbCircle
 10
59.817
 20
30.099
 40
0.531
100
AcDbArc
 50
229.537
 51
270
  0
LINE
  5
F9
100
AcDbEntity
  8
Make_Solder_Side
  6
CONTINUOUS
 62
    1
370
   -1
100
AcDbLine
 10
59.4724
 20
29.695
 11
39.37
 21
29.695
  0
ARC
  5
FA
100
AcDbEntity
  8
Make_Solder_Side
  6
CONTINUOUS
 62
    1
370
   -1
100
AcDbCircle
 10
39.37
 20
30.48
 40
0.785
100
AcDbArc
 50
199.758
 51
270
  0
ARC
  5
FB
100
AcDbEntity
  8
Make_Solder_Side
  6
CONTINUOUS
 62
    1
370
   -1
100
AcDbCircle
 10
38.989
 20
30.607
 40
0.531
100
AcDbArc
 50
180
 51
227.639
  0
LINE
  5
FC
100
AcDbEntity
  8
Make_Solder_Side
  6
CONTINUOUS
 62
    1
370
   -1
100
AcDbLine
 10
38.458
 20
30.607
 11
38.458
 21
32.893
  0
ARC
  5
FD
100
AcDbEntity
  8
Make_Solder_Side
  6
CONTINUOUS
 62
    1
370
   -1
100
AcDbCircle
 10
38.989
 20
32.893
 40
0.531
100
AcDbArc
 50
139.537
 51
180
  0
LINE
  5
FE
100
AcDbEntity
  8
Make_Solder_Side
  6
CONTINUOUS
 62
    1
370
   -1
100
AcDbLine
 10
38.585
 20
33.2376
 11
38.585
 21
35.1399
  0
LINE
  5
FF
100
AcDbEntity
  8
Make_Solder_Side
  6
CONTINUOUS
 62
    1
370
   -1
100
AcDbLine
 10
38.585
 20
35.1399
 11
35.1246
 21
37.4468
  0
ARC
  5
100
100
AcDbEntity
  8
Make_Solder_Side
  6
CONTINUOUS
 62
    1
370
   -1
100
AcDbCircle
 10
35.56
 20
38.1
 40
0.785
100
AcDbArc
 50
180
 51
236.31
  0
LINE
  5
101
100
AcDbEntity
  8
Make_Solder_Side
  6
CONTINUOUS
 62
    1
370
   -1
100
AcDbLine
 10
34.775
 20
38.1
 11
34.775
 21
44.5367
  0
ARC
  5
102
100
AcDbEntity
  8
Make_Solder_Side
  6
CONTINUOUS
 62
    1
370
   -1
100
AcDbCircle
 10
35.56
 20
45.72
 40
1.42
100
AcDbArc
 50
180
 51
236.44
  0
ARC
  5
103
100
AcDbEntity
  8
Make_Solder_Side
  6
CONTINUOUS
 62
    1
370
   -1
100
AcDbCircle
 10
35.56
 20
45.72
 40
1.42
100
AcDbArc
 50
303.56
 51
180
  0
LINE
  5
104
100
AcDbEntity
  8
Make_Solder_Side
  6
CONTINUOUS
 62
    1
370
   -1
100
AcDbLine
 10
62.103
 20
34.648
 11
59.817
 21
34.648
  0
ARC
  5
105
100
AcDbEntity
  8
Make_Solder_Side
  6
CONTINUOUS
 62
    1
370
   -1
100
AcDbCircle
 10
59.817
 20
35.179
 40
0.531
100
AcDbArc
 50
180
 51
270
  0
LINE
  5
106
100
AcDbEntity
  8
Make_Solder_Side
  6
CONTINUOUS
 62
    1
370
   -1
100
AcDbLine
 10
59.286
 20
35.179
 11
59.286
 21
35.941
  0
ARC
  5
107
100
AcDbEntity
  8
Make_Solder_Side
  6
CONTINUOUS
 62
    1
370
   -1
100
AcDbCircle
 10
59.817
 20
35.941
 40
0.531
100
AcDbArc
 50
90
 51
180
  0
LINE
  5
108
100
AcDbEntity
  8
Make_Solder_Side
  6
CONTINUOUS
 62
    1
370
   -1
100
AcDbLine
 10
59.817
 20
36.472
 11
62.103
 21
36.472
  0
ARC
  5
109
100
AcDbEntity
  8
Make_Solder_Side
  6
CONTINUOUS
 62
    1
370
   -1
100
AcDbCircle
 10
62.103
 20
35.941
 40
0.531
100
AcDbArc
 50
0
 51
90
  0
LINE
  5
10A
100
AcDbEntity
  8
Make_Solder_Side
  6
CONTINUOUS
 62
    1
370
   -1
100
AcDbLine
 10
62.634
 20
35.941
 11
62.634
 21
35.179
  0
ARC
  5
10B
100
AcDbEntity
  8
Make_Solder_Side
  6
CONTINUOUS
 62
    1
370
   -1
100
AcDbCircle
 10
62.103
 20
35.179
 40
0.531
100
AcDbArc
 50
270
 51
0
  0
LINE
  5
10C
100
AcDbEntity
  8
Make_Solder_Side
  6
CONTINUOUS
 62
    1
370
   -1
100
AcDbLine
 10
62.103
 20
32.108
 11
59.817
 21
32.108
  0
ARC
  5
10D
100
AcDbEntity
  8
Make_Solder_Side
  6
CONTINUOUS
 62
    1
370
   -1
100
AcDbCircle
 10
59.817
 20
32.639
 40
0.531
100
AcDbArc
 50
180
 51
270
  0
LINE
  5
10E
100
AcDbEntity
  8
Make_Solder_Side
  6
CONTINUOUS
 62
    1
370
   -1
100
AcDbLine
 10
59.286
 20
32.639
 11
59.286
 21
33.401
  0
ARC
  5
10F
100
AcDbEntity
  8
Make_Solder_Side
  6
CONTINUOUS
 62
    1
370
   -1
100
AcDbCircle
 10
59.817
 20
33.401
 40
0.531
100
AcDbArc
 50
90
 51
180
  0
LINE
  5
110
100
AcDbEntity
  8
Make_Solder_Side
  6
CONTINUOUS
 62
    1
370
   -1
100
AcDbLine
 10
59.817
 20
33.932
 11
62.103
 21
33.932
  0
ARC
  5
111
100
AcDbEntity
  8
Make_Solder_Side
  6
CONTINUOUS
 62
    1
370
   -1
100
AcDbCircle
 10
62.103
 20
33.401
 40
0.531
100
AcDbArc
 50
0
 51
90
  0
LINE
  5
112
100
AcDbEntity
  8
Make_Solder_Side
  6
CONTINUOUS
 62
    1
370
   -1
100
AcDbLine
 10
62.634
 20
33.401
 11
62.634
 21
32.639
  0
ARC
  5
113
100
AcDbEntity
  8
Make_Solder_Side
  6
CONTINUOUS
 62
    1
370
   -1
100
AcDbCircle
 10
62.103
 20
32.639
 40
0.531
100
AcDbArc
 50
270
 51
0
  0
LINE
  5
114
100
AcDbEntity
  8
Make_Solder_Side
  6
CONTINUOUS
 62
    1
370
   -1
100
AcDbLine
 10
62.103
 20
27.028
 11
59.817
 21
27.028
  0
ARC
  5
115
100
AcDbEntity
  8
Make_Solder_Side
  6
CONTINUOUS
 62
    1
370
   -1
100
AcDbCircle
 10
59.817
 20
27.559
 40
0.531
100
AcDbArc
 50
180
 51
270
  0
LINE
  5
116
100
AcDbEntity
  8
Make_Solder_Side
  6
CONTINUOUS
 62
    1
370
   -1
100
AcDbLine
 10
59.286
 20
27.559
 11
59.286
 21
28.321
  0
ARC
  5
117
100
AcDbEntity
  8
Make_Solder_Side
  6
CONTINUOUS
 62
    1
370
   -1
100
AcDbCircle
 10
59.817
 20
28.321
 40
0.531
100
AcDbArc
 50
90
 51
180
  0
LINE
  5
118
100
AcDbEntity
  8
Make_Solder_Side
  6
CONTINUOUS
 62
    1
370
   -1
100
AcDbLine
 10
59.817
 20
28.852
 11
62.103
 21
28.852
  0
ARC
  5
119
100
AcDbEntity
  8
Make_Solder_Side
  6
CONTINUOUS
 62
    1
370
   -1
100
AcDbCircle
 10
62.103
 20
28.321
 40
0.531
100
AcDbArc
 50
0
 51
90
  0
LINE
  5
11A
100
AcDbEntity
  8
Make_Solder_Side
  6
CONTINUOUS
 62
    1
370
   -1
100
AcDbLine
 10
62.634
 20
28.321
 11
62.634
 21
27.559
  0
ARC
  5
11B
100
AcDbEntity
  8
Make_Solder_Side
  6
CONTINUOUS
 62
    1
370
   -1
100
AcDbCircle
 10
62.103
 20
27.559
 40
0.531
100
AcDbArc
 50
270
 51
0
  0
LINE
  5
11C
100
AcDbEntity
  8
Make_Solder_Side
  6
CONTINUOUS
 62
    1
370
   -1
100
AcDbLine
 10
62.103
 20
21.948
 11
59.817
 21
21.948
  0
ARC
  5
11D
100
AcDbEntity
  8
Make_Solder_Side
  6
CONTINUOUS
 62
    1
370
   -1
100
AcDbCircle
 10
59.817
 20
22.479
 40
0.531
100
AcDbArc
 50
180
 51
270
  0
LINE
  5
11E
100
AcDbEntity
  8
Make_Solder_Side
  6
CONTINUOUS
 62
    1
370
   -1
100
AcDbLine
 10
59.286
 20
22.479
 11
59.286
 21
23.241
  0
ARC
  5
11F
100
AcDbEntity
  8
Make_Solder_Side
  6
CONTINUOUS
 62
    1
370
   -1
100
AcDbCircle
 10
59.817
 20
23.241
 40
0.531
100
AcDbArc
 50
90
 51
180
  0
LINE
  5
120
100
AcDbEntity
  8
Make_Solder_Side
  6
CONTINUOUS
 62
    1
370
   -1
100
AcDbLine
 10
59.817
 20
23.772
 11
62.103
 21
23.772
  0
ARC
  5
121
100
AcDbEntity
  8
Make_Solder_Side
  6
CONTINUOUS
 62
    1
370
   -1
100
AcDbCircle
 10
62.103
 20
23.241
 40
0.531
100
AcDbArc
 50
0
 51
90
  0
LINE
  5
122
100
AcDbEntity
  8
Make_Solder_Side
  6
CONTINUOUS
 62
    1
370
   -1
100
AcDbLine
 10
62.634
 20
23.241
 11
62.634
 21
22.479
  0
ARC
  5
123
100
AcDbEntity
  8
Make_Solder_Side
  6
CONTINUOUS
 62
    1
370
   -1
100
AcDbCircle
 10
62.103
 20
22.479
 40
0.531
100
AcDbArc
 50
270
 51
0
  0
LINE
  5
124
100
AcDbEntity
  8
Make_Solder_Side
  6
CONTINUOUS
 62
    1
370
   -1
100
AcDbLine
 10
11.2124
 20
38.585
 11
8.890000000000001
 21
38.585
  0
ARC
  5
125
100
AcDbEntity
  8
Make_Solder_Side
  6
CONTINUOUS
 62
    1
370
   -1
100
AcDbCircle
 10
8.890000000000001
 20
39.37
 40
0.785
100
AcDbArc
 50
180
 51
270
  0
LINE
  5
126
100
AcDbEntity
  8
Make_Solder_Side
  6
CONTINUOUS
 62
    1
370
   -1
100
AcDbLine
 10
8.105
 20
39.37
 11
8.105
 21
54.61
  0
ARC
  5
127
100
AcDbEntity
  8
Make_Solder_Side
  6
CONTINUOUS
 62
    1
370
   -1
100
AcDbCircle
 10
8.890000000000001
 20
54.61
 40
0.785
100
AcDbArc
 50
90
 51
180
  0
LINE
  5
128
100
AcDbEntity
  8
Make_Solder_Side
  6
CONTINUOUS
 62
    1
370
   -1
100
AcDbLine
 10
8.890000000000001
 20
55.395
 11
29.21
 21
55.395
  0
ARC
  5
129
100
AcDbEntity
  8
Make_Solder_Side
  6
CONTINUOUS
 62
    1
370
   -1
100
AcDbCircle
 10
29.21
 20
54.61
 40
0.785
100
AcDbArc
 50
0
 51
90
  0
LINE
  5
12A
100
AcDbEntity
  8
Make_Solder_Side
  6
CONTINUOUS
 62
    1
370
   -1
100
AcDbLine
 10
29.995
 20
54.61
 11
29.995
 21
52.2876
  0
ARC
  5
12B
100
AcDbEntity
  8
Make_Solder_Side
  6
CONTINUOUS
 62
    1
370
   -1
100
AcDbCircle
 10
29.591
 20
51.943
 40
0.531
100
AcDbArc
 50
0
 51
40.4627
  0
LINE
  5
12C
100
AcDbEntity
  8
Make_Solder_Side
  6
CONTINUOUS
 62
    1
370
   -1
100
AcDbLine
 10
30.122
 20
51.943
 11
30.122
 21
49.657
  0
ARC
  5
12D
100
AcDbEntity
  8
Make_Solder_Side
  6
CONTINUOUS
 62
    1
370
   -1
100
AcDbCircle
 10
29.591
 20
49.657
 40
0.531
100
AcDbArc
 50
270
 51
0
  0
LINE
  5
12E
100
AcDbEntity
  8
Make_Solder_Side
  6
CONTINUOUS
 62
    1
370
   -1
100
AcDbLine
 10
29.591
 20
49.126
 11
28.829
 21
49.126
  0
ARC
  5
12F
100
AcDbEntity
  8
Make_Solder_Side
  6
CONTINUOUS
 62
    1
370
   -1
100
AcDbCircle
 10
28.829
 20
49.657
 40
0.531
100
AcDbArc
 50
180
 51
270
  0
LINE
  5
130
100
AcDbEntity
  8
Make_Solder_Side
  6
CONTINUOUS
 62
    1
370
   -1
100
AcDbLine
 10
28.298
 20
49.657
 11
28.298
 21
51.943
  0
ARC
  5
131
100
AcDbEntity
  8
Make_Solder_Side
  6
CONTINUOUS
 62
    1
370
   -1
100
AcDbCircle
 10
28.829
 20
51.943
 40
0.531
100
AcDbArc
 50
139.537
 51
180
  0
LINE
  5
132
100
AcDbEntity
  8
Make_Solder_Side
  6
CONTINUOUS
 62
    1
370
   -1
100
AcDbLine
 10
28.425
 20
52.2876
 11
28.425
 21
53.825
  0
LINE
  5
133
100
AcDbEntity
  8
Make_Solder_Side
  6
CONTINUOUS
 62
    1
370
   -1
100
AcDbLine
 10
28.425
 20
53.825
 11
9.675000000000001
 21
53.825
  0
LINE
  5
134
100
AcDbEntity
  8
Make_Solder_Side
  6
CONTINUOUS
 62
    1
370
   -1
100
AcDbLine
 10
9.675000000000001
 20
53.825
 11
9.675000000000001
 21
40.155
  0
LINE
  5
135
100
AcDbEntity
  8
Make_Solder_Side
  6
CONTINUOUS
 62
    1
370
   -1
100
AcDbLine
 10
9.675000000000001
 20
40.155
 11
11.2124
 21
40.155
  0
ARC
  5
136
100
AcDbEntity
  8
Make_Solder_Side
  6
CONTINUOUS
 62
    1
370
   -1
100
AcDbCircle
 10
11.557
 20
39.751
 40
0.531
100
AcDbArc
 50
90
 51
130.463
  0
LINE
  5
137
100
AcDbEntity
  8
Make_Solder_Side
  6
CONTINUOUS
 62
    1
370
   -1
100
AcDbLine
 10
11.557
 20
40.282
 11
13.843
 21
40.282
  0
ARC
  5
138
100
AcDbEntity
  8
Make_Solder_Side
  6
CONTINUOUS
 62
    1
370
   -1
100
AcDbCircle
 10
13.843
 20
39.751
 40
0.531
100
AcDbArc
 50
0
 51
90
  0
LINE
  5
139
100
AcDbEntity
  8
Make_Solder_Side
  6
CONTINUOUS
 62
    1
370
   -1
100
AcDbLine
 10
14.374
 20
39.751
 11
14.374
 21
38.989
  0
ARC
  5
13A
100
AcDbEntity
  8
Make_Solder_Side
  6
CONTINUOUS
 62
    1
370
   -1
100
AcDbCircle
 10
13.843
 20
38.989
 40
0.531
100
AcDbArc
 50
270
 51
0
  0
LINE
  5
13B
100
AcDbEntity
  8
Make_Solder_Side
  6
CONTINUOUS
 62
    1
370
   -1
100
AcDbLine
 10
13.843
 20
38.458
 11
11.557
 21
38.458
  0
ARC
  5
13C
100
AcDbEntity
  8
Make_Solder_Side
  6
CONTINUOUS
 62
    1
370
   -1
100
AcDbCircle
 10
11.557
 20
38.989
 40
0.531
100
AcDbArc
 50
229.537
 51
270
  0
ARC
  5
13D
100
AcDbEntity
  8
Make_Solder_Side
  6
CONTINUOUS
 62
    1
370
   -1
100
AcDbCircle
 10
21.59
 20
45.72
 40
1.42
100
AcDbArc
 50
123.56
 51
180
  0
LINE
  5
13E
100
AcDbEntity
  8
Make_Solder_Side
  6
CONTINUOUS
 62
    1
370
   -1
100
AcDbLine
 10
20.805
 20
46.9033
 11
20.805
 21
49.3124
  0
ARC
  5
13F
100
AcDbEntity
  8
Make_Solder_Side
  6
CONTINUOUS
 62
    1
370
   -1
100
AcDbCircle
 10
21.209
 20
49.657
 40
0.531
100
AcDbArc
 50
180
 51
220.463
  0
LINE
  5
140
100
AcDbEntity
  8
Make_Solder_Side
  6
CONTINUOUS
 62
    1
370
   -1
100
AcDbLine
 10
20.678
 20
49.657
 11
20.678
 21
51.943
  0
ARC
  5
141
100
AcDbEntity
  8
Make_Solder_Side
  6
CONTINUOUS
 62
    1
370
   -1
100
AcDbCircle
 10
21.209
 20
51.943
 40
0.531
100
AcDbArc
 50
90
 51
180
  0
LINE
  5
142
100
AcDbEntity
  8
Make_Solder_Side
  6
CONTINUOUS
 62
    1
370
   -1
100
AcDbLine
 10
21.209
 20
52.474
 11
21.971
 21
52.474
  0
ARC
  5
143
100
AcDbEntity
  8
Make_Solder_Side
  6
CONTINUOUS
 62
    1
370
   -1
100
AcDbCircle
 10
21.971
 20
51.943
 40
0.531
100
AcDbArc
 50
0
 51
90
  0
LINE
  5
144
100
AcDbEntity
  8
Make_Solder_Side
  6
CONTINUOUS
 62
    1
370
   -1
100
AcDbLine
 10
22.502
 20
51.943
 11
22.502
 21
49.657
  0
ARC
  5
145
100
AcDbEntity
  8
Make_Solder_Side
  6
CONTINUOUS
 62
    1
370
   -1
100
AcDbCircle
 10
21.971
 20
49.657
 40
0.531
100
AcDbArc
 50
319.537
 51
0
  0
LINE
  5
146
100
AcDbEntity
  8
Make_Solder_Side
  6
CONTINUOUS
 62
    1
370
   -1
100
AcDbLine
 10
22.375
 20
49.3124
 11
22.375
 21
46.9033
  0
ARC
  5
147
100
AcDbEntity
  8
Make_Solder_Side
  6
CONTINUOUS
 62
    1
370
   -1
100
AcDbCircle
 10
21.59
 20
45.72
 40
1.42
100
AcDbArc
 50
180
 51
56.4395
  0
LINE
  5
148
100
AcDbEntity
  8
Make_Solder_Side
  6
CONTINUOUS
 62
    1
370
   -1
100
AcDbLine
 10
34.7291
 20
52.5815
 11
35.3633
 21
52.637
  0
ARC
  5
149
100
AcDbEntity
  8
Make_Solder_Side
  6
CONTINUOUS
 62
    1
370
   -1
100
AcDbCircle
 10
35.3763
 20
52.4876
 40
0.15
100
AcDbArc
 50
6.74006
 51
94.99679999999999
  0
LWPOLYLINE
  5
14A
100
AcDbEntity
  8
Make_Solder_Side
  6
CONTINUOUS
 62
    1
370
   -1
100
AcDbPolyline
 90
   37
 70
    0
 43
0
 10
35.5253
 20
52.5052
 10
35.553
 20
52.3372
 10
35.7884
 20
51.8492
 10
36.0103
 20
51.6781
 10
36.6793
 20
51.4751
 10
37.0517
 20
51.473
 10
37.214
 20
51.4928
 10
37.3639
 20
51.5254
 10
37.5017
 20
51.5705
 10
37.6238
 20
51.6258
 10
37.8727
 20
51.8321
 10
37.924
 20
51.9151
 10
37.9721
 20
52.043
 10
37.9881
 20
52.1792
 10
37.9774
 20
52.2937
 10
37.9541
 20
52.3756
 10
37.9176
 20
52.4511
 10
37.8528
 20
52.5377
 10
37.7793
 20
52.6032
 10
37.6818
 20
52.667
 10
37.5593
 20
52.7276
 10
37.4349
 20
52.7758
 10
37.1741
 20
52.8536
 10
36.6027
 20
52.9984
 10
35.9964
 20
53.1648
 10
35.587
 20
53.3286
 10
35.403
 20
53.4378
 10
35.1022
 20
53.7006
 10
34.7987
 20
54.376
 10
34.9234
 20
55.1794
 10
35.1655
 20
55.544
 10
35.9654
 20
56.0131
 10
37.0112
 20
56.1047
 10
37.7502
 20
55.9342
 10
38.3667
 20
55.5162
 10
38.7595
 20
54.6913
 10
38.7835
 20
54.4547
  0
ARC
  5
14B
100
AcDbEntity
  8
Make_Solder_Side
  6
CONTINUOUS
 62
    1
370
   -1
100
AcDbCircle
 10
38.6336
 20
54.4489
 40
0.15
100
AcDbArc
 50
274.304
 51
2.21966
  0
LINE
  5
14C
100
AcDbEntity
  8
Make_Solder_Side
  6
CONTINUOUS
 62
    1
370
   -1
100
AcDbLine
 10
38.6449
 20
54.2993
 11
38.0004
 21
54.2508
  0
ARC
  5
14D
100
AcDbEntity
  8
Make_Solder_Side
  6
CONTINUOUS
 62
    1
370
   -1
100
AcDbCircle
 10
37.9891
 20
54.4004
 40
0.15
100
AcDbArc
 50
186.159
 51
274.304
  0
LWPOLYLINE
  5
14E
100
AcDbEntity
  8
Make_Solder_Side
  6
CONTINUOUS
 62
    1
370
   -1
100
AcDbPolyline
 90
   38
 70
    0
 43
0
 10
37.84
 20
54.3843
 10
37.8028
 20
54.5874
 10
37.7401
 20
54.7578
 10
37.6535
 20
54.8981
 10
37.5422
 20
55.0121
 10
37.4029
 20
55.1014
 10
37.1226
 20
55.1922
 10
36.8856
 20
55.2205
 10
36.752
 20
55.2241
 10
36.6121
 20
55.2208
 10
36.3667
 20
55.1948
 10
36.1681
 20
55.145
 10
36.0163
 20
55.0749
 10
35.9019
 20
54.9852
 10
35.8175
 20
54.886
 10
35.7641
 20
54.783
 10
35.7376
 20
54.672
 10
35.7552
 20
54.4647
 10
35.8461
 20
54.3082
 10
35.9221
 20
54.2425
 10
36.0733
 20
54.1658
 10
36.3133
 20
54.0802
 10
36.6364
 20
53.9909
 10
37.2095
 20
53.8548
 10
37.8902
 20
53.6502
 10
38.3049
 20
53.43
 10
38.6353
 20
53.1276
 10
38.8438
 20
52.7616
 10
38.9325
 20
52.3453
 10
38.8998
 20
51.9043
 10
38.4557
 20
51.1163
 10
37.5834
 20
50.6461
 10
36.7334
 20
50.5666
 10
35.5704
 20
50.8343
 10
35.1442
 20
51.1367
 10
34.7696
 20
51.6654
 10
34.6002
 20
52.2928
 10
34.5923
 20
52.428
  0
ARC
  5
14F
100
AcDbEntity
  8
Make_Solder_Side
  6
CONTINUOUS
 62
    1
370
   -1
100
AcDbCircle
 10
34.7422
 20
52.4321
 40
0.15
100
AcDbArc
 50
94.99679999999999
 51
181.559
  0
LINE
  5
150
100
AcDbEntity
  8
Make_Solder_Side
  6
CONTINUOUS
 62
    1
370
   -1
100
AcDbLine
 10
39.1351
 20
49.3897
 11
39.1351
 21
54.4801
  0
ARC
  5
151
100
AcDbEntity
  8
Make_Solder_Side
  6
CONTINUOUS
 62
    1
370
   -1
100
AcDbCircle
 10
39.2851
 20
54.4801
 40
0.15
100
AcDbArc
 50
90
 51
180
  0
LINE
  5
152
100
AcDbEntity
  8
Make_Solder_Side
  6
CONTINUOUS
 62
    1
370
   -1
100
AcDbLine
 10
39.2851
 20
54.6301
 11
39.8534
 21
54.6301
  0
ARC
  5
153
100
AcDbEntity
  8
Make_Solder_Side
  6
CONTINUOUS
 62
    1
370
   -1
100
AcDbCircle
 10
39.8534
 20
54.4801
 40
0.15
100
AcDbArc
 50
0
 51
90
  0
LINE
  5
154
100
AcDbEntity
  8
Make_Solder_Side
  6
CONTINUOUS
 62
    1
370
   -1
100
AcDbLine
 10
40.0034
 20
54.4801
 11
40.0034
 21
54.3908
  0
LWPOLYLINE
  5
155
100
AcDbEntity
  8
Make_Solder_Side
  6
CONTINUOUS
 62
    1
370
   -1
100
AcDbPolyline
 90
   14
 70
    0
 43
0
 10
40.0034
 20
54.3908
 10
40.2346
 20
54.554
 10
40.9208
 20
54.7132
 10
41.4062
 20
54.6466
 10
42.186
 20
54.1216
 10
42.5815
 20
53.2012
 10
42.63
 20
52.6677
 10
42.5178
 20
51.8627
 10
42.143
 20
51.1542
 10
41.3345
 20
50.6332
 10
40.8757
 20
50.5668
 10
40.2456
 20
50.7161
 10
40.115
 20
50.7935
 10
40.0588
 20
50.8326
  0
LINE
  5
156
100
AcDbEntity
  8
Make_Solder_Side
  6
CONTINUOUS
 62
    1
370
   -1
100
AcDbLine
 10
40.0588
 20
50.8326
 11
40.0588
 21
49.3897
  0
ARC
  5
157
100
AcDbEntity
  8
Make_Solder_Side
  6
CONTINUOUS
 62
    1
370
   -1
100
AcDbCircle
 10
39.9088
 20
49.3897
 40
0.15
100
AcDbArc
 50
270
 51
0
  0
LINE
  5
158
100
AcDbEntity
  8
Make_Solder_Side
  6
CONTINUOUS
 62
    1
370
   -1
100
AcDbLine
 10
39.9088
 20
49.2397
 11
39.2851
 21
49.2397
  0
ARC
  5
159
100
AcDbEntity
  8
Make_Solder_Side
  6
CONTINUOUS
 62
    1
370
   -1
100
AcDbCircle
 10
39.2851
 20
49.3897
 40
0.15
100
AcDbArc
 50
180
 51
270
  0
LWPOLYLINE
  5
15A
100
AcDbEntity
  8
Make_Solder_Side
  6
CONTINUOUS
 62
    1
370
   -1
100
AcDbPolyline
 90
   34
 70
    1
 43
0
 10
39.9999
 20
52.6192
 10
40.0512
 20
52.1022
 10
40.1235
 20
51.8775
 10
40.2231
 20
51.7027
 10
40.3493
 20
51.566
 10
40.4858
 20
51.468
 10
40.6316
 20
51.4071
 10
40.7913
 20
51.3808
 10
40.961
 20
51.39
 10
41.1165
 20
51.4351
 10
41.2613
 20
51.5174
 10
41.3983
 20
51.6404
 10
41.4614
 20
51.716
 10
41.5164
 20
51.8009
 10
41.5646
 20
51.8983
 10
41.6058
 20
52.0088
 10
41.6749
 20
52.3435
 10
41.6924
 20
52.6712
 10
41.6409
 20
53.1854
 10
41.568
 20
53.4119
 10
41.4669
 20
53.5911
 10
41.3393
 20
53.733
 10
41.203
 20
53.8342
 10
41.0591
 20
53.8967
 10
40.9033
 20
53.9235
 10
40.7426
 20
53.914
 10
40.5928
 20
53.8668
 10
40.4483
 20
53.7793
 10
40.3071
 20
53.6472
 10
40.1826
 20
53.4761
 10
40.1321
 20
53.3758
 10
40.0545
 20
53.1413
 10
40.0045
 20
52.783
 10
39.9999
 20
52.6192
  0
LINE
  5
15B
100
AcDbEntity
  8
Make_Solder_Side
  6
CONTINUOUS
 62
    1
370
   -1
100
AcDbLine
 10
43.0854
 20
55.1627
 11
43.0854
 21
55.88
  0
ARC
  5
15C
100
AcDbEntity
  8
Make_Solder_Side
  6
CONTINUOUS
 62
    1
370
   -1
100
AcDbCircle
 10
43.2354
 20
55.88
 40
0.15
100
AcDbArc
 50
90
 51
180
  0
LINE
  5
15D
100
AcDbEntity
  8
Make_Solder_Side
  6
CONTINUOUS
 62
    1
370
   -1
100
AcDbLine
 10
43.2354
 20
56.03
 11
43.8592
 21
56.03
  0
ARC
  5
15E
100
AcDbEntity
  8
Make_Solder_Side
  6
CONTINUOUS
 62
    1
370
   -1
100
AcDbCircle
 10
43.8592
 20
55.88
 40
0.15
100
AcDbArc
 50
0
 51
90
  0
LINE
  5
15F
100
AcDbEntity
  8
Make_Solder_Side
  6
CONTINUOUS
 62
    1
370
   -1
100
AcDbLine
 10
44.0092
 20
55.88
 11
44.0092
 21
55.1627
  0
ARC
  5
160
100
AcDbEntity
  8
Make_Solder_Side
  6
CONTINUOUS
 62
    1
370
   -1
100
AcDbCircle
 10
43.8592
 20
55.1627
 40
0.15
100
AcDbArc
 50
270
 51
0
  0
LINE
  5
161
100
AcDbEntity
  8
Make_Solder_Side
  6
CONTINUOUS
 62
    1
370
   -1
100
AcDbLine
 10
43.8592
 20
55.0127
 11
43.2354
 21
55.0127
  0
ARC
  5
162
100
AcDbEntity
  8
Make_Solder_Side
  6
CONTINUOUS
 62
    1
370
   -1
100
AcDbCircle
 10
43.2354
 20
55.1627
 40
0.15
100
AcDbArc
 50
180
 51
270
  0
LINE
  5
163
100
AcDbEntity
  8
Make_Solder_Side
  6
CONTINUOUS
 62
    1
370
   -1
100
AcDbLine
 10
43.0854
 20
50.8
 11
43.0854
 21
54.4801
  0
ARC
  5
164
100
AcDbEntity
  8
Make_Solder_Side
  6
CONTINUOUS
 62
    1
370
   -1
100
AcDbCircle
 10
43.2354
 20
54.4801
 40
0.15
100
AcDbArc
 50
90
 51
180
  0
LINE
  5
165
100
AcDbEntity
  8
Make_Solder_Side
  6
CONTINUOUS
 62
    1
370
   -1
100
AcDbLine
 10
43.2354
 20
54.6301
 11
43.8592
 21
54.6301
  0
ARC
  5
166
100
AcDbEntity
  8
Make_Solder_Side
  6
CONTINUOUS
 62
    1
370
   -1
100
AcDbCircle
 10
43.8592
 20
54.4801
 40
0.15
100
AcDbArc
 50
0
 51
90
  0
LINE
  5
167
100
AcDbEntity
  8
Make_Solder_Side
  6
CONTINUOUS
 62
    1
370
   -1
100
AcDbLine
 10
44.0092
 20
54.4801
 11
44.0092
 21
50.8
  0
ARC
  5
168
100
AcDbEntity
  8
Make_Solder_Side
  6
CONTINUOUS
 62
    1
370
   -1
100
AcDbCircle
 10
43.8592
 20
50.8
 40
0.15
100
AcDbArc
 50
270
 51
0
  0
LINE
  5
169
100
AcDbEntity
  8
Make_Solder_Side
  6
CONTINUOUS
 62
    1
370
   -1
100
AcDbLine
 10
43.8592
 20
50.65
 11
43.2354
 21
50.65
  0
ARC
  5
16A
100
AcDbEntity
  8
Make_Solder_Side
  6
CONTINUOUS
 62
    1
370
   -1
100
AcDbCircle
 10
43.2354
 20
50.8
 40
0.15
100
AcDbArc
 50
180
 51
270
  0
LINE
  5
16B
100
AcDbEntity
  8
Make_Solder_Side
  6
CONTINUOUS
 62
    1
370
   -1
100
AcDbLine
 10
47.3463
 20
52.134
 11
47.9908
 21
52.0543
  0
ARC
  5
16C
100
AcDbEntity
  8
Make_Solder_Side
  6
CONTINUOUS
 62
    1
370
   -1
100
AcDbCircle
 10
47.9724
 20
51.9054
 40
0.15
100
AcDbArc
 50
344.894
 51
82.9508
  0
LWPOLYLINE
  5
16D
100
AcDbEntity
  8
Make_Solder_Side
  6
CONTINUOUS
 62
    1
370
   -1
100
AcDbPolyline
 90
   22
 70
    0
 43
0
 10
48.1172
 20
51.8663
 10
48.0719
 20
51.719
 10
47.7989
 20
51.2063
 10
47.4399
 20
50.8672
 10
47.3178
 20
50.7917
 10
47.1883
 20
50.7271
 10
47.0516
 20
50.6736
 10
46.908
 20
50.6311
 10
46.354
 20
50.5668
 10
45.576
 20
50.7013
 10
44.9651
 20
51.1107
 10
44.5769
 20
51.7632
 10
44.4507
 20
52.6088
 10
44.5779
 20
53.4808
 10
44.9692
 20
54.1527
 10
45.5709
 20
54.5736
 10
46.3195
 20
54.7132
 10
47.0477
 20
54.5761
 10
47.6352
 20
54.163
 10
48.0186
 20
53.5032
 10
48.1432
 20
52.647
 10
48.1396
 20
52.4759
  0
ARC
  5
16E
100
AcDbEntity
  8
Make_Solder_Side
  6
CONTINUOUS
 62
    1
370
   -1
100
AcDbCircle
 10
47.9897
 20
52.4806
 40
0.15
100
AcDbArc
 50
270
 51
358.21
  0
LINE
  5
16F
100
AcDbEntity
  8
Make_Solder_Side
  6
CONTINUOUS
 62
    1
370
   -1
100
AcDbLine
 10
47.9897
 20
52.3306
 11
45.41
 21
52.3306
  0
LWPOLYLINE
  5
170
100
AcDbEntity
  8
Make_Solder_Side
  6
CONTINUOUS
 62
    1
370
   -1
100
AcDbPolyline
 90
   14
 70
    0
 43
0
 10
45.41
 20
52.3306
 10
45.4398
 20
52.1633
 10
45.509
 20
51.9467
 10
45.6061
 20
51.7675
 10
45.7308
 20
51.6217
 10
45.8752
 20
51.5094
 10
46.034
 20
51.4326
 10
46.2109
 20
51.3896
 10
46.3073
 20
51.3808
 10
46.4316
 20
51.3822
 10
46.6314
 20
51.4181
 10
46.8538
 20
51.5303
 10
47.036
 20
51.7272
 10
47.1867
 20
52.0359
  0
ARC
  5
171
100
AcDbEntity
  8
Make_Solder_Side
  6
CONTINUOUS
 62
    1
370
   -1
100
AcDbCircle
 10
47.3279
 20
51.9851
 40
0.15
100
AcDbArc
 50
82.9508
 51
160.219
  0
LINE
  5
172
100
AcDbEntity
  8
Make_Solder_Side
  6
CONTINUOUS
 62
    1
370
   -1
100
AcDbLine
 10
45.449
 20
53.1435
 11
47.1637
 21
53.1435
  0
LWPOLYLINE
  5
173
100
AcDbEntity
  8
Make_Solder_Side
  6
CONTINUOUS
 62
    1
370
   -1
100
AcDbPolyline
 90
   14
 70
    0
 43
0
 10
47.1637
 20
53.1435
 10
47.0854
 20
53.4241
 10
47.0027
 20
53.5702
 10
46.8818
 20
53.7001
 10
46.7333
 20
53.8044
 10
46.567
 20
53.8703
 10
46.3778
 20
53.8991
 10
46.1899
 20
53.8916
 10
46.025
 20
53.8533
 10
45.8764
 20
53.7852
 10
45.7411
 20
53.6858
 10
45.6232
 20
53.5579
 10
45.5331
 20
53.4092
 10
45.449
 20
53.1435
  0
LINE
  5
174
100
AcDbEntity
  8
Make_Solder_Side
  6
CONTINUOUS
 62
    1
370
   -1
100
AcDbLine
 10
48.5917
 20
50.8
 11
48.5917
 21
55.88
  0
ARC
  5
175
100
AcDbEntity
  8
Make_Solder_Side
  6
CONTINUOUS
 62
    1
370
   -1
100
AcDbCircle
 10
48.7417
 20
55.88
 40
0.15
100
AcDbArc
 50
90
 51
180
  0
LINE
  5
176
100
AcDbEntity
  8
Make_Solder_Side
  6
CONTINUOUS
 62
    1
370
   -1
100
AcDbLine
 10
48.7417
 20
56.03
 11
49.3654
 21
56.03
  0
ARC
  5
177
100
AcDbEntity
  8
Make_Solder_Side
  6
CONTINUOUS
 62
    1
370
   -1
100
AcDbCircle
 10
49.3654
 20
55.88
 40
0.15
100
AcDbArc
 50
0
 51
90
  0
LINE
  5
178
100
AcDbEntity
  8
Make_Solder_Side
  6
CONTINUOUS
 62
    1
370
   -1
100
AcDbLine
 10
49.5154
 20
55.88
 11
49.5154
 21
50.8
  0
ARC
  5
179
100
AcDbEntity
  8
Make_Solder_Side
  6
CONTINUOUS
 62
    1
370
   -1
100
AcDbCircle
 10
49.3654
 20
50.8
 40
0.15
100
AcDbArc
 50
270
 51
0
  0
LINE
  5
17A
100
AcDbEntity
  8
Make_Solder_Side
  6
CONTINUOUS
 62
    1
370
   -1
100
AcDbLine
 10
49.3654
 20
50.65
 11
48.7417
 21
50.65
  0
ARC
  5
17B
100
AcDbEntity
  8
Make_Solder_Side
  6
CONTINUOUS
 62
    1
370
   -1
100
AcDbCircle
 10
48.7417
 20
50.8
 40
0.15
100
AcDbArc
 50
180
 51
270
  0
LWPOLYLINE
  5
17C
100
AcDbEntity
  8
Make_Solder_Side
  6
CONTINUOUS
 62
    1
370
   -1
100
AcDbPolyline
 90
   41
 70
    0
 43
0
 10
52.631
 20
50.9826
 10
52.4729
 20
50.8754
 10
52.1196
 20
50.6978
 10
51.3786
 20
50.5668
 10
51.1462
 20
50.578
 10
50.863
 20
50.6287
 10
50.733
 20
50.67
 10
50.6112
 20
50.7223
 10
50.498
 20
50.7859
 10
50.394
 20
50.8606
 10
50.3008
 20
50.9449
 10
50.2192
 20
51.0357
 10
50.1487
 20
51.1331
 10
50.0896
 20
51.237
 10
50.0423
 20
51.3469
 10
50.0071
 20
51.4621
 10
49.9838
 20
51.5821
 10
49.9722
 20
51.7065
 10
49.973
 20
51.8458
 10
50.1485
 20
52.3979
 10
50.4259
 20
52.7064
 10
50.5379
 20
52.7831
 10
50.7782
 20
52.9048
 10
51.0298
 20
52.9853
 10
51.2203
 20
53.0227
 10
51.8997
 20
53.1163
 10
52.1966
 20
53.1667
 10
52.4413
 20
53.2207
 10
52.534
 20
53.2461
 10
52.5066
 20
53.5493
 10
52.4223
 20
53.7105
 10
52.3326
 20
53.7792
 10
52.2053
 20
53.8384
 10
52.0453
 20
53.8783
 10
51.7979
 20
53.8969
 10
51.6074
 20
53.888
 10
51.3843
 20
53.844
 10
51.2002
 20
53.741
 10
51.1296
 20
53.6582
 10
51.008
 20
53.396
 10
50.9834
 20
53.3096
  0
ARC
  5
17D
100
AcDbEntity
  8
Make_Solder_Side
  6
CONTINUOUS
 62
    1
370
   -1
100
AcDbCircle
 10
50.8381
 20
53.3469
 40
0.15
100
AcDbArc
 50
262.235
 51
345.606
  0
LINE
  5
17E
100
AcDbEntity
  8
Make_Solder_Side
  6
CONTINUOUS
 62
    1
370
   -1
100
AcDbLine
 10
50.8179
 20
53.1983
 11
50.208
 21
53.2815
  0
ARC
  5
17F
100
AcDbEntity
  8
Make_Solder_Side
  6
CONTINUOUS
 62
    1
370
   -1
100
AcDbCircle
 10
50.2282
 20
53.4301
 40
0.15
100
AcDbArc
 50
168.009
 51
262.235
  0
LWPOLYLINE
  5
180
100
AcDbEntity
  8
Make_Solder_Side
  6
CONTINUOUS
 62
    1
370
   -1
100
AcDbPolyline
 90
   14
 70
    0
 43
0
 10
50.0815
 20
53.4613
 10
50.1333
 20
53.661
 10
50.5067
 20
54.2867
 10
51.2038
 20
54.6356
 10
51.888
 20
54.7132
 10
52.1224
 20
54.706
 10
52.7067
 20
54.5927
 10
52.8574
 20
54.528
 10
53.1062
 20
54.3672
 10
53.3413
 20
54.0456
 10
53.3908
 20
53.918
 10
53.428
 20
53.7791
 10
53.4543
 20
53.5335
 10
53.4623
 20
53.1737
  0
LINE
  5
181
100
AcDbEntity
  8
Make_Solder_Side
  6
CONTINUOUS
 62
    1
370
   -1
100
AcDbLine
 10
53.4623
 20
53.1737
 11
53.4623
 21
52.342
  0
LWPOLYLINE
  5
182
100
AcDbEntity
  8
Make_Solder_Side
  6
CONTINUOUS
 62
    1
370
   -1
100
AcDbPolyline
 90
    5
 70
    0
 43
0
 10
53.4623
 20
52.342
 10
53.4843
 20
51.4084
 10
53.4999
 20
51.2674
 10
53.5527
 20
51.0666
 10
53.6408
 20
50.873
  0
ARC
  5
183
100
AcDbEntity
  8
Make_Solder_Side
  6
CONTINUOUS
 62
    1
370
   -1
100
AcDbCircle
 10
53.5098
 20
50.8
 40
0.15
100
AcDbArc
 50
270
 51
29.1343
  0
LINE
  5
184
100
AcDbEntity
  8
Make_Solder_Side
  6
CONTINUOUS
 62
    1
370
   -1
100
AcDbLine
 10
53.5098
 20
50.65
 11
52.8583
 21
50.65
  0
ARC
  5
185
100
AcDbEntity
  8
Make_Solder_Side
  6
CONTINUOUS
 62
    1
370
   -1
100
AcDbCircle
 10
52.8583
 20
50.8
 40
0.15
100
AcDbArc
 50
206.565
 51
270
  0
LWPOLYLINE
  5
186
100
AcDbEntity
  8
Make_Solder_Side
  6
CONTINUOUS
 62
    1
370
   -1
100
AcDbPolyline
 90
    3
 70
    0
 43
0
 10
52.7242
 20
50.7329
 10
52.6739
 20
50.848
 10
52.631
 20
50.9826
  0
LWPOLYLINE
  5
187
100
AcDbEntity
  8
Make_Solder_Side
  6
CONTINUOUS
 62
    1
370
   -1
100
AcDbPolyline
 90
   21
 70
    0
 43
0
 10
52.5316
 20
52.436
 10
52.2909
 20
52.3726
 10
52.0079
 20
52.3148
 10
51.5111
 20
52.2351
 10
51.2564
 20
52.1769
 10
51.1212
 20
52.1195
 10
51.0325
 20
52.0466
 10
50.9711
 20
51.9525
 10
50.9401
 20
51.8465
 10
50.9554
 20
51.6584
 10
51.1102
 20
51.4562
 10
51.198
 20
51.4093
 10
51.3101
 20
51.3756
 10
51.782
 20
51.3804
 10
52.2085
 20
51.5682
 10
52.3825
 20
51.7501
 10
52.4458
 20
51.8592
 10
52.4809
 20
51.9543
 10
52.5084
 20
52.08
 10
52.5257
 20
52.235
 10
52.5316
 20
52.4183
  0
LINE
  5
188
100
AcDbEntity
  8
Make_Solder_Side
  6
CONTINUOUS
 62
    1
370
   -1
100
AcDbLine
 10
52.5316
 20
52.4183
 11
52.5316
 21
52.436
  0
LINE
  5
189
100
AcDbEntity
  8
Make_Solder_Side
  6
CONTINUOUS
 62
    1
370
   -1
100
AcDbLine
 10
55.7889
 20
51.3821
 11
55.879
 21
50.8311
  0
ARC
  5
18A
100
AcDbEntity
  8
Make_Solder_Side
  6
CONTINUOUS
 62
    1
370
   -1
100
AcDbCircle
 10
55.731
 20
50.8069
 40
0.15
100
AcDbArc
 50
281.889
 51
9.28693
  0
LWPOLYLINE
  5
18B
100
AcDbEntity
  8
Make_Solder_Side
  6
CONTINUOUS
 62
    1
370
   -1
100
AcDbPolyline
 90
   12
 70
    0
 43
0
 10
55.7619
 20
50.6601
 10
55.499
 20
50.6164
 10
55.2597
 20
50.6015
 10
55.0862
 20
50.6088
 10
54.7856
 20
50.6707
 10
54.6886
 20
50.7124
 10
54.5072
 20
50.8382
 10
54.3585
 20
51.0273
 10
54.2748
 20
51.3048
 10
54.2545
 20
51.5007
 10
54.2446
 20
51.7406
 10
54.2434
 20
51.8777
  0
LINE
  5
18C
100
AcDbEntity
  8
Make_Solder_Side
  6
CONTINUOUS
 62
    1
370
   -1
100
AcDbLine
 10
54.2434
 20
51.8777
 11
54.2434
 21
53.8449
  0
LINE
  5
18D
100
AcDbEntity
  8
Make_Solder_Side
  6
CONTINUOUS
 62
    1
370
   -1
100
AcDbLine
 10
54.2434
 20
53.8449
 11
53.936
 21
53.8449
  0
ARC
  5
18E
100
AcDbEntity
  8
Make_Solder_Side
  6
CONTINUOUS
 62
    1
370
   -1
100
AcDbCircle
 10
53.936
 20
53.9949
 40
0.15
100
AcDbArc
 50
180
 51
270
  0
LINE
  5
18F
100
AcDbEntity
  8
Make_Solder_Side
  6
CONTINUOUS
 62
    1
370
   -1
100
AcDbLine
 10
53.786
 20
53.9949
 11
53.786
 21
54.4801
  0
ARC
  5
190
100
AcDbEntity
  8
Make_Solder_Side
  6
CONTINUOUS
 62
    1
370
   -1
100
AcDbCircle
 10
53.936
 20
54.4801
 40
0.15
100
AcDbArc
 50
90
 51
180
  0
LINE
  5
191
100
AcDbEntity
  8
Make_Solder_Side
  6
CONTINUOUS
 62
    1
370
   -1
100
AcDbLine
 10
53.936
 20
54.6301
 11
54.2434
 21
54.6301
  0
LINE
  5
192
100
AcDbEntity
  8
Make_Solder_Side
  6
CONTINUOUS
 62
    1
370
   -1
100
AcDbLine
 10
54.2434
 20
54.6301
 11
54.2434
 21
55.3914
  0
ARC
  5
193
100
AcDbEntity
  8
Make_Solder_Side
  6
CONTINUOUS
 62
    1
370
   -1
100
AcDbCircle
 10
54.3934
 20
55.3914
 40
0.15
100
AcDbArc
 50
121.105
 51
180
  0
LINE
  5
194
100
AcDbEntity
  8
Make_Solder_Side
  6
CONTINUOUS
 62
    1
370
   -1
100
AcDbLine
 10
54.3159
 20
55.5198
 11
54.9362
 21
55.8941
  0
ARC
  5
195
100
AcDbEntity
  8
Make_Solder_Side
  6
CONTINUOUS
 62
    1
370
   -1
100
AcDbCircle
 10
55.0137
 20
55.7656
 40
0.15
100
AcDbArc
 50
0
 51
121.105
  0
LINE
  5
196
100
AcDbEntity
  8
Make_Solder_Side
  6
CONTINUOUS
 62
    1
370
   -1
100
AcDbLine
 10
55.1637
 20
55.7656
 11
55.1637
 21
54.6301
  0
LINE
  5
197
100
AcDbEntity
  8
Make_Solder_Side
  6
CONTINUOUS
 62
    1
370
   -1
100
AcDbLine
 10
55.1637
 20
54.6301
 11
55.6409
 21
54.6301
  0
ARC
  5
198
100
AcDbEntity
  8
Make_Solder_Side
  6
CONTINUOUS
 62
    1
370
   -1
100
AcDbCircle
 10
55.6409
 20
54.4801
 40
0.15
100
AcDbArc
 50
0
 51
90
  0
LINE
  5
199
100
AcDbEntity
  8
Make_Solder_Side
  6
CONTINUOUS
 62
    1
370
   -1
100
AcDbLine
 10
55.7909
 20
54.4801
 11
55.7909
 21
53.9949
  0
ARC
  5
19A
100
AcDbEntity
  8
Make_Solder_Side
  6
CONTINUOUS
 62
    1
370
   -1
100
AcDbCircle
 10
55.6409
 20
53.9949
 40
0.15
100
AcDbArc
 50
270
 51
0
  0
LINE
  5
19B
100
AcDbEntity
  8
Make_Solder_Side
  6
CONTINUOUS
 62
    1
370
   -1
100
AcDbLine
 10
55.6409
 20
53.8449
 11
55.1637
 21
53.8449
  0
LINE
  5
19C
100
AcDbEntity
  8
Make_Solder_Side
  6
CONTINUOUS
 62
    1
370
   -1
100
AcDbLine
 10
55.1637
 20
53.8449
 11
55.1637
 21
51.843
  0
LWPOLYLINE
  5
19D
100
AcDbEntity
  8
Make_Solder_Side
  6
CONTINUOUS
 62
    1
370
   -1
100
AcDbPolyline
 90
    8
 70
    0
 43
0
 10
55.1637
 20
51.843
 10
55.1712
 20
51.6382
 10
55.1844
 20
51.5594
 10
55.2226
 20
51.513
 10
55.2601
 20
51.4955
 10
55.34
 20
51.4842
 10
55.5424
 20
51.4962
 10
55.6197
 20
51.5064
  0
ARC
  5
19E
100
AcDbEntity
  8
Make_Solder_Side
  6
CONTINUOUS
 62
    1
370
   -1
100
AcDbCircle
 10
55.6409
 20
51.3579
 40
0.15
100
AcDbArc
 50
9.28693
 51
98.1301
  0
LINE
  5
19F
100
AcDbEntity
  8
Make_Solder_Side
  6
CONTINUOUS
 62
    1
370
   -1
100
AcDbLine
 10
56.0938
 20
50.8
 11
56.0938
 21
54.4801
  0
ARC
  5
1A0
100
AcDbEntity
  8
Make_Solder_Side
  6
CONTINUOUS
 62
    1
370
   -1
100
AcDbCircle
 10
56.2438
 20
54.4801
 40
0.15
100
AcDbArc
 50
90
 51
180
  0
LINE
  5
1A1
100
AcDbEntity
  8
Make_Solder_Side
  6
CONTINUOUS
 62
    1
370
   -1
100
AcDbLine
 10
56.2438
 20
54.6301
 11
56.8052
 21
54.6301
  0
ARC
  5
1A2
100
AcDbEntity
  8
Make_Solder_Side
  6
CONTINUOUS
 62
    1
370
   -1
100
AcDbCircle
 10
56.8052
 20
54.4801
 40
0.15
100
AcDbArc
 50
0
 51
90
  0
LINE
  5
1A3
100
AcDbEntity
  8
Make_Solder_Side
  6
CONTINUOUS
 62
    1
370
   -1
100
AcDbLine
 10
56.9552
 20
54.4801
 11
56.9552
 21
54.4142
  0
LWPOLYLINE
  5
1A4
100
AcDbEntity
  8
Make_Solder_Side
  6
CONTINUOUS
 62
    1
370
   -1
100
AcDbPolyline
 90
    6
 70
    0
 43
0
 10
56.9552
 20
54.4142
 10
57.1723
 20
54.5972
 10
57.4102
 20
54.6919
 10
57.6931
 20
54.7096
 10
58.055
 20
54.6244
 10
58.322
 20
54.4899
  0
ARC
  5
1A5
100
AcDbEntity
  8
Make_Solder_Side
  6
CONTINUOUS
 62
    1
370
   -1
100
AcDbCircle
 10
58.2433
 20
54.3622
 40
0.15
100
AcDbArc
 50
339.632
 51
58.32450000000001
  0
LINE
  5
1A6
100
AcDbEntity
  8
Make_Solder_Side
  6
CONTINUOUS
 62
    1
370
   -1
100
AcDbLine
 10
58.3839
 20
54.31
 11
58.1691
 21
53.7313
  0
ARC
  5
1A7
100
AcDbEntity
  8
Make_Solder_Side
  6
CONTINUOUS
 62
    1
370
   -1
100
AcDbCircle
 10
58.0284
 20
53.7835
 40
0.15
100
AcDbArc
 50
239.421
 51
339.632
  0
LWPOLYLINE
  5
1A8
100
AcDbEntity
  8
Make_Solder_Side
  6
CONTINUOUS
 62
    1
370
   -1
100
AcDbPolyline
 90
   16
 70
    0
 43
0
 10
57.9521
 20
53.6544
 10
57.8533
 20
53.7055
 10
57.7572
 20
53.7411
 10
57.6635
 20
53.7619
 10
57.571
 20
53.7687
 10
57.4591
 20
53.7557
 10
57.3911
 20
53.7329
 10
57.2941
 20
53.676
 10
57.2369
 20
53.6249
 10
57.1883
 20
53.5645
 10
57.1474
 20
53.493
 10
57.1146
 20
53.4092
 10
57.0724
 20
53.2514
 10
57.0421
 20
53.0849
 10
57.0237
 20
52.91
 10
57.0176
 20
52.7267
  0
LINE
  5
1A9
100
AcDbEntity
  8
Make_Solder_Side
  6
CONTINUOUS
 62
    1
370
   -1
100
AcDbLine
 10
57.0176
 20
52.7267
 11
57.0176
 21
50.8
  0
ARC
  5
1AA
100
AcDbEntity
  8
Make_Solder_Side
  6
CONTINUOUS
 62
    1
370
   -1
100
AcDbCircle
 10
56.8676
 20
50.8
 40
0.15
100
AcDbArc
 50
270
 51
0
  0
LINE
  5
1AB
100
AcDbEntity
  8
Make_Solder_Side
  6
CONTINUOUS
 62
    1
370
   -1
100
AcDbLine
 10
56.8676
 20
50.65
 11
56.2438
 21
50.65
  0
ARC
  5
1AC
100
AcDbEntity
  8
Make_Solder_Side
  6
CONTINUOUS
 62
    1
370
   -1
100
AcDbCircle
 10
56.2438
 20
50.8
 40
0.15
100
AcDbArc
 50
180
 51
270
  0
LWPOLYLINE
  5
1AD
100
AcDbEntity
  8
Make_Solder_Side
  6
CONTINUOUS
 62
    1
370
   -1
100
AcDbPolyline
 90
   25
 70
    1
 43
0
 10
58.2319
 20
52.64
 10
58.3073
 20
53.33
 10
58.5776
 20
53.9597
 10
58.8521
 20
54.2678
 10
58.9849
 20
54.3722
 10
59.1251
 20
54.4628
 10
59.2725
 20
54.5396
 10
59.4269
 20
54.6024
 10
59.5879
 20
54.6511
 10
59.7552
 20
54.6857
 10
59.9285
 20
54.7064
 10
60.1076
 20
54.7132
 10
60.8529
 20
54.5781
 10
61.4558
 20
54.1703
 10
61.8509
 20
53.5235
 10
61.9798
 20
52.692
 10
61.9238
 20
52.0293
 10
61.7496
 20
51.5049
 10
61.4621
 20
51.1078
 10
60.8421
 20
50.7045
 10
60.1074
 20
50.5668
 10
59.3536
 20
50.7013
 10
58.7502
 20
51.1084
 10
58.3587
 20
51.7696
 10
58.2319
 20
52.64
  0
LWPOLYLINE
  5
1AE
100
AcDbEntity
  8
Make_Solder_Side
  6
CONTINUOUS
 62
    1
370
   -1
100
AcDbPolyline
 90
   35
 70
    1
 43
0
 10
59.1911
 20
52.9526
 10
59.1911
 20
52.3273
 10
59.2441
 20
52.0639
 10
59.3292
 20
51.8492
 10
59.383
 20
51.7593
 10
59.5135
 20
51.6084
 10
59.662
 20
51.4959
 10
59.8253
 20
51.4219
 10
60.0078
 20
51.3845
 10
60.2064
 20
51.3845
 10
60.3873
 20
51.422
 10
60.5497
 20
51.4963
 10
60.6978
 20
51.6094
 10
60.8283
 20
51.7612
 10
60.8821
 20
51.8521
 10
60.9286
 20
51.955
 10
60.9674
 20
52.0706
 10
61.0205
 20
52.3401
 10
61.0206
 20
52.9622
 10
60.9675
 20
53.2177
 10
60.882
 20
53.4278
 10
60.7661
 20
53.596
 10
60.6234
 20
53.7295
 10
60.4685
 20
53.8225
 10
60.2981
 20
53.8781
 10
60.1075
 20
53.8969
 10
59.9137
 20
53.8781
 10
59.7413
 20
53.8227
 10
59.5858
 20
53.7303
 10
59.4439
 20
53.5977
 10
59.3829
 20
53.5192
 10
59.3291
 20
53.4297
 10
59.2828
 20
53.3287
 10
59.2134
 20
53.0903
 10
59.1911
 20
52.9526
  0
LINE
  5
1AF
100
AcDbEntity
  8
Make_Solder_Side
  6
CONTINUOUS
 62
    1
370
   -1
100
AcDbLine
 10
41.7622
 20
44.5038
 11
43.2254
 21
48.3138
  0
ARC
  5
1B0
100
AcDbEntity
  8
Make_Solder_Side
  6
CONTINUOUS
 62
    1
370
   -1
100
AcDbCircle
 10
43.3654
 20
48.26
 40
0.15
100
AcDbArc
 50
90
 51
158.991
  0
LINE
  5
1B1
100
AcDbEntity
  8
Make_Solder_Side
  6
CONTINUOUS
 62
    1
370
   -1
100
AcDbLine
 10
43.3654
 20
48.41
 11
43.9086
 21
48.41
  0
ARC
  5
1B2
100
AcDbEntity
  8
Make_Solder_Side
  6
CONTINUOUS
 62
    1
370
   -1
100
AcDbCircle
 10
43.9086
 20
48.26
 40
0.15
100
AcDbArc
 50
22.2582
 51
90
  0
LINE
  5
1B3
100
AcDbEntity
  8
Make_Solder_Side
  6
CONTINUOUS
 62
    1
370
   -1
100
AcDbLine
 10
44.0474
 20
48.3168
 11
45.6067
 21
44.5068
  0
ARC
  5
1B4
100
AcDbEntity
  8
Make_Solder_Side
  6
CONTINUOUS
 62
    1
370
   -1
100
AcDbCircle
 10
45.4679
 20
44.45
 40
0.15
100
AcDbArc
 50
270
 51
22.2582
  0
LINE
  5
1B5
100
AcDbEntity
  8
Make_Solder_Side
  6
CONTINUOUS
 62
    1
370
   -1
100
AcDbLine
 10
45.4679
 20
44.3
 11
44.8935
 21
44.3
  0
ARC
  5
1B6
100
AcDbEntity
  8
Make_Solder_Side
  6
CONTINUOUS
 62
    1
370
   -1
100
AcDbCircle
 10
44.8935
 20
44.45
 40
0.15
100
AcDbArc
 50
201.063
 51
270
  0
LINE
  5
1B7
100
AcDbEntity
  8
Make_Solder_Side
  6
CONTINUOUS
 62
    1
370
   -1
100
AcDbLine
 10
44.7536
 20
44.3961
 11
44.3462
 21
45.4539
  0
LINE
  5
1B8
100
AcDbEntity
  8
Make_Solder_Side
  6
CONTINUOUS
 62
    1
370
   -1
100
AcDbLine
 10
44.3462
 20
45.4539
 11
42.9612
 21
45.4539
  0
LINE
  5
1B9
100
AcDbEntity
  8
Make_Solder_Side
  6
CONTINUOUS
 62
    1
370
   -1
100
AcDbLine
 10
42.9612
 20
45.4539
 11
42.5786
 21
44.3989
  0
ARC
  5
1BA
100
AcDbEntity
  8
Make_Solder_Side
  6
CONTINUOUS
 62
    1
370
   -1
100
AcDbCircle
 10
42.4376
 20
44.45
 40
0.15
100
AcDbArc
 50
270
 51
340.069
  0
LINE
  5
1BB
100
AcDbEntity
  8
Make_Solder_Side
  6
CONTINUOUS
 62
    1
370
   -1
100
AcDbLine
 10
42.4376
 20
44.3
 11
41.9022
 21
44.3
  0
ARC
  5
1BC
100
AcDbEntity
  8
Make_Solder_Side
  6
CONTINUOUS
 62
    1
370
   -1
100
AcDbCircle
 10
41.9022
 20
44.45
 40
0.15
100
AcDbArc
 50
158.991
 51
270
  0
LINE
  5
1BD
100
AcDbEntity
  8
Make_Solder_Side
  6
CONTINUOUS
 62
    1
370
   -1
100
AcDbLine
 10
43.2179
 20
46.1645
 11
44.0764
 21
46.1645
  0
LINE
  5
1BE
100
AcDbEntity
  8
Make_Solder_Side
  6
CONTINUOUS
 62
    1
370
   -1
100
AcDbLine
 10
44.0764
 20
46.1645
 11
43.7553
 21
47.0166
  0
LWPOLYLINE
  5
1BF
100
AcDbEntity
  8
Make_Solder_Side
  6
CONTINUOUS
 62
    1
370
   -1
100
AcDbPolyline
 90
    3
 70
    0
 43
0
 10
43.7553
 20
47.0166
 10
43.643
 20
47.3234
 10
43.5606
 20
47.0799
  0
LINE
  5
1C0
100
AcDbEntity
  8
Make_Solder_Side
  6
CONTINUOUS
 62
    1
370
   -1
100
AcDbLine
 10
43.5606
 20
47.0799
 11
43.2179
 21
46.1645
  0
LINE
  5
1C1
100
AcDbEntity
  8
Make_Solder_Side
  6
CONTINUOUS
 62
    1
370
   -1
100
AcDbLine
 10
46.3413
 20
44.3967
 11
45.2913
 21
47.1567
  0
ARC
  5
1C2
100
AcDbEntity
  8
Make_Solder_Side
  6
CONTINUOUS
 62
    1
370
   -1
100
AcDbCircle
 10
45.4315
 20
47.21
 40
0.15
100
AcDbArc
 50
90
 51
200.828
  0
LINE
  5
1C3
100
AcDbEntity
  8
Make_Solder_Side
  6
CONTINUOUS
 62
    1
370
   -1
100
AcDbLine
 10
45.4315
 20
47.36
 11
45.9253
 21
47.36
  0
ARC
  5
1C4
100
AcDbEntity
  8
Make_Solder_Side
  6
CONTINUOUS
 62
    1
370
   -1
100
AcDbCircle
 10
45.9253
 20
47.21
 40
0.15
100
AcDbArc
 50
19.7223
 51
90
  0
LINE
  5
1C5
100
AcDbEntity
  8
Make_Solder_Side
  6
CONTINUOUS
 62
    1
370
   -1
100
AcDbLine
 10
46.0665
 20
47.2607
 11
46.659
 21
45.6078
  0
LWPOLYLINE
  5
1C6
100
AcDbEntity
  8
Make_Solder_Side
  6
CONTINUOUS
 62
    1
370
   -1
100
AcDbPolyline
 90
    3
 70
    0
 43
0
 10
46.659
 20
45.6078
 10
46.6984
 20
45.495
 10
46.7278
 20
45.5773
  0
LINE
  5
1C7
100
AcDbEntity
  8
Make_Solder_Side
  6
CONTINUOUS
 62
    1
370
   -1
100
AcDbLine
 10
46.7278
 20
45.5773
 11
47.3411
 21
47.2614
  0
ARC
  5
1C8
100
AcDbEntity
  8
Make_Solder_Side
  6
CONTINUOUS
 62
    1
370
   -1
100
AcDbCircle
 10
47.4821
 20
47.21
 40
0.15
100
AcDbArc
 50
90
 51
159.989
  0
LINE
  5
1C9
100
AcDbEntity
  8
Make_Solder_Side
  6
CONTINUOUS
 62
    1
370
   -1
100
AcDbLine
 10
47.4821
 20
47.36
 11
47.9629
 21
47.36
  0
ARC
  5
1CA
100
AcDbEntity
  8
Make_Solder_Side
  6
CONTINUOUS
 62
    1
370
   -1
100
AcDbCircle
 10
47.9629
 20
47.21
 40
0.15
100
AcDbArc
 50
339.267
 51
90
  0
LINE
  5
1CB
100
AcDbEntity
  8
Make_Solder_Side
  6
CONTINUOUS
 62
    1
370
   -1
100
AcDbLine
 10
48.1031
 20
47.1569
 11
47.0584
 21
44.3969
  0
ARC
  5
1CC
100
AcDbEntity
  8
Make_Solder_Side
  6
CONTINUOUS
 62
    1
370
   -1
100
AcDbCircle
 10
46.9181
 20
44.45
 40
0.15
100
AcDbArc
 50
270
 51
339.267
  0
LINE
  5
1CD
100
AcDbEntity
  8
Make_Solder_Side
  6
CONTINUOUS
 62
    1
370
   -1
100
AcDbLine
 10
46.9181
 20
44.3
 11
46.4815
 21
44.3
  0
ARC
  5
1CE
100
AcDbEntity
  8
Make_Solder_Side
  6
CONTINUOUS
 62
    1
370
   -1
100
AcDbCircle
 10
46.4815
 20
44.45
 40
0.15
100
AcDbArc
 50
200.828
 51
270
  0
LINE
  5
1CF
100
AcDbEntity
  8
Make_Solder_Side
  6
CONTINUOUS
 62
    1
370
   -1
100
AcDbLine
 10
50.2839
 20
45.4877
 11
50.7673
 21
45.4279
  0
ARC
  5
1D0
100
AcDbEntity
  8
Make_Solder_Side
  6
CONTINUOUS
 62
    1
370
   -1
100
AcDbCircle
 10
50.7489
 20
45.2791
 40
0.15
100
AcDbArc
 50
344.894
 51
82.9508
  0
LWPOLYLINE
  5
1D1
100
AcDbEntity
  8
Make_Solder_Side
  6
CONTINUOUS
 62
    1
370
   -1
100
AcDbPolyline
 90
   51
 70
    0
 43
0
 10
50.8937
 20
45.24
 10
50.859
 20
45.127
 10
50.6484
 20
44.7318
 10
50.3707
 20
44.4695
 10
50.176
 20
44.361
 10
49.9597
 20
44.287
 10
49.5351
 20
44.2376
 10
49.3756
 20
44.2439
 10
49.2227
 20
44.2631
 10
49.0767
 20
44.2954
 10
48.938
 20
44.341
 10
48.8071
 20
44.4002
 10
48.6845
 20
44.4728
 10
48.5707
 20
44.5586
 10
48.4662
 20
44.6572
 10
48.2907
 20
44.8892
 10
48.2223
 20
45.0202
 10
48.1668
 20
45.1604
 10
48.1241
 20
45.3094
 10
48.0939
 20
45.4668
 10
48.0761
 20
45.6326
 10
48.0702
 20
45.8066
 10
48.0761
 20
45.9861
 10
48.0941
 20
46.1569
 10
48.1245
 20
46.3191
 10
48.1674
 20
46.4724
 10
48.2233
 20
46.6166
 10
48.4691
 20
46.9901
 10
48.5731
 20
47.0909
 10
48.6854
 20
47.1789
 10
48.8057
 20
47.2537
 10
48.9334
 20
47.3149
 10
49.0681
 20
47.3623
 10
49.2093
 20
47.3959
 10
49.3564
 20
47.4158
 10
49.5092
 20
47.4224
 10
49.6578
 20
47.4159
 10
49.8009
 20
47.3963
 10
49.9384
 20
47.3633
 10
50.0698
 20
47.3167
 10
50.1944
 20
47.2565
 10
50.3119
 20
47.1831
 10
50.4216
 20
47.0967
 10
50.5234
 20
46.9978
 10
50.6969
 20
46.7633
 10
50.7644
 20
46.6309
 10
50.8192
 20
46.4892
 10
50.8613
 20
46.3385
 10
50.891
 20
46.1793
 10
50.9087
 20
46.0115
 10
50.9118
 20
45.7058
  0
ARC
  5
1D2
100
AcDbEntity
  8
Make_Solder_Side
  6
CONTINUOUS
 62
    1
370
   -1
100
AcDbCircle
 10
50.7619
 20
45.7105
 40
0.15
100
AcDbArc
 50
270
 51
358.21
  0
LINE
  5
1D3
100
AcDbEntity
  8
Make_Solder_Side
  6
CONTINUOUS
 62
    1
370
   -1
100
AcDbLine
 10
50.7619
 20
45.5605
 11
48.8705
 21
45.5605
  0
LWPOLYLINE
  5
1D4
100
AcDbEntity
  8
Make_Solder_Side
  6
CONTINUOUS
 62
    1
370
   -1
100
AcDbPolyline
 90
   15
 70
    0
 43
0
 10
48.8705
 20
45.5605
 10
48.9084
 20
45.3991
 10
48.9682
 20
45.2573
 10
49.0466
 20
45.1426
 10
49.1436
 20
45.0503
 10
49.2504
 20
44.9838
 10
49.3684
 20
44.9416
 10
49.5907
 20
44.924
 10
49.6878
 20
44.9377
 10
49.774
 20
44.9642
 10
49.8515
 20
45.0033
 10
49.9534
 20
45.0872
 10
50.0154
 20
45.1662
 10
50.0728
 20
45.2667
 10
50.1243
 20
45.3896
  0
ARC
  5
1D5
100
AcDbEntity
  8
Make_Solder_Side
  6
CONTINUOUS
 62
    1
370
   -1
100
AcDbCircle
 10
50.2655
 20
45.3388
 40
0.15
100
AcDbArc
 50
82.9508
 51
160.219
  0
LINE
  5
1D6
100
AcDbEntity
  8
Make_Solder_Side
  6
CONTINUOUS
 62
    1
370
   -1
100
AcDbLine
 10
48.9026
 20
46.2451
 11
50.0972
 21
46.2451
  0
LWPOLYLINE
  5
1D7
100
AcDbEntity
  8
Make_Solder_Side
  6
CONTINUOUS
 62
    1
370
   -1
100
AcDbPolyline
 90
   12
 70
    0
 43
0
 10
50.0972
 20
46.2451
 10
50.0688
 20
46.3518
 10
50.0039
 20
46.4877
 10
49.9307
 20
46.574
 10
49.8288
 20
46.6546
 10
49.7157
 20
46.7074
 10
49.5865
 20
46.7343
 10
49.3283
 20
46.7132
 10
49.2211
 20
46.6706
 10
49.0359
 20
46.5198
 10
48.9674
 20
46.4185
 10
48.9026
 20
46.2451
  0
LINE
  5
1D8
100
AcDbEntity
  8
Make_Solder_Side
  6
CONTINUOUS
 62
    1
370
   -1
100
AcDbLine
 10
51.181
 20
44.45
 11
51.181
 21
47.21
  0
ARC
  5
1D9
100
AcDbEntity
  8
Make_Solder_Side
  6
CONTINUOUS
 62
    1
370
   -1
100
AcDbCircle
 10
51.331
 20
47.21
 40
0.15
100
AcDbArc
 50
90
 51
180
  0
LINE
  5
1DA
100
AcDbEntity
  8
Make_Solder_Side
  6
CONTINUOUS
 62
    1
370
   -1
100
AcDbLine
 10
51.331
 20
47.36
 11
51.7521
 21
47.36
  0
ARC
  5
1DB
100
AcDbEntity
  8
Make_Solder_Side
  6
CONTINUOUS
 62
    1
370
   -1
100
AcDbCircle
 10
51.7521
 20
47.21
 40
0.15
100
AcDbArc
 50
14.358
 51
90
  0
LWPOLYLINE
  5
1DC
100
AcDbEntity
  8
Make_Solder_Side
  6
CONTINUOUS
 62
    1
370
   -1
100
AcDbPolyline
 90
    8
 70
    0
 43
0
 10
51.8974
 20
47.2472
 10
51.9648
 20
47.3026
 10
52.0536
 20
47.3545
 10
52.1483
 20
47.3922
 10
52.2475
 20
47.4149
 10
52.492
 20
47.4112
 10
52.7724
 20
47.3236
 10
52.9094
 20
47.2493
  0
ARC
  5
1DD
100
AcDbEntity
  8
Make_Solder_Side
  6
CONTINUOUS
 62
    1
370
   -1
100
AcDbCircle
 10
52.8306
 20
47.1217
 40
0.15
100
AcDbArc
 50
339.632
 51
58.32450000000001
  0
LINE
  5
1DE
100
AcDbEntity
  8
Make_Solder_Side
  6
CONTINUOUS
 62
    1
370
   -1
100
AcDbLine
 10
52.9712
 20
47.0695
 11
52.8101
 21
46.6355
  0
ARC
  5
1DF
100
AcDbEntity
  8
Make_Solder_Side
  6
CONTINUOUS
 62
    1
370
   -1
100
AcDbCircle
 10
52.6695
 20
46.6877
 40
0.15
100
AcDbArc
 50
239.421
 51
339.632
  0
LWPOLYLINE
  5
1E0
100
AcDbEntity
  8
Make_Solder_Side
  6
CONTINUOUS
 62
    1
370
   -1
100
AcDbPolyline
 90
    9
 70
    0
 43
0
 10
52.5932
 20
46.5585
 10
52.4555
 20
46.6198
 10
52.3264
 20
46.639
 10
52.2285
 20
46.6237
 10
52.1413
 20
46.5771
 10
52.0704
 20
46.5023
 10
52.0199
 20
46.3956
 10
51.9668
 20
46.1584
 10
51.9488
 20
45.895
  0
LINE
  5
1E1
100
AcDbEntity
  8
Make_Solder_Side
  6
CONTINUOUS
 62
    1
370
   -1
100
AcDbLine
 10
51.9488
 20
45.895
 11
51.9488
 21
44.45
  0
ARC
  5
1E2
100
AcDbEntity
  8
Make_Solder_Side
  6
CONTINUOUS
 62
    1
370
   -1
100
AcDbCircle
 10
51.7988
 20
44.45
 40
0.15
100
AcDbArc
 50
270
 51
0
  0
LINE
  5
1E3
100
AcDbEntity
  8
Make_Solder_Side
  6
CONTINUOUS
 62
    1
370
   -1
100
AcDbLine
 10
51.7988
 20
44.3
 11
51.331
 21
44.3
  0
ARC
  5
1E4
100
AcDbEntity
  8
Make_Solder_Side
  6
CONTINUOUS
 62
    1
370
   -1
100
AcDbCircle
 10
51.331
 20
44.45
 40
0.15
100
AcDbArc
 50
180
 51
270
  0
LINE
  5
1E5
100
AcDbEntity
  8
Make_Solder_Side
  6
CONTINUOUS
 62
    1
370
   -1
100
AcDbLine
 10
54.2781
 20
44.8926
 11
54.3457
 21
44.4794
  0
ARC
  5
1E6
100
AcDbEntity
  8
Make_Solder_Side
  6
CONTINUOUS
 62
    1
370
   -1
100
AcDbCircle
 10
54.1976
 20
44.4552
 40
0.15
100
AcDbArc
 50
281.889
 51
9.28693
  0
LWPOLYLINE
  5
1E7
100
AcDbEntity
  8
Make_Solder_Side
  6
CONTINUOUS
 62
    1
370
   -1
100
AcDbPolyline
 90
   11
 70
    0
 43
0
 10
54.2285
 20
44.3084
 10
53.8441
 20
44.2636
 10
53.7107
 20
44.2692
 10
53.5881
 20
44.2868
 10
53.3745
 20
44.3641
 10
53.2919
 20
44.4194
 10
53.2199
 20
44.4851
 10
53.1141
 20
44.6461
 10
53.0798
 20
44.7588
 10
53.0596
 20
44.8942
 10
53.0445
 20
45.2583
  0
LINE
  5
1E8
100
AcDbEntity
  8
Make_Solder_Side
  6
CONTINUOUS
 62
    1
370
   -1
100
AcDbLine
 10
53.0445
 20
45.2583
 11
53.0445
 21
46.6962
  0
LINE
  5
1E9
100
AcDbEntity
  8
Make_Solder_Side
  6
CONTINUOUS
 62
    1
370
   -1
100
AcDbLine
 10
53.0445
 20
46.6962
 11
52.8514
 21
46.6962
  0
ARC
  5
1EA
100
AcDbEntity
  8
Make_Solder_Side
  6
CONTINUOUS
 62
    1
370
   -1
100
AcDbCircle
 10
52.8514
 20
46.8462
 40
0.15
100
AcDbArc
 50
180
 51
270
  0
LINE
  5
1EB
100
AcDbEntity
  8
Make_Solder_Side
  6
CONTINUOUS
 62
    1
370
   -1
100
AcDbLine
 10
52.7014
 20
46.8462
 11
52.7014
 21
47.21
  0
ARC
  5
1EC
100
AcDbEntity
  8
Make_Solder_Side
  6
CONTINUOUS
 62
    1
370
   -1
100
AcDbCircle
 10
52.8514
 20
47.21
 40
0.15
100
AcDbArc
 50
90
 51
180
  0
LINE
  5
1ED
100
AcDbEntity
  8
Make_Solder_Side
  6
CONTINUOUS
 62
    1
370
   -1
100
AcDbLine
 10
52.8514
 20
47.36
 11
53.0445
 21
47.36
  0
LINE
  5
1EE
100
AcDbEntity
  8
Make_Solder_Side
  6
CONTINUOUS
 62
    1
370
   -1
100
AcDbLine
 10
53.0445
 20
47.36
 11
53.0445
 21
47.8936
  0
ARC
  5
1EF
100
AcDbEntity
  8
Make_Solder_Side
  6
CONTINUOUS
 62
    1
370
   -1
100
AcDbCircle
 10
53.1945
 20
47.8936
 40
0.15
100
AcDbArc
 50
121.105
 51
180
  0
LINE
  5
1F0
100
AcDbEntity
  8
Make_Solder_Side
  6
CONTINUOUS
 62
    1
370
   -1
100
AcDbLine
 10
53.117
 20
48.022
 11
53.5822
 21
48.3027
  0
ARC
  5
1F1
100
AcDbEntity
  8
Make_Solder_Side
  6
CONTINUOUS
 62
    1
370
   -1
100
AcDbCircle
 10
53.6597
 20
48.1742
 40
0.15
100
AcDbArc
 50
0
 51
121.105
  0
LINE
  5
1F2
100
AcDbEntity
  8
Make_Solder_Side
  6
CONTINUOUS
 62
    1
370
   -1
100
AcDbLine
 10
53.8097
 20
48.1742
 11
53.8097
 21
47.36
  0
LINE
  5
1F3
100
AcDbEntity
  8
Make_Solder_Side
  6
CONTINUOUS
 62
    1
370
   -1
100
AcDbLine
 10
53.8097
 20
47.36
 11
54.1301
 21
47.36
  0
ARC
  5
1F4
100
AcDbEntity
  8
Make_Solder_Side
  6
CONTINUOUS
 62
    1
370
   -1
100
AcDbCircle
 10
54.1301
 20
47.21
 40
0.15
100
AcDbArc
 50
0
 51
90
  0
LINE
  5
1F5
100
AcDbEntity
  8
Make_Solder_Side
  6
CONTINUOUS
 62
    1
370
   -1
100
AcDbLine
 10
54.2801
 20
47.21
 11
54.2801
 21
46.8462
  0
ARC
  5
1F6
100
AcDbEntity
  8
Make_Solder_Side
  6
CONTINUOUS
 62
    1
370
   -1
100
AcDbCircle
 10
54.1301
 20
46.8462
 40
0.15
100
AcDbArc
 50
270
 51
0
  0
LINE
  5
1F7
100
AcDbEntity
  8
Make_Solder_Side
  6
CONTINUOUS
 62
    1
370
   -1
100
AcDbLine
 10
54.1301
 20
46.6962
 11
53.8097
 21
46.6962
  0
LINE
  5
1F8
100
AcDbEntity
  8
Make_Solder_Side
  6
CONTINUOUS
 62
    1
370
   -1
100
AcDbLine
 10
53.8097
 20
46.6962
 11
53.8097
 21
45.2323
  0
LWPOLYLINE
  5
1F9
100
AcDbEntity
  8
Make_Solder_Side
  6
CONTINUOUS
 62
    1
370
   -1
100
AcDbPolyline
 90
    7
 70
    0
 43
0
 10
53.8097
 20
45.2323
 10
53.8179
 20
45.0587
 10
53.8237
 20
45.031
 10
53.8443
 20
45.0114
 10
53.8754
 20
45.0034
 10
53.9593
 20
45.0012
 10
54.1089
 20
45.0169
  0
ARC
  5
1FA
100
AcDbEntity
  8
Make_Solder_Side
  6
CONTINUOUS
 62
    1
370
   -1
100
AcDbCircle
 10
54.1301
 20
44.8684
 40
0.15
100
AcDbArc
 50
9.28693
 51
98.1301
  0
LWPOLYLINE
  5
1FB
100
AcDbEntity
  8
Make_Solder_Side
  6
CONTINUOUS
 62
    1
370
   -1
100
AcDbPolyline
 90
   43
 70
    1
 43
0
 10
54.2633
 20
45.83
 10
54.2704
 20
46.0266
 10
54.2919
 20
46.2122
 10
54.5292
 20
46.8409
 10
54.7415
 20
47.0792
 10
54.9519
 20
47.2295
 10
55.0656
 20
47.2888
 10
55.1846
 20
47.3372
 10
55.4374
 20
47.4013
 10
55.7076
 20
47.4224
 10
55.8595
 20
47.416
 10
56.0058
 20
47.3967
 10
56.1463
 20
47.3642
 10
56.2806
 20
47.3184
 10
56.4082
 20
47.2592
 10
56.5285
 20
47.1869
 10
56.6411
 20
47.1016
 10
56.7458
 20
47.0038
 10
56.9241
 20
46.7733
 10
56.9939
 20
46.6436
 10
57.0505
 20
46.505
 10
57.0941
 20
46.358
 10
57.1249
 20
46.2028
 10
57.1432
 20
46.0398
 10
57.1387
 20
45.6043
 10
57.0518
 20
45.1506
 10
56.6082
 20
44.5298
 10
56.1832
 20
44.3117
 10
55.7075
 20
44.2376
 10
55.5536
 20
44.244
 10
55.4055
 20
44.2632
 10
55.2636
 20
44.2955
 10
55.1283
 20
44.3411
 10
55
 20
44.4001
 10
54.8793
 20
44.4724
 10
54.7667
 20
44.5576
 10
54.6626
 20
44.6553
 10
54.4162
 20
45.0223
 10
54.3604
 20
45.1653
 10
54.3175
 20
45.3178
 10
54.2872
 20
45.4794
 10
54.2693
 20
45.6502
 10
54.2633
 20
45.83
  0
LWPOLYLINE
  5
1FC
100
AcDbEntity
  8
Make_Solder_Side
  6
CONTINUOUS
 62
    1
370
   -1
100
AcDbPolyline
 90
   29
 70
    1
 43
0
 10
55.0574
 20
46.0598
 10
55.096
 20
45.4084
 10
55.1571
 20
45.2543
 10
55.2382
 20
45.1349
 10
55.3391
 20
45.0402
 10
55.4486
 20
44.9748
 10
55.5698
 20
44.9357
 10
55.7076
 20
44.9223
 10
55.8439
 20
44.9357
 10
55.9642
 20
44.9749
 10
56.0732
 20
45.0406
 10
56.1741
 20
45.136
 10
56.2552
 20
45.2563
 10
56.3164
 20
45.4132
 10
56.3552
 20
46.0669
 10
56.3166
 20
46.2525
 10
56.2554
 20
46.4032
 10
56.1734
 20
46.5222
 10
56.0719
 20
46.6173
 10
55.9627
 20
46.6828
 10
55.8429
 20
46.7218
 10
55.7076
 20
46.7352
 10
55.5697
 20
46.7218
 10
55.4483
 20
46.6828
 10
55.3389
 20
46.6177
 10
55.238
 20
46.5235
 10
55.157
 20
46.4048
 10
55.096
 20
46.2513
 10
55.0574
 20
46.0598
  0
LINE
  5
1FD
100
AcDbEntity
  8
Make_Solder_Side
  6
CONTINUOUS
 62
    1
370
   -1
100
AcDbLine
 10
57.3976
 20
44.45
 11
57.3976
 21
47.21
  0
ARC
  5
1FE
100
AcDbEntity
  8
Make_Solder_Side
  6
CONTINUOUS
 62
    1
370
   -1
100
AcDbCircle
 10
57.5476
 20
47.21
 40
0.15
100
AcDbArc
 50
90
 51
180
  0
LINE
  5
1FF
100
AcDbEntity
  8
Make_Solder_Side
  6
CONTINUOUS
 62
    1
370
   -1
100
AcDbLine
 10
57.5476
 20
47.36
 11
57.9687
 21
47.36
  0
ARC
  5
200
100
AcDbEntity
  8
Make_Solder_Side
  6
CONTINUOUS
 62
    1
370
   -1
100
AcDbCircle
 10
57.9687
 20
47.21
 40
0.15
100
AcDbArc
 50
0
 51
90
  0
LINE
  5
201
100
AcDbEntity
  8
Make_Solder_Side
  6
CONTINUOUS
 62
    1
370
   -1
100
AcDbLine
 10
58.1187
 20
47.21
 11
58.1187
 21
47.1951
  0
LWPOLYLINE
  5
202
100
AcDbEntity
  8
Make_Solder_Side
  6
CONTINUOUS
 62
    1
370
   -1
100
AcDbPolyline
 90
   14
 70
    0
 43
0
 10
58.1187
 20
47.1951
 10
58.3363
 20
47.3228
 10
58.7687
 20
47.4204
 10
58.9157
 20
47.4209
 10
59.0498
 20
47.4083
 10
59.1796
 20
47.3829
 10
59.3044
 20
47.3446
 10
59.4228
 20
47.294
 10
59.5298
 20
47.2333
 10
59.7059
 20
47.0799
 10
59.7708
 20
46.9904
 10
59.8656
 20
46.7953
 10
59.919
 20
46.5882
 10
59.9405
 20
46.1471
  0
LINE
  5
203
100
AcDbEntity
  8
Make_Solder_Side
  6
CONTINUOUS
 62
    1
370
   -1
100
AcDbLine
 10
59.9405
 20
46.1471
 11
59.9405
 21
44.45
  0
ARC
  5
204
100
AcDbEntity
  8
Make_Solder_Side
  6
CONTINUOUS
 62
    1
370
   -1
100
AcDbCircle
 10
59.7905
 20
44.45
 40
0.15
100
AcDbArc
 50
270
 51
0
  0
LINE
  5
205
100
AcDbEntity
  8
Make_Solder_Side
  6
CONTINUOUS
 62
    1
370
   -1
100
AcDbLine
 10
59.7905
 20
44.3
 11
59.3227
 21
44.3
  0
ARC
  5
206
100
AcDbEntity
  8
Make_Solder_Side
  6
CONTINUOUS
 62
    1
370
   -1
100
AcDbCircle
 10
59.3227
 20
44.45
 40
0.15
100
AcDbArc
 50
180
 51
270
  0
LINE
  5
207
100
AcDbEntity
  8
Make_Solder_Side
  6
CONTINUOUS
 62
    1
370
   -1
100
AcDbLine
 10
59.1727
 20
44.45
 11
59.1727
 21
46.1289
  0
LWPOLYLINE
  5
208
100
AcDbEntity
  8
Make_Solder_Side
  6
CONTINUOUS
 62
    1
370
   -1
100
AcDbPolyline
 90
   13
 70
    0
 43
0
 10
59.1727
 20
46.1289
 10
59.1603
 20
46.3597
 10
59.1281
 20
46.5025
 10
59.0785
 20
46.5862
 10
58.9966
 20
46.6543
 10
58.8858
 20
46.7007
 10
58.7483
 20
46.717
 10
58.5217
 20
46.6788
 10
58.3312
 20
46.5643
 10
58.2666
 20
46.4847
 10
58.2133
 20
46.3591
 10
58.1779
 20
46.183
 10
58.1654
 20
45.9574
  0
LINE
  5
209
100
AcDbEntity
  8
Make_Solder_Side
  6
CONTINUOUS
 62
    1
370
   -1
100
AcDbLine
 10
58.1654
 20
45.9574
 11
58.1654
 21
44.45
  0
ARC
  5
20A
100
AcDbEntity
  8
Make_Solder_Side
  6
CONTINUOUS
 62
    1
370
   -1
100
AcDbCircle
 10
58.0154
 20
44.45
 40
0.15
100
AcDbArc
 50
270
 51
0
  0
LINE
  5
20B
100
AcDbEntity
  8
Make_Solder_Side
  6
CONTINUOUS
 62
    1
370
   -1
100
AcDbLine
 10
58.0154
 20
44.3
 11
57.5476
 21
44.3
  0
ARC
  5
20C
100
AcDbEntity
  8
Make_Solder_Side
  6
CONTINUOUS
 62
    1
370
   -1
100
AcDbCircle
 10
57.5476
 20
44.45
 40
0.15
100
AcDbArc
 50
180
 51
270
  0
LINE
  5
20D
100
AcDbEntity
  8
Make_Solder_Side
  6
CONTINUOUS
 62
    1
370
   -1
100
AcDbLine
 10
42.181
 20
38.5037
 11
42.181
 21
42.3137
  0
ARC
  5
20E
100
AcDbEntity
  8
Make_Solder_Side
  6
CONTINUOUS
 62
    1
370
   -1
100
AcDbCircle
 10
42.331
 20
42.3137
 40
0.15
100
AcDbArc
 50
90
 51
180
  0
LINE
  5
20F
100
AcDbEntity
  8
Make_Solder_Side
  6
CONTINUOUS
 62
    1
370
   -1
100
AcDbLine
 10
42.331
 20
42.4637
 11
45.0859
 21
42.4637
  0
ARC
  5
210
100
AcDbEntity
  8
Make_Solder_Side
  6
CONTINUOUS
 62
    1
370
   -1
100
AcDbCircle
 10
45.0859
 20
42.3137
 40
0.15
100
AcDbArc
 50
0
 51
90
  0
LINE
  5
211
100
AcDbEntity
  8
Make_Solder_Side
  6
CONTINUOUS
 62
    1
370
   -1
100
AcDbLine
 10
45.2359
 20
42.3137
 11
45.2359
 21
41.8641
  0
ARC
  5
212
100
AcDbEntity
  8
Make_Solder_Side
  6
CONTINUOUS
 62
    1
370
   -1
100
AcDbCircle
 10
45.0859
 20
41.8641
 40
0.15
100
AcDbArc
 50
270
 51
0
  0
LINE
  5
213
100
AcDbEntity
  8
Make_Solder_Side
  6
CONTINUOUS
 62
    1
370
   -1
100
AcDbLine
 10
45.0859
 20
41.7141
 11
42.9852
 21
41.7141
  0
LINE
  5
214
100
AcDbEntity
  8
Make_Solder_Side
  6
CONTINUOUS
 62
    1
370
   -1
100
AcDbLine
 10
42.9852
 20
41.7141
 11
42.9852
 21
40.8472
  0
LINE
  5
215
100
AcDbEntity
  8
Make_Solder_Side
  6
CONTINUOUS
 62
    1
370
   -1
100
AcDbLine
 10
42.9852
 20
40.8472
 11
44.9429
 21
40.8472
  0
ARC
  5
216
100
AcDbEntity
  8
Make_Solder_Side
  6
CONTINUOUS
 62
    1
370
   -1
100
AcDbCircle
 10
44.9429
 20
40.6972
 40
0.15
100
AcDbArc
 50
0
 51
90
  0
LINE
  5
217
100
AcDbEntity
  8
Make_Solder_Side
  6
CONTINUOUS
 62
    1
370
   -1
100
AcDbLine
 10
45.0929
 20
40.6972
 11
45.0929
 21
40.2502
  0
ARC
  5
218
100
AcDbEntity
  8
Make_Solder_Side
  6
CONTINUOUS
 62
    1
370
   -1
100
AcDbCircle
 10
44.9429
 20
40.2502
 40
0.15
100
AcDbArc
 50
270
 51
0
  0
LINE
  5
219
100
AcDbEntity
  8
Make_Solder_Side
  6
CONTINUOUS
 62
    1
370
   -1
100
AcDbLine
 10
44.9429
 20
40.1002
 11
42.9852
 21
40.1002
  0
LINE
  5
21A
100
AcDbEntity
  8
Make_Solder_Side
  6
CONTINUOUS
 62
    1
370
   -1
100
AcDbLine
 10
42.9852
 20
40.1002
 11
42.9852
 21
39.1033
  0
LINE
  5
21B
100
AcDbEntity
  8
Make_Solder_Side
  6
CONTINUOUS
 62
    1
370
   -1
100
AcDbLine
 10
42.9852
 20
39.1033
 11
45.1742
 21
39.1033
  0
ARC
  5
21C
100
AcDbEntity
  8
Make_Solder_Side
  6
CONTINUOUS
 62
    1
370
   -1
100
AcDbCircle
 10
45.1742
 20
38.9533
 40
0.15
100
AcDbArc
 50
0
 51
90
  0
LINE
  5
21D
100
AcDbEntity
  8
Make_Solder_Side
  6
CONTINUOUS
 62
    1
370
   -1
100
AcDbLine
 10
45.3242
 20
38.9533
 11
45.3242
 21
38.5037
  0
ARC
  5
21E
100
AcDbEntity
  8
Make_Solder_Side
  6
CONTINUOUS
 62
    1
370
   -1
100
AcDbCircle
 10
45.1742
 20
38.5037
 40
0.15
100
AcDbArc
 50
270
 51
0
  0
LINE
  5
21F
100
AcDbEntity
  8
Make_Solder_Side
  6
CONTINUOUS
 62
    1
370
   -1
100
AcDbLine
 10
45.1742
 20
38.3537
 11
42.331
 21
38.3537
  0
ARC
  5
220
100
AcDbEntity
  8
Make_Solder_Side
  6
CONTINUOUS
 62
    1
370
   -1
100
AcDbCircle
 10
42.331
 20
38.5037
 40
0.15
100
AcDbArc
 50
180
 51
270
  0
LINE
  5
221
100
AcDbEntity
  8
Make_Solder_Side
  6
CONTINUOUS
 62
    1
370
   -1
100
AcDbLine
 10
45.661
 20
38.5037
 11
45.661
 21
41.2637
  0
ARC
  5
222
100
AcDbEntity
  8
Make_Solder_Side
  6
CONTINUOUS
 62
    1
370
   -1
100
AcDbCircle
 10
45.811
 20
41.2637
 40
0.15
100
AcDbArc
 50
90
 51
180
  0
LINE
  5
223
100
AcDbEntity
  8
Make_Solder_Side
  6
CONTINUOUS
 62
    1
370
   -1
100
AcDbLine
 10
45.811
 20
41.4137
 11
46.232
 21
41.4137
  0
ARC
  5
224
100
AcDbEntity
  8
Make_Solder_Side
  6
CONTINUOUS
 62
    1
370
   -1
100
AcDbCircle
 10
46.232
 20
41.2637
 40
0.15
100
AcDbArc
 50
0
 51
90
  0
LINE
  5
225
100
AcDbEntity
  8
Make_Solder_Side
  6
CONTINUOUS
 62
    1
370
   -1
100
AcDbLine
 10
46.382
 20
41.2637
 11
46.382
 21
41.2488
  0
LWPOLYLINE
  5
226
100
AcDbEntity
  8
Make_Solder_Side
  6
CONTINUOUS
 62
    1
370
   -1
100
AcDbPolyline
 90
   14
 70
    0
 43
0
 10
46.382
 20
41.2488
 10
46.5996
 20
41.3765
 10
47.032
 20
41.4741
 10
47.179
 20
41.4746
 10
47.3132
 20
41.462
 10
47.4429
 20
41.4366
 10
47.5678
 20
41.3983
 10
47.6861
 20
41.3477
 10
47.7931
 20
41.287
 10
47.9692
 20
41.1336
 10
48.0342
 20
41.0441
 10
48.1289
 20
40.849
 10
48.1823
 20
40.6419
 10
48.2038
 20
40.2008
  0
LINE
  5
227
100
AcDbEntity
  8
Make_Solder_Side
  6
CONTINUOUS
 62
    1
370
   -1
100
AcDbLine
 10
48.2038
 20
40.2008
 11
48.2038
 21
38.5037
  0
ARC
  5
228
100
AcDbEntity
  8
Make_Solder_Side
  6
CONTINUOUS
 62
    1
370
   -1
100
AcDbCircle
 10
48.0538
 20
38.5037
 40
0.15
100
AcDbArc
 50
270
 51
0
  0
LINE
  5
229
100
AcDbEntity
  8
Make_Solder_Side
  6
CONTINUOUS
 62
    1
370
   -1
100
AcDbLine
 10
48.0538
 20
38.3537
 11
47.586
 21
38.3537
  0
ARC
  5
22A
100
AcDbEntity
  8
Make_Solder_Side
  6
CONTINUOUS
 62
    1
370
   -1
100
AcDbCircle
 10
47.586
 20
38.5037
 40
0.15
100
AcDbArc
 50
180
 51
270
  0
LINE
  5
22B
100
AcDbEntity
  8
Make_Solder_Side
  6
CONTINUOUS
 62
    1
370
   -1
100
AcDbLine
 10
47.436
 20
38.5037
 11
47.436
 21
40.1826
  0
LWPOLYLINE
  5
22C
100
AcDbEntity
  8
Make_Solder_Side
  6
CONTINUOUS
 62
    1
370
   -1
100
AcDbPolyline
 90
   13
 70
    0
 43
0
 10
47.436
 20
40.1826
 10
47.4236
 20
40.4134
 10
47.3915
 20
40.5562
 10
47.3418
 20
40.6399
 10
47.2599
 20
40.708
 10
47.1492
 20
40.7544
 10
47.0116
 20
40.7707
 10
46.785
 20
40.7325
 10
46.5945
 20
40.618
 10
46.5299
 20
40.5384
 10
46.4766
 20
40.4128
 10
46.4412
 20
40.2367
 10
46.4288
 20
40.0111
  0
LINE
  5
22D
100
AcDbEntity
  8
Make_Solder_Side
  6
CONTINUOUS
 62
    1
370
   -1
100
AcDbLine
 10
46.4288
 20
40.0111
 11
46.4288
 21
38.5037
  0
ARC
  5
22E
100
AcDbEntity
  8
Make_Solder_Side
  6
CONTINUOUS
 62
    1
370
   -1
100
AcDbCircle
 10
46.2788
 20
38.5037
 40
0.15
100
AcDbArc
 50
270
 51
0
  0
LINE
  5
22F
100
AcDbEntity
  8
Make_Solder_Side
  6
CONTINUOUS
 62
    1
370
   -1
100
AcDbLine
 10
46.2788
 20
38.3537
 11
45.811
 21
38.3537
  0
ARC
  5
230
100
AcDbEntity
  8
Make_Solder_Side
  6
CONTINUOUS
 62
    1
370
   -1
100
AcDbCircle
 10
45.811
 20
38.5037
 40
0.15
100
AcDbArc
 50
180
 51
270
  0
LINE
  5
231
100
AcDbEntity
  8
Make_Solder_Side
  6
CONTINUOUS
 62
    1
370
   -1
100
AcDbLine
 10
48.7074
 20
38.4234
 11
49.1622
 21
38.3558
  0
ARC
  5
232
100
AcDbEntity
  8
Make_Solder_Side
  6
CONTINUOUS
 62
    1
370
   -1
100
AcDbCircle
 10
49.1402
 20
38.2074
 40
0.15
100
AcDbArc
 50
7.733599999999999
 51
81.5493
  0
LWPOLYLINE
  5
233
100
AcDbEntity
  8
Make_Solder_Side
  6
CONTINUOUS
 62
    1
370
   -1
100
AcDbPolyline
 90
   39
 70
    0
 43
0
 10
49.2888
 20
38.2276
 10
49.3153
 20
38.121
 10
49.3706
 20
38.0358
 10
49.4988
 20
37.9624
 10
49.5944
 20
37.9364
 10
49.7094
 20
37.9226
 10
49.8453
 20
37.9226
 10
49.9704
 20
37.9367
 10
50.171
 20
38.0105
 10
50.2987
 20
38.1391
 10
50.3392
 20
38.2143
 10
50.3698
 20
38.3024
 10
50.3919
 20
38.4946
 10
50.3934
 20
38.5284
 10
50.3234
 20
38.4863
 10
50.2122
 20
38.4338
 10
50.0956
 20
38.3943
 10
49.9743
 20
38.3682
 10
49.8488
 20
38.3553
 10
49.7076
 20
38.3555
 10
49.5584
 20
38.3697
 10
49.0361
 20
38.576
 10
48.8295
 20
38.7673
 10
48.7427
 20
38.8807
 10
48.6676
 20
38.9994
 10
48.6032
 20
39.1238
 10
48.5495
 20
39.2537
 10
48.4748
 20
39.5289
 10
48.4442
 20
40.004
 10
48.6386
 20
40.777
 10
48.8541
 20
41.0888
 10
49.1452
 20
41.3176
 10
49.6876
 20
41.473
 10
49.8554
 20
41.4744
 10
49.9885
 20
41.4603
 10
50.1169
 20
41.4318
 10
50.2398
 20
41.3889
 10
50.3566
 20
41.3316
 10
50.4434
 20
41.2755
  0
ARC
  5
234
100
AcDbEntity
  8
Make_Solder_Side
  6
CONTINUOUS
 62
    1
370
   -1
100
AcDbCircle
 10
50.593
 20
41.2637
 40
0.15
100
AcDbArc
 50
90
 51
175.518
  0
LINE
  5
235
100
AcDbEntity
  8
Make_Solder_Side
  6
CONTINUOUS
 62
    1
370
   -1
100
AcDbLine
 10
50.593
 20
41.4137
 11
51.0244
 21
41.4137
  0
ARC
  5
236
100
AcDbEntity
  8
Make_Solder_Side
  6
CONTINUOUS
 62
    1
370
   -1
100
AcDbCircle
 10
51.0244
 20
41.2637
 40
0.15
100
AcDbArc
 50
0
 51
90
  0
LINE
  5
237
100
AcDbEntity
  8
Make_Solder_Side
  6
CONTINUOUS
 62
    1
370
   -1
100
AcDbLine
 10
51.1744
 20
41.2637
 11
51.1744
 21
38.8779
  0
LWPOLYLINE
  5
238
100
AcDbEntity
  8
Make_Solder_Side
  6
CONTINUOUS
 62
    1
370
   -1
100
AcDbPolyline
 90
   16
 70
    0
 43
0
 10
51.1744
 20
38.8779
 10
51.14
 20
38.306
 10
51.0279
 20
37.8986
 10
50.5494
 20
37.408
 10
49.7768
 20
37.2336
 10
49.2903
 20
37.2946
 10
49.0787
 20
37.373
 10
48.8905
 20
37.4847
 10
48.8049
 20
37.5558
 10
48.7301
 20
37.6365
 10
48.667
 20
37.7262
 10
48.6162
 20
37.8239
 10
48.578
 20
37.9287
 10
48.552
 20
38.0397
 10
48.538
 20
38.1564
 10
48.5354
 20
38.2785
  0
ARC
  5
239
100
AcDbEntity
  8
Make_Solder_Side
  6
CONTINUOUS
 62
    1
370
   -1
100
AcDbCircle
 10
48.6854
 20
38.275
 40
0.15
100
AcDbArc
 50
81.5493
 51
178.668
  0
LWPOLYLINE
  5
23A
100
AcDbEntity
  8
Make_Solder_Side
  6
CONTINUOUS
 62
    1
370
   -1
100
AcDbPolyline
 90
   32
 70
    1
 43
0
 10
49.2226
 20
39.9331
 10
49.2601
 20
39.5473
 10
49.3121
 20
39.3848
 10
49.3819
 20
39.2631
 10
49.4707
 20
39.1695
 10
49.5685
 20
39.1023
 10
49.6753
 20
39.0602
 10
49.796
 20
39.0417
 10
49.9233
 20
39.0479
 10
50.0362
 20
39.0781
 10
50.1385
 20
39.1323
 10
50.2339
 20
39.2133
 10
50.3144
 20
39.3183
 10
50.3763
 20
39.4573
 10
50.4182
 20
39.6366
 10
50.4345
 20
40.0315
 10
50.4178
 20
40.1856
 10
50.3748
 20
40.3598
 10
50.3108
 20
40.4991
 10
50.2261
 20
40.6091
 10
50.1276
 20
40.6942
 10
50.0243
 20
40.7507
 10
49.9129
 20
40.7817
 10
49.7902
 20
40.7881
 10
49.6758
 20
40.7697
 10
49.5721
 20
40.7273
 10
49.4747
 20
40.6586
 10
49.3838
 20
40.562
 10
49.3123
 20
40.441
 10
49.2601
 20
40.2872
 10
49.2257
 20
40.0453
 10
49.2226
 20
39.9331
  0
LINE
  5
23B
100
AcDbEntity
  8
Make_Solder_Side
  6
CONTINUOUS
 62
    1
370
   -1
100
AcDbLine
 10
55.6887
 20
38.9533
 11
55.6887
 21
38.5037
  0
ARC
  5
23C
100
AcDbEntity
  8
Make_Solder_Side
  6
CONTINUOUS
 62
    1
370
   -1
100
AcDbCircle
 10
55.5387
 20
38.5037
 40
0.15
100
AcDbArc
 50
270
 51
0
  0
LINE
  5
23D
100
AcDbEntity
  8
Make_Solder_Side
  6
CONTINUOUS
 62
    1
370
   -1
100
AcDbLine
 10
55.5387
 20
38.3537
 11
53.0203
 21
38.3537
  0
ARC
  5
23E
100
AcDbEntity
  8
Make_Solder_Side
  6
CONTINUOUS
 62
    1
370
   -1
100
AcDbCircle
 10
53.0203
 20
38.5037
 40
0.15
100
AcDbArc
 50
181.762
 51
270
  0
LWPOLYLINE
  5
23F
100
AcDbEntity
  8
Make_Solder_Side
  6
CONTINUOUS
 62
    1
370
   -1
100
AcDbPolyline
 90
   22
 70
    0
 43
0
 10
52.8704
 20
38.4991
 10
52.8835
 20
38.6942
 10
52.9346
 20
38.8817
 10
52.9955
 20
39.0227
 10
53.0718
 20
39.1618
 10
53.1629
 20
39.2983
 10
53.2685
 20
39.4324
 10
53.5389
 20
39.7135
 10
54.3029
 20
40.3752
 10
54.5068
 20
40.5713
 10
54.8781
 20
41.121
 10
54.9002
 20
41.3362
 10
54.8439
 20
41.5227
 10
54.7099
 20
41.6776
 10
54.6219
 20
41.7327
 10
54.5202
 20
41.7701
 10
54.2648
 20
41.7894
 10
54.0329
 20
41.7287
 10
53.8644
 20
41.5925
 10
53.8057
 20
41.4995
 10
53.7648
 20
41.3875
 10
53.7395
 20
41.1769
  0
ARC
  5
240
100
AcDbEntity
  8
Make_Solder_Side
  6
CONTINUOUS
 62
    1
370
   -1
100
AcDbCircle
 10
53.5895
 20
41.178
 40
0.15
100
AcDbArc
 50
264.136
 51
359.585
  0
LINE
  5
241
100
AcDbEntity
  8
Make_Solder_Side
  6
CONTINUOUS
 62
    1
370
   -1
100
AcDbLine
 10
53.5742
 20
41.0288
 11
53.0934
 21
41.0781
  0
ARC
  5
242
100
AcDbEntity
  8
Make_Solder_Side
  6
CONTINUOUS
 62
    1
370
   -1
100
AcDbCircle
 10
53.1087
 20
41.2274
 40
0.15
100
AcDbArc
 50
174.756
 51
264.136
  0
LWPOLYLINE
  5
243
100
AcDbEntity
  8
Make_Solder_Side
  6
CONTINUOUS
 62
    1
370
   -1
100
AcDbPolyline
 90
   36
 70
    0
 43
0
 10
52.9593
 20
41.2411
 10
52.9899
 20
41.4502
 10
53.0647
 20
41.7043
 10
53.1172
 20
41.8202
 10
53.1801
 20
41.9282
 10
53.2532
 20
42.0278
 10
53.3363
 20
42.1184
 10
53.4287
 20
42.1994
 10
53.529
 20
42.2701
 10
53.6367
 20
42.3304
 10
53.7515
 20
42.3804
 10
54.0005
 20
42.4492
 10
54.3458
 20
42.4793
 10
54.6286
 20
42.4585
 10
54.7608
 20
42.4322
 10
54.8866
 20
42.3948
 10
55.0056
 20
42.3463
 10
55.1173
 20
42.2866
 10
55.2214
 20
42.2157
 10
55.3172
 20
42.1339
 10
55.4763
 20
41.9505
 10
55.5396
 20
41.8497
 10
55.5917
 20
41.7433
 10
55.6321
 20
41.6318
 10
55.6608
 20
41.5157
 10
55.6835
 20
41.2715
 10
55.6768
 20
41.1423
 10
55.6569
 20
41.0142
 10
55.6239
 20
40.8878
 10
55.578
 20
40.7634
 10
55.5169
 20
40.6379
 10
55.4402
 20
40.5119
 10
55.2415
 20
40.2571
 10
54.5048
 20
39.5715
 10
54.162
 20
39.2774
 10
53.9763
 20
39.1033
  0
LINE
  5
244
100
AcDbEntity
  8
Make_Solder_Side
  6
CONTINUOUS
 62
    1
370
   -1
100
AcDbLine
 10
53.9763
 20
39.1033
 11
55.5387
 21
39.1033
  0
ARC
  5
245
100
AcDbEntity
  8
Make_Solder_Side
  6
CONTINUOUS
 62
    1
370
   -1
100
AcDbCircle
 10
55.5387
 20
38.9533
 40
0.15
100
AcDbArc
 50
0
 51
90
  0
LWPOLYLINE
  5
246
100
AcDbEntity
  8
Make_Solder_Side
  6
CONTINUOUS
 62
    1
370
   -1
100
AcDbPolyline
 90
   30
 70
    1
 43
0
 10
55.8903
 20
40.3827
 10
55.9262
 20
41.0115
 10
56.2264
 20
41.9169
 10
56.4978
 20
42.222
 10
56.6671
 20
42.3355
 10
56.8559
 20
42.4161
 10
57.0617
 20
42.4637
 10
57.3658
 20
42.4772
 10
57.9561
 20
42.3008
 10
58.3689
 20
41.8655
 10
58.4424
 20
41.7246
 10
58.5062
 20
41.5718
 10
58.5606
 20
41.4072
 10
58.6061
 20
41.2265
 10
58.6401
 20
41.019
 10
58.6624
 20
40.785
 10
58.6735
 20
40.5237
 10
58.6461
 20
39.8217
 10
58.4899
 20
39.1447
 10
58.0299
 20
38.516
 10
57.8551
 20
38.41
 10
57.6611
 20
38.3372
 10
57.4504
 20
38.2975
 10
57.1344
 20
38.2956
 10
56.9923
 20
38.3163
 10
56.8568
 20
38.3514
 10
56.3931
 20
38.6354
 10
56.2996
 20
38.7405
 10
55.9887
 20
39.4233
 10
55.8903
 20
40.3827
  0
LWPOLYLINE
  5
247
100
AcDbEntity
  8
Make_Solder_Side
  6
CONTINUOUS
 62
    1
370
   -1
100
AcDbPolyline
 90
   31
 70
    1
 43
0
 10
56.6711
 20
40.3827
 10
56.7237
 20
39.6274
 10
56.7686
 20
39.4322
 10
56.8433
 20
39.2513
 10
56.9356
 20
39.1315
 10
57.0351
 20
39.0468
 10
57.1387
 20
38.9959
 10
57.2519
 20
38.9743
 10
57.3714
 20
38.9816
 10
57.4787
 20
39.0177
 10
57.5799
 20
39.085
 10
57.7216
 20
39.2526
 10
57.7606
 20
39.3317
 10
57.7965
 20
39.4339
 10
57.8807
 20
39.9644
 10
57.894
 20
40.3827
 10
57.8414
 20
41.1397
 10
57.7965
 20
41.335
 10
57.7218
 20
41.5154
 10
57.6298
 20
41.6343
 10
57.5297
 20
41.7185
 10
57.4246
 20
41.7694
 10
57.3088
 20
41.7911
 10
57.1865
 20
41.7846
 10
57.0818
 20
41.753
 10
56.9897
 20
41.6963
 10
56.8628
 20
41.5473
 10
56.8185
 20
41.4588
 10
56.7785
 20
41.3492
 10
56.6857
 20
40.8035
 10
56.6711
 20
40.3827
  0
LINE
  5
248
100
AcDbEntity
  8
Make_Solder_Side
  6
CONTINUOUS
 62
    1
370
   -1
100
AcDbLine
 10
60.7625
 20
38.3537
 11
60.2947
 21
38.3537
  0
ARC
  5
249
100
AcDbEntity
  8
Make_Solder_Side
  6
CONTINUOUS
 62
    1
370
   -1
100
AcDbCircle
 10
60.2947
 20
38.5037
 40
0.15
100
AcDbArc
 50
180
 51
270
  0
LINE
  5
24A
100
AcDbEntity
  8
Make_Solder_Side
  6
CONTINUOUS
 62
    1
370
   -1
100
AcDbLine
 10
60.1447
 20
38.5037
 11
60.1447
 21
41.1718
  0
LWPOLYLINE
  5
24B
100
AcDbEntity
  8
Make_Solder_Side
  6
CONTINUOUS
 62
    1
370
   -1
100
AcDbPolyline
 90
    4
 70
    0
 43
0
 10
60.1447
 20
41.1718
 10
59.9276
 20
41.0331
 10
59.5314
 20
40.8284
 10
59.411
 20
40.78
  0
ARC
  5
24C
100
AcDbEntity
  8
Make_Solder_Side
  6
CONTINUOUS
 62
    1
370
   -1
100
AcDbCircle
 10
59.3591
 20
40.9207
 40
0.15
100
AcDbArc
 50
180
 51
290.256
  0
LINE
  5
24D
100
AcDbEntity
  8
Make_Solder_Side
  6
CONTINUOUS
 62
    1
370
   -1
100
AcDbLine
 10
59.2091
 20
40.9207
 11
59.2091
 21
41.3729
  0
ARC
  5
24E
100
AcDbEntity
  8
Make_Solder_Side
  6
CONTINUOUS
 62
    1
370
   -1
100
AcDbCircle
 10
59.3591
 20
41.3729
 40
0.15
100
AcDbArc
 50
115.183
 51
180
  0
LWPOLYLINE
  5
24F
100
AcDbEntity
  8
Make_Solder_Side
  6
CONTINUOUS
 62
    1
370
   -1
100
AcDbPolyline
 90
    9
 70
    0
 43
0
 10
59.2952
 20
41.5086
 10
59.4763
 20
41.6012
 10
59.6449
 20
41.7026
 10
59.8012
 20
41.8128
 10
59.9452
 20
41.9317
 10
60.0736
 20
42.0546
 10
60.1798
 20
42.1734
 10
60.2639
 20
42.2873
 10
60.3266
 20
42.3958
  0
ARC
  5
250
100
AcDbEntity
  8
Make_Solder_Side
  6
CONTINUOUS
 62
    1
370
   -1
100
AcDbCircle
 10
60.461
 20
42.3293
 40
0.15
100
AcDbArc
 50
90
 51
153.677
  0
LINE
  5
251
100
AcDbEntity
  8
Make_Solder_Side
  6
CONTINUOUS
 62
    1
370
   -1
100
AcDbLine
 10
60.461
 20
42.4793
 11
60.7625
 21
42.4793
  0
ARC
  5
252
100
AcDbEntity
  8
Make_Solder_Side
  6
CONTINUOUS
 62
    1
370
   -1
100
AcDbCircle
 10
60.7625
 20
42.3293
 40
0.15
100
AcDbArc
 50
0
 51
90
  0
LINE
  5
253
100
AcDbEntity
  8
Make_Solder_Side
  6
CONTINUOUS
 62
    1
370
   -1
100
AcDbLine
 10
60.9125
 20
42.3293
 11
60.9125
 21
38.5037
  0
ARC
  5
254
100
AcDbEntity
  8
Make_Solder_Side
  6
CONTINUOUS
 62
    1
370
   -1
100
AcDbCircle
 10
60.7625
 20
38.5037
 40
0.15
100
AcDbArc
 50
270
 51
0
  0
LINE
  5
255
100
AcDbEntity
  8
Make_Solder_Side
  6
CONTINUOUS
 62
    1
370
   -1
100
AcDbLine
 10
61.8418
 20
41.8147
 11
61.8418
 21
42.2643
  0
ARC
  5
256
100
AcDbEntity
  8
Make_Solder_Side
  6
CONTINUOUS
 62
    1
370
   -1
100
AcDbCircle
 10
61.9918
 20
42.2643
 40
0.15
100
AcDbArc
 50
90
 51
180
  0
LINE
  5
257
100
AcDbEntity
  8
Make_Solder_Side
  6
CONTINUOUS
 62
    1
370
   -1
100
AcDbLine
 10
61.9918
 20
42.4143
 11
64.4581
 21
42.4143
  0
ARC
  5
258
100
AcDbEntity
  8
Make_Solder_Side
  6
CONTINUOUS
 62
    1
370
   -1
100
AcDbCircle
 10
64.4581
 20
42.2643
 40
0.15
100
AcDbArc
 50
0
 51
90
  0
LINE
  5
259
100
AcDbEntity
  8
Make_Solder_Side
  6
CONTINUOUS
 62
    1
370
   -1
100
AcDbLine
 10
64.60809999999999
 20
42.2643
 11
64.60809999999999
 21
41.9005
  0
ARC
  5
25A
100
AcDbEntity
  8
Make_Solder_Side
  6
CONTINUOUS
 62
    1
370
   -1
100
AcDbCircle
 10
64.4581
 20
41.9005
 40
0.15
100
AcDbArc
 50
316.784
 51
0
  0
LWPOLYLINE
  5
25B
100
AcDbEntity
  8
Make_Solder_Side
  6
CONTINUOUS
 62
    1
370
   -1
100
AcDbPolyline
 90
    8
 70
    0
 43
0
 10
64.56740000000001
 20
41.7978
 10
64.39360000000001
 20
41.597
 10
64.04349999999999
 20
41.0972
 10
63.3287
 20
39.5092
 10
63.267
 20
39.2727
 10
63.2175
 20
39.0248
 10
63.1801
 20
38.7651
 10
63.155
 20
38.4934
  0
ARC
  5
25C
100
AcDbEntity
  8
Make_Solder_Side
  6
CONTINUOUS
 62
    1
370
   -1
100
AcDbCircle
 10
63.0053
 20
38.5037
 40
0.15
100
AcDbArc
 50
270
 51
356.082
  0
LINE
  5
25D
100
AcDbEntity
  8
Make_Solder_Side
  6
CONTINUOUS
 62
    1
370
   -1
100
AcDbLine
 10
63.0053
 20
38.3537
 11
62.5245
 21
38.3537
  0
ARC
  5
25E
100
AcDbEntity
  8
Make_Solder_Side
  6
CONTINUOUS
 62
    1
370
   -1
100
AcDbCircle
 10
62.5245
 20
38.5037
 40
0.15
100
AcDbArc
 50
179.007
 51
270
  0
LWPOLYLINE
  5
25F
100
AcDbEntity
  8
Make_Solder_Side
  6
CONTINUOUS
 62
    1
370
   -1
100
AcDbPolyline
 90
    7
 70
    0
 43
0
 10
62.3746
 20
38.5063
 10
62.3892
 20
38.7547
 10
62.4246
 20
39.0242
 10
62.4803
 20
39.3153
 10
62.5563
 20
39.6285
 10
63.0537
 20
40.8887
 10
63.5433
 20
41.6647
  0
LINE
  5
260
100
AcDbEntity
  8
Make_Solder_Side
  6
CONTINUOUS
 62
    1
370
   -1
100
AcDbLine
 10
63.5433
 20
41.6647
 11
61.9918
 21
41.6647
  0
ARC
  5
261
100
AcDbEntity
  8
Make_Solder_Side
  6
CONTINUOUS
 62
    1
370
   -1
100
AcDbCircle
 10
61.9918
 20
41.8147
 40
0.15
100
AcDbArc
 50
180
 51
270
  0
LINE
  5
262
100
AcDbEntity
  8
Make_Solder_Side
  6
CONTINUOUS
 62
    1
370
   -1
100
AcDbLine
 10
14.1876
 20
37.615
 11
14.455
 21
37.615
  0
LINE
  5
263
100
AcDbEntity
  8
Make_Solder_Side
  6
CONTINUOUS
 62
    1
370
   -1
100
AcDbLine
 10
14.455
 20
37.615
 11
14.455
 21
39.37
  0
ARC
  5
264
100
AcDbEntity
  8
Make_Solder_Side
  6
CONTINUOUS
 62
    1
370
   -1
100
AcDbCircle
 10
15.24
 20
39.37
 40
0.785
100
AcDbArc
 50
90
 51
180
  0
LINE
  5
265
100
AcDbEntity
  8
Make_Solder_Side
  6
CONTINUOUS
 62
    1
370
   -1
100
AcDbLine
 10
15.24
 20
40.155
 11
23.345
 21
40.155
  0
LINE
  5
266
100
AcDbEntity
  8
Make_Solder_Side
  6
CONTINUOUS
 62
    1
370
   -1
100
AcDbLine
 10
23.345
 20
40.155
 11
23.345
 21
49.3124
  0
ARC
  5
267
100
AcDbEntity
  8
Make_Solder_Side
  6
CONTINUOUS
 62
    1
370
   -1
100
AcDbCircle
 10
23.749
 20
49.657
 40
0.531
100
AcDbArc
 50
180
 51
220.463
  0
LINE
  5
268
100
AcDbEntity
  8
Make_Solder_Side
  6
CONTINUOUS
 62
    1
370
   -1
100
AcDbLine
 10
23.218
 20
49.657
 11
23.218
 21
51.943
  0
ARC
  5
269
100
AcDbEntity
  8
Make_Solder_Side
  6
CONTINUOUS
 62
    1
370
   -1
100
AcDbCircle
 10
23.749
 20
51.943
 40
0.531
100
AcDbArc
 50
90
 51
180
  0
LINE
  5
26A
100
AcDbEntity
  8
Make_Solder_Side
  6
CONTINUOUS
 62
    1
370
   -1
100
AcDbLine
 10
23.749
 20
52.474
 11
24.511
 21
52.474
  0
ARC
  5
26B
100
AcDbEntity
  8
Make_Solder_Side
  6
CONTINUOUS
 62
    1
370
   -1
100
AcDbCircle
 10
24.511
 20
51.943
 40
0.531
100
AcDbArc
 50
0
 51
90
  0
LINE
  5
26C
100
AcDbEntity
  8
Make_Solder_Side
  6
CONTINUOUS
 62
    1
370
   -1
100
AcDbLine
 10
25.042
 20
51.943
 11
25.042
 21
49.657
  0
ARC
  5
26D
100
AcDbEntity
  8
Make_Solder_Side
  6
CONTINUOUS
 62
    1
370
   -1
100
AcDbCircle
 10
24.511
 20
49.657
 40
0.531
100
AcDbArc
 50
319.537
 51
0
  0
LINE
  5
26E
100
AcDbEntity
  8
Make_Solder_Side
  6
CONTINUOUS
 62
    1
370
   -1
100
AcDbLine
 10
24.915
 20
49.3124
 11
24.915
 21
39.37
  0
ARC
  5
26F
100
AcDbEntity
  8
Make_Solder_Side
  6
CONTINUOUS
 62
    1
370
   -1
100
AcDbCircle
 10
24.13
 20
39.37
 40
0.785
100
AcDbArc
 50
270
 51
0
  0
LINE
  5
270
100
AcDbEntity
  8
Make_Solder_Side
  6
CONTINUOUS
 62
    1
370
   -1
100
AcDbLine
 10
24.13
 20
38.585
 11
16.025
 21
38.585
  0
LINE
  5
271
100
AcDbEntity
  8
Make_Solder_Side
  6
CONTINUOUS
 62
    1
370
   -1
100
AcDbLine
 10
16.025
 20
38.585
 11
16.025
 21
36.83
  0
ARC
  5
272
100
AcDbEntity
  8
Make_Solder_Side
  6
CONTINUOUS
 62
    1
370
   -1
100
AcDbCircle
 10
15.24
 20
36.83
 40
0.785
100
AcDbArc
 50
270
 51
0
  0
LINE
  5
273
100
AcDbEntity
  8
Make_Solder_Side
  6
CONTINUOUS
 62
    1
370
   -1
100
AcDbLine
 10
15.24
 20
36.045
 11
14.1876
 21
36.045
  0
ARC
  5
274
100
AcDbEntity
  8
Make_Solder_Side
  6
CONTINUOUS
 62
    1
370
   -1
100
AcDbCircle
 10
13.843
 20
36.449
 40
0.531
100
AcDbArc
 50
270
 51
310.463
  0
LINE
  5
275
100
AcDbEntity
  8
Make_Solder_Side
  6
CONTINUOUS
 62
    1
370
   -1
100
AcDbLine
 10
13.843
 20
35.918
 11
11.557
 21
35.918
  0
ARC
  5
276
100
AcDbEntity
  8
Make_Solder_Side
  6
CONTINUOUS
 62
    1
370
   -1
100
AcDbCircle
 10
11.557
 20
36.449
 40
0.531
100
AcDbArc
 50
180
 51
270
  0
LINE
  5
277
100
AcDbEntity
  8
Make_Solder_Side
  6
CONTINUOUS
 62
    1
370
   -1
100
AcDbLine
 10
11.026
 20
36.449
 11
11.026
 21
37.211
  0
ARC
  5
278
100
AcDbEntity
  8
Make_Solder_Side
  6
CONTINUOUS
 62
    1
370
   -1
100
AcDbCircle
 10
11.557
 20
37.211
 40
0.531
100
AcDbArc
 50
90
 51
180
  0
LINE
  5
279
100
AcDbEntity
  8
Make_Solder_Side
  6
CONTINUOUS
 62
    1
370
   -1
100
AcDbLine
 10
11.557
 20
37.742
 11
13.843
 21
37.742
  0
ARC
  5
27A
100
AcDbEntity
  8
Make_Solder_Side
  6
CONTINUOUS
 62
    1
370
   -1
100
AcDbCircle
 10
13.843
 20
37.211
 40
0.531
100
AcDbArc
 50
49.5373
 51
90
  0
LINE
  5
27B
100
AcDbEntity
  8
Make_Solder_Side
  6
CONTINUOUS
 62
    1
370
   -1
100
AcDbLine
 10
14.1876
 20
35.075
 11
16.995
 21
35.075
  0
LINE
  5
27C
100
AcDbEntity
  8
Make_Solder_Side
  6
CONTINUOUS
 62
    1
370
   -1
100
AcDbLine
 10
16.995
 20
35.075
 11
16.995
 21
36.83
  0
ARC
  5
27D
100
AcDbEntity
  8
Make_Solder_Side
  6
CONTINUOUS
 62
    1
370
   -1
100
AcDbCircle
 10
17.78
 20
36.83
 40
0.785
100
AcDbArc
 50
90
 51
180
  0
LINE
  5
27E
100
AcDbEntity
  8
Make_Solder_Side
  6
CONTINUOUS
 62
    1
370
   -1
100
AcDbLine
 10
17.78
 20
37.615
 11
25.885
 21
37.615
  0
LINE
  5
27F
100
AcDbEntity
  8
Make_Solder_Side
  6
CONTINUOUS
 62
    1
370
   -1
100
AcDbLine
 10
25.885
 20
37.615
 11
25.885
 21
49.3124
  0
ARC
  5
280
100
AcDbEntity
  8
Make_Solder_Side
  6
CONTINUOUS
 62
    1
370
   -1
100
AcDbCircle
 10
26.289
 20
49.657
 40
0.531
100
AcDbArc
 50
180
 51
220.463
  0
LINE
  5
281
100
AcDbEntity
  8
Make_Solder_Side
  6
CONTINUOUS
 62
    1
370
   -1
100
AcDbLine
 10
25.758
 20
49.657
 11
25.758
 21
51.943
  0
ARC
  5
282
100
AcDbEntity
  8
Make_Solder_Side
  6
CONTINUOUS
 62
    1
370
   -1
100
AcDbCircle
 10
26.289
 20
51.943
 40
0.531
100
AcDbArc
 50
90
 51
180
  0
LINE
  5
283
100
AcDbEntity
  8
Make_Solder_Side
  6
CONTINUOUS
 62
    1
370
   -1
100
AcDbLine
 10
26.289
 20
52.474
 11
27.051
 21
52.474
  0
ARC
  5
284
100
AcDbEntity
  8
Make_Solder_Side
  6
CONTINUOUS
 62
    1
370
   -1
100
AcDbCircle
 10
27.051
 20
51.943
 40
0.531
100
AcDbArc
 50
0
 51
90
  0
LINE
  5
285
100
AcDbEntity
  8
Make_Solder_Side
  6
CONTINUOUS
 62
    1
370
   -1
100
AcDbLine
 10
27.582
 20
51.943
 11
27.582
 21
49.657
  0
ARC
  5
286
100
AcDbEntity
  8
Make_Solder_Side
  6
CONTINUOUS
 62
    1
370
   -1
100
AcDbCircle
 10
27.051
 20
49.657
 40
0.531
100
AcDbArc
 50
319.537
 51
0
  0
LINE
  5
287
100
AcDbEntity
  8
Make_Solder_Side
  6
CONTINUOUS
 62
    1
370
   -1
100
AcDbLine
 10
27.455
 20
49.3124
 11
27.455
 21
36.83
  0
ARC
  5
288
100
AcDbEntity
  8
Make_Solder_Side
  6
CONTINUOUS
 62
    1
370
   -1
100
AcDbCircle
 10
26.67
 20
36.83
 40
0.785
100
AcDbArc
 50
270
 51
0
  0
LINE
  5
289
100
AcDbEntity
  8
Make_Solder_Side
  6
CONTINUOUS
 62
    1
370
   -1
100
AcDbLine
 10
26.67
 20
36.045
 11
18.565
 21
36.045
  0
LINE
  5
28A
100
AcDbEntity
  8
Make_Solder_Side
  6
CONTINUOUS
 62
    1
370
   -1
100
AcDbLine
 10
18.565
 20
36.045
 11
18.565
 21
34.29
  0
ARC
  5
28B
100
AcDbEntity
  8
Make_Solder_Side
  6
CONTINUOUS
 62
    1
370
   -1
100
AcDbCircle
 10
17.78
 20
34.29
 40
0.785
100
AcDbArc
 50
270
 51
0
  0
LINE
  5
28C
100
AcDbEntity
  8
Make_Solder_Side
  6
CONTINUOUS
 62
    1
370
   -1
100
AcDbLine
 10
17.78
 20
33.505
 11
14.1876
 21
33.505
  0
ARC
  5
28D
100
AcDbEntity
  8
Make_Solder_Side
  6
CONTINUOUS
 62
    1
370
   -1
100
AcDbCircle
 10
13.843
 20
33.909
 40
0.531
100
AcDbArc
 50
270
 51
310.463
  0
LINE
  5
28E
100
AcDbEntity
  8
Make_Solder_Side
  6
CONTINUOUS
 62
    1
370
   -1
100
AcDbLine
 10
13.843
 20
33.378
 11
11.557
 21
33.378
  0
ARC
  5
28F
100
AcDbEntity
  8
Make_Solder_Side
  6
CONTINUOUS
 62
    1
370
   -1
100
AcDbCircle
 10
11.557
 20
33.909
 40
0.531
100
AcDbArc
 50
180
 51
270
  0
LINE
  5
290
100
AcDbEntity
  8
Make_Solder_Side
  6
CONTINUOUS
 62
    1
370
   -1
100
AcDbLine
 10
11.026
 20
33.909
 11
11.026
 21
34.671
  0
ARC
  5
291
100
AcDbEntity
  8
Make_Solder_Side
  6
CONTINUOUS
 62
    1
370
   -1
100
AcDbCircle
 10
11.557
 20
34.671
 40
0.531
100
AcDbArc
 50
90
 51
180
  0
LINE
  5
292
100
AcDbEntity
  8
Make_Solder_Side
  6
CONTINUOUS
 62
    1
370
   -1
100
AcDbLine
 10
11.557
 20
35.202
 11
13.843
 21
35.202
  0
ARC
  5
293
100
AcDbEntity
  8
Make_Solder_Side
  6
CONTINUOUS
 62
    1
370
   -1
100
AcDbCircle
 10
13.843
 20
34.671
 40
0.531
100
AcDbArc
 50
49.5373
 51
90
  0
LINE
  5
294
100
AcDbEntity
  8
Make_Solder_Side
  6
CONTINUOUS
 62
    1
370
   -1
100
AcDbLine
 10
14.1876
 20
32.535
 11
19.535
 21
32.535
  0
LINE
  5
295
100
AcDbEntity
  8
Make_Solder_Side
  6
CONTINUOUS
 62
    1
370
   -1
100
AcDbLine
 10
19.535
 20
32.535
 11
19.535
 21
34.29
  0
ARC
  5
296
100
AcDbEntity
  8
Make_Solder_Side
  6
CONTINUOUS
 62
    1
370
   -1
100
AcDbCircle
 10
20.32
 20
34.29
 40
0.785
100
AcDbArc
 50
90
 51
180
  0
LINE
  5
297
100
AcDbEntity
  8
Make_Solder_Side
  6
CONTINUOUS
 62
    1
370
   -1
100
AcDbLine
 10
20.32
 20
35.075
 11
30.965
 21
35.075
  0
LINE
  5
298
100
AcDbEntity
  8
Make_Solder_Side
  6
CONTINUOUS
 62
    1
370
   -1
100
AcDbLine
 10
30.965
 20
35.075
 11
30.965
 21
49.3124
  0
ARC
  5
299
100
AcDbEntity
  8
Make_Solder_Side
  6
CONTINUOUS
 62
    1
370
   -1
100
AcDbCircle
 10
31.369
 20
49.657
 40
0.531
100
AcDbArc
 50
180
 51
220.463
  0
LINE
  5
29A
100
AcDbEntity
  8
Make_Solder_Side
  6
CONTINUOUS
 62
    1
370
   -1
100
AcDbLine
 10
30.838
 20
49.657
 11
30.838
 21
51.943
  0
ARC
  5
29B
100
AcDbEntity
  8
Make_Solder_Side
  6
CONTINUOUS
 62
    1
370
   -1
100
AcDbCircle
 10
31.369
 20
51.943
 40
0.531
100
AcDbArc
 50
90
 51
180
  0
LINE
  5
29C
100
AcDbEntity
  8
Make_Solder_Side
  6
CONTINUOUS
 62
    1
370
   -1
100
AcDbLine
 10
31.369
 20
52.474
 11
32.131
 21
52.474
  0
ARC
  5
29D
100
AcDbEntity
  8
Make_Solder_Side
  6
CONTINUOUS
 62
    1
370
   -1
100
AcDbCircle
 10
32.131
 20
51.943
 40
0.531
100
AcDbArc
 50
0
 51
90
  0
LINE
  5
29E
100
AcDbEntity
  8
Make_Solder_Side
  6
CONTINUOUS
 62
    1
370
   -1
100
AcDbLine
 10
32.662
 20
51.943
 11
32.662
 21
49.657
  0
ARC
  5
29F
100
AcDbEntity
  8
Make_Solder_Side
  6
CONTINUOUS
 62
    1
370
   -1
100
AcDbCircle
 10
32.131
 20
49.657
 40
0.531
100
AcDbArc
 50
319.537
 51
0
  0
LINE
  5
2A0
100
AcDbEntity
  8
Make_Solder_Side
  6
CONTINUOUS
 62
    1
370
   -1
100
AcDbLine
 10
32.535
 20
49.3124
 11
32.535
 21
34.29
  0
ARC
  5
2A1
100
AcDbEntity
  8
Make_Solder_Side
  6
CONTINUOUS
 62
    1
370
   -1
100
AcDbCircle
 10
31.75
 20
34.29
 40
0.785
100
AcDbArc
 50
270
 51
0
  0
LINE
  5
2A2
100
AcDbEntity
  8
Make_Solder_Side
  6
CONTINUOUS
 62
    1
370
   -1
100
AcDbLine
 10
31.75
 20
33.505
 11
21.105
 21
33.505
  0
LINE
  5
2A3
100
AcDbEntity
  8
Make_Solder_Side
  6
CONTINUOUS
 62
    1
370
   -1
100
AcDbLine
 10
21.105
 20
33.505
 11
21.105
 21
31.75
  0
ARC
  5
2A4
100
AcDbEntity
  8
Make_Solder_Side
  6
CONTINUOUS
 62
    1
370
   -1
100
AcDbCircle
 10
20.32
 20
31.75
 40
0.785
100
AcDbArc
 50
270
 51
0
  0
LINE
  5
2A5
100
AcDbEntity
  8
Make_Solder_Side
  6
CONTINUOUS
 62
    1
370
   -1
100
AcDbLine
 10
20.32
 20
30.965
 11
14.1876
 21
30.965
  0
ARC
  5
2A6
100
AcDbEntity
  8
Make_Solder_Side
  6
CONTINUOUS
 62
    1
370
   -1
100
AcDbCircle
 10
13.843
 20
31.369
 40
0.531
100
AcDbArc
 50
270
 51
310.463
  0
LINE
  5
2A7
100
AcDbEntity
  8
Make_Solder_Side
  6
CONTINUOUS
 62
    1
370
   -1
100
AcDbLine
 10
13.843
 20
30.838
 11
11.557
 21
30.838
  0
ARC
  5
2A8
100
AcDbEntity
  8
Make_Solder_Side
  6
CONTINUOUS
 62
    1
370
   -1
100
AcDbCircle
 10
11.557
 20
31.369
 40
0.531
100
AcDbArc
 50
180
 51
270
  0
LINE
  5
2A9
100
AcDbEntity
  8
Make_Solder_Side
  6
CONTINUOUS
 62
    1
370
   -1
100
AcDbLine
 10
11.026
 20
31.369
 11
11.026
 21
32.131
  0
ARC
  5
2AA
100
AcDbEntity
  8
Make_Solder_Side
  6
CONTINUOUS
 62
    1
370
   -1
100
AcDbCircle
 10
11.557
 20
32.131
 40
0.531
100
AcDbArc
 50
90
 51
180
  0
LINE
  5
2AB
100
AcDbEntity
  8
Make_Solder_Side
  6
CONTINUOUS
 62
    1
370
   -1
100
AcDbLine
 10
11.557
 20
32.662
 11
13.843
 21
32.662
  0
ARC
  5
2AC
100
AcDbEntity
  8
Make_Solder_Side
  6
CONTINUOUS
 62
    1
370
   -1
100
AcDbCircle
 10
13.843
 20
32.131
 40
0.531
100
AcDbArc
 50
49.5373
 51
90
  0
LINE
  5
2AD
100
AcDbEntity
  8
Make_Solder_Side
  6
CONTINUOUS
 62
    1
370
   -1
100
AcDbLine
 10
13.843
 20
43.538
 11
11.557
 21
43.538
  0
ARC
  5
2AE
100
AcDbEntity
  8
Make_Solder_Side
  6
CONTINUOUS
 62
    1
370
   -1
100
AcDbCircle
 10
11.557
 20
44.069
 40
0.531
100
AcDbArc
 50
180
 51
270
  0
LINE
  5
2AF
100
AcDbEntity
  8
Make_Solder_Side
  6
CONTINUOUS
 62
    1
370
   -1
100
AcDbLine
 10
11.026
 20
44.069
 11
11.026
 21
44.831
  0
ARC
  5
2B0
100
AcDbEntity
  8
Make_Solder_Side
  6
CONTINUOUS
 62
    1
370
   -1
100
AcDbCircle
 10
11.557
 20
44.831
 40
0.531
100
AcDbArc
 50
90
 51
180
  0
LINE
  5
2B1
100
AcDbEntity
  8
Make_Solder_Side
  6
CONTINUOUS
 62
    1
370
   -1
100
AcDbLine
 10
11.557
 20
45.362
 11
13.843
 21
45.362
  0
ARC
  5
2B2
100
AcDbEntity
  8
Make_Solder_Side
  6
CONTINUOUS
 62
    1
370
   -1
100
AcDbCircle
 10
13.843
 20
44.831
 40
0.531
100
AcDbArc
 50
0
 51
90
  0
LINE
  5
2B3
100
AcDbEntity
  8
Make_Solder_Side
  6
CONTINUOUS
 62
    1
370
   -1
100
AcDbLine
 10
14.374
 20
44.831
 11
14.374
 21
44.069
  0
ARC
  5
2B4
100
AcDbEntity
  8
Make_Solder_Side
  6
CONTINUOUS
 62
    1
370
   -1
100
AcDbCircle
 10
13.843
 20
44.069
 40
0.531
100
AcDbArc
 50
270
 51
0
  0
LINE
  5
2B5
100
AcDbEntity
  8
Make_Solder_Side
  6
CONTINUOUS
 62
    1
370
   -1
100
AcDbLine
 10
13.843
 20
40.998
 11
11.557
 21
40.998
  0
ARC
  5
2B6
100
AcDbEntity
  8
Make_Solder_Side
  6
CONTINUOUS
 62
    1
370
   -1
100
AcDbCircle
 10
11.557
 20
41.529
 40
0.531
100
AcDbArc
 50
180
 51
270
  0
LINE
  5
2B7
100
AcDbEntity
  8
Make_Solder_Side
  6
CONTINUOUS
 62
    1
370
   -1
100
AcDbLine
 10
11.026
 20
41.529
 11
11.026
 21
42.291
  0
ARC
  5
2B8
100
AcDbEntity
  8
Make_Solder_Side
  6
CONTINUOUS
 62
    1
370
   -1
100
AcDbCircle
 10
11.557
 20
42.291
 40
0.531
100
AcDbArc
 50
90
 51
180
  0
LINE
  5
2B9
100
AcDbEntity
  8
Make_Solder_Side
  6
CONTINUOUS
 62
    1
370
   -1
100
AcDbLine
 10
11.557
 20
42.822
 11
13.843
 21
42.822
  0
ARC
  5
2BA
100
AcDbEntity
  8
Make_Solder_Side
  6
CONTINUOUS
 62
    1
370
   -1
100
AcDbCircle
 10
13.843
 20
42.291
 40
0.531
100
AcDbArc
 50
49.5373
 51
90
  0
LINE
  5
2BB
100
AcDbEntity
  8
Make_Solder_Side
  6
CONTINUOUS
 62
    1
370
   -1
100
AcDbLine
 10
14.1876
 20
42.695
 11
18.265
 21
42.695
  0
LINE
  5
2BC
100
AcDbEntity
  8
Make_Solder_Side
  6
CONTINUOUS
 62
    1
370
   -1
100
AcDbLine
 10
18.265
 20
42.695
 11
18.265
 21
49.3124
  0
ARC
  5
2BD
100
AcDbEntity
  8
Make_Solder_Side
  6
CONTINUOUS
 62
    1
370
   -1
100
AcDbCircle
 10
18.669
 20
49.657
 40
0.531
100
AcDbArc
 50
180
 51
220.463
  0
LINE
  5
2BE
100
AcDbEntity
  8
Make_Solder_Side
  6
CONTINUOUS
 62
    1
370
   -1
100
AcDbLine
 10
18.138
 20
49.657
 11
18.138
 21
51.943
  0
ARC
  5
2BF
100
AcDbEntity
  8
Make_Solder_Side
  6
CONTINUOUS
 62
    1
370
   -1
100
AcDbCircle
 10
18.669
 20
51.943
 40
0.531
100
AcDbArc
 50
90
 51
180
  0
LINE
  5
2C0
100
AcDbEntity
  8
Make_Solder_Side
  6
CONTINUOUS
 62
    1
370
   -1
100
AcDbLine
 10
18.669
 20
52.474
 11
19.431
 21
52.474
  0
ARC
  5
2C1
100
AcDbEntity
  8
Make_Solder_Side
  6
CONTINUOUS
 62
    1
370
   -1
100
AcDbCircle
 10
19.431
 20
51.943
 40
0.531
100
AcDbArc
 50
0
 51
90
  0
LINE
  5
2C2
100
AcDbEntity
  8
Make_Solder_Side
  6
CONTINUOUS
 62
    1
370
   -1
100
AcDbLine
 10
19.962
 20
51.943
 11
19.962
 21
49.657
  0
ARC
  5
2C3
100
AcDbEntity
  8
Make_Solder_Side
  6
CONTINUOUS
 62
    1
370
   -1
100
AcDbCircle
 10
19.431
 20
49.657
 40
0.531
100
AcDbArc
 50
319.537
 51
0
  0
LINE
  5
2C4
100
AcDbEntity
  8
Make_Solder_Side
  6
CONTINUOUS
 62
    1
370
   -1
100
AcDbLine
 10
19.835
 20
49.3124
 11
19.835
 21
41.91
  0
ARC
  5
2C5
100
AcDbEntity
  8
Make_Solder_Side
  6
CONTINUOUS
 62
    1
370
   -1
100
AcDbCircle
 10
19.05
 20
41.91
 40
0.785
100
AcDbArc
 50
270
 51
0
  0
LINE
  5
2C6
100
AcDbEntity
  8
Make_Solder_Side
  6
CONTINUOUS
 62
    1
370
   -1
100
AcDbLine
 10
19.05
 20
41.125
 11
14.1876
 21
41.125
  0
ARC
  5
2C7
100
AcDbEntity
  8
Make_Solder_Side
  6
CONTINUOUS
 62
    1
370
   -1
100
AcDbCircle
 10
13.843
 20
41.529
 40
0.531
100
AcDbArc
 50
270
 51
310.463
  0
LINE
  5
2C8
100
AcDbEntity
  8
Make_Solder_Side
  6
CONTINUOUS
 62
    1
370
   -1
100
AcDbLine
 10
13.843
 20
28.298
 11
11.557
 21
28.298
  0
ARC
  5
2C9
100
AcDbEntity
  8
Make_Solder_Side
  6
CONTINUOUS
 62
    1
370
   -1
100
AcDbCircle
 10
11.557
 20
28.829
 40
0.531
100
AcDbArc
 50
180
 51
270
  0
LINE
  5
2CA
100
AcDbEntity
  8
Make_Solder_Side
  6
CONTINUOUS
 62
    1
370
   -1
100
AcDbLine
 10
11.026
 20
28.829
 11
11.026
 21
29.591
  0
ARC
  5
2CB
100
AcDbEntity
  8
Make_Solder_Side
  6
CONTINUOUS
 62
    1
370
   -1
100
AcDbCircle
 10
11.557
 20
29.591
 40
0.531
100
AcDbArc
 50
90
 51
180
  0
LINE
  5
2CC
100
AcDbEntity
  8
Make_Solder_Side
  6
CONTINUOUS
 62
    1
370
   -1
100
AcDbLine
 10
11.557
 20
30.122
 11
13.843
 21
30.122
  0
ARC
  5
2CD
100
AcDbEntity
  8
Make_Solder_Side
  6
CONTINUOUS
 62
    1
370
   -1
100
AcDbCircle
 10
13.843
 20
29.591
 40
0.531
100
AcDbArc
 50
49.5373
 51
90
  0
LINE
  5
2CE
100
AcDbEntity
  8
Make_Solder_Side
  6
CONTINUOUS
 62
    1
370
   -1
100
AcDbLine
 10
14.1876
 20
29.995
 11
19.5459
 21
29.995
  0
ARC
  5
2CF
100
AcDbEntity
  8
Make_Solder_Side
  6
CONTINUOUS
 62
    1
370
   -1
100
AcDbCircle
 10
20.32
 20
29.21
 40
1.1025
100
AcDbArc
 50
225.399
 51
134.601
  0
LINE
  5
2D0
100
AcDbEntity
  8
Make_Solder_Side
  6
CONTINUOUS
 62
    1
370
   -1
100
AcDbLine
 10
19.5459
 20
28.425
 11
14.1876
 21
28.425
  0
ARC
  5
2D1
100
AcDbEntity
  8
Make_Solder_Side
  6
CONTINUOUS
 62
    1
370
   -1
100
AcDbCircle
 10
13.843
 20
28.829
 40
0.531
100
AcDbArc
 50
270
 51
310.463
  0
LINE
  5
2D2
100
AcDbEntity
  8
Make_Solder_Side
  6
CONTINUOUS
 62
    1
370
   -1
100
AcDbLine
 10
13.843
 20
25.758
 11
11.557
 21
25.758
  0
ARC
  5
2D3
100
AcDbEntity
  8
Make_Solder_Side
  6
CONTINUOUS
 62
    1
370
   -1
100
AcDbCircle
 10
11.557
 20
26.289
 40
0.531
100
AcDbArc
 50
180
 51
270
  0
LINE
  5
2D4
100
AcDbEntity
  8
Make_Solder_Side
  6
CONTINUOUS
 62
    1
370
   -1
100
AcDbLine
 10
11.026
 20
26.289
 11
11.026
 21
27.051
  0
ARC
  5
2D5
100
AcDbEntity
  8
Make_Solder_Side
  6
CONTINUOUS
 62
    1
370
   -1
100
AcDbCircle
 10
11.557
 20
27.051
 40
0.531
100
AcDbArc
 50
90
 51
180
  0
LINE
  5
2D6
100
AcDbEntity
  8
Make_Solder_Side
  6
CONTINUOUS
 62
    1
370
   -1
100
AcDbLine
 10
11.557
 20
27.582
 11
13.843
 21
27.582
  0
ARC
  5
2D7
100
AcDbEntity
  8
Make_Solder_Side
  6
CONTINUOUS
 62
    1
370
   -1
100
AcDbCircle
 10
13.843
 20
27.051
 40
0.531
100
AcDbArc
 50
49.5373
 51
90
  0
LINE
  5
2D8
100
AcDbEntity
  8
Make_Solder_Side
  6
CONTINUOUS
 62
    1
370
   -1
100
AcDbLine
 10
14.1876
 20
27.455
 11
19.5459
 21
27.455
  0
ARC
  5
2D9
100
AcDbEntity
  8
Make_Solder_Side
  6
CONTINUOUS
 62
    1
370
   -1
100
AcDbCircle
 10
20.32
 20
26.67
 40
1.1025
100
AcDbArc
 50
225.399
 51
134.601
  0
LINE
  5
2DA
100
AcDbEntity
  8
Make_Solder_Side
  6
CONTINUOUS
 62
    1
370
   -1
100
AcDbLine
 10
19.5459
 20
25.885
 11
14.1876
 21
25.885
  0
ARC
  5
2DB
100
AcDbEntity
  8
Make_Solder_Side
  6
CONTINUOUS
 62
    1
370
   -1
100
AcDbCircle
 10
13.843
 20
26.289
 40
0.531
100
AcDbArc
 50
270
 51
310.463
  0
LINE
  5
2DC
100
AcDbEntity
  8
Make_Solder_Side
  6
CONTINUOUS
 62
    1
370
   -1
100
AcDbLine
 10
13.843
 20
21.948
 11
11.557
 21
21.948
  0
ARC
  5
2DD
100
AcDbEntity
  8
Make_Solder_Side
  6
CONTINUOUS
 62
    1
370
   -1
100
AcDbCircle
 10
11.557
 20
22.479
 40
0.531
100
AcDbArc
 50
180
 51
270
  0
LINE
  5
2DE
100
AcDbEntity
  8
Make_Solder_Side
  6
CONTINUOUS
 62
    1
370
   -1
100
AcDbLine
 10
11.026
 20
22.479
 11
11.026
 21
23.241
  0
ARC
  5
2DF
100
AcDbEntity
  8
Make_Solder_Side
  6
CONTINUOUS
 62
    1
370
   -1
100
AcDbCircle
 10
11.557
 20
23.241
 40
0.531
100
AcDbArc
 50
90
 51
180
  0
LINE
  5
2E0
100
AcDbEntity
  8
Make_Solder_Side
  6
CONTINUOUS
 62
    1
370
   -1
100
AcDbLine
 10
11.557
 20
23.772
 11
13.843
 21
23.772
  0
ARC
  5
2E1
100
AcDbEntity
  8
Make_Solder_Side
  6
CONTINUOUS
 62
    1
370
   -1
100
AcDbCircle
 10
13.843
 20
23.241
 40
0.531
100
AcDbArc
 50
49.5373
 51
90
  0
LINE
  5
2E2
100
AcDbEntity
  8
Make_Solder_Side
  6
CONTINUOUS
 62
    1
370
   -1
100
AcDbLine
 10
14.1876
 20
23.645
 11
19.5459
 21
23.645
  0
ARC
  5
2E3
100
AcDbEntity
  8
Make_Solder_Side
  6
CONTINUOUS
 62
    1
370
   -1
100
AcDbCircle
 10
20.32
 20
22.86
 40
1.1025
100
AcDbArc
 50
225.399
 51
134.601
  0
LINE
  5
2E4
100
AcDbEntity
  8
Make_Solder_Side
  6
CONTINUOUS
 62
    1
370
   -1
100
AcDbLine
 10
19.5459
 20
22.075
 11
14.1876
 21
22.075
  0
ARC
  5
2E5
100
AcDbEntity
  8
Make_Solder_Side
  6
CONTINUOUS
 62
    1
370
   -1
100
AcDbCircle
 10
13.843
 20
22.479
 40
0.531
100
AcDbArc
 50
270
 51
310.463
  0
LINE
  5
2E6
100
AcDbEntity
  8
Make_Solder_Side
  6
CONTINUOUS
 62
    1
370
   -1
100
AcDbLine
 10
13.843
 20
19.408
 11
11.557
 21
19.408
  0
ARC
  5
2E7
100
AcDbEntity
  8
Make_Solder_Side
  6
CONTINUOUS
 62
    1
370
   -1
100
AcDbCircle
 10
11.557
 20
19.939
 40
0.531
100
AcDbArc
 50
180
 51
270
  0
LINE
  5
2E8
100
AcDbEntity
  8
Make_Solder_Side
  6
CONTINUOUS
 62
    1
370
   -1
100
AcDbLine
 10
11.026
 20
19.939
 11
11.026
 21
20.701
  0
ARC
  5
2E9
100
AcDbEntity
  8
Make_Solder_Side
  6
CONTINUOUS
 62
    1
370
   -1
100
AcDbCircle
 10
11.557
 20
20.701
 40
0.531
100
AcDbArc
 50
90
 51
180
  0
LINE
  5
2EA
100
AcDbEntity
  8
Make_Solder_Side
  6
CONTINUOUS
 62
    1
370
   -1
100
AcDbLine
 10
11.557
 20
21.232
 11
13.843
 21
21.232
  0
ARC
  5
2EB
100
AcDbEntity
  8
Make_Solder_Side
  6
CONTINUOUS
 62
    1
370
   -1
100
AcDbCircle
 10
13.843
 20
20.701
 40
0.531
100
AcDbArc
 50
49.5373
 51
90
  0
LINE
  5
2EC
100
AcDbEntity
  8
Make_Solder_Side
  6
CONTINUOUS
 62
    1
370
   -1
100
AcDbLine
 10
14.1876
 20
21.105
 11
19.5459
 21
21.105
  0
ARC
  5
2ED
100
AcDbEntity
  8
Make_Solder_Side
  6
CONTINUOUS
 62
    1
370
   -1
100
AcDbCircle
 10
20.32
 20
20.32
 40
1.1025
100
AcDbArc
 50
225.399
 51
134.601
  0
LINE
  5
2EE
100
AcDbEntity
  8
Make_Solder_Side
  6
CONTINUOUS
 62
    1
370
   -1
100
AcDbLine
 10
19.5459
 20
19.535
 11
14.1876
 21
19.535
  0
ARC
  5
2EF
100
AcDbEntity
  8
Make_Solder_Side
  6
CONTINUOUS
 62
    1
370
   -1
100
AcDbCircle
 10
13.843
 20
19.939
 40
0.531
100
AcDbArc
 50
270
 51
310.463
  0
LINE
  5
2F0
100
AcDbEntity
  8
Make_Solder_Side
  6
CONTINUOUS
 62
    1
370
   -1
100
AcDbLine
 10
13.843
 20
16.868
 11
11.557
 21
16.868
  0
ARC
  5
2F1
100
AcDbEntity
  8
Make_Solder_Side
  6
CONTINUOUS
 62
    1
370
   -1
100
AcDbCircle
 10
11.557
 20
17.399
 40
0.531
100
AcDbArc
 50
180
 51
270
  0
LINE
  5
2F2
100
AcDbEntity
  8
Make_Solder_Side
  6
CONTINUOUS
 62
    1
370
   -1
100
AcDbLine
 10
11.026
 20
17.399
 11
11.026
 21
18.161
  0
ARC
  5
2F3
100
AcDbEntity
  8
Make_Solder_Side
  6
CONTINUOUS
 62
    1
370
   -1
100
AcDbCircle
 10
11.557
 20
18.161
 40
0.531
100
AcDbArc
 50
90
 51
180
  0
LINE
  5
2F4
100
AcDbEntity
  8
Make_Solder_Side
  6
CONTINUOUS
 62
    1
370
   -1
100
AcDbLine
 10
11.557
 20
18.692
 11
13.843
 21
18.692
  0
ARC
  5
2F5
100
AcDbEntity
  8
Make_Solder_Side
  6
CONTINUOUS
 62
    1
370
   -1
100
AcDbCircle
 10
13.843
 20
18.161
 40
0.531
100
AcDbArc
 50
49.5373
 51
90
  0
LINE
  5
2F6
100
AcDbEntity
  8
Make_Solder_Side
  6
CONTINUOUS
 62
    1
370
   -1
100
AcDbLine
 10
14.1876
 20
18.565
 11
19.5459
 21
18.565
  0
ARC
  5
2F7
100
AcDbEntity
  8
Make_Solder_Side
  6
CONTINUOUS
 62
    1
370
   -1
100
AcDbCircle
 10
20.32
 20
17.78
 40
1.1025
100
AcDbArc
 50
225.399
 51
134.601
  0
LINE
  5
2F8
100
AcDbEntity
  8
Make_Solder_Side
  6
CONTINUOUS
 62
    1
370
   -1
100
AcDbLine
 10
19.5459
 20
16.995
 11
14.1876
 21
16.995
  0
ARC
  5
2F9
100
AcDbEntity
  8
Make_Solder_Side
  6
CONTINUOUS
 62
    1
370
   -1
100
AcDbCircle
 10
13.843
 20
17.399
 40
0.531
100
AcDbArc
 50
270
 51
310.463
  0
LINE
  5
2FA
100
AcDbEntity
  8
Make_Solder_Side
  6
CONTINUOUS
 62
    1
370
   -1
100
AcDbLine
 10
13.843
 20
14.328
 11
11.557
 21
14.328
  0
ARC
  5
2FB
100
AcDbEntity
  8
Make_Solder_Side
  6
CONTINUOUS
 62
    1
370
   -1
100
AcDbCircle
 10
11.557
 20
14.859
 40
0.531
100
AcDbArc
 50
180
 51
270
  0
LINE
  5
2FC
100
AcDbEntity
  8
Make_Solder_Side
  6
CONTINUOUS
 62
    1
370
   -1
100
AcDbLine
 10
11.026
 20
14.859
 11
11.026
 21
15.621
  0
ARC
  5
2FD
100
AcDbEntity
  8
Make_Solder_Side
  6
CONTINUOUS
 62
    1
370
   -1
100
AcDbCircle
 10
11.557
 20
15.621
 40
0.531
100
AcDbArc
 50
90
 51
180
  0
LINE
  5
2FE
100
AcDbEntity
  8
Make_Solder_Side
  6
CONTINUOUS
 62
    1
370
   -1
100
AcDbLine
 10
11.557
 20
16.152
 11
13.843
 21
16.152
  0
ARC
  5
2FF
100
AcDbEntity
  8
Make_Solder_Side
  6
CONTINUOUS
 62
    1
370
   -1
100
AcDbCircle
 10
13.843
 20
15.621
 40
0.531
100
AcDbArc
 50
49.5373
 51
90
  0
LINE
  5
300
100
AcDbEntity
  8
Make_Solder_Side
  6
CONTINUOUS
 62
    1
370
   -1
100
AcDbLine
 10
14.1876
 20
16.025
 11
19.5459
 21
16.025
  0
ARC
  5
301
100
AcDbEntity
  8
Make_Solder_Side
  6
CONTINUOUS
 62
    1
370
   -1
100
AcDbCircle
 10
20.32
 20
15.24
 40
1.1025
100
AcDbArc
 50
225.399
 51
134.601
  0
LINE
  5
302
100
AcDbEntity
  8
Make_Solder_Side
  6
CONTINUOUS
 62
    1
370
   -1
100
AcDbLine
 10
19.5459
 20
14.455
 11
14.1876
 21
14.455
  0
ARC
  5
303
100
AcDbEntity
  8
Make_Solder_Side
  6
CONTINUOUS
 62
    1
370
   -1
100
AcDbCircle
 10
13.843
 20
14.859
 40
0.531
100
AcDbArc
 50
270
 51
310.463
  0
LINE
  5
304
100
AcDbEntity
  8
Make_Solder_Side
  6
CONTINUOUS
 62
    1
370
   -1
100
AcDbLine
 10
13.843
 20
11.788
 11
11.557
 21
11.788
  0
ARC
  5
305
100
AcDbEntity
  8
Make_Solder_Side
  6
CONTINUOUS
 62
    1
370
   -1
100
AcDbCircle
 10
11.557
 20
12.319
 40
0.531
100
AcDbArc
 50
180
 51
270
  0
LINE
  5
306
100
AcDbEntity
  8
Make_Solder_Side
  6
CONTINUOUS
 62
    1
370
   -1
100
AcDbLine
 10
11.026
 20
12.319
 11
11.026
 21
13.081
  0
ARC
  5
307
100
AcDbEntity
  8
Make_Solder_Side
  6
CONTINUOUS
 62
    1
370
   -1
100
AcDbCircle
 10
11.557
 20
13.081
 40
0.531
100
AcDbArc
 50
90
 51
180
  0
LINE
  5
308
100
AcDbEntity
  8
Make_Solder_Side
  6
CONTINUOUS
 62
    1
370
   -1
100
AcDbLine
 10
11.557
 20
13.612
 11
13.843
 21
13.612
  0
ARC
  5
309
100
AcDbEntity
  8
Make_Solder_Side
  6
CONTINUOUS
 62
    1
370
   -1
100
AcDbCircle
 10
13.843
 20
13.081
 40
0.531
100
AcDbArc
 50
49.5373
 51
90
  0
LINE
  5
30A
100
AcDbEntity
  8
Make_Solder_Side
  6
CONTINUOUS
 62
    1
370
   -1
100
AcDbLine
 10
14.1876
 20
13.485
 11
19.5459
 21
13.485
  0
ARC
  5
30B
100
AcDbEntity
  8
Make_Solder_Side
  6
CONTINUOUS
 62
    1
370
   -1
100
AcDbCircle
 10
20.32
 20
12.7
 40
1.1025
100
AcDbArc
 50
225.399
 51
134.601
  0
LINE
  5
30C
100
AcDbEntity
  8
Make_Solder_Side
  6
CONTINUOUS
 62
    1
370
   -1
100
AcDbLine
 10
19.5459
 20
11.915
 11
14.1876
 21
11.915
  0
ARC
  5
30D
100
AcDbEntity
  8
Make_Solder_Side
  6
CONTINUOUS
 62
    1
370
   -1
100
AcDbCircle
 10
13.843
 20
12.319
 40
0.531
100
AcDbArc
 50
270
 51
310.463
  0
LINE
  5
30E
100
AcDbEntity
  8
Make_Solder_Side
  6
CONTINUOUS
 62
    1
370
   -1
100
AcDbLine
 10
13.843
 20
9.247999999999999
 11
11.557
 21
9.247999999999999
  0
ARC
  5
30F
100
AcDbEntity
  8
Make_Solder_Side
  6
CONTINUOUS
 62
    1
370
   -1
100
AcDbCircle
 10
11.557
 20
9.779
 40
0.531
100
AcDbArc
 50
180
 51
270
  0
LINE
  5
310
100
AcDbEntity
  8
Make_Solder_Side
  6
CONTINUOUS
 62
    1
370
   -1
100
AcDbLine
 10
11.026
 20
9.779
 11
11.026
 21
10.541
  0
ARC
  5
311
100
AcDbEntity
  8
Make_Solder_Side
  6
CONTINUOUS
 62
    1
370
   -1
100
AcDbCircle
 10
11.557
 20
10.541
 40
0.531
100
AcDbArc
 50
90
 51
180
  0
LINE
  5
312
100
AcDbEntity
  8
Make_Solder_Side
  6
CONTINUOUS
 62
    1
370
   -1
100
AcDbLine
 10
11.557
 20
11.072
 11
13.843
 21
11.072
  0
ARC
  5
313
100
AcDbEntity
  8
Make_Solder_Side
  6
CONTINUOUS
 62
    1
370
   -1
100
AcDbCircle
 10
13.843
 20
10.541
 40
0.531
100
AcDbArc
 50
49.5373
 51
90
  0
LINE
  5
314
100
AcDbEntity
  8
Make_Solder_Side
  6
CONTINUOUS
 62
    1
370
   -1
100
AcDbLine
 10
14.1876
 20
10.945
 11
19.5459
 21
10.945
  0
ARC
  5
315
100
AcDbEntity
  8
Make_Solder_Side
  6
CONTINUOUS
 62
    1
370
   -1
100
AcDbCircle
 10
20.32
 20
10.16
 40
1.1025
100
AcDbArc
 50
225.399
 51
134.601
  0
LINE
  5
316
100
AcDbEntity
  8
Make_Solder_Side
  6
CONTINUOUS
 62
    1
370
   -1
100
AcDbLine
 10
19.5459
 20
9.375
 11
14.1876
 21
9.375
  0
ARC
  5
317
100
AcDbEntity
  8
Make_Solder_Side
  6
CONTINUOUS
 62
    1
370
   -1
100
AcDbCircle
 10
13.843
 20
9.779
 40
0.531
100
AcDbArc
 50
270
 51
310.463
  0
LINE
  5
318
100
AcDbEntity
  8
Make_Solder_Side
  6
CONTINUOUS
 62
    1
370
   -1
100
AcDbLine
 10
62.4109
 20
50.8
 11
62.4109
 21
54.4801
  0
ARC
  5
319
100
AcDbEntity
  8
Make_Solder_Side
  6
CONTINUOUS
 62
    1
370
   -1
100
AcDbCircle
 10
62.5609
 20
54.4801
 40
0.15
100
AcDbArc
 50
90
 51
180
  0
LINE
  5
31A
100
AcDbEntity
  8
Make_Solder_Side
  6
CONTINUOUS
 62
    1
370
   -1
100
AcDbLine
 10
62.5609
 20
54.6301
 11
63.1223
 21
54.6301
  0
ARC
  5
31B
100
AcDbEntity
  8
Make_Solder_Side
  6
CONTINUOUS
 62
    1
370
   -1
100
AcDbCircle
 10
63.1223
 20
54.4801
 40
0.15
100
AcDbArc
 50
0
 51
90
  0
LINE
  5
31C
100
AcDbEntity
  8
Make_Solder_Side
  6
CONTINUOUS
 62
    1
370
   -1
100
AcDbLine
 10
63.2723
 20
54.4801
 11
63.2723
 21
54.3559
  0
LWPOLYLINE
  5
31D
100
AcDbEntity
  8
Make_Solder_Side
  6
CONTINUOUS
 62
    1
370
   -1
100
AcDbPolyline
 90
   11
 70
    0
 43
0
 10
63.2723
 20
54.3559
 10
63.9003
 20
54.6717
 10
64.2932
 20
54.7132
 10
64.96420000000001
 20
54.5815
 10
65.4448
 20
54.2173
 10
65.518
 20
54.1013
 10
65.5788
 20
53.976
 10
65.6272
 20
53.842
 10
65.66370000000001
 20
53.6992
 10
65.6925
 20
53.4395
 10
65.70140000000001
 20
53.0628
  0
LINE
  5
31E
100
AcDbEntity
  8
Make_Solder_Side
  6
CONTINUOUS
 62
    1
370
   -1
100
AcDbLine
 10
65.70140000000001
 20
53.0628
 11
65.70140000000001
 21
50.8
  0
ARC
  5
31F
100
AcDbEntity
  8
Make_Solder_Side
  6
CONTINUOUS
 62
    1
370
   -1
100
AcDbCircle
 10
65.5514
 20
50.8
 40
0.15
100
AcDbArc
 50
270
 51
0
  0
LINE
  5
320
100
AcDbEntity
  8
Make_Solder_Side
  6
CONTINUOUS
 62
    1
370
   -1
100
AcDbLine
 10
65.5514
 20
50.65
 11
64.9277
 21
50.65
  0
ARC
  5
321
100
AcDbEntity
  8
Make_Solder_Side
  6
CONTINUOUS
 62
    1
370
   -1
100
AcDbCircle
 10
64.9277
 20
50.8
 40
0.15
100
AcDbArc
 50
180
 51
270
  0
LINE
  5
322
100
AcDbEntity
  8
Make_Solder_Side
  6
CONTINUOUS
 62
    1
370
   -1
100
AcDbLine
 10
64.7777
 20
50.8
 11
64.7777
 21
53.0385
  0
LWPOLYLINE
  5
323
100
AcDbEntity
  8
Make_Solder_Side
  6
CONTINUOUS
 62
    1
370
   -1
100
AcDbPolyline
 90
   20
 70
    0
 43
0
 10
64.7777
 20
53.0385
 10
64.7607
 20
53.3526
 10
64.7149
 20
53.5546
 10
64.6825
 20
53.6216
 10
64.64
 20
53.6808
 10
64.5861
 20
53.734
 10
64.5189
 20
53.7818
 10
64.44199999999999
 20
53.821
 10
64.35769999999999
 20
53.8493
 10
64.2646
 20
53.8667
 10
64.0762
 20
53.8692
 10
63.9168
 20
53.8421
 10
63.7711
 20
53.7885
 10
63.6365
 20
53.7079
 10
63.5223
 20
53.6044
 10
63.4765
 20
53.5384
 10
63.4356
 20
53.4572
 10
63.4006
 20
53.3599
 10
63.3516
 20
53.1168
 10
63.3347
 20
52.8098
  0
LINE
  5
324
100
AcDbEntity
  8
Make_Solder_Side
  6
CONTINUOUS
 62
    1
370
   -1
100
AcDbLine
 10
63.3347
 20
52.8098
 11
63.3347
 21
50.8
  0
ARC
  5
325
100
AcDbEntity
  8
Make_Solder_Side
  6
CONTINUOUS
 62
    1
370
   -1
100
AcDbCircle
 10
63.1847
 20
50.8
 40
0.15
100
AcDbArc
 50
270
 51
0
  0
LINE
  5
326
100
AcDbEntity
  8
Make_Solder_Side
  6
CONTINUOUS
 62
    1
370
   -1
100
AcDbLine
 10
63.1847
 20
50.65
 11
62.5609
 21
50.65
  0
ARC
  5
327
100
AcDbEntity
  8
Make_Solder_Side
  6
CONTINUOUS
 62
    1
370
   -1
100
AcDbCircle
 10
62.5609
 20
50.8
 40
0.15
100
AcDbArc
 50
180
 51
270
  0
POINT
  5
328
100
AcDbEntity
  8
Make_Solder_Side
  6
CONTINUOUS
 62
    5
370
   -1
100
AcDbPoint
 10
25.4
 20
17.78
  0
POINT
  5
329
100
AcDbEntity
  8
Make_Solder_Side
  6
CONTINUOUS
 62
    5
370
   -1
100
AcDbPoint
 10
22.86
 20
15.24
  0
POINT
  5
32A
100
AcDbEntity
  8
Make_Solder_Side
  6
CONTINUOUS
 62
    5
370
   -1
100
AcDbPoint
 10
25.4
 20
15.24
  0
POINT
  5
32B
100
AcDbEntity
  8
Make_Solder_Side
  6
CONTINUOUS
 62
    5
370
   -1
100
AcDbPoint
 10
20.32
 20
15.24
  0
POINT
  5
32C
100
AcDbEntity
  8
Make_Solder_Side
  6
CONTINUOUS
 62
    5
370
   -1
100
AcDbPoint
 10
20.32
 20
17.78
  0
POINT
  5
32D
100
AcDbEntity
  8
Make_Solder_Side
  6
CONTINUOUS
 62
    5
370
   -1
100
AcDbPoint
 10
22.86
 20
17.78
  0
POINT
  5
32E
100
AcDbEntity
  8
Make_Solder_Side
  6
CONTINUOUS
 62
    5
370
   -1
100
AcDbPoint
 10
25.4
 20
22.86
  0
POINT
  5
32F
100
AcDbEntity
  8
Make_Solder_Side
  6
CONTINUOUS
 62
    5
370
   -1
100
AcDbPoint
 10
22.86
 20
20.32
  0
POINT
  5
330
100
AcDbEntity
  8
Make_Solder_Side
  6
CONTINUOUS
 62
    5
370
   -1
100
AcDbPoint
 10
25.4
 20
20.32
  0
POINT
  5
331
100
AcDbEntity
  8
Make_Solder_Side
  6
CONTINUOUS
 62
    5
370
   -1
100
AcDbPoint
 10
20.32
 20
20.32
  0
POINT
  5
332
100
AcDbEntity
  8
Make_Solder_Side
  6
CONTINUOUS
 62
    5
370
   -1
100
AcDbPoint
 10
20.32
 20
22.86
  0
POINT
  5
333
100
AcDbEntity
  8
Make_Solder_Side
  6
CONTINUOUS
 62
    5
370
   -1
100
AcDbPoint
 10
22.86
 20
22.86
  0
POINT
  5
334
100
AcDbEntity
  8
Make_Solder_Side
  6
CONTINUOUS
 62
    5
370
   -1
100
AcDbPoint
 10
25.4
 20
29.21
  0
POINT
  5
335
100
AcDbEntity
  8
Make_Solder_Side
  6
CONTINUOUS
 62
    5
370
   -1
100
AcDbPoint
 10
22.86
 20
26.67
  0
POINT
  5
336
100
AcDbEntity
  8
Make_Solder_Side
  6
CONTINUOUS
 62
    5
370
   -1
100
AcDbPoint
 10
25.4
 20
26.67
  0
POINT
  5
337
100
AcDbEntity
  8
Make_Solder_Side
  6
CONTINUOUS
 62
    5
370
   -1
100
AcDbPoint
 10
20.32
 20
26.67
  0
POINT
  5
338
100
AcDbEntity
  8
Make_Solder_Side
  6
CONTINUOUS
 62
    5
370
   -1
100
AcDbPoint
 10
20.32
 20
29.21
  0
POINT
  5
339
100
AcDbEntity
  8
Make_Solder_Side
  6
CONTINUOUS
 62
    5
370
   -1
100
AcDbPoint
 10
22.86
 20
29.21
  0
POINT
  5
33A
100
AcDbEntity
  8
Make_Solder_Side
  6
CONTINUOUS
 62
    5
370
   -1
100
AcDbPoint
 10
22.86
 20
12.7
  0
POINT
  5
33B
100
AcDbEntity
  8
Make_Solder_Side
  6
CONTINUOUS
 62
    5
370
   -1
100
AcDbPoint
 10
25.4
 20
12.7
  0
POINT
  5
33C
100
AcDbEntity
  8
Make_Solder_Side
  6
CONTINUOUS
 62
    5
370
   -1
100
AcDbPoint
 10
20.32
 20
12.7
  0
POINT
  5
33D
100
AcDbEntity
  8
Make_Solder_Side
  6
CONTINUOUS
 62
    5
370
   -1
100
AcDbPoint
 10
22.86
 20
10.16
  0
POINT
  5
33E
100
AcDbEntity
  8
Make_Solder_Side
  6
CONTINUOUS
 62
    5
370
   -1
100
AcDbPoint
 10
25.4
 20
10.16
  0
POINT
  5
33F
100
AcDbEntity
  8
Make_Solder_Side
  6
CONTINUOUS
 62
    5
370
   -1
100
AcDbPoint
 10
20.32
 20
10.16
  0
POINT
  5
340
100
AcDbEntity
  8
Make_Solder_Side
  6
CONTINUOUS
 62
    5
370
   -1
100
AcDbPoint
 10
21.59
 20
45.72
  0
POINT
  5
341
100
AcDbEntity
  8
Make_Solder_Side
  6
CONTINUOUS
 62
    5
370
   -1
100
AcDbPoint
 10
35.56
 20
45.72
  0
POINT
  5
342
100
AcDbEntity
  8
Make_Solder_Side
  6
CONTINUOUS
 62
    5
370
   -1
100
AcDbPoint
 10
53.34
 20
15.24
  0
POINT
  5
343
100
AcDbEntity
  8
Make_Solder_Side
  6
CONTINUOUS
 62
    5
370
   -1
100
AcDbPoint
 10
53.34
 20
8.890000000000001
  0
POINT
  5
344
100
AcDbEntity
  8
Make_Solder_Side
  6
CONTINUOUS
 62
    5
370
   -1
100
AcDbPoint
 10
48.26
 20
12.7
  0
POINT
  5
345
100
AcDbEntity
  8
Make_Solder_Side
  6
CONTINUOUS
 62
    5
370
   -1
100
AcDbPoint
 10
60.96
 20
35.56
  0
POINT
  5
346
100
AcDbEntity
  8
Make_Solder_Side
  6
CONTINUOUS
 62
    5
370
   -1
100
AcDbPoint
 10
60.96
 20
33.02
  0
POINT
  5
347
100
AcDbEntity
  8
Make_Solder_Side
  6
CONTINUOUS
 62
    5
370
   -1
100
AcDbPoint
 10
60.96
 20
30.48
  0
POINT
  5
348
100
AcDbEntity
  8
Make_Solder_Side
  6
CONTINUOUS
 62
    5
370
   -1
100
AcDbPoint
 10
60.96
 20
27.94
  0
POINT
  5
349
100
AcDbEntity
  8
Make_Solder_Side
  6
CONTINUOUS
 62
    5
370
   -1
100
AcDbPoint
 10
60.96
 20
25.4
  0
POINT
  5
34A
100
AcDbEntity
  8
Make_Solder_Side
  6
CONTINUOUS
 62
    5
370
   -1
100
AcDbPoint
 10
60.96
 20
22.86
  0
POINT
  5
34B
100
AcDbEntity
  8
Make_Solder_Side
  6
CONTINUOUS
 62
    5
370
   -1
100
AcDbPoint
 10
12.7
 20
44.45
  0
POINT
  5
34C
100
AcDbEntity
  8
Make_Solder_Side
  6
CONTINUOUS
 62
    5
370
   -1
100
AcDbPoint
 10
12.7
 20
41.91
  0
POINT
  5
34D
100
AcDbEntity
  8
Make_Solder_Side
  6
CONTINUOUS
 62
    5
370
   -1
100
AcDbPoint
 10
12.7
 20
39.37
  0
POINT
  5
34E
100
AcDbEntity
  8
Make_Solder_Side
  6
CONTINUOUS
 62
    5
370
   -1
100
AcDbPoint
 10
12.7
 20
36.83
  0
POINT
  5
34F
100
AcDbEntity
  8
Make_Solder_Side
  6
CONTINUOUS
 62
    5
370
   -1
100
AcDbPoint
 10
12.7
 20
34.29
  0
POINT
  5
350
100
AcDbEntity
  8
Make_Solder_Side
  6
CONTINUOUS
 62
    5
370
   -1
100
AcDbPoint
 10
12.7
 20
31.75
  0
POINT
  5
351
100
AcDbEntity
  8
Make_Solder_Side
  6
CONTINUOUS
 62
    5
370
   -1
100
AcDbPoint
 10
12.7
 20
29.21
  0
POINT
  5
352
100
AcDbEntity
  8
Make_Solder_Side
  6
CONTINUOUS
 62
    5
370
   -1
100
AcDbPoint
 10
12.7
 20
26.67
  0
POINT
  5
353
100
AcDbEntity
  8
Make_Solder_Side
  6
CONTINUOUS
 62
    5
370
   -1
100
AcDbPoint
 10
12.7
 20
22.86
  0
POINT
  5
354
100
AcDbEntity
  8
Make_Solder_Side
  6
CONTINUOUS
 62
    5
370
   -1
100
AcDbPoint
 10
12.7
 20
20.32
  0
POINT
  5
355
100
AcDbEntity
  8
Make_Solder_Side
  6
CONTINUOUS
 62
    5
370
   -1
100
AcDbPoint
 10
12.7
 20
17.78
  0
POINT
  5
356
100
AcDbEntity
  8
Make_Solder_Side
  6
CONTINUOUS
 62
    5
370
   -1
100
AcDbPoint
 10
12.7
 20
15.24
  0
POINT
  5
357
100
AcDbEntity
  8
Make_Solder_Side
  6
CONTINUOUS
 62
    5
370
   -1
100
AcDbPoint
 10
12.7
 20
12.7
  0
POINT
  5
358
100
AcDbEntity
  8
Make_Solder_Side
  6
CONTINUOUS
 62
    5
370
   -1
100
AcDbPoint
 10
12.7
 20
10.16
  0
POINT
  5
359
100
AcDbEntity
  8
Make_Solder_Side
  6
CONTINUOUS
 62
    5
370
   -1
100
AcDbPoint
 10
31.75
 20
50.8
  0
POINT
  5
35A
100
AcDbEntity
  8
Make_Solder_Side
  6
CONTINUOUS
 62
    5
370
   -1
100
AcDbPoint
 10
29.21
 20
50.8
  0
POINT
  5
35B
100
AcDbEntity
  8
Make_Solder_Side
  6
CONTINUOUS
 62
    5
370
   -1
100
AcDbPoint
 10
26.67
 20
50.8
  0
POINT
  5
35C
100
AcDbEntity
  8
Make_Solder_Side
  6
CONTINUOUS
 62
    5
370
   -1
100
AcDbPoint
 10
24.13
 20
50.8
  0
POINT
  5
35D
100
AcDbEntity
  8
Make_Solder_Side
  6
CONTINUOUS
 62
    5
370
   -1
100
AcDbPoint
 10
21.59
 20
50.8
  0
POINT
  5
35E
100
AcDbEntity
  8
Make_Solder_Side
  6
CONTINUOUS
 62
    5
370
   -1
100
AcDbPoint
 10
19.05
 20
50.8
  0
POINT
  5
35F
100
AcDbEntity
  8
Make_Solder_Side
  6
CONTINUOUS
 62
    5
370
   -1
100
AcDbPoint
 10
36.83
 20
31.75
  0
POINT
  5
360
100
AcDbEntity
  8
Make_Solder_Side
  6
CONTINUOUS
 62
    5
370
   -1
100
AcDbPoint
 10
39.37
 20
31.75
  0
POINT
  5
361
100
AcDbEntity
  8
Make_Solder_Side
  6
CONTINUOUS
 62
    6
370
   -1
100
AcDbPoint
 10
25.4
 20
17.78
  0
POINT
  5
362
100
AcDbEntity
  8
Make_Solder_Side
  6
CONTINUOUS
 62
    6
370
   -1
100
AcDbPoint
 10
22.86
 20
15.24
  0
POINT
  5
363
100
AcDbEntity
  8
Make_Solder_Side
  6
CONTINUOUS
 62
    6
370
   -1
100
AcDbPoint
 10
25.4
 20
15.24
  0
POINT
  5
364
100
AcDbEntity
  8
Make_Solder_Side
  6
CONTINUOUS
 62
    6
370
   -1
100
AcDbPoint
 10
20.32
 20
15.24
  0
POINT
  5
365
100
AcDbEntity
  8
Make_Solder_Side
  6
CONTINUOUS
 62
    6
370
   -1
100
AcDbPoint
 10
20.32
 20
17.78
  0
POINT
  5
366
100
AcDbEntity
  8
Make_Solder_Side
  6
CONTINUOUS
 62
    6
370
   -1
100
AcDbPoint
 10
22.86
 20
17.78
  0
POINT
  5
367
100
AcDbEntity
  8
Make_Solder_Side
  6
CONTINUOUS
 62
    6
370
   -1
100
AcDbPoint
 10
25.4
 20
22.86
  0
POINT
  5
368
100
AcDbEntity
  8
Make_Solder_Side
  6
CONTINUOUS
 62
    6
370
   -1
100
AcDbPoint
 10
22.86
 20
20.32
  0
POINT
  5
369
100
AcDbEntity
  8
Make_Solder_Side
  6
CONTINUOUS
 62
    6
370
   -1
100
AcDbPoint
 10
25.4
 20
20.32
  0
POINT
  5
36A
100
AcDbEntity
  8
Make_Solder_Side
  6
CONTINUOUS
 62
    6
370
   -1
100
AcDbPoint
 10
20.32
 20
20.32
  0
POINT
  5
36B
100
AcDbEntity
  8
Make_Solder_Side
  6
CONTINUOUS
 62
    6
370
   -1
100
AcDbPoint
 10
20.32
 20
22.86
  0
POINT
  5
36C
100
AcDbEntity
  8
Make_Solder_Side
  6
CONTINUOUS
 62
    6
370
   -1
100
AcDbPoint
 10
22.86
 20
22.86
  0
POINT
  5
36D
100
AcDbEntity
  8
Make_Solder_Side
  6
CONTINUOUS
 62
    6
370
   -1
100
AcDbPoint
 10
25.4
 20
29.21
  0
POINT
  5
36E
100
AcDbEntity
  8
Make_Solder_Side
  6
CONTINUOUS
 62
    6
370
   -1
100
AcDbPoint
 10
22.86
 20
26.67
  0
POINT
  5
36F
100
AcDbEntity
  8
Make_Solder_Side
  6
CONTINUOUS
 62
    6
370
   -1
100
AcDbPoint
 10
25.4
 20
26.67
  0
POINT
  5
370
100
AcDbEntity
  8
Make_Solder_Side
  6
CONTINUOUS
 62
    6
370
   -1
100
AcDbPoint
 10
20.32
 20
26.67
  0
POINT
  5
371
100
AcDbEntity
  8
Make_Solder_Side
  6
CONTINUOUS
 62
    6
370
   -1
100
AcDbPoint
 10
20.32
 20
29.21
  0
POINT
  5
372
100
AcDbEntity
  8
Make_Solder_Side
  6
CONTINUOUS
 62
    6
370
   -1
100
AcDbPoint
 10
22.86
 20
29.21
  0
POINT
  5
373
100
AcDbEntity
  8
Make_Solder_Side
  6
CONTINUOUS
 62
    6
370
   -1
100
AcDbPoint
 10
22.86
 20
12.7
  0
POINT
  5
374
100
AcDbEntity
  8
Make_Solder_Side
  6
CONTINUOUS
 62
    6
370
   -1
100
AcDbPoint
 10
25.4
 20
12.7
  0
POINT
  5
375
100
AcDbEntity
  8
Make_Solder_Side
  6
CONTINUOUS
 62
    6
370
   -1
100
AcDbPoint
 10
20.32
 20
12.7
  0
POINT
  5
376
100
AcDbEntity
  8
Make_Solder_Side
  6
CONTINUOUS
 62
    6
370
   -1
100
AcDbPoint
 10
22.86
 20
10.16
  0
POINT
  5
377
100
AcDbEntity
  8
Make_Solder_Side
  6
CONTINUOUS
 62
    6
370
   -1
100
AcDbPoint
 10
25.4
 20
10.16
  0
POINT
  5
378
100
AcDbEntity
  8
Make_Solder_Side
  6
CONTINUOUS
 62
    6
370
   -1
100
AcDbPoint
 10
20.32
 20
10.16
  0
POINT
  5
379
100
AcDbEntity
  8
Make_Solder_Side
  6
CONTINUOUS
 62
    6
370
   -1
100
AcDbPoint
 10
21.59
 20
45.72
  0
POINT
  5
37A
100
AcDbEntity
  8
Make_Solder_Side
  6
CONTINUOUS
 62
    6
370
   -1
100
AcDbPoint
 10
35.56
 20
45.72
  0
POINT
  5
37B
100
AcDbEntity
  8
Make_Solder_Side
  6
CONTINUOUS
 62
    6
370
   -1
100
AcDbPoint
 10
60.96
 20
35.56
  0
POINT
  5
37C
100
AcDbEntity
  8
Make_Solder_Side
  6
CONTINUOUS
 62
    6
370
   -1
100
AcDbPoint
 10
60.96
 20
33.02
  0
POINT
  5
37D
100
AcDbEntity
  8
Make_Solder_Side
  6
CONTINUOUS
 62
    6
370
   -1
100
AcDbPoint
 10
60.96
 20
30.48
  0
POINT
  5
37E
100
AcDbEntity
  8
Make_Solder_Side
  6
CONTINUOUS
 62
    6
370
   -1
100
AcDbPoint
 10
60.96
 20
27.94
  0
POINT
  5
37F
100
AcDbEntity
  8
Make_Solder_Side
  6
CONTINUOUS
 62
    6
370
   -1
100
AcDbPoint
 10
60.96
 20
25.4
  0
POINT
  5
380
100
AcDbEntity
  8
Make_Solder_Side
  6
CONTINUOUS
 62
    6
370
   -1
100
AcDbPoint
 10
60.96
 20
22.86
  0
POINT
  5
381
100
AcDbEntity
  8
Make_Solder_Side
  6
CONTINUOUS
 62
    6
370
   -1
100
AcDbPoint
 10
12.7
 20
44.45
  0
POINT
  5
382
100
AcDbEntity
  8
Make_Solder_Side
  6
CONTINUOUS
 62
    6
370
   -1
100
AcDbPoint
 10
12.7
 20
41.91
  0
POINT
  5
383
100
AcDbEntity
  8
Make_Solder_Side
  6
CONTINUOUS
 62
    6
370
   -1
100
AcDbPoint
 10
12.7
 20
39.37
  0
POINT
  5
384
100
AcDbEntity
  8
Make_Solder_Side
  6
CONTINUOUS
 62
    6
370
   -1
100
AcDbPoint
 10
12.7
 20
36.83
  0
POINT
  5
385
100
AcDbEntity
  8
Make_Solder_Side
  6
CONTINUOUS
 62
    6
370
   -1
100
AcDbPoint
 10
12.7
 20
34.29
  0
POINT
  5
386
100
AcDbEntity
  8
Make_Solder_Side
  6
CONTINUOUS
 62
    6
370
   -1
100
AcDbPoint
 10
12.7
 20
31.75
  0
POINT
  5
387
100
AcDbEntity
  8
Make_Solder_Side
  6
CONTINUOUS
 62
    6
370
   -1
100
AcDbPoint
 10
12.7
 20
29.21
  0
POINT
  5
388
100
AcDbEntity
  8
Make_Solder_Side
  6
CONTINUOUS
 62
    6
370
   -1
100
AcDbPoint
 10
12.7
 20
26.67
  0
POINT
  5
389
100
AcDbEntity
  8
Make_Solder_Side
  6
CONTINUOUS
 62
    6
370
   -1
100
AcDbPoint
 10
12.7
 20
22.86
  0
POINT
  5
38A
100
AcDbEntity
  8
Make_Solder_Side
  6
CONTINUOUS
 62
    6
370
   -1
100
AcDbPoint
 10
12.7
 20
20.32
  0
POINT
  5
38B
100
AcDbEntity
  8
Make_Solder_Side
  6
CONTINUOUS
 62
    6
370
   -1
100
AcDbPoint
 10
12.7
 20
17.78
  0
POINT
  5
38C
100
AcDbEntity
  8
Make_Solder_Side
  6
CONTINUOUS
 62
    6
370
   -1
100
AcDbPoint
 10
12.7
 20
15.24
  0
POINT
  5
38D
100
AcDbEntity
  8
Make_Solder_Side
  6
CONTINUOUS
 62
    6
370
   -1
100
AcDbPoint
 10
12.7
 20
12.7
  0
POINT
  5
38E
100
AcDbEntity
  8
Make_Solder_Side
  6
CONTINUOUS
 62
    6
370
   -1
100
AcDbPoint
 10
12.7
 20
10.16
  0
POINT
  5
38F
100
AcDbEntity
  8
Make_Solder_Side
  6
CONTINUOUS
 62
    6
370
   -1
100
AcDbPoint
 10
31.75
 20
50.8
  0
POINT
  5
390
100
AcDbEntity
  8
Make_Solder_Side
  6
CONTINUOUS
 62
    6
370
   -1
100
AcDbPoint
 10
29.21
 20
50.8
  0
POINT
  5
391
100
AcDbEntity
  8
Make_Solder_Side
  6
CONTINUOUS
 62
    6
370
   -1
100
AcDbPoint
 10
26.67
 20
50.8
  0
POINT
  5
392
100
AcDbEntity
  8
Make_Solder_Side
  6
CONTINUOUS
 62
    6
370
   -1
100
AcDbPoint
 10
24.13
 20
50.8
  0
POINT
  5
393
100
AcDbEntity
  8
Make_Solder_Side
  6
CONTINUOUS
 62
    6
370
   -1
100
AcDbPoint
 10
21.59
 20
50.8
  0
POINT
  5
394
100
AcDbEntity
  8
Make_Solder_Side
  6
CONTINUOUS
 62
    6
370
   -1
100
AcDbPoint
 10
19.05
 20
50.8
  0
POINT
  5
395
100
AcDbEntity
  8
Make_Solder_Side
  6
CONTINUOUS
 62
    6
370
   -1
100
AcDbPoint
 10
36.83
 20
31.75
  0
POINT
  5
396
100
AcDbEntity
  8
Make_Solder_Side
  6
CONTINUOUS
 62
    6
370
   -1
100
AcDbPoint
 10
39.37
 20
31.75
  0
LINE
  5
397
100
AcDbEntity
  8
Make_Solder_Side
  6
CONTINUOUS
 62
    7
370
   -1
100
AcDbLine
 10
66.04000000000001
 20
2.54
 11
2.54
 21
2.54
  0
LINE
  5
398
100
AcDbEntity
  8
Make_Solder_Side
  6
CONTINUOUS
 62
    7
370
   -1
100
AcDbLine
 10
66.04000000000001
 20
2.54
 11
68.58
 21
2.54
  0
LINE
  5
399
100
AcDbEntity
  8
Make_Solder_Side
  6
CONTINUOUS
 62
    7
370
   -1
100
AcDbLine
 10
2.54
 20
59.69
 11
68.58
 21
59.69
  0
LINE
  5
39A
100
AcDbEntity
  8
Make_Solder_Side
  6
CONTINUOUS
 62
    7
370
   -1
100
AcDbLine
 10
68.58
 20
59.69
 11
68.58
 21
2.54
  0
LINE
  5
39B
100
AcDbEntity
  8
Make_Solder_Side
  6
CONTINUOUS
 62
    7
370
   -1
100
AcDbLine
 10
2.54
 20
59.69
 11
2.54
 21
2.54
  0
ENDSEC
  0
SECTION
  2
OBJECTS
  0
DICTIONARY
  5
C
330
0
100
AcDbDictionary
281
    1
  3
ACAD_GROUP
350
D
  0
DICTIONARY
  5
D
330
C
100
AcDbDictionary
281
    1
  0
ENDSEC
  0
EOF
