  0
SECTION
  2
HEADER
  9
$ACADVER
  1
AC1015
  9
$ACADMAINTVER
 70
     6
  9
$DWGCODEPAGE
  3
ANSI_1251
  9
$INSBASE
 10
0.0
 20
0.0
 30
0.0
  9
$EXTMIN
 10
1.000000000000000E+20
 20
1.000000000000000E+20
 30
1.000000000000000E+20
  9
$EXTMAX
 10
-1.000000000000000E+20
 20
-1.000000000000000E+20
 30
-1.000000000000000E+20
  9
$LIMMIN
 10
0.0
 20
0.0
  9
$LIMMAX
 10
420.0
 20
297.0
  9
$ORTHOMODE
 70
     0
  9
$REGENMODE
 70
     1
  9
$FILLMODE
 70
     1
  9
$QTEXTMODE
 70
     0
  9
$MIRRTEXT
 70
     0
  9
$LTSCALE
 40
1.0
  9
$ATTMODE
 70
     1
  9
$TEXTSIZE
 40
2.5
  9
$TRACEWID
 40
1.0
  9
$TEXTSTYLE
  7
Standard
  9
$CLAYER
  8
0
  9
$CELTYPE
  6
ByLayer
  9
$CECOLOR
 62
   256
  9
$CELTSCALE
 40
1.0
  9
$DISPSILH
 70
     0
  9
$DIMSCALE
 40
1.0
  9
$DIMASZ
 40
2.5
  9
$DIMEXO
 40
0.625
  9
$DIMDLI
 40
3.75
  9
$DIMRND
 40
0.0
  9
$DIMDLE
 40
0.0
  9
$DIMEXE
 40
1.25
  9
$DIMTP
 40
0.0
  9
$DIMTM
 40
0.0
  9
$DIMTXT
 40
2.5
  9
$DIMCEN
 40
2.5
  9
$DIMTSZ
 40
0.0
  9
$DIMTOL
 70
     0
  9
$DIMLIM
 70
     0
  9
$DIMTIH
 70
     0
  9
$DIMTOH
 70
     0
  9
$DIMSE1
 70
     0
  9
$DIMSE2
 70
     0
  9
$DIMTAD
 70
     1
  9
$DIMZIN
 70
     8
  9
$DIMBLK
  1

  9
$DIMASO
 70
     1
  9
$DIMSHO
 70
     1
  9
$DIMPOST
  1

  9
$DIMAPOST
  1

  9
$DIMALT
 70
     0
  9
$DIMALTD
 70
     3
  9
$DIMALTF
 40
0.03937007874016
  9
$DIMLFAC
 40
1.0
  9
$DIMTOFL
 70
     1
  9
$DIMTVP
 40
0.0
  9
$DIMTIX
 70
     0
  9
$DIMSOXD
 70
     0
  9
$DIMSAH
 70
     0
  9
$DIMBLK1
  1

  9
$DIMBLK2
  1

  9
$DIMSTYLE
  2
ISO-25
  9
$DIMCLRD
 70
     0
  9
$DIMCLRE
 70
     0
  9
$DIMCLRT
 70
     0
  9
$DIMTFAC
 40
1.0
  9
$DIMGAP
 40
0.625
  9
$DIMJUST
 70
     0
  9
$DIMSD1
 70
     0
  9
$DIMSD2
 70
     0
  9
$DIMTOLJ
 70
     0
  9
$DIMTZIN
 70
     8
  9
$DIMALTZ
 70
     0
  9
$DIMALTTZ
 70
     0
  9
$DIMUPT
 70
     0
  9
$DIMDEC
 70
     2
  9
$DIMTDEC
 70
     2
  9
$DIMALTU
 70
     2
  9
$DIMALTTD
 70
     3
  9
$DIMTXSTY
  7
Standard
  9
$DIMAUNIT
 70
     0
  9
$DIMADEC
 70
     0
  9
$DIMALTRND
 40
0.0
  9
$DIMAZIN
 70
     0
  9
$DIMDSEP
 70
    44
  9
$DIMATFIT
 70
     3
  9
$DIMFRAC
 70
     0
  9
$DIMLDRBLK
  1

  9
$DIMLUNIT
 70
     2
  9
$DIMLWD
 70
    -2
  9
$DIMLWE
 70
    -2
  9
$DIMTMOVE
 70
     0
  9
$LUNITS
 70
     2
  9
$LUPREC
 70
     3
  9
$SKETCHINC
 40
1.0
  9
$FILLETRAD
 40
10.0
  9
$AUNITS
 70
     0
  9
$AUPREC
 70
     0
  9
$MENU
  1
.
  9
$ELEVATION
 40
0.0
  9
$PELEVATION
 40
0.0
  9
$THICKNESS
 40
0.0
  9
$LIMCHECK
 70
     0
  9
$CHAMFERA
 40
10.0
  9
$CHAMFERB
 40
10.0
  9
$CHAMFERC
 40
20.0
  9
$CHAMFERD
 40
0.0
  9
$SKPOLY
 70
     0
  9
$TDCREATE
 40
2455022.67902618
  9
$TDUCREATE
 40
2455022.637359514
  9
$TDUPDATE
 40
2456112.904046088
  9
$TDUUPDATE
 40
2456112.862379421
  9
$TDINDWG
 40
0.0000000116
  9
$TDUSRTIMER
 40
2456112.862164757
  9
$USRTIMER
 70
     1
  9
$ANGBASE
 50
0.0
  9
$ANGDIR
 70
     0
  9
$PDMODE
 70
     0
  9
$PDSIZE
 40
0.0
  9
$PLINEWID
 40
0.0
  9
$SPLFRAME
 70
     0
  9
$SPLINETYPE
 70
     6
  9
$SPLINESEGS
 70
     8
  9
$HANDSEED
  5
2CC2
  9
$SURFTAB1
 70
     6
  9
$SURFTAB2
 70
     6
  9
$SURFTYPE
 70
     6
  9
$SURFU
 70
     6
  9
$SURFV
 70
     6
  9
$UCSBASE
  2

  9
$UCSNAME
  2

  9
$UCSORG
 10
0.0
 20
0.0
 30
0.0
  9
$UCSXDIR
 10
1.0
 20
0.0
 30
0.0
  9
$UCSYDIR
 10
0.0
 20
1.0
 30
0.0
  9
$UCSORTHOREF
  2

  9
$UCSORTHOVIEW
 70
     0
  9
$UCSORGTOP
 10
0.0
 20
0.0
 30
0.0
  9
$UCSORGBOTTOM
 10
0.0
 20
0.0
 30
0.0
  9
$UCSORGLEFT
 10
0.0
 20
0.0
 30
0.0
  9
$UCSORGRIGHT
 10
0.0
 20
0.0
 30
0.0
  9
$UCSORGFRONT
 10
0.0
 20
0.0
 30
0.0
  9
$UCSORGBACK
 10
0.0
 20
0.0
 30
0.0
  9
$PUCSBASE
  2

  9
$PUCSNAME
  2

  9
$PUCSORG
 10
0.0
 20
0.0
 30
0.0
  9
$PUCSXDIR
 10
1.0
 20
0.0
 30
0.0
  9
$PUCSYDIR
 10
0.0
 20
1.0
 30
0.0
  9
$PUCSORTHOREF
  2

  9
$PUCSORTHOVIEW
 70
     0
  9
$PUCSORGTOP
 10
0.0
 20
0.0
 30
0.0
  9
$PUCSORGBOTTOM
 10
0.0
 20
0.0
 30
0.0
  9
$PUCSORGLEFT
 10
0.0
 20
0.0
 30
0.0
  9
$PUCSORGRIGHT
 10
0.0
 20
0.0
 30
0.0
  9
$PUCSORGFRONT
 10
0.0
 20
0.0
 30
0.0
  9
$PUCSORGBACK
 10
0.0
 20
0.0
 30
0.0
  9
$USERI1
 70
     0
  9
$USERI2
 70
     0
  9
$USERI3
 70
     0
  9
$USERI4
 70
     0
  9
$USERI5
 70
     0
  9
$USERR1
 40
0.0
  9
$USERR2
 40
0.0
  9
$USERR3
 40
0.0
  9
$USERR4
 40
0.0
  9
$USERR5
 40
0.0
  9
$WORLDVIEW
 70
     1
  9
$SHADEDGE
 70
     3
  9
$SHADEDIF
 70
    70
  9
$TILEMODE
 70
     1
  9
$MAXACTVP
 70
    64
  9
$PINSBASE
 10
0.0
 20
0.0
 30
0.0
  9
$PLIMCHECK
 70
     0
  9
$PEXTMIN
 10
1.000000000000000E+20
 20
1.000000000000000E+20
 30
1.000000000000000E+20
  9
$PEXTMAX
 10
-1.000000000000000E+20
 20
-1.000000000000000E+20
 30
-1.000000000000000E+20
  9
$PLIMMIN
 10
0.0
 20
0.0
  9
$PLIMMAX
 10
0.0
 20
0.0
  9
$UNITMODE
 70
     0
  9
$VISRETAIN
 70
     1
  9
$PLINEGEN
 70
     0
  9
$PSLTSCALE
 70
     1
  9
$TREEDEPTH
 70
  3020
  9
$CMLSTYLE
  2
Standard
  9
$CMLJUST
 70
     0
  9
$CMLSCALE
 40
20.0
  9
$PROXYGRAPHICS
 70
     1
  9
$MEASUREMENT
 70
     1
  9
$CELWEIGHT
370
    -1
  9
$ENDCAPS
280
     0
  9
$JOINSTYLE
280
     0
  9
$LWDISPLAY
290
     0
  9
$INSUNITS
 70
     4
  9
$HYPERLINKBASE
  1

  9
$STYLESHEET
  1

  9
$XEDIT
290
     1
  9
$CEPSNTYPE
380
     0
  9
$PSTYLEMODE
290
     1
  9
$FINGERPRINTGUID
  2
{EC6BB858-51AA-46EC-B484-6C9CC7AB3E2E}
  9
$VERSIONGUID
  2
{FAEB1C32-E019-11D5-929B-00C0DF256EC4}
  9
$EXTNAMES
290
     1
  9
$PSVPSCALE
 40
0.0
  9
$OLESTARTUP
290
     0
  0
ENDSEC
  0
SECTION
  2
CLASSES
  0
CLASS
  1
ACDBDICTIONARYWDFLT
  2
AcDbDictionaryWithDefault
  3
ObjectDBX Classes
 90
        0
280
     0
281
     0
  0
CLASS
  1
VISUALSTYLE
  2
AcDbVisualStyle
  3
ObjectDBX Classes
 90
     4095
280
     0
281
     0
  0
CLASS
  1
TABLESTYLE
  2
AcDbTableStyle
  3
ObjectDBX Classes
 90
     4095
280
     0
281
     0
  0
CLASS
  1
DICTIONARYVAR
  2
AcDbDictionaryVar
  3
ObjectDBX Classes
 90
        0
280
     0
281
     0
  0
CLASS
  1
SCALE
  2
AcDbScale
  3
ObjectDBX Classes
 90
     1153
280
     0
281
     0
  0
CLASS
  1
CELLSTYLEMAP
  2
AcDbCellStyleMap
  3
ObjectDBX Classes
 90
     1152
280
     0
281
     0
  0
CLASS
  1
RASTERVARIABLES
  2
AcDbRasterVariables
  3
ISM
 90
        0
280
     0
281
     0
  0
CLASS
  1
MATERIAL
  2
AcDbMaterial
  3
ObjectDBX Classes
 90
     1153
280
     0
281
     0
  0
CLASS
  1
ACDBPLACEHOLDER
  2
AcDbPlaceHolder
  3
ObjectDBX Classes
 90
        0
280
     0
281
     0
  0
CLASS
  1
LAYOUT
  2
AcDbLayout
  3
ObjectDBX Classes
 90
        0
280
     0
281
     0
  0
ENDSEC
  0
SECTION
  2
TABLES
  0
TABLE
  2
VPORT
  5
8
330
0
100
AcDbSymbolTable
 70
     1
  0
VPORT
  5
29
330
8
100
AcDbSymbolTableRecord
100
AcDbViewportTableRecord
  2
*Active
 70
     0
 10
0.0
 20
0.0
 11
1.0
 21
1.0
 12
-59.46163418580409
 22
902.5624875443262
 13
0.0
 23
0.0
 14
10.0
 24
10.0
 15
10.0
 25
10.0
 16
0.0
 26
0.0
 36
1.0
 17
-134.1869158878517
 27
0.0
 37
0.0
 40
136.1700293183123
 41
2.071519795657727
 42
50.0
 43
0.0
 44
0.0
 50
0.0
 51
0.0
 71
    16
 72
  1000
 73
     1
 74
     3
 75
     0
 76
     0
 77
     0
 78
     0
281
     0
 65
     1
110
0.0
120
0.0
130
0.0
111
1.0
121
0.0
131
0.0
112
0.0
122
1.0
132
0.0
 79
     0
146
0.0
  0
ENDTAB
  0
TABLE
  2
LTYPE
  5
5
330
0
100
AcDbSymbolTable
 70
     1
  0
LTYPE
  5
14
330
5
100
AcDbSymbolTableRecord
100
AcDbLinetypeTableRecord
  2
ByBlock
 70
     0
  3

 72
    65
 73
     0
 40
0.0
  0
LTYPE
  5
15
330
5
100
AcDbSymbolTableRecord
100
AcDbLinetypeTableRecord
  2
ByLayer
 70
     0
  3

 72
    65
 73
     0
 40
0.0
  0
LTYPE
  5
16
330
5
100
AcDbSymbolTableRecord
100
AcDbLinetypeTableRecord
  2
Continuous
 70
     0
  3
Solid line
 72
    65
 73
     0
 40
0.0
  0
ENDTAB
  0
TABLE
  2
LAYER
  5
2
102
{ACAD_XDICTIONARY
360
1FC
102
}
330
0
100
AcDbSymbolTable
 70
     2
  0
LAYER
  5
10
330
2
100
AcDbSymbolTableRecord
100
AcDbLayerTableRecord
  2
0
 70
     0
 62
     7
  6
Continuous
370
    -3
390
F
  0
LAYER
  5
1FF
330
2
100
AcDbSymbolTableRecord
100
AcDbLayerTableRecord
  2
Labels
 70
     0
 62
     1
  6
Continuous
370
    -3
390
F
1001
AcAecLayerStandard
1000

1000

  0
ENDTAB
  0
TABLE
  2
STYLE
  5
3
330
0
100
AcDbSymbolTable
 70
     1
  0
STYLE
  5
11
330
3
100
AcDbSymbolTableRecord
100
AcDbTextStyleTableRecord
  2
Standard
 70
     0
 40
0.0
 41
1.0
 50
0.0
 71
     0
 42
2.5
  3
txt
  4

  0
ENDTAB
  0
TABLE
  2
VIEW
  5
6
330
0
100
AcDbSymbolTable
 70
     0
  0
ENDTAB
  0
TABLE
  2
UCS
  5
7
330
0
100
AcDbSymbolTable
 70
     0
  0
ENDTAB
  0
TABLE
  2
APPID
  5
9
330
0
100
AcDbSymbolTable
 70
     2
  0
APPID
  5
12
330
9
100
AcDbSymbolTableRecord
100
AcDbRegAppTableRecord
  2
ACAD
 70
     0
  0
APPID
  5
200
330
9
100
AcDbSymbolTableRecord
100
AcDbRegAppTableRecord
  2
AcAecLayerStandard
 70
     0
  0
ENDTAB
  0
TABLE
  2
DIMSTYLE
  5
A
330
0
100
AcDbSymbolTable
 70
     1
100
AcDbDimStyleTable
  0
DIMSTYLE
105
27
330
A
100
AcDbSymbolTableRecord
100
AcDbDimStyleTableRecord
  2
ISO-25
 70
     0
 41
2.5
 42
0.625
 43
3.75
 44
1.25
 73
     0
 74
     0
 77
     1
 78
     8
140
2.5
141
2.5
143
0.03937007874016
147
0.625
171
     3
172
     1
178
     0
271
     2
272
     2
274
     3
278
    44
283
     0
284
     8
340
11
  0
ENDTAB
  0
TABLE
  2
BLOCK_RECORD
  5
1
330
0
100
AcDbSymbolTable
 70
    23
  0
BLOCK_RECORD
  5
1F
330
1
100
AcDbSymbolTableRecord
100
AcDbBlockTableRecord
  2
*Model_Space
340
22
  0
BLOCK_RECORD
  5
1B
330
1
100
AcDbSymbolTableRecord
100
AcDbBlockTableRecord
  2
*Paper_Space
340
1E
  0
BLOCK_RECORD
  5
23
330
1
100
AcDbSymbolTableRecord
100
AcDbBlockTableRecord
  2
*Paper_Space0
340
26
  0
ENDTAB
  0
ENDSEC
  0
SECTION
  2
BLOCKS
  0
BLOCK
  5
20
330
1F
100
AcDbEntity
  8
0
100
AcDbBlockBegin
  2
*Model_Space
 70
     0
 10
0.0
 20
0.0
 30
0.0
  3
*Model_Space
  1

  0
ENDBLK
  5
21
330
1F
100
AcDbEntity
  8
0
100
AcDbBlockEnd
  0
BLOCK
  5
1C
330
1B
100
AcDbEntity
 67
     1
  8
0
100
AcDbBlockBegin
  2
*Paper_Space
 70
     0
 10
0.0
 20
0.0
 30
0.0
  3
*Paper_Space
  1

  0
ENDBLK
  5
1D
330
1B
100
AcDbEntity
 67
     1
  8
0
100
AcDbBlockEnd
  0
BLOCK
  5
24
330
23
100
AcDbEntity
  8
0
100
AcDbBlockBegin
  2
*Paper_Space0
 70
     0
 10
0.0
 20
0.0
 30
0.0
  3
*Paper_Space0
  1

  0
ENDBLK
  5
25
330
23
100
AcDbEntity
  8
0
100
AcDbBlockEnd
  0
ENDSEC
  0
SECTION
  2
ENTITIES
  0
LINE
  5
C87
330
1F
100
AcDbEntity
  8
0
100
AcDbLine
 10
156.8303766403981
 20
17.81822984229404
 30
0.0
 11
146.8303766403981
 21
17.81822984229404
 31
0.0
  0
LINE
  5
C88
330
1F
100
AcDbEntity
  8
0
100
AcDbLine
 10
146.8303766403981
 20
17.81822984229404
 30
0.0
 11
146.8303766403981
 21
67.81822984229407
 31
0.0
  0
LINE
  5
C8B
330
1F
100
AcDbEntity
  8
0
100
AcDbLine
 10
156.8303766403981
 20
77.81822984229407
 30
0.0
 11
146.8303766403981
 21
67.81822984229407
 31
0.0
  0
LINE
  5
C8C
330
1F
100
AcDbEntity
  8
0
100
AcDbLine
 10
156.8303766403981
 20
77.81822984229407
 30
0.0
 11
160.3303766403981
 21
77.81822984229407
 31
0.0
  0
LINE
  5
C8E
330
1F
100
AcDbEntity
  8
0
100
AcDbLine
 10
160.3303766403981
 20
77.81822984229407
 30
0.0
 11
160.3303766403981
 21
207.818229842294
 31
0.0
  0
LINE
  5
C8F
330
1F
100
AcDbEntity
  8
0
100
AcDbLine
 10
160.3303766403981
 20
207.818229842294
 30
0.0
 11
156.8303766403981
 21
207.818229842294
 31
0.0
  0
LINE
  5
C90
330
1F
100
AcDbEntity
  8
0
100
AcDbLine
 10
156.8303766403981
 20
207.818229842294
 30
0.0
 11
156.8303766403981
 21
192.818229842294
 31
0.0
  0
LINE
  5
C93
330
1F
100
AcDbEntity
  8
0
100
AcDbLine
 10
146.8303766403981
 20
202.818229842294
 30
0.0
 11
156.8303766403981
 21
192.818229842294
 31
0.0
  0
LINE
  5
C94
330
1F
100
AcDbEntity
  8
0
100
AcDbLine
 10
146.8303766403981
 20
202.818229842294
 30
0.0
 11
146.8303766403981
 21
237.818229842294
 31
0.0
  0
LINE
  5
C95
330
1F
100
AcDbEntity
  8
0
100
AcDbLine
 10
146.8303766403981
 20
237.818229842294
 30
0.0
 11
156.8303766403981
 21
237.818229842294
 31
0.0
  0
LINE
  5
C96
330
1F
100
AcDbEntity
  8
0
100
AcDbLine
 10
156.8303766403981
 20
237.818229842294
 30
0.0
 11
156.8303766403981
 21
227.818229842294
 31
0.0
  0
LINE
  5
C97
330
1F
100
AcDbEntity
  8
0
100
AcDbLine
 10
156.8303766403981
 20
227.818229842294
 30
0.0
 11
166.8303766403981
 21
227.818229842294
 31
0.0
  0
LINE
  5
C98
330
1F
100
AcDbEntity
  8
0
100
AcDbLine
 10
166.8303766403981
 20
227.818229842294
 30
0.0
 11
166.8303766403981
 21
237.818229842294
 31
0.0
  0
LINE
  5
C99
330
1F
100
AcDbEntity
  8
0
100
AcDbLine
 10
166.8303766403981
 20
237.818229842294
 30
0.0
 11
176.8303766403981
 21
237.818229842294
 31
0.0
  0
LINE
  5
C9A
330
1F
100
AcDbEntity
  8
0
100
AcDbLine
 10
176.8303766403981
 20
237.818229842294
 30
0.0
 11
176.8303766403981
 21
227.818229842294
 31
0.0
  0
LINE
  5
C9B
330
1F
100
AcDbEntity
  8
0
100
AcDbLine
 10
176.8303766403981
 20
227.818229842294
 30
0.0
 11
186.8303766403981
 21
227.818229842294
 31
0.0
  0
LINE
  5
C9C
330
1F
100
AcDbEntity
  8
0
100
AcDbLine
 10
186.8303766403981
 20
227.818229842294
 30
0.0
 11
186.8303766403981
 21
237.818229842294
 31
0.0
  0
LINE
  5
C9E
330
1F
100
AcDbEntity
  8
0
100
AcDbLine
 10
186.8303766403981
 20
237.818229842294
 30
0.0
 11
196.8303766403981
 21
237.818229842294
 31
0.0
  0
LINE
  5
C9F
330
1F
100
AcDbEntity
  8
0
100
AcDbLine
 10
196.8303766403981
 20
237.818229842294
 30
0.0
 11
196.8303766403981
 21
227.818229842294
 31
0.0
  0
LINE
  5
CA0
330
1F
100
AcDbEntity
  8
0
100
AcDbLine
 10
196.8303766403981
 20
227.818229842294
 30
0.0
 11
206.8303766403981
 21
227.818229842294
 31
0.0
  0
LINE
  5
CA1
330
1F
100
AcDbEntity
  8
0
100
AcDbLine
 10
206.8303766403981
 20
227.818229842294
 30
0.0
 11
206.8303766403981
 21
237.818229842294
 31
0.0
  0
LINE
  5
CA2
330
1F
100
AcDbEntity
  8
0
100
AcDbLine
 10
206.8303766403981
 20
237.818229842294
 30
0.0
 11
216.8303766403981
 21
237.818229842294
 31
0.0
  0
LINE
  5
CA3
330
1F
100
AcDbEntity
  8
0
100
AcDbLine
 10
216.8303766403981
 20
237.818229842294
 30
0.0
 11
216.8303766403981
 21
227.818229842294
 31
0.0
  0
LINE
  5
CA4
330
1F
100
AcDbEntity
  8
0
100
AcDbLine
 10
216.8303766403981
 20
227.818229842294
 30
0.0
 11
226.8303766403981
 21
227.818229842294
 31
0.0
  0
LINE
  5
CA5
330
1F
100
AcDbEntity
  8
0
100
AcDbLine
 10
226.8303766403981
 20
227.818229842294
 30
0.0
 11
226.8303766403981
 21
237.818229842294
 31
0.0
  0
LINE
  5
CA6
330
1F
100
AcDbEntity
  8
0
100
AcDbLine
 10
226.8303766403981
 20
237.818229842294
 30
0.0
 11
236.8303766403981
 21
237.818229842294
 31
0.0
  0
LINE
  5
CA7
330
1F
100
AcDbEntity
  8
0
100
AcDbLine
 10
236.8303766403981
 20
237.818229842294
 30
0.0
 11
236.8303766403981
 21
227.818229842294
 31
0.0
  0
LINE
  5
CA8
330
1F
100
AcDbEntity
  8
0
100
AcDbLine
 10
236.8303766403981
 20
227.818229842294
 30
0.0
 11
246.8303766403981
 21
227.818229842294
 31
0.0
  0
LINE
  5
CA9
330
1F
100
AcDbEntity
  8
0
100
AcDbLine
 10
246.8303766403981
 20
227.818229842294
 30
0.0
 11
246.8303766403981
 21
237.818229842294
 31
0.0
  0
LINE
  5
CAB
330
1F
100
AcDbEntity
  8
0
100
AcDbLine
 10
246.8303766403981
 20
237.818229842294
 30
0.0
 11
256.8303766403981
 21
237.818229842294
 31
0.0
  0
LINE
  5
CAD
330
1F
100
AcDbEntity
  8
0
100
AcDbLine
 10
256.8303766403981
 20
237.818229842294
 30
0.0
 11
256.8303766403981
 21
202.818229842294
 31
0.0
  0
LINE
  5
CAE
330
1F
100
AcDbEntity
  8
0
100
AcDbLine
 10
256.8303766403981
 20
202.818229842294
 30
0.0
 11
246.8303766403981
 21
192.818229842294
 31
0.0
  0
LINE
  5
CAF
330
1F
100
AcDbEntity
  8
0
100
AcDbLine
 10
246.8303766403981
 20
192.818229842294
 30
0.0
 11
246.8303766403981
 21
207.818229842294
 31
0.0
  0
LINE
  5
CB0
330
1F
100
AcDbEntity
  8
0
100
AcDbLine
 10
246.8303766403981
 20
207.818229842294
 30
0.0
 11
243.3303766403981
 21
207.818229842294
 31
0.0
  0
LINE
  5
CB1
330
1F
100
AcDbEntity
  8
0
100
AcDbLine
 10
243.3303766403981
 20
207.818229842294
 30
0.0
 11
243.3303766403981
 21
77.81822984229407
 31
0.0
  0
LINE
  5
CB2
330
1F
100
AcDbEntity
  8
0
100
AcDbLine
 10
243.3303766403981
 20
77.81822984229407
 30
0.0
 11
246.8303766403981
 21
77.81822984229407
 31
0.0
  0
LINE
  5
CB3
330
1F
100
AcDbEntity
  8
0
100
AcDbLine
 10
246.8303766403981
 20
77.81822984229407
 30
0.0
 11
256.8303766403981
 21
67.81822984229407
 31
0.0
  0
LINE
  5
CB4
330
1F
100
AcDbEntity
  8
0
100
AcDbLine
 10
256.8303766403981
 20
67.81822984229407
 30
0.0
 11
256.8303766403981
 21
17.81822984229404
 31
0.0
  0
LINE
  5
CB5
330
1F
100
AcDbEntity
  8
0
100
AcDbLine
 10
256.8303766403981
 20
17.81822984229404
 30
0.0
 11
246.8303766403981
 21
17.81822984229404
 31
0.0
  0
LINE
  5
CB6
330
1F
100
AcDbEntity
  8
0
100
AcDbLine
 10
246.8303766403981
 20
17.81822984229404
 30
0.0
 11
246.8303766403981
 21
47.81822984229407
 31
0.0
  0
LINE
  5
CB7
330
1F
100
AcDbEntity
  8
0
100
AcDbLine
 10
246.8303766403981
 20
47.81822984229407
 30
0.0
 11
243.3303766403981
 21
47.81822984229407
 31
0.0
  0
LINE
  5
CB8
330
1F
100
AcDbEntity
  8
0
100
AcDbLine
 10
243.3303766403981
 20
47.81822984229407
 30
0.0
 11
243.3303766403981
 21
17.81822984229404
 31
0.0
  0
LINE
  5
CB9
330
1F
100
AcDbEntity
  8
0
100
AcDbLine
 10
243.3303766403981
 20
17.81822984229404
 30
0.0
 11
160.3303766403981
 21
17.81822984229404
 31
0.0
  0
LINE
  5
CBA
330
1F
100
AcDbEntity
  8
0
100
AcDbLine
 10
160.3303766403981
 20
17.81822984229404
 30
0.0
 11
160.3303766403981
 21
47.81822984229407
 31
0.0
  0
LINE
  5
CBB
330
1F
100
AcDbEntity
  8
0
100
AcDbLine
 10
160.3303766403981
 20
47.81822984229407
 30
0.0
 11
156.8303766403981
 21
47.81822984229407
 31
0.0
  0
LINE
  5
CBC
330
1F
100
AcDbEntity
  8
0
100
AcDbLine
 10
156.8303766403981
 20
47.81822984229407
 30
0.0
 11
156.8303766403981
 21
17.81822984229404
 31
0.0
  0
LINE
  5
CBE
330
1F
100
AcDbEntity
  8
0
100
AcDbLine
 10
176.8303766403981
 20
202.818229842294
 30
0.0
 11
196.8303766403981
 21
202.818229842294
 31
0.0
  0
LINE
  5
CBF
330
1F
100
AcDbEntity
  8
0
100
AcDbLine
 10
196.8303766403981
 20
202.818229842294
 30
0.0
 11
196.8303766403981
 21
212.818229842294
 31
0.0
  0
LINE
  5
CC0
330
1F
100
AcDbEntity
  8
0
100
AcDbLine
 10
176.8303766403981
 20
202.818229842294
 30
0.0
 11
176.8303766403981
 21
212.818229842294
 31
0.0
  0
LINE
  5
CC1
330
1F
100
AcDbEntity
  8
0
100
AcDbLine
 10
206.8303766403981
 20
212.818229842294
 30
0.0
 11
206.8303766403981
 21
202.818229842294
 31
0.0
  0
LINE
  5
CC2
330
1F
100
AcDbEntity
  8
0
100
AcDbLine
 10
206.8303766403981
 20
202.818229842294
 30
0.0
 11
226.8303766403981
 21
202.818229842294
 31
0.0
  0
LINE
  5
CC3
330
1F
100
AcDbEntity
  8
0
100
AcDbLine
 10
226.8303766403981
 20
202.818229842294
 30
0.0
 11
226.8303766403981
 21
212.818229842294
 31
0.0
  0
ARC
  5
CC6
330
1F
100
AcDbEntity
  8
0
100
AcDbCircle
 10
186.8303766403981
 20
205.318229842294
 30
0.0
 40
12.5
100
AcDbArc
 50
36.86989764584402
 51
143.130102354156
  0
ARC
  5
CC7
330
1F
100
AcDbEntity
  8
0
100
AcDbCircle
 10
216.8303766403981
 20
205.318229842294
 30
0.0
 40
12.5
100
AcDbArc
 50
36.86989764584402
 51
143.130102354156
  0
LINE
  5
CC9
330
1F
100
AcDbEntity
  8
0
100
AcDbLine
 10
201.8303766403981
 20
187.818229842294
 30
0.0
 11
204.8303766403981
 21
187.818229842294
 31
0.0
  0
LINE
  5
CCA
330
1F
100
AcDbEntity
  8
0
100
AcDbLine
 10
204.8303766403981
 20
187.818229842294
 30
0.0
 11
204.8303766403981
 21
181.818229842294
 31
0.0
  0
LINE
  5
CCB
330
1F
100
AcDbEntity
  8
0
100
AcDbLine
 10
204.8303766403981
 20
181.818229842294
 30
0.0
 11
210.8303766403981
 21
181.818229842294
 31
0.0
  0
LINE
  5
CCC
330
1F
100
AcDbEntity
  8
0
100
AcDbLine
 10
210.8303766403981
 20
181.818229842294
 30
0.0
 11
210.8303766403981
 21
175.818229842294
 31
0.0
  0
LINE
  5
CCD
330
1F
100
AcDbEntity
  8
0
100
AcDbLine
 10
210.8303766403981
 20
175.818229842294
 30
0.0
 11
204.8303766403981
 21
175.818229842294
 31
0.0
  0
LINE
  5
CCE
330
1F
100
AcDbEntity
  8
0
100
AcDbLine
 10
204.8303766403981
 20
175.818229842294
 30
0.0
 11
204.8303766403981
 21
160.818229842294
 31
0.0
  0
LINE
  5
CCF
330
1F
100
AcDbEntity
  8
0
100
AcDbLine
 10
204.8303766403981
 20
160.818229842294
 30
0.0
 11
198.8303766403981
 21
160.818229842294
 31
0.0
  0
LINE
  5
CD0
330
1F
100
AcDbEntity
  8
0
100
AcDbLine
 10
198.8303766403981
 20
160.818229842294
 30
0.0
 11
198.8303766403981
 21
175.818229842294
 31
0.0
  0
LINE
  5
CD1
330
1F
100
AcDbEntity
  8
0
100
AcDbLine
 10
198.8303766403981
 20
175.818229842294
 30
0.0
 11
192.8303766403981
 21
175.818229842294
 31
0.0
  0
LINE
  5
CD2
330
1F
100
AcDbEntity
  8
0
100
AcDbLine
 10
192.8303766403981
 20
175.818229842294
 30
0.0
 11
192.8303766403981
 21
181.818229842294
 31
0.0
  0
LINE
  5
CD3
330
1F
100
AcDbEntity
  8
0
100
AcDbLine
 10
192.8303766403981
 20
181.818229842294
 30
0.0
 11
198.8303766403981
 21
181.818229842294
 31
0.0
  0
LINE
  5
CD4
330
1F
100
AcDbEntity
  8
0
100
AcDbLine
 10
198.8303766403981
 20
181.818229842294
 30
0.0
 11
198.8303766403981
 21
187.818229842294
 31
0.0
  0
LINE
  5
CD5
330
1F
100
AcDbEntity
  8
0
100
AcDbLine
 10
198.8303766403981
 20
187.818229842294
 30
0.0
 11
201.8303766403981
 21
187.818229842294
 31
0.0
  0
LINE
  5
D36
330
1F
100
AcDbEntity
  8
0
100
AcDbLine
 10
261.8303766403981
 20
17.81822984229404
 30
0.0
 11
261.8303766403981
 21
67.81822984229407
 31
0.0
  0
LINE
  5
D37
330
1F
100
AcDbEntity
  8
0
100
AcDbLine
 10
271.8303766403981
 20
77.81822984229407
 30
0.0
 11
261.8303766403981
 21
67.81822984229407
 31
0.0
  0
LINE
  5
D39
330
1F
100
AcDbEntity
  8
0
100
AcDbLine
 10
275.3303766403981
 20
47.81822984229407
 30
0.0
 11
275.3303766403981
 21
192.818229842294
 31
0.0
  0
LINE
  5
D3A
330
1F
100
AcDbEntity
  8
0
100
AcDbLine
 10
275.3303766403981
 20
207.818229842294
 30
0.0
 11
271.8303766403981
 21
207.818229842294
 31
0.0
  0
LINE
  5
D3B
330
1F
100
AcDbEntity
  8
0
100
AcDbLine
 10
271.8303766403981
 20
207.818229842294
 30
0.0
 11
271.8303766403981
 21
227.818229842294
 31
0.0
  0
LINE
  5
D3C
330
1F
100
AcDbEntity
  8
0
100
AcDbLine
 10
261.8303766403981
 20
202.818229842294
 30
0.0
 11
271.8303766403981
 21
192.818229842294
 31
0.0
  0
LINE
  5
D3D
330
1F
100
AcDbEntity
  8
0
100
AcDbLine
 10
261.8303766403981
 20
202.818229842294
 30
0.0
 11
261.8303766403981
 21
237.818229842294
 31
0.0
  0
LINE
  5
D3E
330
1F
100
AcDbEntity
  8
0
100
AcDbLine
 10
261.8303766403981
 20
237.818229842294
 30
0.0
 11
271.8303766403981
 21
237.818229842294
 31
0.0
  0
LINE
  5
D3F
330
1F
100
AcDbEntity
  8
0
100
AcDbLine
 10
271.8303766403981
 20
237.818229842294
 30
0.0
 11
271.8303766403981
 21
227.818229842294
 31
0.0
  0
LINE
  5
D41
330
1F
100
AcDbEntity
  8
0
100
AcDbLine
 10
281.8303766403981
 20
227.818229842294
 30
0.0
 11
281.8303766403981
 21
237.818229842294
 31
0.0
  0
LINE
  5
D42
330
1F
100
AcDbEntity
  8
0
100
AcDbLine
 10
281.8303766403981
 20
237.818229842294
 30
0.0
 11
291.8303766403981
 21
237.818229842294
 31
0.0
  0
LINE
  5
D43
330
1F
100
AcDbEntity
  8
0
100
AcDbLine
 10
291.8303766403981
 20
237.818229842294
 30
0.0
 11
291.8303766403981
 21
227.818229842294
 31
0.0
  0
LINE
  5
D44
330
1F
100
AcDbEntity
  8
0
100
AcDbLine
 10
291.8303766403981
 20
227.818229842294
 30
0.0
 11
301.8303766403981
 21
227.818229842294
 31
0.0
  0
LINE
  5
D45
330
1F
100
AcDbEntity
  8
0
100
AcDbLine
 10
301.8303766403981
 20
227.818229842294
 30
0.0
 11
301.8303766403981
 21
237.818229842294
 31
0.0
  0
LINE
  5
D46
330
1F
100
AcDbEntity
  8
0
100
AcDbLine
 10
301.8303766403981
 20
237.818229842294
 30
0.0
 11
311.8303766403981
 21
237.818229842294
 31
0.0
  0
LINE
  5
D47
330
1F
100
AcDbEntity
  8
0
100
AcDbLine
 10
311.8303766403981
 20
237.818229842294
 30
0.0
 11
311.8303766403981
 21
227.818229842294
 31
0.0
  0
LINE
  5
D48
330
1F
100
AcDbEntity
  8
0
100
AcDbLine
 10
311.8303766403981
 20
227.818229842294
 30
0.0
 11
321.8303766403981
 21
227.818229842294
 31
0.0
  0
LINE
  5
D49
330
1F
100
AcDbEntity
  8
0
100
AcDbLine
 10
321.8303766403981
 20
227.818229842294
 30
0.0
 11
321.8303766403981
 21
237.818229842294
 31
0.0
  0
LINE
  5
D4A
330
1F
100
AcDbEntity
  8
0
100
AcDbLine
 10
321.8303766403981
 20
237.818229842294
 30
0.0
 11
331.8303766403981
 21
237.818229842294
 31
0.0
  0
LINE
  5
D4B
330
1F
100
AcDbEntity
  8
0
100
AcDbLine
 10
331.8303766403981
 20
237.818229842294
 30
0.0
 11
331.8303766403981
 21
227.818229842294
 31
0.0
  0
LINE
  5
D4C
330
1F
100
AcDbEntity
  8
0
100
AcDbLine
 10
331.8303766403981
 20
227.818229842294
 30
0.0
 11
341.8303766403981
 21
227.818229842294
 31
0.0
  0
LINE
  5
D4D
330
1F
100
AcDbEntity
  8
0
100
AcDbLine
 10
341.8303766403981
 20
227.818229842294
 30
0.0
 11
341.8303766403981
 21
237.818229842294
 31
0.0
  0
LINE
  5
D4E
330
1F
100
AcDbEntity
  8
0
100
AcDbLine
 10
341.8303766403981
 20
237.818229842294
 30
0.0
 11
351.8303766403981
 21
237.818229842294
 31
0.0
  0
LINE
  5
D4F
330
1F
100
AcDbEntity
  8
0
100
AcDbLine
 10
351.8303766403981
 20
237.818229842294
 30
0.0
 11
351.8303766403981
 21
227.818229842294
 31
0.0
  0
LINE
  5
D51
330
1F
100
AcDbEntity
  8
0
100
AcDbLine
 10
361.8303766403981
 20
227.818229842294
 30
0.0
 11
361.8303766403981
 21
237.818229842294
 31
0.0
  0
LINE
  5
D52
330
1F
100
AcDbEntity
  8
0
100
AcDbLine
 10
361.8303766403981
 20
237.818229842294
 30
0.0
 11
371.8303766403981
 21
237.818229842294
 31
0.0
  0
LINE
  5
D53
330
1F
100
AcDbEntity
  8
0
100
AcDbLine
 10
371.8303766403981
 20
237.818229842294
 30
0.0
 11
371.8303766403981
 21
202.818229842294
 31
0.0
  0
LINE
  5
D54
330
1F
100
AcDbEntity
  8
0
100
AcDbLine
 10
371.8303766403981
 20
202.818229842294
 30
0.0
 11
361.8303766403981
 21
192.818229842294
 31
0.0
  0
LINE
  5
D55
330
1F
100
AcDbEntity
  8
0
100
AcDbLine
 10
361.8303766403981
 20
227.818229842294
 30
0.0
 11
361.8303766403981
 21
207.818229842294
 31
0.0
  0
LINE
  5
D56
330
1F
100
AcDbEntity
  8
0
100
AcDbLine
 10
361.8303766403981
 20
207.818229842294
 30
0.0
 11
358.3303766403981
 21
207.818229842294
 31
0.0
  0
LINE
  5
D58
330
1F
100
AcDbEntity
  8
0
100
AcDbLine
 10
361.8303766403981
 20
47.81822984229407
 30
0.0
 11
361.8303766403981
 21
77.81822984229407
 31
0.0
  0
LINE
  5
D59
330
1F
100
AcDbEntity
  8
0
100
AcDbLine
 10
361.8303766403981
 20
77.81822984229407
 30
0.0
 11
371.8303766403981
 21
67.81822984229407
 31
0.0
  0
LINE
  5
D5A
330
1F
100
AcDbEntity
  8
0
100
AcDbLine
 10
371.8303766403981
 20
67.81822984229407
 30
0.0
 11
371.8303766403981
 21
17.81822984229404
 31
0.0
  0
LINE
  5
D5D
330
1F
100
AcDbEntity
  8
0
100
AcDbLine
 10
361.8303766403981
 20
47.81822984229407
 30
0.0
 11
358.3303766403981
 21
47.81822984229407
 31
0.0
  0
LINE
  5
D61
330
1F
100
AcDbEntity
  8
0
100
AcDbLine
 10
275.3303766403981
 20
47.81822984229407
 30
0.0
 11
271.8303766403981
 21
47.81822984229407
 31
0.0
  0
LINE
  5
D6B
330
1F
100
AcDbEntity
  8
0
100
AcDbLine
 10
316.8303766403981
 20
187.818229842294
 30
0.0
 11
319.8303766403981
 21
187.818229842294
 31
0.0
  0
LINE
  5
D6C
330
1F
100
AcDbEntity
  8
0
100
AcDbLine
 10
319.8303766403981
 20
187.818229842294
 30
0.0
 11
319.8303766403981
 21
181.818229842294
 31
0.0
  0
LINE
  5
D6D
330
1F
100
AcDbEntity
  8
0
100
AcDbLine
 10
319.8303766403981
 20
181.818229842294
 30
0.0
 11
325.8303766403981
 21
181.818229842294
 31
0.0
  0
LINE
  5
D6E
330
1F
100
AcDbEntity
  8
0
100
AcDbLine
 10
325.8303766403981
 20
181.818229842294
 30
0.0
 11
325.8303766403981
 21
175.818229842294
 31
0.0
  0
LINE
  5
D6F
330
1F
100
AcDbEntity
  8
0
100
AcDbLine
 10
325.8303766403981
 20
175.818229842294
 30
0.0
 11
319.8303766403981
 21
175.818229842294
 31
0.0
  0
LINE
  5
D70
330
1F
100
AcDbEntity
  8
0
100
AcDbLine
 10
319.8303766403981
 20
175.818229842294
 30
0.0
 11
319.8303766403981
 21
160.818229842294
 31
0.0
  0
LINE
  5
D71
330
1F
100
AcDbEntity
  8
0
100
AcDbLine
 10
319.8303766403981
 20
160.818229842294
 30
0.0
 11
313.8303766403981
 21
160.818229842294
 31
0.0
  0
LINE
  5
D72
330
1F
100
AcDbEntity
  8
0
100
AcDbLine
 10
313.8303766403981
 20
160.818229842294
 30
0.0
 11
313.8303766403981
 21
175.818229842294
 31
0.0
  0
LINE
  5
D73
330
1F
100
AcDbEntity
  8
0
100
AcDbLine
 10
313.8303766403981
 20
175.818229842294
 30
0.0
 11
307.8303766403981
 21
175.818229842294
 31
0.0
  0
LINE
  5
D74
330
1F
100
AcDbEntity
  8
0
100
AcDbLine
 10
307.8303766403981
 20
175.818229842294
 30
0.0
 11
307.8303766403981
 21
181.818229842294
 31
0.0
  0
LINE
  5
D75
330
1F
100
AcDbEntity
  8
0
100
AcDbLine
 10
307.8303766403981
 20
181.818229842294
 30
0.0
 11
313.8303766403981
 21
181.818229842294
 31
0.0
  0
LINE
  5
D76
330
1F
100
AcDbEntity
  8
0
100
AcDbLine
 10
313.8303766403981
 20
181.818229842294
 30
0.0
 11
313.8303766403981
 21
187.818229842294
 31
0.0
  0
LINE
  5
D77
330
1F
100
AcDbEntity
  8
0
100
AcDbLine
 10
313.8303766403981
 20
187.818229842294
 30
0.0
 11
316.8303766403981
 21
187.818229842294
 31
0.0
  0
LINE
  5
D78
330
1F
100
AcDbEntity
  8
0
100
AcDbLine
 10
261.8303766403981
 20
17.81822984229404
 30
0.0
 11
371.8303766403981
 21
17.81822984229404
 31
0.0
  0
LINE
  5
D79
330
1F
100
AcDbEntity
  8
0
100
AcDbLine
 10
271.8303766403981
 20
77.81822984229407
 30
0.0
 11
271.8303766403981
 21
47.81822984229407
 31
0.0
  0
LINE
  5
D7A
330
1F
100
AcDbEntity
  8
0
100
AcDbLine
 10
271.8303766403981
 20
192.818229842294
 30
0.0
 11
275.3303766403981
 21
192.818229842294
 31
0.0
  0
LINE
  5
D7B
330
1F
100
AcDbEntity
  8
0
100
AcDbLine
 10
361.8303766403981
 20
192.818229842294
 30
0.0
 11
358.3303766403981
 21
192.818229842294
 31
0.0
  0
LINE
  5
D7C
330
1F
100
AcDbEntity
  8
0
100
AcDbLine
 10
275.3303766403981
 20
207.818229842294
 30
0.0
 11
275.3303766403981
 21
227.818229842294
 31
0.0
  0
LINE
  5
D7D
330
1F
100
AcDbEntity
  8
0
100
AcDbLine
 10
275.3303766403981
 20
227.818229842294
 30
0.0
 11
281.8303766403981
 21
227.818229842294
 31
0.0
  0
LINE
  5
D7E
330
1F
100
AcDbEntity
  8
0
100
AcDbLine
 10
358.3303766403981
 20
207.818229842294
 30
0.0
 11
358.3303766403981
 21
227.818229842294
 31
0.0
  0
LINE
  5
D7F
330
1F
100
AcDbEntity
  8
0
100
AcDbLine
 10
358.3303766403981
 20
227.818229842294
 30
0.0
 11
351.8303766403981
 21
227.818229842294
 31
0.0
  0
LINE
  5
D80
330
1F
100
AcDbEntity
  8
0
100
AcDbLine
 10
358.3303766403981
 20
192.818229842294
 30
0.0
 11
358.3303766403981
 21
47.81822984229407
 31
0.0
  0
LINE
  5
D83
330
1F
100
AcDbEntity
  8
0
100
AcDbLine
 10
348.3303766403981
 20
202.818229842294
 30
0.0
 11
348.3303766403981
 21
199.318229842294
 31
0.0
  0
LINE
  5
D84
330
1F
100
AcDbEntity
  8
0
100
AcDbLine
 10
348.3303766403981
 20
199.318229842294
 30
0.0
 11
333.3303766403981
 21
199.318229842294
 31
0.0
  0
LINE
  5
D85
330
1F
100
AcDbEntity
  8
0
100
AcDbLine
 10
333.3303766403981
 20
199.318229842294
 30
0.0
 11
333.3303766403981
 21
202.818229842294
 31
0.0
  0
LINE
  5
D86
330
1F
100
AcDbEntity
  8
0
100
AcDbLine
 10
333.3303766403981
 20
202.818229842294
 30
0.0
 11
348.3303766403981
 21
202.818229842294
 31
0.0
  0
LINE
  5
D87
330
1F
100
AcDbEntity
  8
0
100
AcDbLine
 10
285.3303766403981
 20
202.818229842294
 30
0.0
 11
285.3303766403981
 21
199.318229842294
 31
0.0
  0
LINE
  5
D88
330
1F
100
AcDbEntity
  8
0
100
AcDbLine
 10
285.3303766403981
 20
199.318229842294
 30
0.0
 11
300.3303766403981
 21
199.318229842294
 31
0.0
  0
LINE
  5
D89
330
1F
100
AcDbEntity
  8
0
100
AcDbLine
 10
300.3303766403981
 20
199.318229842294
 30
0.0
 11
300.3303766403981
 21
202.818229842294
 31
0.0
  0
LINE
  5
D8A
330
1F
100
AcDbEntity
  8
0
100
AcDbLine
 10
300.3303766403981
 20
202.818229842294
 30
0.0
 11
285.3303766403981
 21
202.818229842294
 31
0.0
  0
LINE
  5
D8B
330
1F
100
AcDbEntity
  8
0
100
AcDbLine
 10
285.3303766403981
 20
134.318229842294
 30
0.0
 11
300.3303766403981
 21
134.318229842294
 31
0.0
  0
LINE
  5
D8C
330
1F
100
AcDbEntity
  8
0
100
AcDbLine
 10
300.3303766403981
 20
134.318229842294
 30
0.0
 11
300.3303766403981
 21
130.818229842294
 31
0.0
  0
LINE
  5
D8D
330
1F
100
AcDbEntity
  8
0
100
AcDbLine
 10
300.3303766403981
 20
130.818229842294
 30
0.0
 11
285.3303766403981
 21
130.818229842294
 31
0.0
  0
LINE
  5
D8E
330
1F
100
AcDbEntity
  8
0
100
AcDbLine
 10
285.3303766403981
 20
130.818229842294
 30
0.0
 11
285.3303766403981
 21
134.318229842294
 31
0.0
  0
LINE
  5
D8F
330
1F
100
AcDbEntity
  8
0
100
AcDbLine
 10
333.3303766403981
 20
134.318229842294
 30
0.0
 11
348.3303766403981
 21
134.318229842294
 31
0.0
  0
LINE
  5
D90
330
1F
100
AcDbEntity
  8
0
100
AcDbLine
 10
348.3303766403981
 20
134.318229842294
 30
0.0
 11
348.3303766403981
 21
130.818229842294
 31
0.0
  0
LINE
  5
D91
330
1F
100
AcDbEntity
  8
0
100
AcDbLine
 10
348.3303766403981
 20
130.818229842294
 30
0.0
 11
333.3303766403981
 21
130.818229842294
 31
0.0
  0
LINE
  5
D92
330
1F
100
AcDbEntity
  8
0
100
AcDbLine
 10
333.3303766403981
 20
130.818229842294
 30
0.0
 11
333.3303766403981
 21
134.318229842294
 31
0.0
  0
LINE
  5
D93
330
1F
100
AcDbEntity
  8
0
100
AcDbLine
 10
295.8148964214279
 20
656.0781305660787
 30
0.0
 11
295.8148964214279
 21
666.0781305660787
 31
0.0
  0
LINE
  5
D94
330
1F
100
AcDbEntity
  8
0
100
AcDbLine
 10
295.8148964214279
 20
666.0781305660787
 30
0.0
 11
292.3148964214279
 21
666.0781305660787
 31
0.0
  0
LINE
  5
D95
330
1F
100
AcDbEntity
  8
0
100
AcDbLine
 10
292.3148964214279
 20
666.0781305660787
 30
0.0
 11
292.3148964214279
 21
681.0781305660787
 31
0.0
  0
LINE
  5
D96
330
1F
100
AcDbEntity
  8
0
100
AcDbLine
 10
292.3148964214279
 20
681.0781305660787
 30
0.0
 11
295.8148964214279
 21
681.0781305660787
 31
0.0
  0
LINE
  5
D97
330
1F
100
AcDbEntity
  8
0
100
AcDbLine
 10
295.8148964214279
 20
681.0781305660787
 30
0.0
 11
295.8148964214279
 21
714.0781305660787
 31
0.0
  0
LINE
  5
D98
330
1F
100
AcDbEntity
  8
0
100
AcDbLine
 10
295.8148964214279
 20
714.0781305660787
 30
0.0
 11
292.3148964214279
 21
714.0781305660787
 31
0.0
  0
LINE
  5
D99
330
1F
100
AcDbEntity
  8
0
100
AcDbLine
 10
292.3148964214279
 20
714.0781305660787
 30
0.0
 11
292.3148964214279
 21
729.0781305660787
 31
0.0
  0
LINE
  5
D9A
330
1F
100
AcDbEntity
  8
0
100
AcDbLine
 10
292.3148964214279
 20
729.0781305660787
 30
0.0
 11
295.8148964214279
 21
729.0781305660787
 31
0.0
  0
LINE
  5
D9B
330
1F
100
AcDbEntity
  8
0
100
AcDbLine
 10
295.8148964214279
 20
729.0781305660787
 30
0.0
 11
295.8148964214279
 21
739.0781305660787
 31
0.0
  0
LINE
  5
D9C
330
1F
100
AcDbEntity
  8
0
100
AcDbLine
 10
295.8148964214279
 20
739.0781305660787
 30
0.0
 11
378.8148964214279
 21
739.0781305660787
 31
0.0
  0
LINE
  5
D9D
330
1F
100
AcDbEntity
  8
0
100
AcDbLine
 10
378.8148964214279
 20
739.0781305660787
 30
0.0
 11
378.8148964214279
 21
729.0781305660787
 31
0.0
  0
LINE
  5
D9E
330
1F
100
AcDbEntity
  8
0
100
AcDbLine
 10
378.8148964214279
 20
729.0781305660787
 30
0.0
 11
382.3148964214279
 21
729.0781305660787
 31
0.0
  0
LINE
  5
D9F
330
1F
100
AcDbEntity
  8
0
100
AcDbLine
 10
382.3148964214279
 20
729.0781305660787
 30
0.0
 11
382.3148964214279
 21
714.0781305660787
 31
0.0
  0
LINE
  5
DA0
330
1F
100
AcDbEntity
  8
0
100
AcDbLine
 10
382.3148964214279
 20
714.0781305660787
 30
0.0
 11
378.8148964214279
 21
714.0781305660787
 31
0.0
  0
LINE
  5
DA1
330
1F
100
AcDbEntity
  8
0
100
AcDbLine
 10
378.8148964214279
 20
714.0781305660787
 30
0.0
 11
378.8148964214279
 21
681.0781305660787
 31
0.0
  0
LINE
  5
DA2
330
1F
100
AcDbEntity
  8
0
100
AcDbLine
 10
378.8148964214279
 20
681.0781305660787
 30
0.0
 11
382.3148964214279
 21
681.0781305660787
 31
0.0
  0
LINE
  5
DA3
330
1F
100
AcDbEntity
  8
0
100
AcDbLine
 10
382.3148964214279
 20
681.0781305660787
 30
0.0
 11
382.3148964214279
 21
666.0781305660787
 31
0.0
  0
LINE
  5
DA4
330
1F
100
AcDbEntity
  8
0
100
AcDbLine
 10
382.3148964214279
 20
666.0781305660787
 30
0.0
 11
378.8148964214279
 21
666.0781305660787
 31
0.0
  0
LINE
  5
DA5
330
1F
100
AcDbEntity
  8
0
100
AcDbLine
 10
378.8148964214279
 20
666.0781305660787
 30
0.0
 11
378.8148964214279
 21
656.0781305660787
 31
0.0
  0
LINE
  5
DA6
330
1F
100
AcDbEntity
  8
0
100
AcDbLine
 10
378.8148964214279
 20
656.0781305660787
 30
0.0
 11
295.8148964214279
 21
656.0781305660787
 31
0.0
  0
LINE
  5
DD7
330
1F
100
AcDbEntity
  8
0
100
AcDbLine
 10
295.8148964214279
 20
744.0781305660787
 30
0.0
 11
295.8148964214279
 21
754.0781305660787
 31
0.0
  0
LINE
  5
DD8
330
1F
100
AcDbEntity
  8
0
100
AcDbLine
 10
295.8148964214279
 20
754.0781305660787
 30
0.0
 11
292.3148964214279
 21
754.0781305660787
 31
0.0
  0
LINE
  5
DD9
330
1F
100
AcDbEntity
  8
0
100
AcDbLine
 10
292.3148964214279
 20
754.0781305660787
 30
0.0
 11
292.3148964214279
 21
769.0781305660787
 31
0.0
  0
LINE
  5
DDA
330
1F
100
AcDbEntity
  8
0
100
AcDbLine
 10
292.3148964214279
 20
769.0781305660787
 30
0.0
 11
295.8148964214279
 21
769.0781305660787
 31
0.0
  0
LINE
  5
DDB
330
1F
100
AcDbEntity
  8
0
100
AcDbLine
 10
295.8148964214279
 20
769.0781305660787
 30
0.0
 11
295.8148964214279
 21
802.0781305660787
 31
0.0
  0
LINE
  5
DDC
330
1F
100
AcDbEntity
  8
0
100
AcDbLine
 10
295.8148964214279
 20
802.0781305660787
 30
0.0
 11
292.3148964214279
 21
802.0781305660787
 31
0.0
  0
LINE
  5
DDD
330
1F
100
AcDbEntity
  8
0
100
AcDbLine
 10
292.3148964214279
 20
802.0781305660787
 30
0.0
 11
292.3148964214279
 21
817.0781305660787
 31
0.0
  0
LINE
  5
DDE
330
1F
100
AcDbEntity
  8
0
100
AcDbLine
 10
292.3148964214279
 20
817.0781305660787
 30
0.0
 11
295.8148964214279
 21
817.0781305660787
 31
0.0
  0
LINE
  5
DDF
330
1F
100
AcDbEntity
  8
0
100
AcDbLine
 10
295.8148964214279
 20
817.0781305660787
 30
0.0
 11
295.8148964214279
 21
827.0781305660787
 31
0.0
  0
LINE
  5
DE1
330
1F
100
AcDbEntity
  8
0
100
AcDbLine
 10
378.8148964214279
 20
827.0781305660787
 30
0.0
 11
378.8148964214279
 21
817.0781305660787
 31
0.0
  0
LINE
  5
DE9
330
1F
100
AcDbEntity
  8
0
100
AcDbLine
 10
378.8148964214279
 20
754.0781305660787
 30
0.0
 11
378.8148964214279
 21
744.0781305660787
 31
0.0
  0
LINE
  5
DEA
330
1F
100
AcDbEntity
  8
0
100
AcDbLine
 10
378.8148964214279
 20
744.0781305660787
 30
0.0
 11
295.8148964214279
 21
744.0781305660787
 31
0.0
  0
LINE
  5
DEB
330
1F
100
AcDbEntity
  8
0
100
AcDbLine
 10
295.8148964214279
 20
827.0781305660787
 30
0.0
 11
305.8148964214279
 21
827.0781305660787
 31
0.0
  0
LINE
  5
DEC
330
1F
100
AcDbEntity
  8
0
100
AcDbLine
 10
305.8148964214279
 20
827.0781305660787
 30
0.0
 11
305.8148964214279
 21
820.0781305660787
 31
0.0
  0
LINE
  5
DED
330
1F
100
AcDbEntity
  8
0
100
AcDbLine
 10
305.8148964214279
 20
820.0781305660787
 30
0.0
 11
309.3148964214279
 21
820.0781305660787
 31
0.0
  0
LINE
  5
DEE
330
1F
100
AcDbEntity
  8
0
100
AcDbLine
 10
309.3148964214279
 20
820.0781305660787
 30
0.0
 11
309.3148964214279
 21
827.0781305660787
 31
0.0
  0
LINE
  5
DEF
330
1F
100
AcDbEntity
  8
0
100
AcDbLine
 10
378.8148964214279
 20
827.0781305660787
 30
0.0
 11
368.8148964214279
 21
827.0781305660787
 31
0.0
  0
LINE
  5
DF0
330
1F
100
AcDbEntity
  8
0
100
AcDbLine
 10
368.8148964214279
 20
827.0781305660787
 30
0.0
 11
368.8148964214279
 21
820.0781305660787
 31
0.0
  0
LINE
  5
DF1
330
1F
100
AcDbEntity
  8
0
100
AcDbLine
 10
368.8148964214279
 20
820.0781305660787
 30
0.0
 11
365.3148964214279
 21
820.0781305660787
 31
0.0
  0
LINE
  5
DF2
330
1F
100
AcDbEntity
  8
0
100
AcDbLine
 10
365.3148964214279
 20
820.0781305660787
 30
0.0
 11
365.3148964214279
 21
827.0781305660787
 31
0.0
  0
LINE
  5
DF3
330
1F
100
AcDbEntity
  8
0
100
AcDbLine
 10
365.3148964214279
 20
827.0781305660787
 30
0.0
 11
309.3148964214279
 21
827.0781305660787
 31
0.0
  0
LINE
  5
DF4
330
1F
100
AcDbEntity
  8
0
100
AcDbLine
 10
378.8148964214279
 20
817.0781305660787
 30
0.0
 11
371.8148964214279
 21
817.0781305660787
 31
0.0
  0
LINE
  5
DF5
330
1F
100
AcDbEntity
  8
0
100
AcDbLine
 10
371.8148964214279
 20
817.0781305660787
 30
0.0
 11
371.8148964214279
 21
813.5781305660787
 31
0.0
  0
LINE
  5
DF6
330
1F
100
AcDbEntity
  8
0
100
AcDbLine
 10
371.8148964214279
 20
813.5781305660787
 30
0.0
 11
378.8148964214279
 21
813.5781305660787
 31
0.0
  0
LINE
  5
DF7
330
1F
100
AcDbEntity
  8
0
100
AcDbLine
 10
378.8148964214279
 20
813.5781305660787
 30
0.0
 11
378.8148964214279
 21
790.5781305660787
 31
0.0
  0
LINE
  5
DF8
330
1F
100
AcDbEntity
  8
0
100
AcDbLine
 10
378.8148964214279
 20
790.5781305660787
 30
0.0
 11
382.3148964214279
 21
790.5781305660787
 31
0.0
  0
LINE
  5
DF9
330
1F
100
AcDbEntity
  8
0
100
AcDbLine
 10
382.3148964214279
 20
790.5781305660787
 30
0.0
 11
382.3148964214279
 21
780.5781305660787
 31
0.0
  0
LINE
  5
DFB
330
1F
100
AcDbEntity
  8
0
100
AcDbLine
 10
382.3148964214279
 20
780.5781305660787
 30
0.0
 11
378.8148964214279
 21
780.5781305660787
 31
0.0
  0
LINE
  5
DFC
330
1F
100
AcDbEntity
  8
0
100
AcDbLine
 10
378.8148964214279
 20
780.5781305660787
 30
0.0
 11
378.8148964214279
 21
757.5781305660787
 31
0.0
  0
LINE
  5
DFD
330
1F
100
AcDbEntity
  8
0
100
AcDbLine
 10
378.8148964214279
 20
757.5781305660787
 30
0.0
 11
371.8148964214279
 21
757.5781305660787
 31
0.0
  0
LINE
  5
DFE
330
1F
100
AcDbEntity
  8
0
100
AcDbLine
 10
371.8148964214279
 20
757.5781305660787
 30
0.0
 11
371.8148964214279
 21
754.0781305660787
 31
0.0
  0
LINE
  5
DFF
330
1F
100
AcDbEntity
  8
0
100
AcDbLine
 10
371.8148964214279
 20
754.0781305660787
 30
0.0
 11
378.8148964214279
 21
754.0781305660787
 31
0.0
  0
LINE
  5
E5F
330
1F
100
AcDbEntity
  8
0
100
AcDbLine
 10
-6.368903416420153
 20
553.4090785496762
 30
0.0
 11
-16.36890341642015
 21
553.4090785496762
 31
0.0
  0
LINE
  5
E60
330
1F
100
AcDbEntity
  8
0
100
AcDbLine
 10
-16.36890341642015
 20
553.4090785496762
 30
0.0
 11
-16.36890341642015
 21
603.4090785496762
 31
0.0
  0
LINE
  5
E61
330
1F
100
AcDbEntity
  8
0
100
AcDbLine
 10
-6.368903416420153
 20
613.4090785496762
 30
0.0
 11
-16.36890341642015
 21
603.4090785496762
 31
0.0
  0
LINE
  5
E62
330
1F
100
AcDbEntity
  8
0
100
AcDbLine
 10
-6.368903416420153
 20
613.4090785496762
 30
0.0
 11
-2.868903416420153
 21
613.4090785496762
 31
0.0
  0
LINE
  5
E63
330
1F
100
AcDbEntity
  8
0
100
AcDbLine
 10
-2.868903416420153
 20
613.4090785496762
 30
0.0
 11
-2.868903416420153
 21
743.4090785496762
 31
0.0
  0
LINE
  5
E64
330
1F
100
AcDbEntity
  8
0
100
AcDbLine
 10
-2.868903416420153
 20
743.4090785496762
 30
0.0
 11
-6.368903416420153
 21
743.4090785496762
 31
0.0
  0
LINE
  5
E65
330
1F
100
AcDbEntity
  8
0
100
AcDbLine
 10
-6.368903416420153
 20
743.4090785496762
 30
0.0
 11
-6.368903416420153
 21
728.4090785496762
 31
0.0
  0
LINE
  5
E66
330
1F
100
AcDbEntity
  8
0
100
AcDbLine
 10
-16.36890341642015
 20
738.4090785496762
 30
0.0
 11
-6.368903416420153
 21
728.4090785496762
 31
0.0
  0
LINE
  5
E67
330
1F
100
AcDbEntity
  8
0
100
AcDbLine
 10
-16.36890341642015
 20
738.4090785496762
 30
0.0
 11
-16.36890341642015
 21
773.4090785496762
 31
0.0
  0
LINE
  5
E68
330
1F
100
AcDbEntity
  8
0
100
AcDbLine
 10
-16.36890341642015
 20
773.4090785496762
 30
0.0
 11
-6.368903416420153
 21
773.4090785496762
 31
0.0
  0
LINE
  5
E69
330
1F
100
AcDbEntity
  8
0
100
AcDbLine
 10
-6.368903416420153
 20
773.4090785496762
 30
0.0
 11
-6.368903416420153
 21
763.4090785496762
 31
0.0
  0
LINE
  5
E6A
330
1F
100
AcDbEntity
  8
0
100
AcDbLine
 10
-6.368903416420153
 20
763.4090785496762
 30
0.0
 11
3.631096583579847
 21
763.4090785496762
 31
0.0
  0
LINE
  5
E6B
330
1F
100
AcDbEntity
  8
0
100
AcDbLine
 10
3.631096583579847
 20
763.4090785496762
 30
0.0
 11
3.631096583579847
 21
773.4090785496762
 31
0.0
  0
LINE
  5
E6C
330
1F
100
AcDbEntity
  8
0
100
AcDbLine
 10
3.631096583579847
 20
773.4090785496762
 30
0.0
 11
13.63109658357993
 21
773.4090785496762
 31
0.0
  0
LINE
  5
E6D
330
1F
100
AcDbEntity
  8
0
100
AcDbLine
 10
13.63109658357993
 20
773.4090785496762
 30
0.0
 11
13.63109658357993
 21
763.4090785496762
 31
0.0
  0
LINE
  5
E6E
330
1F
100
AcDbEntity
  8
0
100
AcDbLine
 10
13.63109658357993
 20
763.4090785496762
 30
0.0
 11
23.63109658357993
 21
763.4090785496762
 31
0.0
  0
LINE
  5
E6F
330
1F
100
AcDbEntity
  8
0
100
AcDbLine
 10
23.63109658357993
 20
763.4090785496762
 30
0.0
 11
23.63109658357993
 21
773.4090785496762
 31
0.0
  0
LINE
  5
E70
330
1F
100
AcDbEntity
  8
0
100
AcDbLine
 10
23.63109658357993
 20
773.4090785496762
 30
0.0
 11
33.63109658357993
 21
773.4090785496762
 31
0.0
  0
LINE
  5
E71
330
1F
100
AcDbEntity
  8
0
100
AcDbLine
 10
33.63109658357993
 20
773.4090785496762
 30
0.0
 11
33.63109658357993
 21
763.4090785496762
 31
0.0
  0
LINE
  5
E72
330
1F
100
AcDbEntity
  8
0
100
AcDbLine
 10
33.63109658357993
 20
763.4090785496762
 30
0.0
 11
43.63109658357993
 21
763.4090785496762
 31
0.0
  0
LINE
  5
E73
330
1F
100
AcDbEntity
  8
0
100
AcDbLine
 10
43.63109658357993
 20
763.4090785496762
 30
0.0
 11
43.63109658357993
 21
773.4090785496762
 31
0.0
  0
LINE
  5
E74
330
1F
100
AcDbEntity
  8
0
100
AcDbLine
 10
43.63109658357993
 20
773.4090785496762
 30
0.0
 11
53.63109658357993
 21
773.4090785496762
 31
0.0
  0
LINE
  5
E75
330
1F
100
AcDbEntity
  8
0
100
AcDbLine
 10
53.63109658357993
 20
773.4090785496762
 30
0.0
 11
53.63109658357993
 21
763.4090785496762
 31
0.0
  0
LINE
  5
E76
330
1F
100
AcDbEntity
  8
0
100
AcDbLine
 10
53.63109658357993
 20
763.4090785496762
 30
0.0
 11
63.63109658357993
 21
763.4090785496762
 31
0.0
  0
LINE
  5
E77
330
1F
100
AcDbEntity
  8
0
100
AcDbLine
 10
63.63109658357993
 20
763.4090785496762
 30
0.0
 11
63.63109658357993
 21
773.4090785496762
 31
0.0
  0
LINE
  5
E78
330
1F
100
AcDbEntity
  8
0
100
AcDbLine
 10
63.63109658357993
 20
773.4090785496762
 30
0.0
 11
73.63109658357993
 21
773.4090785496762
 31
0.0
  0
LINE
  5
E79
330
1F
100
AcDbEntity
  8
0
100
AcDbLine
 10
73.63109658357993
 20
773.4090785496762
 30
0.0
 11
73.63109658357993
 21
763.4090785496762
 31
0.0
  0
LINE
  5
E7A
330
1F
100
AcDbEntity
  8
0
100
AcDbLine
 10
73.63109658357993
 20
763.4090785496762
 30
0.0
 11
83.63109658357993
 21
763.4090785496762
 31
0.0
  0
LINE
  5
E7B
330
1F
100
AcDbEntity
  8
0
100
AcDbLine
 10
83.63109658357993
 20
763.4090785496762
 30
0.0
 11
83.63109658357993
 21
773.4090785496762
 31
0.0
  0
LINE
  5
E7C
330
1F
100
AcDbEntity
  8
0
100
AcDbLine
 10
83.63109658357993
 20
773.4090785496762
 30
0.0
 11
93.63109658357993
 21
773.4090785496762
 31
0.0
  0
LINE
  5
E7D
330
1F
100
AcDbEntity
  8
0
100
AcDbLine
 10
93.63109658357993
 20
773.4090785496762
 30
0.0
 11
93.63109658357993
 21
738.4090785496762
 31
0.0
  0
LINE
  5
E7E
330
1F
100
AcDbEntity
  8
0
100
AcDbLine
 10
93.63109658357993
 20
738.4090785496762
 30
0.0
 11
83.63109658357993
 21
728.4090785496762
 31
0.0
  0
LINE
  5
E7F
330
1F
100
AcDbEntity
  8
0
100
AcDbLine
 10
83.63109658357993
 20
728.4090785496762
 30
0.0
 11
83.63109658357993
 21
743.4090785496762
 31
0.0
  0
LINE
  5
E80
330
1F
100
AcDbEntity
  8
0
100
AcDbLine
 10
83.63109658357993
 20
743.4090785496762
 30
0.0
 11
80.13109658357993
 21
743.4090785496762
 31
0.0
  0
LINE
  5
E81
330
1F
100
AcDbEntity
  8
0
100
AcDbLine
 10
80.13109658357993
 20
743.4090785496762
 30
0.0
 11
80.13109658357993
 21
613.4090785496762
 31
0.0
  0
LINE
  5
E82
330
1F
100
AcDbEntity
  8
0
100
AcDbLine
 10
80.13109658357993
 20
613.4090785496762
 30
0.0
 11
83.63109658357993
 21
613.4090785496762
 31
0.0
  0
LINE
  5
E83
330
1F
100
AcDbEntity
  8
0
100
AcDbLine
 10
83.63109658357993
 20
613.4090785496762
 30
0.0
 11
93.63109658357993
 21
603.4090785496762
 31
0.0
  0
LINE
  5
E84
330
1F
100
AcDbEntity
  8
0
100
AcDbLine
 10
93.63109658357993
 20
603.4090785496762
 30
0.0
 11
93.63109658357993
 21
553.4090785496762
 31
0.0
  0
LINE
  5
E85
330
1F
100
AcDbEntity
  8
0
100
AcDbLine
 10
93.63109658357993
 20
553.4090785496762
 30
0.0
 11
83.63109658357993
 21
553.4090785496762
 31
0.0
  0
LINE
  5
E86
330
1F
100
AcDbEntity
  8
0
100
AcDbLine
 10
83.63109658357993
 20
553.4090785496762
 30
0.0
 11
83.63109658357993
 21
583.4090785496762
 31
0.0
  0
LINE
  5
E87
330
1F
100
AcDbEntity
  8
0
100
AcDbLine
 10
83.63109658357993
 20
583.4090785496762
 30
0.0
 11
80.13109658357993
 21
583.4090785496762
 31
0.0
  0
LINE
  5
E88
330
1F
100
AcDbEntity
  8
0
100
AcDbLine
 10
80.13109658357993
 20
583.4090785496762
 30
0.0
 11
80.13109658357993
 21
553.4090785496762
 31
0.0
  0
LINE
  5
E89
330
1F
100
AcDbEntity
  8
0
100
AcDbLine
 10
80.13109658357993
 20
553.4090785496762
 30
0.0
 11
-2.868903416420153
 21
553.4090785496762
 31
0.0
  0
LINE
  5
E8A
330
1F
100
AcDbEntity
  8
0
100
AcDbLine
 10
-2.868903416420153
 20
553.4090785496762
 30
0.0
 11
-2.868903416420153
 21
583.4090785496762
 31
0.0
  0
LINE
  5
E8B
330
1F
100
AcDbEntity
  8
0
100
AcDbLine
 10
-2.868903416420153
 20
583.4090785496762
 30
0.0
 11
-6.368903416420153
 21
583.4090785496762
 31
0.0
  0
LINE
  5
E8C
330
1F
100
AcDbEntity
  8
0
100
AcDbLine
 10
-6.368903416420153
 20
583.4090785496762
 30
0.0
 11
-6.368903416420153
 21
553.4090785496762
 31
0.0
  0
LINE
  5
EA3
330
1F
100
AcDbEntity
  8
0
100
AcDbLine
 10
7.131096583579847
 20
583.4090785496762
 30
0.0
 11
7.131096583579847
 21
563.4090785496762
 31
0.0
  0
LINE
  5
EA4
330
1F
100
AcDbEntity
  8
0
100
AcDbLine
 10
7.131096583579847
 20
563.4090785496762
 30
0.0
 11
10.63109658357993
 21
563.4090785496762
 31
0.0
  0
LINE
  5
EA5
330
1F
100
AcDbEntity
  8
0
100
AcDbLine
 10
10.63109658357993
 20
563.4090785496762
 30
0.0
 11
10.63109658357993
 21
589.4090785496762
 31
0.0
  0
LINE
  5
EA7
330
1F
100
AcDbEntity
  8
0
100
AcDbLine
 10
7.131096583579847
 20
589.4090785496762
 30
0.0
 11
7.131096583579847
 21
583.4090785496762
 31
0.0
  0
LINE
  5
EA8
330
1F
100
AcDbEntity
  8
0
100
AcDbLine
 10
70.13109658357993
 20
583.4090785496762
 30
0.0
 11
70.13109658357993
 21
563.4090785496762
 31
0.0
  0
LINE
  5
EA9
330
1F
100
AcDbEntity
  8
0
100
AcDbLine
 10
70.13109658357993
 20
563.4090785496762
 30
0.0
 11
66.63109658357993
 21
563.4090785496762
 31
0.0
  0
LINE
  5
EAA
330
1F
100
AcDbEntity
  8
0
100
AcDbLine
 10
66.63109658357993
 20
563.4090785496762
 30
0.0
 11
66.63109658357993
 21
589.4090785496762
 31
0.0
  0
LINE
  5
EAB
330
1F
100
AcDbEntity
  8
0
100
AcDbLine
 10
66.63109658357993
 20
589.4090785496762
 30
0.0
 11
70.13109658357993
 21
589.4090785496762
 31
0.0
  0
LINE
  5
EAC
330
1F
100
AcDbEntity
  8
0
100
AcDbLine
 10
70.13109658357993
 20
589.4090785496762
 30
0.0
 11
70.13109658357993
 21
583.4090785496762
 31
0.0
  0
LINE
  5
EB7
330
1F
100
AcDbEntity
  8
0
100
AcDbLine
 10
20.63109658357993
 20
672.4090785496762
 30
0.0
 11
20.63109658357993
 21
668.9090785496762
 31
0.0
  0
LINE
  5
EB8
330
1F
100
AcDbEntity
  8
0
100
AcDbLine
 10
20.63109658357993
 20
668.9090785496762
 30
0.0
 11
56.63109658357993
 21
668.9090785496762
 31
0.0
  0
LINE
  5
EB9
330
1F
100
AcDbEntity
  8
0
100
AcDbLine
 10
56.63109658357993
 20
668.9090785496762
 30
0.0
 11
56.63109658357993
 21
672.4090785496762
 31
0.0
  0
LINE
  5
EBA
330
1F
100
AcDbEntity
  8
0
100
AcDbLine
 10
56.63109658357993
 20
672.4090785496762
 30
0.0
 11
53.63109658357993
 21
672.4090785496762
 31
0.0
  0
LINE
  5
EBB
330
1F
100
AcDbEntity
  8
0
100
AcDbLine
 10
53.63109658357993
 20
672.4090785496762
 30
0.0
 11
53.63109658357993
 21
698.9090785496762
 31
0.0
  0
LINE
  5
EBD
330
1F
100
AcDbEntity
  8
0
100
AcDbLine
 10
20.63109658357993
 20
672.4090785496762
 30
0.0
 11
23.63109658357993
 21
672.4090785496762
 31
0.0
  0
LINE
  5
EBE
330
1F
100
AcDbEntity
  8
0
100
AcDbLine
 10
23.63109658357993
 20
672.4090785496762
 30
0.0
 11
23.63109658357993
 21
698.9090785496762
 31
0.0
  0
ARC
  5
EBF
330
1F
100
AcDbEntity
  8
0
100
AcDbCircle
 10
38.63109658357993
 20
698.9090785496762
 30
0.0
 40
15.0
100
AcDbArc
 50
0.0
 51
180.0
  0
LINE
  5
F25
330
1F
100
AcDbEntity
  8
0
100
AcDbLine
 10
117.4497071734303
 20
274.9949017694686
 30
0.0
 11
117.4497071734303
 21
324.9949017694686
 31
0.0
  0
LINE
  5
F26
330
1F
100
AcDbEntity
  8
0
100
AcDbLine
 10
127.4497071734303
 20
334.9949017694686
 30
0.0
 11
117.4497071734303
 21
324.9949017694686
 31
0.0
  0
LINE
  5
F27
330
1F
100
AcDbEntity
  8
0
100
AcDbLine
 10
130.9497071734303
 20
304.9949017694686
 30
0.0
 11
130.9497071734303
 21
449.9949017694686
 31
0.0
  0
LINE
  5
F28
330
1F
100
AcDbEntity
  8
0
100
AcDbLine
 10
130.9497071734303
 20
464.9949017694686
 30
0.0
 11
127.4497071734303
 21
464.9949017694686
 31
0.0
  0
LINE
  5
F29
330
1F
100
AcDbEntity
  8
0
100
AcDbLine
 10
127.4497071734303
 20
464.9949017694686
 30
0.0
 11
127.4497071734303
 21
484.9949017694686
 31
0.0
  0
LINE
  5
F2A
330
1F
100
AcDbEntity
  8
0
100
AcDbLine
 10
117.4497071734303
 20
459.9949017694686
 30
0.0
 11
127.4497071734303
 21
449.9949017694686
 31
0.0
  0
LINE
  5
F2B
330
1F
100
AcDbEntity
  8
0
100
AcDbLine
 10
117.4497071734303
 20
459.9949017694686
 30
0.0
 11
117.4497071734303
 21
494.9949017694686
 31
0.0
  0
LINE
  5
F2C
330
1F
100
AcDbEntity
  8
0
100
AcDbLine
 10
117.4497071734303
 20
494.9949017694686
 30
0.0
 11
127.4497071734303
 21
494.9949017694686
 31
0.0
  0
LINE
  5
F2D
330
1F
100
AcDbEntity
  8
0
100
AcDbLine
 10
127.4497071734303
 20
494.9949017694686
 30
0.0
 11
127.4497071734303
 21
484.9949017694686
 31
0.0
  0
LINE
  5
F2E
330
1F
100
AcDbEntity
  8
0
100
AcDbLine
 10
137.4497071734303
 20
484.9949017694686
 30
0.0
 11
137.4497071734303
 21
494.9949017694686
 31
0.0
  0
LINE
  5
F2F
330
1F
100
AcDbEntity
  8
0
100
AcDbLine
 10
137.4497071734303
 20
494.9949017694686
 30
0.0
 11
147.4497071734303
 21
494.9949017694686
 31
0.0
  0
LINE
  5
F30
330
1F
100
AcDbEntity
  8
0
100
AcDbLine
 10
147.4497071734303
 20
494.9949017694686
 30
0.0
 11
147.4497071734303
 21
484.9949017694686
 31
0.0
  0
LINE
  5
F31
330
1F
100
AcDbEntity
  8
0
100
AcDbLine
 10
147.4497071734303
 20
484.9949017694686
 30
0.0
 11
157.4497071734303
 21
484.9949017694686
 31
0.0
  0
LINE
  5
F32
330
1F
100
AcDbEntity
  8
0
100
AcDbLine
 10
157.4497071734303
 20
484.9949017694686
 30
0.0
 11
157.4497071734303
 21
494.9949017694686
 31
0.0
  0
LINE
  5
F33
330
1F
100
AcDbEntity
  8
0
100
AcDbLine
 10
157.4497071734303
 20
494.9949017694686
 30
0.0
 11
167.4497071734303
 21
494.9949017694686
 31
0.0
  0
LINE
  5
F34
330
1F
100
AcDbEntity
  8
0
100
AcDbLine
 10
167.4497071734303
 20
494.9949017694686
 30
0.0
 11
167.4497071734303
 21
484.9949017694686
 31
0.0
  0
LINE
  5
F35
330
1F
100
AcDbEntity
  8
0
100
AcDbLine
 10
167.4497071734303
 20
484.9949017694686
 30
0.0
 11
177.4497071734303
 21
484.9949017694686
 31
0.0
  0
LINE
  5
F36
330
1F
100
AcDbEntity
  8
0
100
AcDbLine
 10
177.4497071734303
 20
484.9949017694686
 30
0.0
 11
177.4497071734303
 21
494.9949017694686
 31
0.0
  0
LINE
  5
F37
330
1F
100
AcDbEntity
  8
0
100
AcDbLine
 10
177.4497071734303
 20
494.9949017694686
 30
0.0
 11
187.4497071734303
 21
494.9949017694686
 31
0.0
  0
LINE
  5
F38
330
1F
100
AcDbEntity
  8
0
100
AcDbLine
 10
187.4497071734303
 20
494.9949017694686
 30
0.0
 11
187.4497071734303
 21
484.9949017694686
 31
0.0
  0
LINE
  5
F39
330
1F
100
AcDbEntity
  8
0
100
AcDbLine
 10
187.4497071734303
 20
484.9949017694686
 30
0.0
 11
197.4497071734303
 21
484.9949017694686
 31
0.0
  0
LINE
  5
F3A
330
1F
100
AcDbEntity
  8
0
100
AcDbLine
 10
197.4497071734303
 20
484.9949017694686
 30
0.0
 11
197.4497071734303
 21
494.9949017694686
 31
0.0
  0
LINE
  5
F3B
330
1F
100
AcDbEntity
  8
0
100
AcDbLine
 10
197.4497071734303
 20
494.9949017694686
 30
0.0
 11
207.4497071734303
 21
494.9949017694686
 31
0.0
  0
LINE
  5
F3C
330
1F
100
AcDbEntity
  8
0
100
AcDbLine
 10
207.4497071734303
 20
494.9949017694686
 30
0.0
 11
207.4497071734303
 21
484.9949017694686
 31
0.0
  0
LINE
  5
F3D
330
1F
100
AcDbEntity
  8
0
100
AcDbLine
 10
217.4497071734303
 20
484.9949017694686
 30
0.0
 11
217.4497071734303
 21
494.9949017694686
 31
0.0
  0
LINE
  5
F3E
330
1F
100
AcDbEntity
  8
0
100
AcDbLine
 10
217.4497071734303
 20
494.9949017694686
 30
0.0
 11
227.4497071734303
 21
494.9949017694686
 31
0.0
  0
LINE
  5
F3F
330
1F
100
AcDbEntity
  8
0
100
AcDbLine
 10
227.4497071734303
 20
494.9949017694686
 30
0.0
 11
227.4497071734303
 21
459.9949017694686
 31
0.0
  0
LINE
  5
F40
330
1F
100
AcDbEntity
  8
0
100
AcDbLine
 10
227.4497071734303
 20
459.9949017694686
 30
0.0
 11
217.4497071734303
 21
449.9949017694686
 31
0.0
  0
LINE
  5
F41
330
1F
100
AcDbEntity
  8
0
100
AcDbLine
 10
217.4497071734303
 20
484.9949017694686
 30
0.0
 11
217.4497071734303
 21
464.9949017694686
 31
0.0
  0
LINE
  5
F42
330
1F
100
AcDbEntity
  8
0
100
AcDbLine
 10
217.4497071734303
 20
464.9949017694686
 30
0.0
 11
213.9497071734303
 21
464.9949017694686
 31
0.0
  0
LINE
  5
F43
330
1F
100
AcDbEntity
  8
0
100
AcDbLine
 10
217.4497071734303
 20
304.9949017694686
 30
0.0
 11
217.4497071734303
 21
334.9949017694686
 31
0.0
  0
LINE
  5
F44
330
1F
100
AcDbEntity
  8
0
100
AcDbLine
 10
217.4497071734303
 20
334.9949017694686
 30
0.0
 11
227.4497071734303
 21
324.9949017694686
 31
0.0
  0
LINE
  5
F45
330
1F
100
AcDbEntity
  8
0
100
AcDbLine
 10
227.4497071734303
 20
324.9949017694686
 30
0.0
 11
227.4497071734303
 21
274.9949017694686
 31
0.0
  0
LINE
  5
F46
330
1F
100
AcDbEntity
  8
0
100
AcDbLine
 10
217.4497071734303
 20
304.9949017694686
 30
0.0
 11
213.9497071734303
 21
304.9949017694686
 31
0.0
  0
LINE
  5
F47
330
1F
100
AcDbEntity
  8
0
100
AcDbLine
 10
130.9497071734303
 20
304.9949017694686
 30
0.0
 11
127.4497071734303
 21
304.9949017694686
 31
0.0
  0
LINE
  5
F55
330
1F
100
AcDbEntity
  8
0
100
AcDbLine
 10
117.4497071734303
 20
274.9949017694686
 30
0.0
 11
227.4497071734303
 21
274.9949017694686
 31
0.0
  0
LINE
  5
F56
330
1F
100
AcDbEntity
  8
0
100
AcDbLine
 10
127.4497071734303
 20
334.9949017694686
 30
0.0
 11
127.4497071734303
 21
304.9949017694686
 31
0.0
  0
LINE
  5
F57
330
1F
100
AcDbEntity
  8
0
100
AcDbLine
 10
127.4497071734303
 20
449.9949017694686
 30
0.0
 11
130.9497071734303
 21
449.9949017694686
 31
0.0
  0
LINE
  5
F58
330
1F
100
AcDbEntity
  8
0
100
AcDbLine
 10
217.4497071734303
 20
449.9949017694686
 30
0.0
 11
213.9497071734303
 21
449.9949017694686
 31
0.0
  0
LINE
  5
F59
330
1F
100
AcDbEntity
  8
0
100
AcDbLine
 10
130.9497071734303
 20
464.9949017694686
 30
0.0
 11
130.9497071734303
 21
484.9949017694686
 31
0.0
  0
LINE
  5
F5A
330
1F
100
AcDbEntity
  8
0
100
AcDbLine
 10
130.9497071734303
 20
484.9949017694686
 30
0.0
 11
137.4497071734303
 21
484.9949017694686
 31
0.0
  0
LINE
  5
F5B
330
1F
100
AcDbEntity
  8
0
100
AcDbLine
 10
213.9497071734303
 20
464.9949017694686
 30
0.0
 11
213.9497071734303
 21
484.9949017694686
 31
0.0
  0
LINE
  5
F5C
330
1F
100
AcDbEntity
  8
0
100
AcDbLine
 10
213.9497071734303
 20
484.9949017694686
 30
0.0
 11
207.4497071734303
 21
484.9949017694686
 31
0.0
  0
LINE
  5
F5D
330
1F
100
AcDbEntity
  8
0
100
AcDbLine
 10
213.9497071734303
 20
449.9949017694686
 30
0.0
 11
213.9497071734303
 21
304.9949017694686
 31
0.0
  0
LINE
  5
F5E
330
1F
100
AcDbEntity
  8
0
100
AcDbLine
 10
203.9497071734303
 20
459.9949017694686
 30
0.0
 11
203.9497071734303
 21
456.4949017694686
 31
0.0
  0
LINE
  5
F5F
330
1F
100
AcDbEntity
  8
0
100
AcDbLine
 10
203.9497071734303
 20
456.4949017694686
 30
0.0
 11
188.9497071734303
 21
456.4949017694686
 31
0.0
  0
LINE
  5
F60
330
1F
100
AcDbEntity
  8
0
100
AcDbLine
 10
188.9497071734303
 20
456.4949017694686
 30
0.0
 11
188.9497071734303
 21
459.9949017694686
 31
0.0
  0
LINE
  5
F61
330
1F
100
AcDbEntity
  8
0
100
AcDbLine
 10
188.9497071734303
 20
459.9949017694686
 30
0.0
 11
203.9497071734303
 21
459.9949017694686
 31
0.0
  0
LINE
  5
F62
330
1F
100
AcDbEntity
  8
0
100
AcDbLine
 10
140.9497071734303
 20
459.9949017694686
 30
0.0
 11
140.9497071734303
 21
456.4949017694686
 31
0.0
  0
LINE
  5
F63
330
1F
100
AcDbEntity
  8
0
100
AcDbLine
 10
140.9497071734303
 20
456.4949017694686
 30
0.0
 11
155.9497071734303
 21
456.4949017694686
 31
0.0
  0
LINE
  5
F64
330
1F
100
AcDbEntity
  8
0
100
AcDbLine
 10
155.9497071734303
 20
456.4949017694686
 30
0.0
 11
155.9497071734303
 21
459.9949017694686
 31
0.0
  0
LINE
  5
F65
330
1F
100
AcDbEntity
  8
0
100
AcDbLine
 10
155.9497071734303
 20
459.9949017694686
 30
0.0
 11
140.9497071734303
 21
459.9949017694686
 31
0.0
  0
LINE
  5
F95
330
1F
100
AcDbEntity
  8
0
100
AcDbLine
 10
154.4497071734303
 20
393.9949017694686
 30
0.0
 11
154.4497071734303
 21
390.4949017694686
 31
0.0
  0
LINE
  5
F96
330
1F
100
AcDbEntity
  8
0
100
AcDbLine
 10
177.4497071734303
 20
390.4949017694686
 30
0.0
 11
190.4497071734303
 21
390.4949017694686
 31
0.0
  0
LINE
  5
F97
330
1F
100
AcDbEntity
  8
0
100
AcDbLine
 10
190.4497071734303
 20
390.4949017694686
 30
0.0
 11
190.4497071734303
 21
393.9949017694686
 31
0.0
  0
LINE
  5
F98
330
1F
100
AcDbEntity
  8
0
100
AcDbLine
 10
190.4497071734303
 20
393.9949017694686
 30
0.0
 11
187.4497071734303
 21
393.9949017694686
 31
0.0
  0
LINE
  5
F99
330
1F
100
AcDbEntity
  8
0
100
AcDbLine
 10
187.4497071734303
 20
393.9949017694686
 30
0.0
 11
187.4497071734303
 21
420.4949017694686
 31
0.0
  0
LINE
  5
F9A
330
1F
100
AcDbEntity
  8
0
100
AcDbLine
 10
154.4497071734303
 20
393.9949017694686
 30
0.0
 11
157.4497071734303
 21
393.9949017694686
 31
0.0
  0
LINE
  5
F9B
330
1F
100
AcDbEntity
  8
0
100
AcDbLine
 10
157.4497071734303
 20
393.9949017694686
 30
0.0
 11
157.4497071734303
 21
420.4949017694686
 31
0.0
  0
ARC
  5
F9C
330
1F
100
AcDbEntity
  8
0
100
AcDbCircle
 10
172.4497071734303
 20
420.4949017694686
 30
0.0
 40
15.0
100
AcDbArc
 50
0.0
 51
180.0
  0
LINE
  5
F9E
330
1F
100
AcDbEntity
  8
0
100
AcDbLine
 10
167.4497071734303
 20
390.4949017694686
 30
0.0
 11
167.4497071734303
 21
386.9949017694686
 31
0.0
  0
LINE
  5
F9F
330
1F
100
AcDbEntity
  8
0
100
AcDbLine
 10
167.4497071734303
 20
386.9949017694686
 30
0.0
 11
177.4497071734303
 21
386.9949017694686
 31
0.0
  0
LINE
  5
FA0
330
1F
100
AcDbEntity
  8
0
100
AcDbLine
 10
177.4497071734303
 20
386.9949017694686
 30
0.0
 11
177.4497071734303
 21
390.4949017694686
 31
0.0
  0
LINE
  5
FA1
330
1F
100
AcDbEntity
  8
0
100
AcDbLine
 10
154.4497071734303
 20
390.4949017694686
 30
0.0
 11
167.4497071734303
 21
390.4949017694686
 31
0.0
  0
LINE
  5
FC6
330
1F
100
AcDbEntity
  8
0
100
AcDbLine
 10
140.9497071734303
 20
394.9949017694686
 30
0.0
 11
144.4497071734303
 21
394.9949017694686
 31
0.0
  0
LINE
  5
FC7
330
1F
100
AcDbEntity
  8
0
100
AcDbLine
 10
144.4497071734303
 20
394.9949017694686
 30
0.0
 11
144.4497071734303
 21
420.9949017694686
 31
0.0
  0
LINE
  5
FC8
330
1F
100
AcDbEntity
  8
0
100
AcDbLine
 10
144.4497071734303
 20
420.9949017694686
 30
0.0
 11
140.9497071734303
 21
420.9949017694686
 31
0.0
  0
LINE
  5
FC9
330
1F
100
AcDbEntity
  8
0
100
AcDbLine
 10
140.9497071734303
 20
420.9949017694686
 30
0.0
 11
140.9497071734303
 21
394.9949017694686
 31
0.0
  0
LINE
  5
FCA
330
1F
100
AcDbEntity
  8
0
100
AcDbLine
 10
200.4497071734303
 20
394.9949017694686
 30
0.0
 11
203.9497071734303
 21
394.9949017694686
 31
0.0
  0
LINE
  5
FCB
330
1F
100
AcDbEntity
  8
0
100
AcDbLine
 10
203.9497071734303
 20
394.9949017694686
 30
0.0
 11
203.9497071734303
 21
420.9949017694686
 31
0.0
  0
LINE
  5
FCC
330
1F
100
AcDbEntity
  8
0
100
AcDbLine
 10
203.9497071734303
 20
420.9949017694686
 30
0.0
 11
200.4497071734303
 21
420.9949017694686
 31
0.0
  0
LINE
  5
FCD
330
1F
100
AcDbEntity
  8
0
100
AcDbLine
 10
200.4497071734303
 20
420.9949017694686
 30
0.0
 11
200.4497071734303
 21
394.9949017694686
 31
0.0
  0
LINE
  5
FF4
330
1F
100
AcDbEntity
  8
0
100
AcDbLine
 10
140.9497071734303
 20
304.9949017694686
 30
0.0
 11
140.9497071734303
 21
284.9949017694686
 31
0.0
  0
LINE
  5
FF5
330
1F
100
AcDbEntity
  8
0
100
AcDbLine
 10
140.9497071734303
 20
284.9949017694686
 30
0.0
 11
144.4497071734303
 21
284.9949017694686
 31
0.0
  0
LINE
  5
FF6
330
1F
100
AcDbEntity
  8
0
100
AcDbLine
 10
144.4497071734303
 20
284.9949017694686
 30
0.0
 11
144.4497071734303
 21
310.9949017694686
 31
0.0
  0
LINE
  5
FF7
330
1F
100
AcDbEntity
  8
0
100
AcDbLine
 10
144.4497071734303
 20
310.9949017694686
 30
0.0
 11
140.9497071734303
 21
310.9949017694686
 31
0.0
  0
LINE
  5
FF8
330
1F
100
AcDbEntity
  8
0
100
AcDbLine
 10
140.9497071734303
 20
310.9949017694686
 30
0.0
 11
140.9497071734303
 21
304.9949017694686
 31
0.0
  0
LINE
  5
FF9
330
1F
100
AcDbEntity
  8
0
100
AcDbLine
 10
203.9497071734303
 20
304.9949017694686
 30
0.0
 11
203.9497071734303
 21
284.9949017694686
 31
0.0
  0
LINE
  5
FFA
330
1F
100
AcDbEntity
  8
0
100
AcDbLine
 10
203.9497071734303
 20
284.9949017694686
 30
0.0
 11
200.4497071734303
 21
284.9949017694686
 31
0.0
  0
LINE
  5
FFB
330
1F
100
AcDbEntity
  8
0
100
AcDbLine
 10
200.4497071734303
 20
284.9949017694686
 30
0.0
 11
200.4497071734303
 21
310.9949017694686
 31
0.0
  0
LINE
  5
FFC
330
1F
100
AcDbEntity
  8
0
100
AcDbLine
 10
200.4497071734303
 20
310.9949017694686
 30
0.0
 11
203.9497071734303
 21
310.9949017694686
 31
0.0
  0
LINE
  5
FFD
330
1F
100
AcDbEntity
  8
0
100
AcDbLine
 10
203.9497071734303
 20
310.9949017694686
 30
0.0
 11
203.9497071734303
 21
304.9949017694686
 31
0.0
  0
LINE
  5
1000
330
1F
100
AcDbEntity
  8
0
100
AcDbLine
 10
246.9199314497613
 20
511.9949017694686
 30
0.0
 11
236.9199314497613
 21
501.9949017694686
 31
0.0
  0
LINE
  5
1001
330
1F
100
AcDbEntity
  8
0
100
AcDbLine
 10
236.9199314497613
 20
501.9949017694686
 30
0.0
 11
246.9199314497613
 21
501.9949017694686
 31
0.0
  0
LINE
  5
1002
330
1F
100
AcDbEntity
  8
0
100
AcDbLine
 10
246.9199314497613
 20
501.9949017694686
 30
0.0
 11
246.9199314497613
 21
498.4949017694686
 31
0.0
  0
LINE
  5
1003
330
1F
100
AcDbEntity
  8
0
100
AcDbLine
 10
246.9199314497613
 20
498.4949017694686
 30
0.0
 11
236.9199314497613
 21
498.4949017694686
 31
0.0
  0
LINE
  5
1004
330
1F
100
AcDbEntity
  8
0
100
AcDbLine
 10
236.9199314497613
 20
498.4949017694686
 30
0.0
 11
236.9199314497613
 21
288.4949017694686
 31
0.0
  0
LINE
  5
1005
330
1F
100
AcDbEntity
  8
0
100
AcDbLine
 10
236.9199314497613
 20
288.4949017694686
 30
0.0
 11
246.9199314497613
 21
288.4949017694686
 31
0.0
  0
LINE
  5
1006
330
1F
100
AcDbEntity
  8
0
100
AcDbLine
 10
246.9199314497613
 20
288.4949017694686
 30
0.0
 11
246.9199314497613
 21
284.9949017694686
 31
0.0
  0
LINE
  5
1007
330
1F
100
AcDbEntity
  8
0
100
AcDbLine
 10
246.9199314497613
 20
284.9949017694686
 30
0.0
 11
236.9199314497613
 21
284.9949017694686
 31
0.0
  0
LINE
  5
100A
330
1F
100
AcDbEntity
  8
0
100
AcDbLine
 10
246.9199314497613
 20
274.9949017694686
 30
0.0
 11
236.9199314497613
 21
284.9949017694686
 31
0.0
  0
LINE
  5
100B
330
1F
100
AcDbEntity
  8
0
100
AcDbLine
 10
246.9199314497613
 20
274.9949017694686
 30
0.0
 11
261.9199314497613
 21
274.9949017694686
 31
0.0
  0
LINE
  5
100C
330
1F
100
AcDbEntity
  8
0
100
AcDbLine
 10
261.9199314497613
 20
274.9949017694686
 30
0.0
 11
261.9199314497613
 21
288.4949017694686
 31
0.0
  0
LINE
  5
100D
330
1F
100
AcDbEntity
  8
0
100
AcDbLine
 10
261.9199314497613
 20
288.4949017694686
 30
0.0
 11
356.9199314497613
 21
288.4949017694686
 31
0.0
  0
LINE
  5
100E
330
1F
100
AcDbEntity
  8
0
100
AcDbLine
 10
356.9199314497613
 20
288.4949017694686
 30
0.0
 11
356.9199314497613
 21
284.9949017694686
 31
0.0
  0
LINE
  5
100F
330
1F
100
AcDbEntity
  8
0
100
AcDbLine
 10
356.9199314497613
 20
284.9949017694686
 30
0.0
 11
346.9199314497613
 21
284.9949017694686
 31
0.0
  0
LINE
  5
1012
330
1F
100
AcDbEntity
  8
0
100
AcDbLine
 10
356.9199314497613
 20
274.9949017694686
 30
0.0
 11
346.9199314497613
 21
284.9949017694686
 31
0.0
  0
LINE
  5
1013
330
1F
100
AcDbEntity
  8
0
100
AcDbLine
 10
356.9199314497613
 20
274.9949017694686
 30
0.0
 11
371.9199314497613
 21
274.9949017694686
 31
0.0
  0
LINE
  5
1015
330
1F
100
AcDbEntity
  8
0
100
AcDbLine
 10
371.9199314497613
 20
288.4949017694686
 30
0.0
 11
386.9199314497613
 21
288.4949017694686
 31
0.0
  0
LINE
  5
1016
330
1F
100
AcDbEntity
  8
0
100
AcDbLine
 10
386.9199314497613
 20
288.4949017694686
 30
0.0
 11
386.9199314497613
 21
298.4949017694686
 31
0.0
  0
LINE
  5
1017
330
1F
100
AcDbEntity
  8
0
100
AcDbLine
 10
386.9199314497613
 20
298.4949017694686
 30
0.0
 11
376.9199314497613
 21
298.4949017694686
 31
0.0
  0
LINE
  5
1018
330
1F
100
AcDbEntity
  8
0
100
AcDbLine
 10
376.9199314497613
 20
298.4949017694686
 30
0.0
 11
376.9199314497613
 21
308.4949017694686
 31
0.0
  0
LINE
  5
1040
330
1F
100
AcDbEntity
  8
0
100
AcDbLine
 10
386.9199314497613
 20
368.4949017694686
 30
0.0
 11
376.9199314497613
 21
368.4949017694686
 31
0.0
  0
LINE
  5
1041
330
1F
100
AcDbEntity
  8
0
100
AcDbLine
 10
376.9199314497613
 20
368.4949017694686
 30
0.0
 11
376.9199314497613
 21
358.4949017694686
 31
0.0
  0
LINE
  5
1042
330
1F
100
AcDbEntity
  8
0
100
AcDbLine
 10
376.9199314497613
 20
358.4949017694686
 30
0.0
 11
386.9199314497613
 21
358.4949017694686
 31
0.0
  0
LINE
  5
1043
330
1F
100
AcDbEntity
  8
0
100
AcDbLine
 10
386.9199314497613
 20
358.4949017694686
 30
0.0
 11
386.9199314497613
 21
348.4949017694686
 31
0.0
  0
LINE
  5
1044
330
1F
100
AcDbEntity
  8
0
100
AcDbLine
 10
386.9199314497613
 20
348.4949017694686
 30
0.0
 11
376.9199314497613
 21
348.4949017694686
 31
0.0
  0
LINE
  5
1045
330
1F
100
AcDbEntity
  8
0
100
AcDbLine
 10
376.9199314497613
 20
348.4949017694686
 30
0.0
 11
376.9199314497613
 21
338.4949017694686
 31
0.0
  0
LINE
  5
1046
330
1F
100
AcDbEntity
  8
0
100
AcDbLine
 10
376.9199314497613
 20
338.4949017694686
 30
0.0
 11
386.9199314497613
 21
338.4949017694686
 31
0.0
  0
LINE
  5
1047
330
1F
100
AcDbEntity
  8
0
100
AcDbLine
 10
386.9199314497613
 20
338.4949017694686
 30
0.0
 11
386.9199314497613
 21
328.4949017694686
 31
0.0
  0
LINE
  5
1048
330
1F
100
AcDbEntity
  8
0
100
AcDbLine
 10
386.9199314497613
 20
328.4949017694686
 30
0.0
 11
376.9199314497613
 21
328.4949017694686
 31
0.0
  0
LINE
  5
1049
330
1F
100
AcDbEntity
  8
0
100
AcDbLine
 10
376.9199314497613
 20
328.4949017694686
 30
0.0
 11
376.9199314497613
 21
318.4949017694686
 31
0.0
  0
LINE
  5
104A
330
1F
100
AcDbEntity
  8
0
100
AcDbLine
 10
376.9199314497613
 20
318.4949017694686
 30
0.0
 11
386.9199314497613
 21
318.4949017694686
 31
0.0
  0
LINE
  5
104B
330
1F
100
AcDbEntity
  8
0
100
AcDbLine
 10
386.9199314497613
 20
318.4949017694686
 30
0.0
 11
386.9199314497613
 21
308.4949017694686
 31
0.0
  0
LINE
  5
104C
330
1F
100
AcDbEntity
  8
0
100
AcDbLine
 10
386.9199314497613
 20
308.4949017694686
 30
0.0
 11
376.9199314497613
 21
308.4949017694686
 31
0.0
  0
LINE
  5
1079
330
1F
100
AcDbEntity
  8
0
100
AcDbLine
 10
386.9199314497613
 20
378.4949017694686
 30
0.0
 11
376.9199314497613
 21
378.4949017694686
 31
0.0
  0
LINE
  5
107A
330
1F
100
AcDbEntity
  8
0
100
AcDbLine
 10
376.9199314497613
 20
378.4949017694686
 30
0.0
 11
376.9199314497613
 21
388.4949017694686
 31
0.0
  0
LINE
  5
107B
330
1F
100
AcDbEntity
  8
0
100
AcDbLine
 10
386.9199314497613
 20
448.4949017694686
 30
0.0
 11
376.9199314497613
 21
448.4949017694686
 31
0.0
  0
LINE
  5
107C
330
1F
100
AcDbEntity
  8
0
100
AcDbLine
 10
376.9199314497613
 20
448.4949017694686
 30
0.0
 11
376.9199314497613
 21
438.4949017694686
 31
0.0
  0
LINE
  5
107D
330
1F
100
AcDbEntity
  8
0
100
AcDbLine
 10
376.9199314497613
 20
438.4949017694686
 30
0.0
 11
386.9199314497613
 21
438.4949017694686
 31
0.0
  0
LINE
  5
107E
330
1F
100
AcDbEntity
  8
0
100
AcDbLine
 10
386.9199314497613
 20
438.4949017694686
 30
0.0
 11
386.9199314497613
 21
428.4949017694686
 31
0.0
  0
LINE
  5
107F
330
1F
100
AcDbEntity
  8
0
100
AcDbLine
 10
386.9199314497613
 20
428.4949017694686
 30
0.0
 11
376.9199314497613
 21
428.4949017694686
 31
0.0
  0
LINE
  5
1080
330
1F
100
AcDbEntity
  8
0
100
AcDbLine
 10
376.9199314497613
 20
428.4949017694686
 30
0.0
 11
376.9199314497613
 21
418.4949017694686
 31
0.0
  0
LINE
  5
1081
330
1F
100
AcDbEntity
  8
0
100
AcDbLine
 10
376.9199314497613
 20
418.4949017694686
 30
0.0
 11
386.9199314497613
 21
418.4949017694686
 31
0.0
  0
LINE
  5
1082
330
1F
100
AcDbEntity
  8
0
100
AcDbLine
 10
386.9199314497613
 20
418.4949017694686
 30
0.0
 11
386.9199314497613
 21
408.4949017694686
 31
0.0
  0
LINE
  5
1083
330
1F
100
AcDbEntity
  8
0
100
AcDbLine
 10
386.9199314497613
 20
408.4949017694686
 30
0.0
 11
376.9199314497613
 21
408.4949017694686
 31
0.0
  0
LINE
  5
1084
330
1F
100
AcDbEntity
  8
0
100
AcDbLine
 10
376.9199314497613
 20
408.4949017694686
 30
0.0
 11
376.9199314497613
 21
398.4949017694686
 31
0.0
  0
LINE
  5
1085
330
1F
100
AcDbEntity
  8
0
100
AcDbLine
 10
376.9199314497613
 20
398.4949017694686
 30
0.0
 11
386.9199314497613
 21
398.4949017694686
 31
0.0
  0
LINE
  5
1086
330
1F
100
AcDbEntity
  8
0
100
AcDbLine
 10
386.9199314497613
 20
398.4949017694686
 30
0.0
 11
386.9199314497613
 21
388.4949017694686
 31
0.0
  0
LINE
  5
1087
330
1F
100
AcDbEntity
  8
0
100
AcDbLine
 10
386.9199314497613
 20
388.4949017694686
 30
0.0
 11
376.9199314497613
 21
388.4949017694686
 31
0.0
  0
LINE
  5
1088
330
1F
100
AcDbEntity
  8
0
100
AcDbLine
 10
386.9199314497613
 20
368.4949017694686
 30
0.0
 11
386.9199314497613
 21
378.4949017694686
 31
0.0
  0
LINE
  5
10B4
330
1F
100
AcDbEntity
  8
0
100
AcDbLine
 10
386.9199314497613
 20
498.4949017694686
 30
0.0
 11
386.9199314497613
 21
488.4949017694686
 31
0.0
  0
LINE
  5
10B5
330
1F
100
AcDbEntity
  8
0
100
AcDbLine
 10
386.9199314497613
 20
488.4949017694686
 30
0.0
 11
376.9199314497613
 21
488.4949017694686
 31
0.0
  0
LINE
  5
10B6
330
1F
100
AcDbEntity
  8
0
100
AcDbLine
 10
376.9199314497613
 20
488.4949017694686
 30
0.0
 11
376.9199314497613
 21
478.4949017694686
 31
0.0
  0
LINE
  5
10B7
330
1F
100
AcDbEntity
  8
0
100
AcDbLine
 10
376.9199314497613
 20
478.4949017694686
 30
0.0
 11
386.9199314497613
 21
478.4949017694686
 31
0.0
  0
LINE
  5
10B8
330
1F
100
AcDbEntity
  8
0
100
AcDbLine
 10
386.9199314497613
 20
478.4949017694686
 30
0.0
 11
386.9199314497613
 21
468.4949017694686
 31
0.0
  0
LINE
  5
10B9
330
1F
100
AcDbEntity
  8
0
100
AcDbLine
 10
386.9199314497613
 20
468.4949017694686
 30
0.0
 11
376.9199314497613
 21
468.4949017694686
 31
0.0
  0
LINE
  5
10BA
330
1F
100
AcDbEntity
  8
0
100
AcDbLine
 10
376.9199314497613
 20
468.4949017694686
 30
0.0
 11
376.9199314497613
 21
458.4949017694686
 31
0.0
  0
LINE
  5
10BB
330
1F
100
AcDbEntity
  8
0
100
AcDbLine
 10
376.9199314497613
 20
458.4949017694686
 30
0.0
 11
386.9199314497613
 21
458.4949017694686
 31
0.0
  0
LINE
  5
10BC
330
1F
100
AcDbEntity
  8
0
100
AcDbLine
 10
386.9199314497613
 20
458.4949017694686
 30
0.0
 11
386.9199314497613
 21
448.4949017694686
 31
0.0
  0
LINE
  5
10BD
330
1F
100
AcDbEntity
  8
0
100
AcDbLine
 10
246.9199314497613
 20
511.9949017694686
 30
0.0
 11
261.9199314497613
 21
511.9949017694686
 31
0.0
  0
LINE
  5
10BE
330
1F
100
AcDbEntity
  8
0
100
AcDbLine
 10
261.9199314497613
 20
511.9949017694686
 30
0.0
 11
261.9199314497613
 21
498.4949017694686
 31
0.0
  0
LINE
  5
10BF
330
1F
100
AcDbEntity
  8
0
100
AcDbLine
 10
261.9199314497613
 20
498.4949017694686
 30
0.0
 11
356.9199314497613
 21
498.4949017694686
 31
0.0
  0
LINE
  5
10C0
330
1F
100
AcDbEntity
  8
0
100
AcDbLine
 10
356.9199314497613
 20
498.4949017694686
 30
0.0
 11
356.9199314497613
 21
501.9949017694686
 31
0.0
  0
LINE
  5
10C1
330
1F
100
AcDbEntity
  8
0
100
AcDbLine
 10
356.9199314497613
 20
501.9949017694686
 30
0.0
 11
346.9199314497613
 21
501.9949017694686
 31
0.0
  0
LINE
  5
10C4
330
1F
100
AcDbEntity
  8
0
100
AcDbLine
 10
356.9199314497613
 20
511.9949017694686
 30
0.0
 11
346.9199314497613
 21
501.9949017694686
 31
0.0
  0
LINE
  5
10C5
330
1F
100
AcDbEntity
  8
0
100
AcDbLine
 10
356.9199314497613
 20
511.9949017694686
 30
0.0
 11
371.9199314497613
 21
511.9949017694686
 31
0.0
  0
LINE
  5
10C8
330
1F
100
AcDbEntity
  8
0
100
AcDbLine
 10
371.9199314497613
 20
274.9949017694686
 30
0.0
 11
371.9199314497613
 21
288.4949017694686
 31
0.0
  0
LINE
  5
1147
330
1F
100
AcDbEntity
  8
0
100
AcDbLine
 10
371.9199314497613
 20
511.9949017694686
 30
0.0
 11
371.9199314497613
 21
498.4949017694686
 31
0.0
  0
LINE
  5
1148
330
1F
100
AcDbEntity
  8
0
100
AcDbLine
 10
371.9199314497613
 20
498.4949017694686
 30
0.0
 11
386.9199314497613
 21
498.4949017694686
 31
0.0
  0
LINE
  5
1149
330
1F
100
AcDbEntity
  8
0
100
AcDbLine
 10
-266.3481951939077
 20
177.9676963997495
 30
0.0
 11
-266.3481951939077
 21
-32.03230360025054
 31
0.0
  0
LINE
  5
114A
330
1F
100
AcDbEntity
  8
0
100
AcDbLine
 10
-266.3481951939077
 20
-32.03230360025054
 30
0.0
 11
-256.3481951939077
 21
-32.03230360025054
 31
0.0
  0
LINE
  5
114B
330
1F
100
AcDbEntity
  8
0
100
AcDbLine
 10
-256.3481951939077
 20
-32.03230360025054
 30
0.0
 11
-256.3481951939077
 21
-35.53230360025054
 31
0.0
  0
LINE
  5
114C
330
1F
100
AcDbEntity
  8
0
100
AcDbLine
 10
-256.3481951939077
 20
-35.53230360025054
 30
0.0
 11
-220.3481951939077
 21
-35.53230360025054
 31
0.0
  0
LINE
  5
114D
330
1F
100
AcDbEntity
  8
0
100
AcDbLine
 10
-220.3481951939077
 20
-35.53230360025054
 30
0.0
 11
-220.3481951939077
 21
-32.03230360025054
 31
0.0
  0
LINE
  5
114E
330
1F
100
AcDbEntity
  8
0
100
AcDbLine
 10
-220.3481951939077
 20
-32.03230360025054
 30
0.0
 11
-210.3481951939077
 21
-32.03230360025054
 31
0.0
  0
LINE
  5
114F
330
1F
100
AcDbEntity
  8
0
100
AcDbLine
 10
-210.3481951939077
 20
-32.03230360025054
 30
0.0
 11
-210.3481951939077
 21
177.9676963997495
 31
0.0
  0
LINE
  5
1150
330
1F
100
AcDbEntity
  8
0
100
AcDbLine
 10
-210.3481951939077
 20
177.9676963997495
 30
0.0
 11
-220.3481951939077
 21
177.9676963997495
 31
0.0
  0
LINE
  5
1151
330
1F
100
AcDbEntity
  8
0
100
AcDbLine
 10
-220.3481951939077
 20
177.9676963997495
 30
0.0
 11
-220.3481951939076
 21
181.4676963997495
 31
0.0
  0
LINE
  5
1152
330
1F
100
AcDbEntity
  8
0
100
AcDbLine
 10
-220.3481951939076
 20
181.4676963997495
 30
0.0
 11
-256.3481951939077
 21
181.4676963997495
 31
0.0
  0
LINE
  5
1153
330
1F
100
AcDbEntity
  8
0
100
AcDbLine
 10
-256.3481951939077
 20
181.4676963997495
 30
0.0
 11
-256.3481951939077
 21
177.9676963997495
 31
0.0
  0
LINE
  5
1154
330
1F
100
AcDbEntity
  8
0
100
AcDbLine
 10
-256.3481951939077
 20
177.9676963997495
 30
0.0
 11
-266.3481951939077
 21
177.9676963997495
 31
0.0
  0
LINE
  5
11B6
330
1F
100
AcDbEntity
  8
0
100
AcDbLine
 10
24.07995202411053
 20
406.3977279133343
 30
0.0
 11
14.07995202411053
 21
416.3977279133343
 31
0.0
  0
LINE
  5
11B7
330
1F
100
AcDbEntity
  8
0
100
AcDbLine
 10
14.07995202411053
 20
416.3977279133343
 30
0.0
 11
14.07995202411053
 21
406.3977279133343
 31
0.0
  0
LINE
  5
11B8
330
1F
100
AcDbEntity
  8
0
100
AcDbLine
 10
14.07995202411053
 20
406.3977279133343
 30
0.0
 11
10.57995202411053
 21
406.3977279133343
 31
0.0
  0
LINE
  5
11B9
330
1F
100
AcDbEntity
  8
0
100
AcDbLine
 10
10.57995202411053
 20
406.3977279133343
 30
0.0
 11
10.57995202411053
 21
416.3977279133343
 31
0.0
  0
LINE
  5
11BA
330
1F
100
AcDbEntity
  8
0
100
AcDbLine
 10
10.57995202411053
 20
416.3977279133343
 30
0.0
 11
-19.42004797588947
 21
416.3977279133343
 31
0.0
  0
LINE
  5
11BB
330
1F
100
AcDbEntity
  8
0
100
AcDbLine
 10
-199.4200479758897
 20
416.3977279133343
 30
0.0
 11
-199.4200479758897
 21
406.3977279133343
 31
0.0
  0
LINE
  5
11BC
330
1F
100
AcDbEntity
  8
0
100
AcDbLine
 10
-199.4200479758897
 20
406.3977279133343
 30
0.0
 11
-202.9200479758897
 21
406.3977279133343
 31
0.0
  0
LINE
  5
11BD
330
1F
100
AcDbEntity
  8
0
100
AcDbLine
 10
-202.9200479758897
 20
406.3977279133343
 30
0.0
 11
-202.9200479758897
 21
416.3977279133343
 31
0.0
  0
LINE
  5
11BE
330
1F
100
AcDbEntity
  8
0
100
AcDbLine
 10
-212.9200479758897
 20
406.3977279133343
 30
0.0
 11
-202.9200479758897
 21
416.3977279133343
 31
0.0
  0
LINE
  5
11BF
330
1F
100
AcDbEntity
  8
0
100
AcDbLine
 10
-212.9200479758897
 20
406.3977279133343
 30
0.0
 11
-212.9200479758897
 21
391.3977279133343
 31
0.0
  0
LINE
  5
11C0
330
1F
100
AcDbEntity
  8
0
100
AcDbLine
 10
-212.9200479758897
 20
391.3977279133343
 30
0.0
 11
-199.4200479758897
 21
391.3977279133343
 31
0.0
  0
LINE
  5
11C1
330
1F
100
AcDbEntity
  8
0
100
AcDbLine
 10
-199.4200479758897
 20
391.3977279133343
 30
0.0
 11
-199.4200479758897
 21
296.3977279133343
 31
0.0
  0
LINE
  5
11C2
330
1F
100
AcDbEntity
  8
0
100
AcDbLine
 10
-199.4200479758897
 20
296.3977279133343
 30
0.0
 11
-202.9200479758897
 21
296.3977279133343
 31
0.0
  0
LINE
  5
11C3
330
1F
100
AcDbEntity
  8
0
100
AcDbLine
 10
-202.9200479758897
 20
296.3977279133343
 30
0.0
 11
-202.9200479758897
 21
306.3977279133343
 31
0.0
  0
LINE
  5
11C4
330
1F
100
AcDbEntity
  8
0
100
AcDbLine
 10
-212.9200479758897
 20
296.3977279133343
 30
0.0
 11
-202.9200479758897
 21
306.3977279133343
 31
0.0
  0
LINE
  5
11C5
330
1F
100
AcDbEntity
  8
0
100
AcDbLine
 10
-212.9200479758897
 20
296.3977279133343
 30
0.0
 11
-212.9200479758897
 21
281.3977279133343
 31
0.0
  0
LINE
  5
11C6
330
1F
100
AcDbEntity
  8
0
100
AcDbLine
 10
-199.4200479758897
 20
281.3977279133343
 30
0.0
 11
-199.4200479758897
 21
266.3977279133343
 31
0.0
  0
LINE
  5
11C7
330
1F
100
AcDbEntity
  8
0
100
AcDbLine
 10
-199.4200479758897
 20
266.3977279133343
 30
0.0
 11
-189.4200479758897
 21
266.3977279133343
 31
0.0
  0
LINE
  5
11C8
330
1F
100
AcDbEntity
  8
0
100
AcDbLine
 10
-189.4200479758897
 20
266.3977279133343
 30
0.0
 11
-189.4200479758897
 21
276.3977279133343
 31
0.0
  0
LINE
  5
11C9
330
1F
100
AcDbEntity
  8
0
100
AcDbLine
 10
-189.4200479758897
 20
276.3977279133343
 30
0.0
 11
-179.4200479758897
 21
276.3977279133343
 31
0.0
  0
LINE
  5
11CA
330
1F
100
AcDbEntity
  8
0
100
AcDbLine
 10
-119.4200479758897
 20
266.3977279133343
 30
0.0
 11
-119.4200479758897
 21
276.3977279133343
 31
0.0
  0
LINE
  5
11CB
330
1F
100
AcDbEntity
  8
0
100
AcDbLine
 10
-119.4200479758897
 20
276.3977279133343
 30
0.0
 11
-129.4200479758897
 21
276.3977279133343
 31
0.0
  0
LINE
  5
11CC
330
1F
100
AcDbEntity
  8
0
100
AcDbLine
 10
-129.4200479758897
 20
276.3977279133343
 30
0.0
 11
-129.4200479758897
 21
266.3977279133343
 31
0.0
  0
LINE
  5
11CD
330
1F
100
AcDbEntity
  8
0
100
AcDbLine
 10
-129.4200479758897
 20
266.3977279133343
 30
0.0
 11
-139.4200479758897
 21
266.3977279133343
 31
0.0
  0
LINE
  5
11CE
330
1F
100
AcDbEntity
  8
0
100
AcDbLine
 10
-139.4200479758897
 20
266.3977279133343
 30
0.0
 11
-139.4200479758897
 21
276.3977279133343
 31
0.0
  0
LINE
  5
11CF
330
1F
100
AcDbEntity
  8
0
100
AcDbLine
 10
-139.4200479758897
 20
276.3977279133343
 30
0.0
 11
-149.4200479758897
 21
276.3977279133343
 31
0.0
  0
LINE
  5
11D0
330
1F
100
AcDbEntity
  8
0
100
AcDbLine
 10
-149.4200479758897
 20
276.3977279133343
 30
0.0
 11
-149.4200479758897
 21
266.3977279133343
 31
0.0
  0
LINE
  5
11D1
330
1F
100
AcDbEntity
  8
0
100
AcDbLine
 10
-149.4200479758897
 20
266.3977279133343
 30
0.0
 11
-159.4200479758897
 21
266.3977279133343
 31
0.0
  0
LINE
  5
11D2
330
1F
100
AcDbEntity
  8
0
100
AcDbLine
 10
-159.4200479758897
 20
266.3977279133343
 30
0.0
 11
-159.4200479758897
 21
276.3977279133343
 31
0.0
  0
LINE
  5
11D3
330
1F
100
AcDbEntity
  8
0
100
AcDbLine
 10
-159.4200479758897
 20
276.3977279133343
 30
0.0
 11
-169.4200479758897
 21
276.3977279133343
 31
0.0
  0
LINE
  5
11D4
330
1F
100
AcDbEntity
  8
0
100
AcDbLine
 10
-169.4200479758897
 20
276.3977279133343
 30
0.0
 11
-169.4200479758897
 21
266.3977279133343
 31
0.0
  0
LINE
  5
11D5
330
1F
100
AcDbEntity
  8
0
100
AcDbLine
 10
-169.4200479758897
 20
266.3977279133343
 30
0.0
 11
-179.4200479758897
 21
266.3977279133343
 31
0.0
  0
LINE
  5
11D6
330
1F
100
AcDbEntity
  8
0
100
AcDbLine
 10
-179.4200479758897
 20
266.3977279133343
 30
0.0
 11
-179.4200479758897
 21
276.3977279133343
 31
0.0
  0
LINE
  5
11D7
330
1F
100
AcDbEntity
  8
0
100
AcDbLine
 10
-109.4200479758897
 20
266.3977279133343
 30
0.0
 11
-109.4200479758897
 21
276.3977279133343
 31
0.0
  0
LINE
  5
11D8
330
1F
100
AcDbEntity
  8
0
100
AcDbLine
 10
-109.4200479758897
 20
276.3977279133343
 30
0.0
 11
-99.4200479758897
 21
276.3977279133343
 31
0.0
  0
LINE
  5
11D9
330
1F
100
AcDbEntity
  8
0
100
AcDbLine
 10
-39.4200479758897
 20
266.3977279133343
 30
0.0
 11
-39.4200479758897
 21
276.3977279133343
 31
0.0
  0
LINE
  5
11DA
330
1F
100
AcDbEntity
  8
0
100
AcDbLine
 10
-39.4200479758897
 20
276.3977279133343
 30
0.0
 11
-49.4200479758897
 21
276.3977279133343
 31
0.0
  0
LINE
  5
11DB
330
1F
100
AcDbEntity
  8
0
100
AcDbLine
 10
-49.4200479758897
 20
276.3977279133343
 30
0.0
 11
-49.4200479758897
 21
266.3977279133343
 31
0.0
  0
LINE
  5
11DC
330
1F
100
AcDbEntity
  8
0
100
AcDbLine
 10
-49.4200479758897
 20
266.3977279133343
 30
0.0
 11
-59.4200479758897
 21
266.3977279133343
 31
0.0
  0
LINE
  5
11DD
330
1F
100
AcDbEntity
  8
0
100
AcDbLine
 10
-59.4200479758897
 20
266.3977279133343
 30
0.0
 11
-59.4200479758897
 21
276.3977279133343
 31
0.0
  0
LINE
  5
11DE
330
1F
100
AcDbEntity
  8
0
100
AcDbLine
 10
-59.4200479758897
 20
276.3977279133343
 30
0.0
 11
-69.4200479758897
 21
276.3977279133343
 31
0.0
  0
LINE
  5
11DF
330
1F
100
AcDbEntity
  8
0
100
AcDbLine
 10
-69.4200479758897
 20
276.3977279133343
 30
0.0
 11
-69.4200479758897
 21
266.3977279133343
 31
0.0
  0
LINE
  5
11E0
330
1F
100
AcDbEntity
  8
0
100
AcDbLine
 10
-69.4200479758897
 20
266.3977279133343
 30
0.0
 11
-79.4200479758897
 21
266.3977279133343
 31
0.0
  0
LINE
  5
11E1
330
1F
100
AcDbEntity
  8
0
100
AcDbLine
 10
-79.4200479758897
 20
266.3977279133343
 30
0.0
 11
-79.4200479758897
 21
276.3977279133343
 31
0.0
  0
LINE
  5
11E2
330
1F
100
AcDbEntity
  8
0
100
AcDbLine
 10
-79.4200479758897
 20
276.3977279133343
 30
0.0
 11
-89.4200479758897
 21
276.3977279133343
 31
0.0
  0
LINE
  5
11E3
330
1F
100
AcDbEntity
  8
0
100
AcDbLine
 10
-89.4200479758897
 20
276.3977279133343
 30
0.0
 11
-89.4200479758897
 21
266.3977279133343
 31
0.0
  0
LINE
  5
11E4
330
1F
100
AcDbEntity
  8
0
100
AcDbLine
 10
-89.4200479758897
 20
266.3977279133343
 30
0.0
 11
-99.4200479758897
 21
266.3977279133343
 31
0.0
  0
LINE
  5
11E5
330
1F
100
AcDbEntity
  8
0
100
AcDbLine
 10
-99.4200479758897
 20
266.3977279133343
 30
0.0
 11
-99.4200479758897
 21
276.3977279133343
 31
0.0
  0
LINE
  5
11E6
330
1F
100
AcDbEntity
  8
0
100
AcDbLine
 10
-119.4200479758897
 20
266.3977279133343
 30
0.0
 11
-109.4200479758897
 21
266.3977279133343
 31
0.0
  0
LINE
  5
11E7
330
1F
100
AcDbEntity
  8
0
100
AcDbLine
 10
10.57995202411053
 20
266.3977279133343
 30
0.0
 11
0.5799520241105256
 21
266.3977279133343
 31
0.0
  0
LINE
  5
11E8
330
1F
100
AcDbEntity
  8
0
100
AcDbLine
 10
0.5799520241105256
 20
266.3977279133343
 30
0.0
 11
0.5799520241105256
 21
276.3977279133343
 31
0.0
  0
LINE
  5
11E9
330
1F
100
AcDbEntity
  8
0
100
AcDbLine
 10
0.5799520241105256
 20
276.3977279133343
 30
0.0
 11
-9.420047975889474
 21
276.3977279133343
 31
0.0
  0
LINE
  5
11EA
330
1F
100
AcDbEntity
  8
0
100
AcDbLine
 10
-9.420047975889474
 20
276.3977279133343
 30
0.0
 11
-9.420047975889474
 21
266.3977279133343
 31
0.0
  0
LINE
  5
11EB
330
1F
100
AcDbEntity
  8
0
100
AcDbLine
 10
-9.420047975889474
 20
266.3977279133343
 30
0.0
 11
-19.42004797588947
 21
266.3977279133343
 31
0.0
  0
LINE
  5
11EC
330
1F
100
AcDbEntity
  8
0
100
AcDbLine
 10
-19.42004797588947
 20
266.3977279133343
 30
0.0
 11
-19.42004797588947
 21
276.3977279133343
 31
0.0
  0
LINE
  5
11ED
330
1F
100
AcDbEntity
  8
0
100
AcDbLine
 10
-19.42004797588947
 20
276.3977279133343
 30
0.0
 11
-29.42004797588947
 21
276.3977279133343
 31
0.0
  0
LINE
  5
11EE
330
1F
100
AcDbEntity
  8
0
100
AcDbLine
 10
-29.42004797588947
 20
276.3977279133343
 30
0.0
 11
-29.42004797588947
 21
266.3977279133343
 31
0.0
  0
LINE
  5
11EF
330
1F
100
AcDbEntity
  8
0
100
AcDbLine
 10
-29.42004797588947
 20
266.3977279133343
 30
0.0
 11
-39.4200479758897
 21
266.3977279133343
 31
0.0
  0
LINE
  5
11F0
330
1F
100
AcDbEntity
  8
0
100
AcDbLine
 10
24.07995202411053
 20
406.3977279133343
 30
0.0
 11
24.07995202411053
 21
391.3977279133343
 31
0.0
  0
LINE
  5
11F1
330
1F
100
AcDbEntity
  8
0
100
AcDbLine
 10
24.07995202411053
 20
391.3977279133343
 30
0.0
 11
10.57995202411053
 21
391.3977279133343
 31
0.0
  0
LINE
  5
11F2
330
1F
100
AcDbEntity
  8
0
100
AcDbLine
 10
10.57995202411053
 20
391.3977279133343
 30
0.0
 11
10.57995202411053
 21
296.3977279133343
 31
0.0
  0
LINE
  5
11F3
330
1F
100
AcDbEntity
  8
0
100
AcDbLine
 10
10.57995202411053
 20
296.3977279133343
 30
0.0
 11
14.07995202411053
 21
296.3977279133343
 31
0.0
  0
LINE
  5
11F4
330
1F
100
AcDbEntity
  8
0
100
AcDbLine
 10
14.07995202411053
 20
296.3977279133343
 30
0.0
 11
14.07995202411053
 21
306.3977279133343
 31
0.0
  0
LINE
  5
11F5
330
1F
100
AcDbEntity
  8
0
100
AcDbLine
 10
24.07995202411053
 20
296.3977279133343
 30
0.0
 11
14.07995202411053
 21
306.3977279133343
 31
0.0
  0
LINE
  5
11F6
330
1F
100
AcDbEntity
  8
0
100
AcDbLine
 10
24.07995202411053
 20
296.3977279133343
 30
0.0
 11
24.07995202411053
 21
281.3977279133343
 31
0.0
  0
LINE
  5
11F7
330
1F
100
AcDbEntity
  8
0
100
AcDbLine
 10
-212.9200479758897
 20
281.3977279133343
 30
0.0
 11
-199.4200479758897
 21
281.3977279133343
 31
0.0
  0
LINE
  5
11F8
330
1F
100
AcDbEntity
  8
0
100
AcDbLine
 10
24.07995202411053
 20
281.3977279133343
 30
0.0
 11
10.57995202411053
 21
281.3977279133343
 31
0.0
  0
LINE
  5
11F9
330
1F
100
AcDbEntity
  8
0
100
AcDbLine
 10
10.57995202411053
 20
281.3977279133343
 30
0.0
 11
10.57995202411053
 21
266.3977279133343
 31
0.0
  0
LINE
  5
11FA
330
1F
100
AcDbEntity
  8
0
100
AcDbLine
 10
-19.42004797588947
 20
416.3977279133343
 30
0.0
 11
-19.42004797588947
 21
336.3977279133343
 31
0.0
  0
LINE
  5
11FD
330
1F
100
AcDbEntity
  8
0
100
AcDbLine
 10
-169.4200479758897
 20
416.3977279133343
 30
0.0
 11
-169.4200479758897
 21
336.3977279133343
 31
0.0
  0
LINE
  5
1200
330
1F
100
AcDbEntity
  8
0
100
AcDbLine
 10
-149.4200479758897
 20
316.3977279133343
 30
0.0
 11
-39.4200479758897
 21
316.3977279133343
 31
0.0
  0
LINE
  5
1201
330
1F
100
AcDbEntity
  8
0
100
AcDbLine
 10
-169.4200479758897
 20
416.3977279133343
 30
0.0
 11
-199.4200479758897
 21
416.3977279133343
 31
0.0
  0
ARC
  5
1204
330
1F
100
AcDbEntity
  8
0
100
AcDbCircle
 10
-39.4200479758897
 20
336.3977279133343
 30
0.0
 40
20.00000000000011
100
AcDbArc
 50
180.0
 51
359.9999999999997
  0
ARC
  5
1222
330
1F
100
AcDbEntity
  8
0
100
AcDbCircle
 10
-149.4200479758897
 20
336.3977279133344
 30
0.0
 40
20.00000000000011
100
AcDbArc
 50
180.0000000000002
 51
359.9999999999997
  0
LINE
  5
1288
330
1F
100
AcDbEntity
  8
0
100
AcDbLine
 10
-85.34819519390777
 20
-37.03230360025054
 30
0.0
 11
-85.34819519390777
 21
12.96769639974946
 31
0.0
  0
LINE
  5
1289
330
1F
100
AcDbEntity
  8
0
100
AcDbLine
 10
-75.34819519390777
 20
22.96769639974946
 30
0.0
 11
-85.34819519390777
 21
12.96769639974946
 31
0.0
  0
LINE
  5
128A
330
1F
100
AcDbEntity
  8
0
100
AcDbLine
 10
-71.84819519390777
 20
-7.032303600250543
 30
0.0
 11
-71.84819519390777
 21
137.9676963997495
 31
0.0
  0
LINE
  5
128B
330
1F
100
AcDbEntity
  8
0
100
AcDbLine
 10
-71.84819519390777
 20
152.9676963997495
 30
0.0
 11
-75.34819519390777
 21
152.9676963997495
 31
0.0
  0
LINE
  5
128C
330
1F
100
AcDbEntity
  8
0
100
AcDbLine
 10
-75.34819519390777
 20
152.9676963997495
 30
0.0
 11
-75.34819519390777
 21
172.9676963997495
 31
0.0
  0
LINE
  5
128D
330
1F
100
AcDbEntity
  8
0
100
AcDbLine
 10
-85.34819519390777
 20
147.9676963997495
 30
0.0
 11
-75.34819519390777
 21
137.9676963997495
 31
0.0
  0
LINE
  5
128E
330
1F
100
AcDbEntity
  8
0
100
AcDbLine
 10
-85.34819519390777
 20
147.9676963997495
 30
0.0
 11
-85.34819519390777
 21
182.9676963997495
 31
0.0
  0
LINE
  5
128F
330
1F
100
AcDbEntity
  8
0
100
AcDbLine
 10
-85.34819519390777
 20
182.9676963997495
 30
0.0
 11
-75.34819519390777
 21
182.9676963997495
 31
0.0
  0
LINE
  5
1290
330
1F
100
AcDbEntity
  8
0
100
AcDbLine
 10
-75.34819519390777
 20
182.9676963997495
 30
0.0
 11
-75.34819519390777
 21
172.9676963997495
 31
0.0
  0
LINE
  5
1291
330
1F
100
AcDbEntity
  8
0
100
AcDbLine
 10
-65.34819519390777
 20
172.9676963997495
 30
0.0
 11
-65.34819519390777
 21
182.9676963997495
 31
0.0
  0
LINE
  5
1292
330
1F
100
AcDbEntity
  8
0
100
AcDbLine
 10
-65.34819519390777
 20
182.9676963997495
 30
0.0
 11
-55.34819519390777
 21
182.9676963997495
 31
0.0
  0
LINE
  5
1293
330
1F
100
AcDbEntity
  8
0
100
AcDbLine
 10
-55.34819519390777
 20
182.9676963997495
 30
0.0
 11
-55.34819519390777
 21
172.9676963997495
 31
0.0
  0
LINE
  5
1294
330
1F
100
AcDbEntity
  8
0
100
AcDbLine
 10
-55.34819519390777
 20
172.9676963997495
 30
0.0
 11
-45.34819519390777
 21
172.9676963997495
 31
0.0
  0
LINE
  5
1295
330
1F
100
AcDbEntity
  8
0
100
AcDbLine
 10
-45.34819519390777
 20
172.9676963997495
 30
0.0
 11
-45.34819519390777
 21
182.9676963997495
 31
0.0
  0
LINE
  5
1296
330
1F
100
AcDbEntity
  8
0
100
AcDbLine
 10
-45.34819519390777
 20
182.9676963997495
 30
0.0
 11
-35.34819519390777
 21
182.9676963997495
 31
0.0
  0
LINE
  5
1297
330
1F
100
AcDbEntity
  8
0
100
AcDbLine
 10
-35.34819519390777
 20
182.9676963997495
 30
0.0
 11
-35.34819519390777
 21
172.9676963997495
 31
0.0
  0
LINE
  5
1298
330
1F
100
AcDbEntity
  8
0
100
AcDbLine
 10
-35.34819519390777
 20
172.9676963997495
 30
0.0
 11
-25.34819519390777
 21
172.9676963997495
 31
0.0
  0
LINE
  5
1299
330
1F
100
AcDbEntity
  8
0
100
AcDbLine
 10
-25.34819519390777
 20
172.9676963997495
 30
0.0
 11
-25.34819519390777
 21
182.9676963997495
 31
0.0
  0
LINE
  5
129A
330
1F
100
AcDbEntity
  8
0
100
AcDbLine
 10
-25.34819519390777
 20
182.9676963997495
 30
0.0
 11
-15.34819519390777
 21
182.9676963997495
 31
0.0
  0
LINE
  5
129B
330
1F
100
AcDbEntity
  8
0
100
AcDbLine
 10
-15.34819519390777
 20
182.9676963997495
 30
0.0
 11
-15.34819519390777
 21
172.9676963997495
 31
0.0
  0
LINE
  5
129C
330
1F
100
AcDbEntity
  8
0
100
AcDbLine
 10
-15.34819519390777
 20
172.9676963997495
 30
0.0
 11
-5.34819519390777
 21
172.9676963997495
 31
0.0
  0
LINE
  5
129D
330
1F
100
AcDbEntity
  8
0
100
AcDbLine
 10
-5.34819519390777
 20
172.9676963997495
 30
0.0
 11
-5.34819519390777
 21
182.9676963997495
 31
0.0
  0
LINE
  5
129E
330
1F
100
AcDbEntity
  8
0
100
AcDbLine
 10
-5.34819519390777
 20
182.9676963997495
 30
0.0
 11
4.65180480609223
 21
182.9676963997495
 31
0.0
  0
LINE
  5
129F
330
1F
100
AcDbEntity
  8
0
100
AcDbLine
 10
4.65180480609223
 20
182.9676963997495
 30
0.0
 11
4.65180480609223
 21
172.9676963997495
 31
0.0
  0
LINE
  5
12A0
330
1F
100
AcDbEntity
  8
0
100
AcDbLine
 10
14.65180480609223
 20
172.9676963997495
 30
0.0
 11
14.65180480609223
 21
182.9676963997495
 31
0.0
  0
LINE
  5
12A1
330
1F
100
AcDbEntity
  8
0
100
AcDbLine
 10
14.65180480609223
 20
182.9676963997495
 30
0.0
 11
24.65180480609223
 21
182.9676963997495
 31
0.0
  0
LINE
  5
12A2
330
1F
100
AcDbEntity
  8
0
100
AcDbLine
 10
24.65180480609223
 20
182.9676963997495
 30
0.0
 11
24.65180480609223
 21
147.9676963997495
 31
0.0
  0
LINE
  5
12A3
330
1F
100
AcDbEntity
  8
0
100
AcDbLine
 10
24.65180480609223
 20
147.9676963997495
 30
0.0
 11
14.65180480609223
 21
137.9676963997495
 31
0.0
  0
LINE
  5
12A4
330
1F
100
AcDbEntity
  8
0
100
AcDbLine
 10
14.65180480609223
 20
172.9676963997495
 30
0.0
 11
14.65180480609223
 21
152.9676963997495
 31
0.0
  0
LINE
  5
12A5
330
1F
100
AcDbEntity
  8
0
100
AcDbLine
 10
14.65180480609223
 20
152.9676963997495
 30
0.0
 11
11.15180480609223
 21
152.9676963997495
 31
0.0
  0
LINE
  5
12A6
330
1F
100
AcDbEntity
  8
0
100
AcDbLine
 10
14.65180480609223
 20
-7.032303600250543
 30
0.0
 11
14.65180480609223
 21
22.96769639974946
 31
0.0
  0
LINE
  5
12A7
330
1F
100
AcDbEntity
  8
0
100
AcDbLine
 10
14.65180480609223
 20
22.96769639974946
 30
0.0
 11
24.65180480609223
 21
12.96769639974946
 31
0.0
  0
LINE
  5
12A8
330
1F
100
AcDbEntity
  8
0
100
AcDbLine
 10
24.65180480609223
 20
12.96769639974946
 30
0.0
 11
24.65180480609223
 21
-37.03230360025054
 31
0.0
  0
LINE
  5
12A9
330
1F
100
AcDbEntity
  8
0
100
AcDbLine
 10
14.65180480609223
 20
-7.032303600250543
 30
0.0
 11
11.15180480609223
 21
-7.032303600250543
 31
0.0
  0
LINE
  5
12AA
330
1F
100
AcDbEntity
  8
0
100
AcDbLine
 10
-71.84819519390777
 20
-7.032303600250543
 30
0.0
 11
-75.34819519390777
 21
-7.032303600250543
 31
0.0
  0
LINE
  5
12AB
330
1F
100
AcDbEntity
  8
0
100
AcDbLine
 10
-30.34819519390777
 20
132.9676963997495
 30
0.0
 11
-27.34819519390777
 21
132.9676963997495
 31
0.0
  0
LINE
  5
12AC
330
1F
100
AcDbEntity
  8
0
100
AcDbLine
 10
-27.34819519390777
 20
132.9676963997495
 30
0.0
 11
-27.34819519390777
 21
126.9676963997495
 31
0.0
  0
LINE
  5
12AD
330
1F
100
AcDbEntity
  8
0
100
AcDbLine
 10
-27.34819519390777
 20
126.9676963997495
 30
0.0
 11
-21.34819519390777
 21
126.9676963997495
 31
0.0
  0
LINE
  5
12AE
330
1F
100
AcDbEntity
  8
0
100
AcDbLine
 10
-21.34819519390777
 20
126.9676963997495
 30
0.0
 11
-21.34819519390777
 21
120.9676963997495
 31
0.0
  0
LINE
  5
12AF
330
1F
100
AcDbEntity
  8
0
100
AcDbLine
 10
-21.34819519390777
 20
120.9676963997495
 30
0.0
 11
-27.34819519390777
 21
120.9676963997495
 31
0.0
  0
LINE
  5
12B0
330
1F
100
AcDbEntity
  8
0
100
AcDbLine
 10
-27.34819519390777
 20
120.9676963997495
 30
0.0
 11
-27.34819519390777
 21
105.9676963997495
 31
0.0
  0
LINE
  5
12B1
330
1F
100
AcDbEntity
  8
0
100
AcDbLine
 10
-27.34819519390777
 20
105.9676963997495
 30
0.0
 11
-33.34819519390777
 21
105.9676963997495
 31
0.0
  0
LINE
  5
12B2
330
1F
100
AcDbEntity
  8
0
100
AcDbLine
 10
-33.34819519390777
 20
105.9676963997495
 30
0.0
 11
-33.34819519390777
 21
120.9676963997495
 31
0.0
  0
LINE
  5
12B3
330
1F
100
AcDbEntity
  8
0
100
AcDbLine
 10
-33.34819519390777
 20
120.9676963997495
 30
0.0
 11
-39.34819519390777
 21
120.9676963997495
 31
0.0
  0
LINE
  5
12B4
330
1F
100
AcDbEntity
  8
0
100
AcDbLine
 10
-39.34819519390777
 20
120.9676963997495
 30
0.0
 11
-39.34819519390777
 21
126.9676963997495
 31
0.0
  0
LINE
  5
12B5
330
1F
100
AcDbEntity
  8
0
100
AcDbLine
 10
-39.34819519390777
 20
126.9676963997495
 30
0.0
 11
-33.34819519390777
 21
126.9676963997495
 31
0.0
  0
LINE
  5
12B6
330
1F
100
AcDbEntity
  8
0
100
AcDbLine
 10
-33.34819519390777
 20
126.9676963997495
 30
0.0
 11
-33.34819519390777
 21
132.9676963997495
 31
0.0
  0
LINE
  5
12B7
330
1F
100
AcDbEntity
  8
0
100
AcDbLine
 10
-33.34819519390777
 20
132.9676963997495
 30
0.0
 11
-30.34819519390777
 21
132.9676963997495
 31
0.0
  0
LINE
  5
12B8
330
1F
100
AcDbEntity
  8
0
100
AcDbLine
 10
-85.34819519390777
 20
-37.03230360025054
 30
0.0
 11
24.65180480609223
 21
-37.03230360025054
 31
0.0
  0
LINE
  5
12B9
330
1F
100
AcDbEntity
  8
0
100
AcDbLine
 10
-75.34819519390777
 20
22.96769639974946
 30
0.0
 11
-75.34819519390777
 21
-7.032303600250543
 31
0.0
  0
LINE
  5
12BA
330
1F
100
AcDbEntity
  8
0
100
AcDbLine
 10
-75.34819519390777
 20
137.9676963997495
 30
0.0
 11
-71.84819519390777
 21
137.9676963997495
 31
0.0
  0
LINE
  5
12BB
330
1F
100
AcDbEntity
  8
0
100
AcDbLine
 10
14.65180480609223
 20
137.9676963997495
 30
0.0
 11
11.15180480609223
 21
137.9676963997495
 31
0.0
  0
LINE
  5
12BC
330
1F
100
AcDbEntity
  8
0
100
AcDbLine
 10
-71.84819519390777
 20
152.9676963997495
 30
0.0
 11
-71.84819519390777
 21
172.9676963997495
 31
0.0
  0
LINE
  5
12BD
330
1F
100
AcDbEntity
  8
0
100
AcDbLine
 10
-71.84819519390777
 20
172.9676963997495
 30
0.0
 11
-65.34819519390777
 21
172.9676963997495
 31
0.0
  0
LINE
  5
12BE
330
1F
100
AcDbEntity
  8
0
100
AcDbLine
 10
11.15180480609223
 20
152.9676963997495
 30
0.0
 11
11.15180480609223
 21
172.9676963997495
 31
0.0
  0
LINE
  5
12BF
330
1F
100
AcDbEntity
  8
0
100
AcDbLine
 10
11.15180480609223
 20
172.9676963997495
 30
0.0
 11
4.65180480609223
 21
172.9676963997495
 31
0.0
  0
LINE
  5
12C0
330
1F
100
AcDbEntity
  8
0
100
AcDbLine
 10
11.15180480609223
 20
137.9676963997495
 30
0.0
 11
11.15180480609223
 21
-7.032303600250543
 31
0.0
  0
LINE
  5
12C1
330
1F
100
AcDbEntity
  8
0
100
AcDbLine
 10
1.15180480609223
 20
147.9676963997495
 30
0.0
 11
1.15180480609223
 21
144.4676963997495
 31
0.0
  0
LINE
  5
12C2
330
1F
100
AcDbEntity
  8
0
100
AcDbLine
 10
1.15180480609223
 20
144.4676963997495
 30
0.0
 11
-13.84819519390777
 21
144.4676963997495
 31
0.0
  0
LINE
  5
12C3
330
1F
100
AcDbEntity
  8
0
100
AcDbLine
 10
-13.84819519390777
 20
144.4676963997495
 30
0.0
 11
-13.84819519390777
 21
147.9676963997495
 31
0.0
  0
LINE
  5
12C4
330
1F
100
AcDbEntity
  8
0
100
AcDbLine
 10
-13.84819519390777
 20
147.9676963997495
 30
0.0
 11
1.15180480609223
 21
147.9676963997495
 31
0.0
  0
LINE
  5
12C5
330
1F
100
AcDbEntity
  8
0
100
AcDbLine
 10
-61.84819519390777
 20
147.9676963997495
 30
0.0
 11
-61.84819519390777
 21
144.4676963997495
 31
0.0
  0
LINE
  5
12C6
330
1F
100
AcDbEntity
  8
0
100
AcDbLine
 10
-61.84819519390777
 20
144.4676963997495
 30
0.0
 11
-46.84819519390777
 21
144.4676963997495
 31
0.0
  0
LINE
  5
12C7
330
1F
100
AcDbEntity
  8
0
100
AcDbLine
 10
-46.84819519390777
 20
144.4676963997495
 30
0.0
 11
-46.84819519390777
 21
147.9676963997495
 31
0.0
  0
LINE
  5
12C8
330
1F
100
AcDbEntity
  8
0
100
AcDbLine
 10
-46.84819519390777
 20
147.9676963997495
 30
0.0
 11
-61.84819519390777
 21
147.9676963997495
 31
0.0
  0
LINE
  5
12C9
330
1F
100
AcDbEntity
  8
0
100
AcDbLine
 10
-61.84819519390777
 20
79.46769639974949
 30
0.0
 11
-46.84819519390777
 21
79.46769639974949
 31
0.0
  0
LINE
  5
12CA
330
1F
100
AcDbEntity
  8
0
100
AcDbLine
 10
-46.84819519390777
 20
79.46769639974949
 30
0.0
 11
-46.84819519390777
 21
75.96769639974949
 31
0.0
  0
LINE
  5
12CB
330
1F
100
AcDbEntity
  8
0
100
AcDbLine
 10
-46.84819519390777
 20
75.96769639974949
 30
0.0
 11
-61.84819519390777
 21
75.96769639974949
 31
0.0
  0
LINE
  5
12CC
330
1F
100
AcDbEntity
  8
0
100
AcDbLine
 10
-61.84819519390777
 20
75.96769639974949
 30
0.0
 11
-61.84819519390777
 21
79.46769639974949
 31
0.0
  0
LINE
  5
12CD
330
1F
100
AcDbEntity
  8
0
100
AcDbLine
 10
-13.84819519390777
 20
79.46769639974949
 30
0.0
 11
1.15180480609223
 21
79.46769639974949
 31
0.0
  0
LINE
  5
12CE
330
1F
100
AcDbEntity
  8
0
100
AcDbLine
 10
1.15180480609223
 20
79.46769639974949
 30
0.0
 11
1.15180480609223
 21
75.96769639974949
 31
0.0
  0
LINE
  5
12CF
330
1F
100
AcDbEntity
  8
0
100
AcDbLine
 10
1.15180480609223
 20
75.96769639974949
 30
0.0
 11
-13.84819519390777
 21
75.96769639974949
 31
0.0
  0
LINE
  5
12D0
330
1F
100
AcDbEntity
  8
0
100
AcDbLine
 10
-13.84819519390777
 20
75.96769639974949
 30
0.0
 11
-13.84819519390777
 21
79.46769639974949
 31
0.0
  0
LINE
  5
1330
330
1F
100
AcDbEntity
  8
0
100
AcDbLine
 10
-190.3481951939077
 20
-37.03230360025054
 30
0.0
 11
-200.3481951939077
 21
-37.03230360025054
 31
0.0
  0
LINE
  5
1331
330
1F
100
AcDbEntity
  8
0
100
AcDbLine
 10
-200.3481951939077
 20
-37.03230360025054
 30
0.0
 11
-200.3481951939077
 21
12.96769639974946
 31
0.0
  0
LINE
  5
1332
330
1F
100
AcDbEntity
  8
0
100
AcDbLine
 10
-190.3481951939077
 20
22.96769639974946
 30
0.0
 11
-200.3481951939077
 21
12.96769639974946
 31
0.0
  0
LINE
  5
1333
330
1F
100
AcDbEntity
  8
0
100
AcDbLine
 10
-190.3481951939077
 20
22.96769639974946
 30
0.0
 11
-186.8481951939077
 21
22.96769639974946
 31
0.0
  0
LINE
  5
1334
330
1F
100
AcDbEntity
  8
0
100
AcDbLine
 10
-186.8481951939077
 20
22.96769639974946
 30
0.0
 11
-186.8481951939077
 21
152.9676963997495
 31
0.0
  0
LINE
  5
1335
330
1F
100
AcDbEntity
  8
0
100
AcDbLine
 10
-186.8481951939077
 20
152.9676963997495
 30
0.0
 11
-190.3481951939077
 21
152.9676963997495
 31
0.0
  0
LINE
  5
1336
330
1F
100
AcDbEntity
  8
0
100
AcDbLine
 10
-190.3481951939077
 20
152.9676963997495
 30
0.0
 11
-190.3481951939077
 21
137.9676963997495
 31
0.0
  0
LINE
  5
1337
330
1F
100
AcDbEntity
  8
0
100
AcDbLine
 10
-200.3481951939077
 20
147.9676963997495
 30
0.0
 11
-190.3481951939077
 21
137.9676963997495
 31
0.0
  0
LINE
  5
1338
330
1F
100
AcDbEntity
  8
0
100
AcDbLine
 10
-200.3481951939077
 20
147.9676963997495
 30
0.0
 11
-200.3481951939077
 21
182.9676963997495
 31
0.0
  0
LINE
  5
1339
330
1F
100
AcDbEntity
  8
0
100
AcDbLine
 10
-200.3481951939077
 20
182.9676963997495
 30
0.0
 11
-190.3481951939077
 21
182.9676963997495
 31
0.0
  0
LINE
  5
133A
330
1F
100
AcDbEntity
  8
0
100
AcDbLine
 10
-190.3481951939077
 20
182.9676963997495
 30
0.0
 11
-190.3481951939077
 21
172.9676963997495
 31
0.0
  0
LINE
  5
133B
330
1F
100
AcDbEntity
  8
0
100
AcDbLine
 10
-190.3481951939077
 20
172.9676963997495
 30
0.0
 11
-180.3481951939077
 21
172.9676963997495
 31
0.0
  0
LINE
  5
133C
330
1F
100
AcDbEntity
  8
0
100
AcDbLine
 10
-180.3481951939077
 20
172.9676963997495
 30
0.0
 11
-180.3481951939077
 21
182.9676963997495
 31
0.0
  0
LINE
  5
133D
330
1F
100
AcDbEntity
  8
0
100
AcDbLine
 10
-180.3481951939077
 20
182.9676963997495
 30
0.0
 11
-170.3481951939077
 21
182.9676963997495
 31
0.0
  0
LINE
  5
133E
330
1F
100
AcDbEntity
  8
0
100
AcDbLine
 10
-170.3481951939077
 20
182.9676963997495
 30
0.0
 11
-170.3481951939077
 21
172.9676963997495
 31
0.0
  0
LINE
  5
133F
330
1F
100
AcDbEntity
  8
0
100
AcDbLine
 10
-170.3481951939077
 20
172.9676963997495
 30
0.0
 11
-160.3481951939077
 21
172.9676963997495
 31
0.0
  0
LINE
  5
1340
330
1F
100
AcDbEntity
  8
0
100
AcDbLine
 10
-160.3481951939077
 20
172.9676963997495
 30
0.0
 11
-160.3481951939077
 21
182.9676963997495
 31
0.0
  0
LINE
  5
1341
330
1F
100
AcDbEntity
  8
0
100
AcDbLine
 10
-160.3481951939077
 20
182.9676963997495
 30
0.0
 11
-150.3481951939077
 21
182.9676963997495
 31
0.0
  0
LINE
  5
1342
330
1F
100
AcDbEntity
  8
0
100
AcDbLine
 10
-150.3481951939077
 20
182.9676963997495
 30
0.0
 11
-150.3481951939077
 21
172.9676963997495
 31
0.0
  0
LINE
  5
1343
330
1F
100
AcDbEntity
  8
0
100
AcDbLine
 10
-150.3481951939077
 20
172.9676963997495
 30
0.0
 11
-140.3481951939077
 21
172.9676963997495
 31
0.0
  0
LINE
  5
1344
330
1F
100
AcDbEntity
  8
0
100
AcDbLine
 10
-140.3481951939077
 20
172.9676963997495
 30
0.0
 11
-140.3481951939077
 21
182.9676963997495
 31
0.0
  0
LINE
  5
1345
330
1F
100
AcDbEntity
  8
0
100
AcDbLine
 10
-140.3481951939077
 20
182.9676963997495
 30
0.0
 11
-130.3481951939077
 21
182.9676963997495
 31
0.0
  0
LINE
  5
1346
330
1F
100
AcDbEntity
  8
0
100
AcDbLine
 10
-130.3481951939077
 20
182.9676963997495
 30
0.0
 11
-130.3481951939077
 21
172.9676963997495
 31
0.0
  0
LINE
  5
1347
330
1F
100
AcDbEntity
  8
0
100
AcDbLine
 10
-130.3481951939077
 20
172.9676963997495
 30
0.0
 11
-120.3481951939077
 21
172.9676963997495
 31
0.0
  0
LINE
  5
1348
330
1F
100
AcDbEntity
  8
0
100
AcDbLine
 10
-120.3481951939077
 20
172.9676963997495
 30
0.0
 11
-120.3481951939077
 21
182.9676963997495
 31
0.0
  0
LINE
  5
1349
330
1F
100
AcDbEntity
  8
0
100
AcDbLine
 10
-120.3481951939077
 20
182.9676963997495
 30
0.0
 11
-110.3481951939077
 21
182.9676963997495
 31
0.0
  0
LINE
  5
134A
330
1F
100
AcDbEntity
  8
0
100
AcDbLine
 10
-110.3481951939077
 20
182.9676963997495
 30
0.0
 11
-110.3481951939077
 21
172.9676963997495
 31
0.0
  0
LINE
  5
134B
330
1F
100
AcDbEntity
  8
0
100
AcDbLine
 10
-110.3481951939077
 20
172.9676963997495
 30
0.0
 11
-100.3481951939078
 21
172.9676963997495
 31
0.0
  0
LINE
  5
134C
330
1F
100
AcDbEntity
  8
0
100
AcDbLine
 10
-100.3481951939078
 20
172.9676963997495
 30
0.0
 11
-100.3481951939078
 21
182.9676963997495
 31
0.0
  0
LINE
  5
134D
330
1F
100
AcDbEntity
  8
0
100
AcDbLine
 10
-100.3481951939078
 20
182.9676963997495
 30
0.0
 11
-90.34819519390777
 21
182.9676963997495
 31
0.0
  0
LINE
  5
134E
330
1F
100
AcDbEntity
  8
0
100
AcDbLine
 10
-90.34819519390777
 20
182.9676963997495
 30
0.0
 11
-90.34819519390777
 21
147.9676963997495
 31
0.0
  0
LINE
  5
134F
330
1F
100
AcDbEntity
  8
0
100
AcDbLine
 10
-90.34819519390777
 20
147.9676963997495
 30
0.0
 11
-100.3481951939078
 21
137.9676963997495
 31
0.0
  0
LINE
  5
1350
330
1F
100
AcDbEntity
  8
0
100
AcDbLine
 10
-100.3481951939078
 20
137.9676963997495
 30
0.0
 11
-100.3481951939078
 21
152.9676963997495
 31
0.0
  0
LINE
  5
1351
330
1F
100
AcDbEntity
  8
0
100
AcDbLine
 10
-100.3481951939078
 20
152.9676963997495
 30
0.0
 11
-103.8481951939078
 21
152.9676963997495
 31
0.0
  0
LINE
  5
1352
330
1F
100
AcDbEntity
  8
0
100
AcDbLine
 10
-103.8481951939078
 20
152.9676963997495
 30
0.0
 11
-103.8481951939078
 21
22.96769639974946
 31
0.0
  0
LINE
  5
1353
330
1F
100
AcDbEntity
  8
0
100
AcDbLine
 10
-103.8481951939078
 20
22.96769639974946
 30
0.0
 11
-100.3481951939078
 21
22.96769639974946
 31
0.0
  0
LINE
  5
1354
330
1F
100
AcDbEntity
  8
0
100
AcDbLine
 10
-100.3481951939078
 20
22.96769639974946
 30
0.0
 11
-90.34819519390777
 21
12.96769639974946
 31
0.0
  0
LINE
  5
1355
330
1F
100
AcDbEntity
  8
0
100
AcDbLine
 10
-90.34819519390777
 20
12.96769639974946
 30
0.0
 11
-90.34819519390777
 21
-37.03230360025054
 31
0.0
  0
LINE
  5
1356
330
1F
100
AcDbEntity
  8
0
100
AcDbLine
 10
-90.34819519390777
 20
-37.03230360025054
 30
0.0
 11
-100.3481951939078
 21
-37.03230360025054
 31
0.0
  0
LINE
  5
1357
330
1F
100
AcDbEntity
  8
0
100
AcDbLine
 10
-100.3481951939078
 20
-37.03230360025054
 30
0.0
 11
-100.3481951939078
 21
-7.032303600250543
 31
0.0
  0
LINE
  5
1358
330
1F
100
AcDbEntity
  8
0
100
AcDbLine
 10
-100.3481951939078
 20
-7.032303600250543
 30
0.0
 11
-103.8481951939078
 21
-7.032303600250543
 31
0.0
  0
LINE
  5
1359
330
1F
100
AcDbEntity
  8
0
100
AcDbLine
 10
-103.8481951939078
 20
-7.032303600250543
 30
0.0
 11
-103.8481951939078
 21
-37.03230360025054
 31
0.0
  0
LINE
  5
135A
330
1F
100
AcDbEntity
  8
0
100
AcDbLine
 10
-103.8481951939078
 20
-37.03230360025054
 30
0.0
 11
-186.8481951939077
 21
-37.03230360025054
 31
0.0
  0
LINE
  5
135B
330
1F
100
AcDbEntity
  8
0
100
AcDbLine
 10
-186.8481951939077
 20
-37.03230360025054
 30
0.0
 11
-186.8481951939077
 21
-7.032303600250543
 31
0.0
  0
LINE
  5
135C
330
1F
100
AcDbEntity
  8
0
100
AcDbLine
 10
-186.8481951939077
 20
-7.032303600250543
 30
0.0
 11
-190.3481951939077
 21
-7.032303600250543
 31
0.0
  0
LINE
  5
135D
330
1F
100
AcDbEntity
  8
0
100
AcDbLine
 10
-190.3481951939077
 20
-7.032303600250543
 30
0.0
 11
-190.3481951939077
 21
-37.03230360025054
 31
0.0
  0
LINE
  5
1374
330
1F
100
AcDbEntity
  8
0
100
AcDbLine
 10
-145.3481951939077
 20
92.96769639974949
 30
0.0
 11
-135.3481951939077
 21
92.96769639974949
 31
0.0
  0
LINE
  5
1375
330
1F
100
AcDbEntity
  8
0
100
AcDbLine
 10
-135.3481951939077
 20
92.96769639974949
 30
0.0
 11
-135.3481951939077
 21
112.9676963997495
 31
0.0
  0
LINE
  5
1376
330
1F
100
AcDbEntity
  8
0
100
AcDbLine
 10
-145.3481951939077
 20
92.96769639974949
 30
0.0
 11
-155.3481951939077
 21
92.96769639974949
 31
0.0
  0
LINE
  5
1377
330
1F
100
AcDbEntity
  8
0
100
AcDbLine
 10
-155.3481951939077
 20
92.96769639974949
 30
0.0
 11
-155.3481951939077
 21
112.9676963997495
 31
0.0
  0
ARC
  5
1379
330
1F
100
AcDbEntity
  8
0
100
AcDbCircle
 10
-145.3481951939077
 20
112.9676963997495
 30
0.0
 40
10.0
100
AcDbArc
 50
0.0
 51
180.0
  0
LINE
  5
13B6
330
1F
100
AcDbEntity
  8
0
100
AcDbLine
 10
-160.1339399204317
 20
338.0128533933308
 30
0.0
 11
-160.1339399204317
 21
348.0128533933308
 31
0.0
  0
LINE
  5
13B7
330
1F
100
AcDbEntity
  8
0
100
AcDbLine
 10
-160.1339399204317
 20
348.0128533933308
 30
0.0
 11
-163.6339399204317
 21
348.0128533933308
 31
0.0
  0
LINE
  5
13B8
330
1F
100
AcDbEntity
  8
0
100
AcDbLine
 10
-163.6339399204317
 20
348.0128533933308
 30
0.0
 11
-163.6339399204317
 21
363.0128533933308
 31
0.0
  0
LINE
  5
13B9
330
1F
100
AcDbEntity
  8
0
100
AcDbLine
 10
-163.6339399204317
 20
363.0128533933308
 30
0.0
 11
-160.1339399204317
 21
363.0128533933308
 31
0.0
  0
LINE
  5
13BA
330
1F
100
AcDbEntity
  8
0
100
AcDbLine
 10
-160.1339399204317
 20
363.0128533933308
 30
0.0
 11
-160.1339399204317
 21
396.0128533933308
 31
0.0
  0
LINE
  5
13BB
330
1F
100
AcDbEntity
  8
0
100
AcDbLine
 10
-160.1339399204317
 20
396.0128533933308
 30
0.0
 11
-163.6339399204317
 21
396.0128533933308
 31
0.0
  0
LINE
  5
13BC
330
1F
100
AcDbEntity
  8
0
100
AcDbLine
 10
-163.6339399204317
 20
396.0128533933308
 30
0.0
 11
-163.6339399204317
 21
411.0128533933308
 31
0.0
  0
LINE
  5
13BD
330
1F
100
AcDbEntity
  8
0
100
AcDbLine
 10
-163.6339399204317
 20
411.0128533933308
 30
0.0
 11
-160.1339399204317
 21
411.0128533933308
 31
0.0
  0
LINE
  5
13BE
330
1F
100
AcDbEntity
  8
0
100
AcDbLine
 10
-160.1339399204317
 20
411.0128533933308
 30
0.0
 11
-160.1339399204317
 21
421.0128533933308
 31
0.0
  0
LINE
  5
13C1
330
1F
100
AcDbEntity
  8
0
100
AcDbLine
 10
-77.13393992043166
 20
338.0128533933308
 30
0.0
 11
-160.1339399204317
 21
338.0128533933308
 31
0.0
  0
LINE
  5
13C2
330
1F
100
AcDbEntity
  8
0
100
AcDbLine
 10
-160.1339399204317
 20
421.0128533933308
 30
0.0
 11
-150.1339399204317
 21
421.0128533933308
 31
0.0
  0
LINE
  5
13C3
330
1F
100
AcDbEntity
  8
0
100
AcDbLine
 10
-150.1339399204317
 20
421.0128533933308
 30
0.0
 11
-150.1339399204317
 21
414.0128533933308
 31
0.0
  0
LINE
  5
13C4
330
1F
100
AcDbEntity
  8
0
100
AcDbLine
 10
-150.1339399204317
 20
414.0128533933308
 30
0.0
 11
-146.6339399204317
 21
414.0128533933308
 31
0.0
  0
LINE
  5
13C5
330
1F
100
AcDbEntity
  8
0
100
AcDbLine
 10
-146.6339399204317
 20
414.0128533933308
 30
0.0
 11
-146.6339399204317
 21
421.0128533933308
 31
0.0
  0
LINE
  5
13C6
330
1F
100
AcDbEntity
  8
0
100
AcDbLine
 10
-77.13393992043166
 20
421.0128533933308
 30
0.0
 11
-87.13393992043166
 21
421.0128533933308
 31
0.0
  0
LINE
  5
13C7
330
1F
100
AcDbEntity
  8
0
100
AcDbLine
 10
-87.13393992043166
 20
421.0128533933308
 30
0.0
 11
-87.13393992043166
 21
414.0128533933308
 31
0.0
  0
LINE
  5
13C8
330
1F
100
AcDbEntity
  8
0
100
AcDbLine
 10
-87.13393992043166
 20
414.0128533933308
 30
0.0
 11
-90.63393992043166
 21
414.0128533933308
 31
0.0
  0
LINE
  5
13C9
330
1F
100
AcDbEntity
  8
0
100
AcDbLine
 10
-90.63393992043166
 20
414.0128533933308
 30
0.0
 11
-90.63393992043166
 21
421.0128533933308
 31
0.0
  0
LINE
  5
13CA
330
1F
100
AcDbEntity
  8
0
100
AcDbLine
 10
-90.63393992043166
 20
421.0128533933308
 30
0.0
 11
-146.6339399204317
 21
421.0128533933308
 31
0.0
  0
LINE
  5
13D6
330
1F
100
AcDbEntity
  8
0
100
AcDbLine
 10
-77.13393992043166
 20
421.0128533933308
 30
0.0
 11
-77.13393992043166
 21
394.5128533933308
 31
0.0
  0
LINE
  5
13D7
330
1F
100
AcDbEntity
  8
0
100
AcDbLine
 10
-77.13393992043166
 20
394.5128533933308
 30
0.0
 11
-73.63393992043166
 21
394.5128533933308
 31
0.0
  0
LINE
  5
13D8
330
1F
100
AcDbEntity
  8
0
100
AcDbLine
 10
-73.63393992043166
 20
394.5128533933308
 30
0.0
 11
-73.63393992043166
 21
364.5128533933308
 31
0.0
  0
LINE
  5
13D9
330
1F
100
AcDbEntity
  8
0
100
AcDbLine
 10
-73.63393992043166
 20
364.5128533933308
 30
0.0
 11
-77.13393992043166
 21
364.5128533933308
 31
0.0
  0
LINE
  5
13DA
330
1F
100
AcDbEntity
  8
0
100
AcDbLine
 10
-77.13393992043166
 20
364.5128533933308
 30
0.0
 11
-77.13393992043166
 21
338.0128533933308
 31
0.0
  0
LINE
  5
140B
330
1F
100
AcDbEntity
  8
0
100
AcDbLine
 10
803.380007385879
 20
253.1155718362499
 30
0.0
 11
793.380007385879
 21
253.1155718362499
 31
0.0
  0
LINE
  5
140C
330
1F
100
AcDbEntity
  8
0
100
AcDbLine
 10
793.380007385879
 20
253.1155718362499
 30
0.0
 11
793.380007385879
 21
249.6155718362499
 31
0.0
  0
LINE
  5
140D
330
1F
100
AcDbEntity
  8
0
100
AcDbLine
 10
793.380007385879
 20
249.6155718362499
 30
0.0
 11
778.380007385879
 21
249.6155718362499
 31
0.0
  0
LINE
  5
140E
330
1F
100
AcDbEntity
  8
0
100
AcDbLine
 10
778.380007385879
 20
249.6155718362499
 30
0.0
 11
778.380007385879
 21
253.1155718362499
 31
0.0
  0
LINE
  5
140F
330
1F
100
AcDbEntity
  8
0
100
AcDbLine
 10
778.380007385879
 20
253.1155718362499
 30
0.0
 11
745.380007385879
 21
253.1155718362499
 31
0.0
  0
LINE
  5
1410
330
1F
100
AcDbEntity
  8
0
100
AcDbLine
 10
745.380007385879
 20
253.1155718362499
 30
0.0
 11
745.380007385879
 21
249.6155718362499
 31
0.0
  0
LINE
  5
1411
330
1F
100
AcDbEntity
  8
0
100
AcDbLine
 10
745.380007385879
 20
249.6155718362499
 30
0.0
 11
730.380007385879
 21
249.6155718362499
 31
0.0
  0
LINE
  5
1412
330
1F
100
AcDbEntity
  8
0
100
AcDbLine
 10
730.380007385879
 20
249.6155718362499
 30
0.0
 11
730.380007385879
 21
253.1155718362499
 31
0.0
  0
LINE
  5
1413
330
1F
100
AcDbEntity
  8
0
100
AcDbLine
 10
730.380007385879
 20
253.1155718362499
 30
0.0
 11
720.380007385879
 21
253.1155718362499
 31
0.0
  0
LINE
  5
1414
330
1F
100
AcDbEntity
  8
0
100
AcDbLine
 10
720.380007385879
 20
253.1155718362499
 30
0.0
 11
720.380007385879
 21
336.1155718362498
 31
0.0
  0
LINE
  5
1415
330
1F
100
AcDbEntity
  8
0
100
AcDbLine
 10
720.380007385879
 20
336.1155718362498
 30
0.0
 11
730.380007385879
 21
336.1155718362498
 31
0.0
  0
LINE
  5
1416
330
1F
100
AcDbEntity
  8
0
100
AcDbLine
 10
730.380007385879
 20
336.1155718362498
 30
0.0
 11
730.380007385879
 21
339.6155718362498
 31
0.0
  0
LINE
  5
1417
330
1F
100
AcDbEntity
  8
0
100
AcDbLine
 10
730.380007385879
 20
339.6155718362498
 30
0.0
 11
745.380007385879
 21
339.6155718362498
 31
0.0
  0
LINE
  5
1418
330
1F
100
AcDbEntity
  8
0
100
AcDbLine
 10
745.380007385879
 20
339.6155718362498
 30
0.0
 11
745.380007385879
 21
336.1155718362498
 31
0.0
  0
LINE
  5
1419
330
1F
100
AcDbEntity
  8
0
100
AcDbLine
 10
745.380007385879
 20
336.1155718362498
 30
0.0
 11
778.380007385879
 21
336.1155718362498
 31
0.0
  0
LINE
  5
141A
330
1F
100
AcDbEntity
  8
0
100
AcDbLine
 10
778.380007385879
 20
336.1155718362498
 30
0.0
 11
778.380007385879
 21
339.6155718362498
 31
0.0
  0
LINE
  5
141B
330
1F
100
AcDbEntity
  8
0
100
AcDbLine
 10
778.380007385879
 20
339.6155718362498
 30
0.0
 11
793.380007385879
 21
339.6155718362498
 31
0.0
  0
LINE
  5
141C
330
1F
100
AcDbEntity
  8
0
100
AcDbLine
 10
793.380007385879
 20
339.6155718362498
 30
0.0
 11
793.380007385879
 21
336.1155718362498
 31
0.0
  0
LINE
  5
141D
330
1F
100
AcDbEntity
  8
0
100
AcDbLine
 10
793.380007385879
 20
336.1155718362498
 30
0.0
 11
803.380007385879
 21
336.1155718362498
 31
0.0
  0
LINE
  5
141E
330
1F
100
AcDbEntity
  8
0
100
AcDbLine
 10
803.380007385879
 20
336.1155718362498
 30
0.0
 11
803.380007385879
 21
253.1155718362499
 31
0.0
  0
LINE
  5
153B
330
1F
100
AcDbEntity
  8
0
100
AcDbLine
 10
488.4489305471068
 20
-24.84456053629168
 30
0.0
 11
478.4489305471068
 21
-24.84456053629168
 31
0.0
  0
LINE
  5
153C
330
1F
100
AcDbEntity
  8
0
100
AcDbLine
 10
478.4489305471068
 20
-24.84456053629168
 30
0.0
 11
478.4489305471068
 21
25.15543946370832
 31
0.0
  0
LINE
  5
153D
330
1F
100
AcDbEntity
  8
0
100
AcDbLine
 10
488.4489305471068
 20
35.15543946370832
 30
0.0
 11
478.4489305471068
 21
25.15543946370832
 31
0.0
  0
LINE
  5
153E
330
1F
100
AcDbEntity
  8
0
100
AcDbLine
 10
488.4489305471068
 20
35.15543946370832
 30
0.0
 11
491.9489305471068
 21
35.15543946370832
 31
0.0
  0
LINE
  5
153F
330
1F
100
AcDbEntity
  8
0
100
AcDbLine
 10
491.9489305471068
 20
35.15543946370832
 30
0.0
 11
491.9489305471068
 21
165.1554394637083
 31
0.0
  0
LINE
  5
1540
330
1F
100
AcDbEntity
  8
0
100
AcDbLine
 10
491.9489305471068
 20
165.1554394637083
 30
0.0
 11
488.4489305471068
 21
165.1554394637083
 31
0.0
  0
LINE
  5
1541
330
1F
100
AcDbEntity
  8
0
100
AcDbLine
 10
488.4489305471068
 20
165.1554394637083
 30
0.0
 11
488.4489305471068
 21
150.1554394637083
 31
0.0
  0
LINE
  5
1542
330
1F
100
AcDbEntity
  8
0
100
AcDbLine
 10
478.4489305471068
 20
160.1554394637083
 30
0.0
 11
488.4489305471068
 21
150.1554394637083
 31
0.0
  0
LINE
  5
1543
330
1F
100
AcDbEntity
  8
0
100
AcDbLine
 10
478.4489305471068
 20
160.1554394637083
 30
0.0
 11
478.4489305471068
 21
195.1554394637083
 31
0.0
  0
LINE
  5
1544
330
1F
100
AcDbEntity
  8
0
100
AcDbLine
 10
478.4489305471068
 20
195.1554394637083
 30
0.0
 11
488.4489305471068
 21
195.1554394637083
 31
0.0
  0
LINE
  5
1545
330
1F
100
AcDbEntity
  8
0
100
AcDbLine
 10
488.4489305471068
 20
195.1554394637083
 30
0.0
 11
488.4489305471068
 21
185.1554394637083
 31
0.0
  0
LINE
  5
1546
330
1F
100
AcDbEntity
  8
0
100
AcDbLine
 10
488.4489305471068
 20
185.1554394637083
 30
0.0
 11
498.4489305471068
 21
185.1554394637083
 31
0.0
  0
LINE
  5
1547
330
1F
100
AcDbEntity
  8
0
100
AcDbLine
 10
498.4489305471068
 20
185.1554394637083
 30
0.0
 11
498.4489305471068
 21
195.1554394637083
 31
0.0
  0
LINE
  5
1548
330
1F
100
AcDbEntity
  8
0
100
AcDbLine
 10
498.4489305471068
 20
195.1554394637083
 30
0.0
 11
508.4489305471068
 21
195.1554394637083
 31
0.0
  0
LINE
  5
1549
330
1F
100
AcDbEntity
  8
0
100
AcDbLine
 10
508.4489305471068
 20
195.1554394637083
 30
0.0
 11
508.4489305471068
 21
185.1554394637083
 31
0.0
  0
LINE
  5
154A
330
1F
100
AcDbEntity
  8
0
100
AcDbLine
 10
508.4489305471068
 20
185.1554394637083
 30
0.0
 11
518.4489305471068
 21
185.1554394637083
 31
0.0
  0
LINE
  5
154B
330
1F
100
AcDbEntity
  8
0
100
AcDbLine
 10
518.4489305471068
 20
185.1554394637083
 30
0.0
 11
518.4489305471068
 21
195.1554394637083
 31
0.0
  0
LINE
  5
154C
330
1F
100
AcDbEntity
  8
0
100
AcDbLine
 10
518.4489305471068
 20
195.1554394637083
 30
0.0
 11
528.4489305471068
 21
195.1554394637083
 31
0.0
  0
LINE
  5
154D
330
1F
100
AcDbEntity
  8
0
100
AcDbLine
 10
528.4489305471068
 20
195.1554394637083
 30
0.0
 11
528.4489305471068
 21
185.1554394637083
 31
0.0
  0
LINE
  5
154E
330
1F
100
AcDbEntity
  8
0
100
AcDbLine
 10
528.4489305471068
 20
185.1554394637083
 30
0.0
 11
538.4489305471068
 21
185.1554394637083
 31
0.0
  0
LINE
  5
154F
330
1F
100
AcDbEntity
  8
0
100
AcDbLine
 10
538.4489305471068
 20
185.1554394637083
 30
0.0
 11
538.4489305471068
 21
195.1554394637083
 31
0.0
  0
LINE
  5
1550
330
1F
100
AcDbEntity
  8
0
100
AcDbLine
 10
538.4489305471068
 20
195.1554394637083
 30
0.0
 11
548.4489305471068
 21
195.1554394637083
 31
0.0
  0
LINE
  5
1551
330
1F
100
AcDbEntity
  8
0
100
AcDbLine
 10
548.4489305471068
 20
195.1554394637083
 30
0.0
 11
548.4489305471068
 21
185.1554394637083
 31
0.0
  0
LINE
  5
1552
330
1F
100
AcDbEntity
  8
0
100
AcDbLine
 10
548.4489305471068
 20
185.1554394637083
 30
0.0
 11
558.4489305471068
 21
185.1554394637083
 31
0.0
  0
LINE
  5
1553
330
1F
100
AcDbEntity
  8
0
100
AcDbLine
 10
558.4489305471068
 20
185.1554394637083
 30
0.0
 11
558.4489305471068
 21
195.1554394637083
 31
0.0
  0
LINE
  5
1554
330
1F
100
AcDbEntity
  8
0
100
AcDbLine
 10
558.4489305471068
 20
195.1554394637083
 30
0.0
 11
568.4489305471068
 21
195.1554394637083
 31
0.0
  0
LINE
  5
1555
330
1F
100
AcDbEntity
  8
0
100
AcDbLine
 10
568.4489305471068
 20
195.1554394637083
 30
0.0
 11
568.4489305471068
 21
185.1554394637083
 31
0.0
  0
LINE
  5
1556
330
1F
100
AcDbEntity
  8
0
100
AcDbLine
 10
568.4489305471068
 20
185.1554394637083
 30
0.0
 11
578.4489305471068
 21
185.1554394637083
 31
0.0
  0
LINE
  5
1557
330
1F
100
AcDbEntity
  8
0
100
AcDbLine
 10
578.4489305471068
 20
185.1554394637083
 30
0.0
 11
578.4489305471068
 21
195.1554394637083
 31
0.0
  0
LINE
  5
1558
330
1F
100
AcDbEntity
  8
0
100
AcDbLine
 10
578.4489305471068
 20
195.1554394637083
 30
0.0
 11
588.4489305471068
 21
195.1554394637083
 31
0.0
  0
LINE
  5
1559
330
1F
100
AcDbEntity
  8
0
100
AcDbLine
 10
588.4489305471068
 20
195.1554394637083
 30
0.0
 11
588.4489305471068
 21
160.1554394637083
 31
0.0
  0
LINE
  5
155A
330
1F
100
AcDbEntity
  8
0
100
AcDbLine
 10
588.4489305471068
 20
160.1554394637083
 30
0.0
 11
578.4489305471068
 21
150.1554394637083
 31
0.0
  0
LINE
  5
155B
330
1F
100
AcDbEntity
  8
0
100
AcDbLine
 10
578.4489305471068
 20
150.1554394637083
 30
0.0
 11
578.4489305471068
 21
165.1554394637083
 31
0.0
  0
LINE
  5
155C
330
1F
100
AcDbEntity
  8
0
100
AcDbLine
 10
578.4489305471068
 20
165.1554394637083
 30
0.0
 11
574.9489305471068
 21
165.1554394637083
 31
0.0
  0
LINE
  5
155D
330
1F
100
AcDbEntity
  8
0
100
AcDbLine
 10
574.9489305471068
 20
165.1554394637083
 30
0.0
 11
574.9489305471068
 21
35.15543946370832
 31
0.0
  0
LINE
  5
155E
330
1F
100
AcDbEntity
  8
0
100
AcDbLine
 10
574.9489305471068
 20
35.15543946370832
 30
0.0
 11
578.4489305471068
 21
35.15543946370832
 31
0.0
  0
LINE
  5
155F
330
1F
100
AcDbEntity
  8
0
100
AcDbLine
 10
578.4489305471068
 20
35.15543946370832
 30
0.0
 11
588.4489305471068
 21
25.15543946370832
 31
0.0
  0
LINE
  5
1560
330
1F
100
AcDbEntity
  8
0
100
AcDbLine
 10
588.4489305471068
 20
25.15543946370832
 30
0.0
 11
588.4489305471068
 21
-24.84456053629168
 31
0.0
  0
LINE
  5
1561
330
1F
100
AcDbEntity
  8
0
100
AcDbLine
 10
588.4489305471068
 20
-24.84456053629168
 30
0.0
 11
578.4489305471068
 21
-24.84456053629168
 31
0.0
  0
LINE
  5
1562
330
1F
100
AcDbEntity
  8
0
100
AcDbLine
 10
578.4489305471068
 20
-24.84456053629168
 30
0.0
 11
578.4489305471068
 21
5.155439463708319
 31
0.0
  0
LINE
  5
1563
330
1F
100
AcDbEntity
  8
0
100
AcDbLine
 10
578.4489305471068
 20
5.155439463708319
 30
0.0
 11
574.9489305471068
 21
5.155439463708319
 31
0.0
  0
LINE
  5
1564
330
1F
100
AcDbEntity
  8
0
100
AcDbLine
 10
574.9489305471068
 20
5.155439463708319
 30
0.0
 11
574.9489305471068
 21
-24.84456053629168
 31
0.0
  0
LINE
  5
1565
330
1F
100
AcDbEntity
  8
0
100
AcDbLine
 10
574.9489305471068
 20
-24.84456053629168
 30
0.0
 11
491.9489305471068
 21
-24.84456053629168
 31
0.0
  0
LINE
  5
1566
330
1F
100
AcDbEntity
  8
0
100
AcDbLine
 10
491.9489305471068
 20
-24.84456053629168
 30
0.0
 11
491.9489305471068
 21
5.155439463708319
 31
0.0
  0
LINE
  5
1567
330
1F
100
AcDbEntity
  8
0
100
AcDbLine
 10
491.9489305471068
 20
5.155439463708319
 30
0.0
 11
488.4489305471068
 21
5.155439463708319
 31
0.0
  0
LINE
  5
1568
330
1F
100
AcDbEntity
  8
0
100
AcDbLine
 10
488.4489305471068
 20
5.155439463708319
 30
0.0
 11
488.4489305471068
 21
-24.84456053629168
 31
0.0
  0
LINE
  5
1571
330
1F
100
AcDbEntity
  8
0
100
AcDbLine
 10
501.9489305471068
 20
5.155439463708319
 30
0.0
 11
501.9489305471068
 21
-14.84456053629168
 31
0.0
  0
LINE
  5
1572
330
1F
100
AcDbEntity
  8
0
100
AcDbLine
 10
501.9489305471068
 20
-14.84456053629168
 30
0.0
 11
505.4489305471068
 21
-14.84456053629168
 31
0.0
  0
LINE
  5
1573
330
1F
100
AcDbEntity
  8
0
100
AcDbLine
 10
505.4489305471068
 20
-14.84456053629168
 30
0.0
 11
505.4489305471068
 21
11.15543946370832
 31
0.0
  0
LINE
  5
1574
330
1F
100
AcDbEntity
  8
0
100
AcDbLine
 10
505.4489305471068
 20
11.15543946370832
 30
0.0
 11
501.9489305471068
 21
11.15543946370832
 31
0.0
  0
LINE
  5
1575
330
1F
100
AcDbEntity
  8
0
100
AcDbLine
 10
501.9489305471068
 20
11.15543946370832
 30
0.0
 11
501.9489305471068
 21
5.155439463708319
 31
0.0
  0
LINE
  5
1576
330
1F
100
AcDbEntity
  8
0
100
AcDbLine
 10
564.9489305471068
 20
5.155439463708319
 30
0.0
 11
564.9489305471068
 21
-14.84456053629168
 31
0.0
  0
LINE
  5
1577
330
1F
100
AcDbEntity
  8
0
100
AcDbLine
 10
564.9489305471068
 20
-14.84456053629168
 30
0.0
 11
561.4489305471068
 21
-14.84456053629168
 31
0.0
  0
LINE
  5
1578
330
1F
100
AcDbEntity
  8
0
100
AcDbLine
 10
561.4489305471068
 20
-14.84456053629168
 30
0.0
 11
561.4489305471068
 21
11.15543946370832
 31
0.0
  0
LINE
  5
1579
330
1F
100
AcDbEntity
  8
0
100
AcDbLine
 10
561.4489305471068
 20
11.15543946370832
 30
0.0
 11
564.9489305471068
 21
11.15543946370832
 31
0.0
  0
LINE
  5
157A
330
1F
100
AcDbEntity
  8
0
100
AcDbLine
 10
564.9489305471068
 20
11.15543946370832
 30
0.0
 11
564.9489305471068
 21
5.155439463708319
 31
0.0
  0
LINE
  5
157B
330
1F
100
AcDbEntity
  8
0
100
AcDbLine
 10
501.9489305471068
 20
95.15543946370835
 30
0.0
 11
505.4489305471068
 21
95.15543946370835
 31
0.0
  0
LINE
  5
157C
330
1F
100
AcDbEntity
  8
0
100
AcDbLine
 10
505.4489305471068
 20
95.15543946370835
 30
0.0
 11
505.4489305471068
 21
121.1554394637083
 31
0.0
  0
LINE
  5
157D
330
1F
100
AcDbEntity
  8
0
100
AcDbLine
 10
505.4489305471068
 20
121.1554394637083
 30
0.0
 11
501.9489305471068
 21
121.1554394637083
 31
0.0
  0
LINE
  5
157E
330
1F
100
AcDbEntity
  8
0
100
AcDbLine
 10
501.9489305471068
 20
121.1554394637083
 30
0.0
 11
501.9489305471068
 21
95.15543946370835
 31
0.0
  0
LINE
  5
157F
330
1F
100
AcDbEntity
  8
0
100
AcDbLine
 10
561.4489305471068
 20
95.15543946370835
 30
0.0
 11
564.9489305471068
 21
95.15543946370835
 31
0.0
  0
LINE
  5
1580
330
1F
100
AcDbEntity
  8
0
100
AcDbLine
 10
564.9489305471068
 20
95.15543946370835
 30
0.0
 11
564.9489305471068
 21
121.1554394637083
 31
0.0
  0
LINE
  5
1581
330
1F
100
AcDbEntity
  8
0
100
AcDbLine
 10
564.9489305471068
 20
121.1554394637083
 30
0.0
 11
561.4489305471068
 21
121.1554394637083
 31
0.0
  0
LINE
  5
1582
330
1F
100
AcDbEntity
  8
0
100
AcDbLine
 10
561.4489305471068
 20
121.1554394637083
 30
0.0
 11
561.4489305471068
 21
95.15543946370835
 31
0.0
  0
LINE
  5
1583
330
1F
100
AcDbEntity
  8
0
100
AcDbLine
 10
515.4489305471068
 20
95.15543946370835
 30
0.0
 11
515.4489305471068
 21
91.65543946370835
 31
0.0
  0
LINE
  5
1584
330
1F
100
AcDbEntity
  8
0
100
AcDbLine
 10
515.4489305471068
 20
91.65543946370835
 30
0.0
 11
551.4489305471068
 21
91.65543946370835
 31
0.0
  0
LINE
  5
1585
330
1F
100
AcDbEntity
  8
0
100
AcDbLine
 10
551.4489305471068
 20
91.65543946370835
 30
0.0
 11
551.4489305471068
 21
95.15543946370835
 31
0.0
  0
LINE
  5
1586
330
1F
100
AcDbEntity
  8
0
100
AcDbLine
 10
551.4489305471068
 20
95.15543946370835
 30
0.0
 11
548.4489305471068
 21
95.15543946370835
 31
0.0
  0
LINE
  5
1587
330
1F
100
AcDbEntity
  8
0
100
AcDbLine
 10
548.4489305471068
 20
95.15543946370835
 30
0.0
 11
548.4489305471068
 21
121.6554394637083
 31
0.0
  0
LINE
  5
1588
330
1F
100
AcDbEntity
  8
0
100
AcDbLine
 10
515.4489305471068
 20
95.15543946370835
 30
0.0
 11
518.4489305471068
 21
95.15543946370835
 31
0.0
  0
LINE
  5
1589
330
1F
100
AcDbEntity
  8
0
100
AcDbLine
 10
518.4489305471068
 20
95.15543946370835
 30
0.0
 11
518.4489305471068
 21
121.6554394637083
 31
0.0
  0
ARC
  5
158A
330
1F
100
AcDbEntity
  8
0
100
AcDbCircle
 10
533.4489305471068
 20
121.6554394637083
 30
0.0
 40
15.0
100
AcDbArc
 50
0.0
 51
180.0
  0
LINE
  5
15F9
330
1F
100
AcDbEntity
  8
0
100
AcDbLine
 10
429.9581911793042
 20
239.0256178244053
 30
0.0
 11
429.9581911793042
 21
289.0256178244053
 31
0.0
  0
LINE
  5
15FA
330
1F
100
AcDbEntity
  8
0
100
AcDbLine
 10
439.9581911793042
 20
299.0256178244053
 30
0.0
 11
429.9581911793042
 21
289.0256178244053
 31
0.0
  0
LINE
  5
15FB
330
1F
100
AcDbEntity
  8
0
100
AcDbLine
 10
443.4581911793042
 20
269.0256178244053
 30
0.0
 11
443.4581911793042
 21
414.0256178244053
 31
0.0
  0
LINE
  5
15FC
330
1F
100
AcDbEntity
  8
0
100
AcDbLine
 10
443.4581911793042
 20
429.0256178244053
 30
0.0
 11
439.9581911793042
 21
429.0256178244053
 31
0.0
  0
LINE
  5
15FD
330
1F
100
AcDbEntity
  8
0
100
AcDbLine
 10
439.9581911793042
 20
429.0256178244053
 30
0.0
 11
439.9581911793042
 21
449.0256178244053
 31
0.0
  0
LINE
  5
15FE
330
1F
100
AcDbEntity
  8
0
100
AcDbLine
 10
429.9581911793042
 20
424.0256178244053
 30
0.0
 11
439.9581911793042
 21
414.0256178244053
 31
0.0
  0
LINE
  5
15FF
330
1F
100
AcDbEntity
  8
0
100
AcDbLine
 10
429.9581911793042
 20
424.0256178244053
 30
0.0
 11
429.9581911793042
 21
459.0256178244053
 31
0.0
  0
LINE
  5
1600
330
1F
100
AcDbEntity
  8
0
100
AcDbLine
 10
429.9581911793042
 20
459.0256178244053
 30
0.0
 11
439.9581911793042
 21
459.0256178244053
 31
0.0
  0
LINE
  5
1601
330
1F
100
AcDbEntity
  8
0
100
AcDbLine
 10
439.9581911793042
 20
459.0256178244053
 30
0.0
 11
439.9581911793042
 21
449.0256178244053
 31
0.0
  0
LINE
  5
1602
330
1F
100
AcDbEntity
  8
0
100
AcDbLine
 10
449.9581911793042
 20
449.0256178244053
 30
0.0
 11
449.9581911793042
 21
459.0256178244053
 31
0.0
  0
LINE
  5
1603
330
1F
100
AcDbEntity
  8
0
100
AcDbLine
 10
449.9581911793042
 20
459.0256178244053
 30
0.0
 11
459.9581911793042
 21
459.0256178244053
 31
0.0
  0
LINE
  5
1604
330
1F
100
AcDbEntity
  8
0
100
AcDbLine
 10
459.9581911793042
 20
459.0256178244053
 30
0.0
 11
459.9581911793042
 21
449.0256178244053
 31
0.0
  0
LINE
  5
1605
330
1F
100
AcDbEntity
  8
0
100
AcDbLine
 10
459.9581911793042
 20
449.0256178244053
 30
0.0
 11
469.9581911793042
 21
449.0256178244053
 31
0.0
  0
LINE
  5
1606
330
1F
100
AcDbEntity
  8
0
100
AcDbLine
 10
469.9581911793042
 20
449.0256178244053
 30
0.0
 11
469.9581911793042
 21
459.0256178244053
 31
0.0
  0
LINE
  5
1607
330
1F
100
AcDbEntity
  8
0
100
AcDbLine
 10
469.9581911793042
 20
459.0256178244053
 30
0.0
 11
479.9581911793042
 21
459.0256178244053
 31
0.0
  0
LINE
  5
1608
330
1F
100
AcDbEntity
  8
0
100
AcDbLine
 10
479.9581911793042
 20
459.0256178244053
 30
0.0
 11
479.9581911793042
 21
449.0256178244053
 31
0.0
  0
LINE
  5
1609
330
1F
100
AcDbEntity
  8
0
100
AcDbLine
 10
479.9581911793042
 20
449.0256178244053
 30
0.0
 11
489.9581911793042
 21
449.0256178244053
 31
0.0
  0
LINE
  5
160A
330
1F
100
AcDbEntity
  8
0
100
AcDbLine
 10
489.9581911793042
 20
449.0256178244053
 30
0.0
 11
489.9581911793042
 21
459.0256178244053
 31
0.0
  0
LINE
  5
160B
330
1F
100
AcDbEntity
  8
0
100
AcDbLine
 10
489.9581911793042
 20
459.0256178244053
 30
0.0
 11
499.9581911793042
 21
459.0256178244053
 31
0.0
  0
LINE
  5
160C
330
1F
100
AcDbEntity
  8
0
100
AcDbLine
 10
499.9581911793042
 20
459.0256178244053
 30
0.0
 11
499.9581911793042
 21
449.0256178244053
 31
0.0
  0
LINE
  5
160D
330
1F
100
AcDbEntity
  8
0
100
AcDbLine
 10
499.9581911793042
 20
449.0256178244053
 30
0.0
 11
509.9581911793042
 21
449.0256178244053
 31
0.0
  0
LINE
  5
160E
330
1F
100
AcDbEntity
  8
0
100
AcDbLine
 10
509.9581911793042
 20
449.0256178244053
 30
0.0
 11
509.9581911793042
 21
459.0256178244053
 31
0.0
  0
LINE
  5
160F
330
1F
100
AcDbEntity
  8
0
100
AcDbLine
 10
509.9581911793042
 20
459.0256178244053
 30
0.0
 11
519.9581911793041
 21
459.0256178244053
 31
0.0
  0
LINE
  5
1610
330
1F
100
AcDbEntity
  8
0
100
AcDbLine
 10
519.9581911793041
 20
459.0256178244053
 30
0.0
 11
519.9581911793041
 21
449.0256178244053
 31
0.0
  0
LINE
  5
1611
330
1F
100
AcDbEntity
  8
0
100
AcDbLine
 10
529.9581911793041
 20
449.0256178244053
 30
0.0
 11
529.9581911793041
 21
459.0256178244053
 31
0.0
  0
LINE
  5
1612
330
1F
100
AcDbEntity
  8
0
100
AcDbLine
 10
529.9581911793041
 20
459.0256178244053
 30
0.0
 11
539.9581911793041
 21
459.0256178244053
 31
0.0
  0
LINE
  5
1613
330
1F
100
AcDbEntity
  8
0
100
AcDbLine
 10
539.9581911793041
 20
459.0256178244053
 30
0.0
 11
539.9581911793041
 21
424.0256178244053
 31
0.0
  0
LINE
  5
1614
330
1F
100
AcDbEntity
  8
0
100
AcDbLine
 10
539.9581911793041
 20
424.0256178244053
 30
0.0
 11
529.9581911793041
 21
414.0256178244053
 31
0.0
  0
LINE
  5
1615
330
1F
100
AcDbEntity
  8
0
100
AcDbLine
 10
529.9581911793041
 20
449.0256178244053
 30
0.0
 11
529.9581911793041
 21
429.0256178244053
 31
0.0
  0
LINE
  5
1616
330
1F
100
AcDbEntity
  8
0
100
AcDbLine
 10
529.9581911793041
 20
429.0256178244053
 30
0.0
 11
526.4581911793041
 21
429.0256178244053
 31
0.0
  0
LINE
  5
1617
330
1F
100
AcDbEntity
  8
0
100
AcDbLine
 10
529.9581911793041
 20
269.0256178244053
 30
0.0
 11
529.9581911793041
 21
299.0256178244053
 31
0.0
  0
LINE
  5
1618
330
1F
100
AcDbEntity
  8
0
100
AcDbLine
 10
529.9581911793041
 20
299.0256178244053
 30
0.0
 11
539.9581911793041
 21
289.0256178244053
 31
0.0
  0
LINE
  5
1619
330
1F
100
AcDbEntity
  8
0
100
AcDbLine
 10
539.9581911793041
 20
289.0256178244053
 30
0.0
 11
539.9581911793041
 21
239.0256178244053
 31
0.0
  0
LINE
  5
161A
330
1F
100
AcDbEntity
  8
0
100
AcDbLine
 10
529.9581911793041
 20
269.0256178244053
 30
0.0
 11
526.4581911793041
 21
269.0256178244053
 31
0.0
  0
LINE
  5
161B
330
1F
100
AcDbEntity
  8
0
100
AcDbLine
 10
443.4581911793042
 20
269.0256178244053
 30
0.0
 11
439.9581911793042
 21
269.0256178244053
 31
0.0
  0
LINE
  5
161D
330
1F
100
AcDbEntity
  8
0
100
AcDbLine
 10
439.9581911793042
 20
299.0256178244053
 30
0.0
 11
439.9581911793042
 21
269.0256178244053
 31
0.0
  0
LINE
  5
161E
330
1F
100
AcDbEntity
  8
0
100
AcDbLine
 10
439.9581911793042
 20
414.0256178244053
 30
0.0
 11
443.4581911793042
 21
414.0256178244053
 31
0.0
  0
LINE
  5
161F
330
1F
100
AcDbEntity
  8
0
100
AcDbLine
 10
529.9581911793041
 20
414.0256178244053
 30
0.0
 11
526.4581911793041
 21
414.0256178244053
 31
0.0
  0
LINE
  5
1620
330
1F
100
AcDbEntity
  8
0
100
AcDbLine
 10
443.4581911793042
 20
429.0256178244053
 30
0.0
 11
443.4581911793042
 21
449.0256178244053
 31
0.0
  0
LINE
  5
1621
330
1F
100
AcDbEntity
  8
0
100
AcDbLine
 10
443.4581911793042
 20
449.0256178244053
 30
0.0
 11
449.9581911793042
 21
449.0256178244053
 31
0.0
  0
LINE
  5
1622
330
1F
100
AcDbEntity
  8
0
100
AcDbLine
 10
526.4581911793041
 20
429.0256178244053
 30
0.0
 11
526.4581911793041
 21
449.0256178244053
 31
0.0
  0
LINE
  5
1623
330
1F
100
AcDbEntity
  8
0
100
AcDbLine
 10
526.4581911793041
 20
449.0256178244053
 30
0.0
 11
519.9581911793041
 21
449.0256178244053
 31
0.0
  0
LINE
  5
1624
330
1F
100
AcDbEntity
  8
0
100
AcDbLine
 10
526.4581911793041
 20
414.0256178244053
 30
0.0
 11
526.4581911793041
 21
269.0256178244053
 31
0.0
  0
LINE
  5
1625
330
1F
100
AcDbEntity
  8
0
100
AcDbLine
 10
516.4581911793041
 20
424.0256178244053
 30
0.0
 11
516.4581911793041
 21
420.5256178244053
 31
0.0
  0
LINE
  5
1626
330
1F
100
AcDbEntity
  8
0
100
AcDbLine
 10
516.4581911793041
 20
420.5256178244053
 30
0.0
 11
501.4581911793042
 21
420.5256178244053
 31
0.0
  0
LINE
  5
1627
330
1F
100
AcDbEntity
  8
0
100
AcDbLine
 10
501.4581911793042
 20
420.5256178244053
 30
0.0
 11
501.4581911793042
 21
424.0256178244053
 31
0.0
  0
LINE
  5
1628
330
1F
100
AcDbEntity
  8
0
100
AcDbLine
 10
501.4581911793042
 20
424.0256178244053
 30
0.0
 11
516.4581911793041
 21
424.0256178244053
 31
0.0
  0
LINE
  5
1629
330
1F
100
AcDbEntity
  8
0
100
AcDbLine
 10
453.4581911793042
 20
424.0256178244053
 30
0.0
 11
453.4581911793042
 21
420.5256178244053
 31
0.0
  0
LINE
  5
162A
330
1F
100
AcDbEntity
  8
0
100
AcDbLine
 10
453.4581911793042
 20
420.5256178244053
 30
0.0
 11
468.4581911793042
 21
420.5256178244053
 31
0.0
  0
LINE
  5
162B
330
1F
100
AcDbEntity
  8
0
100
AcDbLine
 10
468.4581911793042
 20
420.5256178244053
 30
0.0
 11
468.4581911793042
 21
424.0256178244053
 31
0.0
  0
LINE
  5
162C
330
1F
100
AcDbEntity
  8
0
100
AcDbLine
 10
468.4581911793042
 20
424.0256178244053
 30
0.0
 11
453.4581911793042
 21
424.0256178244053
 31
0.0
  0
LINE
  5
164C
330
1F
100
AcDbEntity
  8
0
100
AcDbLine
 10
484.9581911793042
 20
352.0256178244053
 30
0.0
 11
469.9581911793042
 21
352.0256178244053
 31
0.0
  0
LINE
  5
164D
330
1F
100
AcDbEntity
  8
0
100
AcDbLine
 10
469.9581911793042
 20
352.0256178244053
 30
0.0
 11
469.9581911793042
 21
355.5256178244053
 31
0.0
  0
LINE
  5
164E
330
1F
100
AcDbEntity
  8
0
100
AcDbLine
 10
469.9581911793042
 20
355.5256178244053
 30
0.0
 11
453.4581911793042
 21
355.5256178244053
 31
0.0
  0
LINE
  5
164F
330
1F
100
AcDbEntity
  8
0
100
AcDbLine
 10
453.4581911793042
 20
355.5256178244053
 30
0.0
 11
453.4581911793042
 21
390.5256178244053
 31
0.0
  0
LINE
  5
1650
330
1F
100
AcDbEntity
  8
0
100
AcDbLine
 10
484.9581911793042
 20
352.0256178244053
 30
0.0
 11
499.9581911793042
 21
352.0256178244053
 31
0.0
  0
LINE
  5
1651
330
1F
100
AcDbEntity
  8
0
100
AcDbLine
 10
499.9581911793042
 20
352.0256178244053
 30
0.0
 11
499.9581911793042
 21
355.5256178244053
 31
0.0
  0
LINE
  5
1652
330
1F
100
AcDbEntity
  8
0
100
AcDbLine
 10
499.9581911793042
 20
355.5256178244053
 30
0.0
 11
516.4581911793041
 21
355.5256178244053
 31
0.0
  0
LINE
  5
1653
330
1F
100
AcDbEntity
  8
0
100
AcDbLine
 10
516.4581911793041
 20
355.5256178244053
 30
0.0
 11
516.4581911793041
 21
390.5256178244053
 31
0.0
  0
ARC
  5
165B
330
1F
100
AcDbEntity
  8
0
100
AcDbCircle
 10
473.4581911793042
 20
390.5256178244053
 30
0.0
 40
20.0
100
AcDbArc
 50
0.0
 51
180.0
  0
ARC
  5
165D
330
1F
100
AcDbEntity
  8
0
100
AcDbCircle
 10
496.4581911793042
 20
390.5256178244053
 30
0.0
 40
20.0
100
AcDbArc
 50
0.0
 51
180.0
  0
LINE
  5
165E
330
1F
100
AcDbEntity
  8
0
100
AcDbLine
 10
473.4581911793042
 20
410.5256178244053
 30
0.0
 11
496.4581911793042
 21
410.5256178244053
 31
0.0
  0
LINE
  5
1686
330
1F
100
AcDbEntity
  8
0
100
AcDbLine
 10
453.4581911793042
 20
239.0256178244053
 30
0.0
 11
429.9581911793042
 21
239.0256178244053
 31
0.0
  0
LINE
  5
1689
330
1F
100
AcDbEntity
  8
0
100
AcDbLine
 10
453.4581911793042
 20
239.0256178244053
 30
0.0
 11
453.4581911793042
 21
294.0256178244053
 31
0.0
  0
LINE
  5
168D
330
1F
100
AcDbEntity
  8
0
100
AcDbLine
 10
516.4581911793041
 20
239.0256178244053
 30
0.0
 11
516.4581911793041
 21
294.0256178244053
 31
0.0
  0
ARC
  5
168E
330
1F
100
AcDbEntity
  8
0
100
AcDbCircle
 10
473.4581911793042
 20
294.0256178244053
 30
0.0
 40
20.0
100
AcDbArc
 50
0.0
 51
180.0
  0
ARC
  5
168F
330
1F
100
AcDbEntity
  8
0
100
AcDbCircle
 10
496.4581911793042
 20
294.0256178244053
 30
0.0
 40
20.0
100
AcDbArc
 50
0.0
 51
180.0
  0
LINE
  5
1690
330
1F
100
AcDbEntity
  8
0
100
AcDbLine
 10
473.4581911793042
 20
314.0256178244053
 30
0.0
 11
496.4581911793042
 21
314.0256178244053
 31
0.0
  0
LINE
  5
1692
330
1F
100
AcDbEntity
  8
0
100
AcDbLine
 10
516.4581911793041
 20
239.0256178244053
 30
0.0
 11
539.9581911793041
 21
239.0256178244053
 31
0.0
  0
LINE
  5
1899
330
1F
100
AcDbEntity
  8
0
100
AcDbLine
 10
110.1656192663065
 20
790.4090785496762
 30
0.0
 11
100.1656192663065
 21
780.4090785496762
 31
0.0
  0
LINE
  5
189A
330
1F
100
AcDbEntity
  8
0
100
AcDbLine
 10
100.1656192663065
 20
780.4090785496762
 30
0.0
 11
110.1656192663065
 21
780.4090785496762
 31
0.0
  0
LINE
  5
189B
330
1F
100
AcDbEntity
  8
0
100
AcDbLine
 10
110.1656192663065
 20
780.4090785496762
 30
0.0
 11
110.1656192663065
 21
776.9090785496762
 31
0.0
  0
LINE
  5
189C
330
1F
100
AcDbEntity
  8
0
100
AcDbLine
 10
110.1656192663065
 20
776.9090785496762
 30
0.0
 11
100.1656192663065
 21
776.9090785496762
 31
0.0
  0
LINE
  5
189D
330
1F
100
AcDbEntity
  8
0
100
AcDbLine
 10
100.1656192663065
 20
776.9090785496762
 30
0.0
 11
100.1656192663065
 21
566.9090785496762
 31
0.0
  0
LINE
  5
189E
330
1F
100
AcDbEntity
  8
0
100
AcDbLine
 10
100.1656192663065
 20
566.9090785496762
 30
0.0
 11
110.1656192663065
 21
566.9090785496762
 31
0.0
  0
LINE
  5
189F
330
1F
100
AcDbEntity
  8
0
100
AcDbLine
 10
110.1656192663065
 20
566.9090785496762
 30
0.0
 11
110.1656192663065
 21
563.4090785496762
 31
0.0
  0
LINE
  5
18A0
330
1F
100
AcDbEntity
  8
0
100
AcDbLine
 10
110.1656192663065
 20
563.4090785496762
 30
0.0
 11
100.1656192663065
 21
563.4090785496762
 31
0.0
  0
LINE
  5
18A1
330
1F
100
AcDbEntity
  8
0
100
AcDbLine
 10
110.1656192663065
 20
553.4090785496762
 30
0.0
 11
100.1656192663065
 21
563.4090785496762
 31
0.0
  0
LINE
  5
18A2
330
1F
100
AcDbEntity
  8
0
100
AcDbLine
 10
110.1656192663065
 20
553.4090785496762
 30
0.0
 11
125.1656192663065
 21
553.4090785496762
 31
0.0
  0
LINE
  5
18A3
330
1F
100
AcDbEntity
  8
0
100
AcDbLine
 10
125.1656192663065
 20
553.4090785496762
 30
0.0
 11
125.1656192663065
 21
566.9090785496762
 31
0.0
  0
LINE
  5
18A4
330
1F
100
AcDbEntity
  8
0
100
AcDbLine
 10
125.1656192663065
 20
566.9090785496762
 30
0.0
 11
220.1656192663065
 21
566.9090785496762
 31
0.0
  0
LINE
  5
18A5
330
1F
100
AcDbEntity
  8
0
100
AcDbLine
 10
220.1656192663065
 20
566.9090785496762
 30
0.0
 11
220.1656192663065
 21
563.4090785496762
 31
0.0
  0
LINE
  5
18A6
330
1F
100
AcDbEntity
  8
0
100
AcDbLine
 10
220.1656192663065
 20
563.4090785496762
 30
0.0
 11
210.1656192663065
 21
563.4090785496762
 31
0.0
  0
LINE
  5
18A7
330
1F
100
AcDbEntity
  8
0
100
AcDbLine
 10
220.1656192663065
 20
553.4090785496762
 30
0.0
 11
210.1656192663065
 21
563.4090785496762
 31
0.0
  0
LINE
  5
18A8
330
1F
100
AcDbEntity
  8
0
100
AcDbLine
 10
220.1656192663065
 20
553.4090785496762
 30
0.0
 11
235.1656192663065
 21
553.4090785496762
 31
0.0
  0
LINE
  5
18A9
330
1F
100
AcDbEntity
  8
0
100
AcDbLine
 10
235.1656192663065
 20
566.9090785496762
 30
0.0
 11
250.1656192663065
 21
566.9090785496762
 31
0.0
  0
LINE
  5
18AA
330
1F
100
AcDbEntity
  8
0
100
AcDbLine
 10
250.1656192663065
 20
566.9090785496762
 30
0.0
 11
250.1656192663065
 21
576.9090785496762
 31
0.0
  0
LINE
  5
18AB
330
1F
100
AcDbEntity
  8
0
100
AcDbLine
 10
250.1656192663065
 20
576.9090785496762
 30
0.0
 11
240.1656192663065
 21
576.9090785496762
 31
0.0
  0
LINE
  5
18AC
330
1F
100
AcDbEntity
  8
0
100
AcDbLine
 10
240.1656192663065
 20
576.9090785496762
 30
0.0
 11
240.1656192663065
 21
586.9090785496762
 31
0.0
  0
LINE
  5
18AD
330
1F
100
AcDbEntity
  8
0
100
AcDbLine
 10
250.1656192663065
 20
646.9090785496762
 30
0.0
 11
240.1656192663065
 21
646.9090785496762
 31
0.0
  0
LINE
  5
18AE
330
1F
100
AcDbEntity
  8
0
100
AcDbLine
 10
240.1656192663065
 20
646.9090785496762
 30
0.0
 11
240.1656192663065
 21
636.9090785496762
 31
0.0
  0
LINE
  5
18AF
330
1F
100
AcDbEntity
  8
0
100
AcDbLine
 10
240.1656192663065
 20
636.9090785496762
 30
0.0
 11
250.1656192663065
 21
636.9090785496762
 31
0.0
  0
LINE
  5
18B0
330
1F
100
AcDbEntity
  8
0
100
AcDbLine
 10
250.1656192663065
 20
636.9090785496762
 30
0.0
 11
250.1656192663065
 21
626.9090785496762
 31
0.0
  0
LINE
  5
18B1
330
1F
100
AcDbEntity
  8
0
100
AcDbLine
 10
250.1656192663065
 20
626.9090785496762
 30
0.0
 11
240.1656192663065
 21
626.9090785496762
 31
0.0
  0
LINE
  5
18B2
330
1F
100
AcDbEntity
  8
0
100
AcDbLine
 10
240.1656192663065
 20
626.9090785496762
 30
0.0
 11
240.1656192663065
 21
616.9090785496762
 31
0.0
  0
LINE
  5
18B3
330
1F
100
AcDbEntity
  8
0
100
AcDbLine
 10
240.1656192663065
 20
616.9090785496762
 30
0.0
 11
250.1656192663065
 21
616.9090785496762
 31
0.0
  0
LINE
  5
18B4
330
1F
100
AcDbEntity
  8
0
100
AcDbLine
 10
250.1656192663065
 20
616.9090785496762
 30
0.0
 11
250.1656192663065
 21
606.9090785496762
 31
0.0
  0
LINE
  5
18B5
330
1F
100
AcDbEntity
  8
0
100
AcDbLine
 10
250.1656192663065
 20
606.9090785496762
 30
0.0
 11
240.1656192663065
 21
606.9090785496762
 31
0.0
  0
LINE
  5
18B6
330
1F
100
AcDbEntity
  8
0
100
AcDbLine
 10
240.1656192663065
 20
606.9090785496762
 30
0.0
 11
240.1656192663065
 21
596.9090785496762
 31
0.0
  0
LINE
  5
18B7
330
1F
100
AcDbEntity
  8
0
100
AcDbLine
 10
240.1656192663065
 20
596.9090785496762
 30
0.0
 11
250.1656192663065
 21
596.9090785496762
 31
0.0
  0
LINE
  5
18B8
330
1F
100
AcDbEntity
  8
0
100
AcDbLine
 10
250.1656192663065
 20
596.9090785496762
 30
0.0
 11
250.1656192663065
 21
586.9090785496762
 31
0.0
  0
LINE
  5
18B9
330
1F
100
AcDbEntity
  8
0
100
AcDbLine
 10
250.1656192663065
 20
586.9090785496762
 30
0.0
 11
240.1656192663065
 21
586.9090785496762
 31
0.0
  0
LINE
  5
18BA
330
1F
100
AcDbEntity
  8
0
100
AcDbLine
 10
250.1656192663065
 20
656.9090785496762
 30
0.0
 11
240.1656192663065
 21
656.9090785496762
 31
0.0
  0
LINE
  5
18BB
330
1F
100
AcDbEntity
  8
0
100
AcDbLine
 10
240.1656192663065
 20
656.9090785496762
 30
0.0
 11
240.1656192663065
 21
666.9090785496762
 31
0.0
  0
LINE
  5
18BC
330
1F
100
AcDbEntity
  8
0
100
AcDbLine
 10
250.1656192663065
 20
726.9090785496762
 30
0.0
 11
240.1656192663065
 21
726.9090785496762
 31
0.0
  0
LINE
  5
18BD
330
1F
100
AcDbEntity
  8
0
100
AcDbLine
 10
240.1656192663065
 20
726.9090785496762
 30
0.0
 11
240.1656192663065
 21
716.9090785496762
 31
0.0
  0
LINE
  5
18BE
330
1F
100
AcDbEntity
  8
0
100
AcDbLine
 10
240.1656192663065
 20
716.9090785496762
 30
0.0
 11
250.1656192663065
 21
716.9090785496762
 31
0.0
  0
LINE
  5
18BF
330
1F
100
AcDbEntity
  8
0
100
AcDbLine
 10
250.1656192663065
 20
716.9090785496762
 30
0.0
 11
250.1656192663065
 21
706.9090785496762
 31
0.0
  0
LINE
  5
18C0
330
1F
100
AcDbEntity
  8
0
100
AcDbLine
 10
250.1656192663065
 20
706.9090785496762
 30
0.0
 11
240.1656192663065
 21
706.9090785496762
 31
0.0
  0
LINE
  5
18C1
330
1F
100
AcDbEntity
  8
0
100
AcDbLine
 10
240.1656192663065
 20
706.9090785496762
 30
0.0
 11
240.1656192663065
 21
696.9090785496762
 31
0.0
  0
LINE
  5
18C2
330
1F
100
AcDbEntity
  8
0
100
AcDbLine
 10
240.1656192663065
 20
696.9090785496762
 30
0.0
 11
250.1656192663065
 21
696.9090785496762
 31
0.0
  0
LINE
  5
18C3
330
1F
100
AcDbEntity
  8
0
100
AcDbLine
 10
250.1656192663065
 20
696.9090785496762
 30
0.0
 11
250.1656192663065
 21
686.9090785496762
 31
0.0
  0
LINE
  5
18C4
330
1F
100
AcDbEntity
  8
0
100
AcDbLine
 10
250.1656192663065
 20
686.9090785496762
 30
0.0
 11
240.1656192663065
 21
686.9090785496762
 31
0.0
  0
LINE
  5
18C5
330
1F
100
AcDbEntity
  8
0
100
AcDbLine
 10
240.1656192663065
 20
686.9090785496762
 30
0.0
 11
240.1656192663065
 21
676.9090785496762
 31
0.0
  0
LINE
  5
18C6
330
1F
100
AcDbEntity
  8
0
100
AcDbLine
 10
240.1656192663065
 20
676.9090785496762
 30
0.0
 11
250.1656192663065
 21
676.9090785496762
 31
0.0
  0
LINE
  5
18C7
330
1F
100
AcDbEntity
  8
0
100
AcDbLine
 10
250.1656192663065
 20
676.9090785496762
 30
0.0
 11
250.1656192663065
 21
666.9090785496762
 31
0.0
  0
LINE
  5
18C8
330
1F
100
AcDbEntity
  8
0
100
AcDbLine
 10
250.1656192663065
 20
666.9090785496762
 30
0.0
 11
240.1656192663065
 21
666.9090785496762
 31
0.0
  0
LINE
  5
18C9
330
1F
100
AcDbEntity
  8
0
100
AcDbLine
 10
250.1656192663065
 20
646.9090785496762
 30
0.0
 11
250.1656192663065
 21
656.9090785496762
 31
0.0
  0
LINE
  5
18CA
330
1F
100
AcDbEntity
  8
0
100
AcDbLine
 10
250.1656192663065
 20
776.9090785496762
 30
0.0
 11
250.1656192663065
 21
766.9090785496762
 31
0.0
  0
LINE
  5
18CB
330
1F
100
AcDbEntity
  8
0
100
AcDbLine
 10
250.1656192663065
 20
766.9090785496762
 30
0.0
 11
240.1656192663065
 21
766.9090785496762
 31
0.0
  0
LINE
  5
18CC
330
1F
100
AcDbEntity
  8
0
100
AcDbLine
 10
240.1656192663065
 20
766.9090785496762
 30
0.0
 11
240.1656192663065
 21
756.9090785496762
 31
0.0
  0
LINE
  5
18CD
330
1F
100
AcDbEntity
  8
0
100
AcDbLine
 10
240.1656192663065
 20
756.9090785496762
 30
0.0
 11
250.1656192663065
 21
756.9090785496762
 31
0.0
  0
LINE
  5
18CE
330
1F
100
AcDbEntity
  8
0
100
AcDbLine
 10
250.1656192663065
 20
756.9090785496762
 30
0.0
 11
250.1656192663065
 21
746.9090785496762
 31
0.0
  0
LINE
  5
18CF
330
1F
100
AcDbEntity
  8
0
100
AcDbLine
 10
250.1656192663065
 20
746.9090785496762
 30
0.0
 11
240.1656192663065
 21
746.9090785496762
 31
0.0
  0
LINE
  5
18D0
330
1F
100
AcDbEntity
  8
0
100
AcDbLine
 10
240.1656192663065
 20
746.9090785496762
 30
0.0
 11
240.1656192663065
 21
736.9090785496762
 31
0.0
  0
LINE
  5
18D1
330
1F
100
AcDbEntity
  8
0
100
AcDbLine
 10
240.1656192663065
 20
736.9090785496762
 30
0.0
 11
250.1656192663065
 21
736.9090785496762
 31
0.0
  0
LINE
  5
18D2
330
1F
100
AcDbEntity
  8
0
100
AcDbLine
 10
250.1656192663065
 20
736.9090785496762
 30
0.0
 11
250.1656192663065
 21
726.9090785496762
 31
0.0
  0
LINE
  5
18D3
330
1F
100
AcDbEntity
  8
0
100
AcDbLine
 10
110.1656192663065
 20
790.4090785496762
 30
0.0
 11
125.1656192663065
 21
790.4090785496762
 31
0.0
  0
LINE
  5
18D4
330
1F
100
AcDbEntity
  8
0
100
AcDbLine
 10
125.1656192663065
 20
790.4090785496762
 30
0.0
 11
125.1656192663065
 21
776.9090785496762
 31
0.0
  0
LINE
  5
18D5
330
1F
100
AcDbEntity
  8
0
100
AcDbLine
 10
125.1656192663065
 20
776.9090785496762
 30
0.0
 11
220.1656192663065
 21
776.9090785496762
 31
0.0
  0
LINE
  5
18D6
330
1F
100
AcDbEntity
  8
0
100
AcDbLine
 10
220.1656192663065
 20
776.9090785496762
 30
0.0
 11
220.1656192663065
 21
780.4090785496762
 31
0.0
  0
LINE
  5
18D7
330
1F
100
AcDbEntity
  8
0
100
AcDbLine
 10
220.1656192663065
 20
780.4090785496762
 30
0.0
 11
210.1656192663065
 21
780.4090785496762
 31
0.0
  0
LINE
  5
18D8
330
1F
100
AcDbEntity
  8
0
100
AcDbLine
 10
220.1656192663065
 20
790.4090785496762
 30
0.0
 11
210.1656192663065
 21
780.4090785496762
 31
0.0
  0
LINE
  5
18D9
330
1F
100
AcDbEntity
  8
0
100
AcDbLine
 10
220.1656192663065
 20
790.4090785496762
 30
0.0
 11
235.1656192663065
 21
790.4090785496762
 31
0.0
  0
LINE
  5
18DA
330
1F
100
AcDbEntity
  8
0
100
AcDbLine
 10
235.1656192663065
 20
553.4090785496762
 30
0.0
 11
235.1656192663065
 21
566.9090785496762
 31
0.0
  0
LINE
  5
18DB
330
1F
100
AcDbEntity
  8
0
100
AcDbLine
 10
235.1656192663065
 20
790.4090785496762
 30
0.0
 11
235.1656192663065
 21
776.9090785496762
 31
0.0
  0
LINE
  5
18DC
330
1F
100
AcDbEntity
  8
0
100
AcDbLine
 10
235.1656192663065
 20
776.9090785496762
 30
0.0
 11
250.1656192663065
 21
776.9090785496762
 31
0.0
  0
LINE
  5
18DD
330
1F
100
AcDbEntity
  8
0
100
AcDbLine
 10
85.83037664039813
 20
231.318229842294
 30
0.0
 11
85.83037664039813
 21
21.31822984229404
 31
0.0
  0
LINE
  5
18DE
330
1F
100
AcDbEntity
  8
0
100
AcDbLine
 10
85.83037664039813
 20
21.31822984229404
 30
0.0
 11
95.83037664039813
 21
21.31822984229404
 31
0.0
  0
LINE
  5
18DF
330
1F
100
AcDbEntity
  8
0
100
AcDbLine
 10
95.83037664039813
 20
21.31822984229404
 30
0.0
 11
95.83037664039813
 21
17.81822984229404
 31
0.0
  0
LINE
  5
18E0
330
1F
100
AcDbEntity
  8
0
100
AcDbLine
 10
95.83037664039813
 20
17.81822984229404
 30
0.0
 11
131.8303766403981
 21
17.81822984229404
 31
0.0
  0
LINE
  5
18E1
330
1F
100
AcDbEntity
  8
0
100
AcDbLine
 10
131.8303766403981
 20
17.81822984229404
 30
0.0
 11
131.8303766403981
 21
21.31822984229404
 31
0.0
  0
LINE
  5
18E2
330
1F
100
AcDbEntity
  8
0
100
AcDbLine
 10
131.8303766403981
 20
21.31822984229404
 30
0.0
 11
141.8303766403981
 21
21.31822984229404
 31
0.0
  0
LINE
  5
18E3
330
1F
100
AcDbEntity
  8
0
100
AcDbLine
 10
141.8303766403981
 20
21.31822984229404
 30
0.0
 11
141.8303766403982
 21
231.318229842294
 31
0.0
  0
LINE
  5
18E4
330
1F
100
AcDbEntity
  8
0
100
AcDbLine
 10
141.8303766403982
 20
231.318229842294
 30
0.0
 11
131.8303766403982
 21
231.318229842294
 31
0.0
  0
LINE
  5
18E5
330
1F
100
AcDbEntity
  8
0
100
AcDbLine
 10
131.8303766403982
 20
231.318229842294
 30
0.0
 11
131.8303766403982
 21
234.818229842294
 31
0.0
  0
LINE
  5
18E6
330
1F
100
AcDbEntity
  8
0
100
AcDbLine
 10
131.8303766403982
 20
234.818229842294
 30
0.0
 11
95.83037664039816
 21
234.818229842294
 31
0.0
  0
LINE
  5
18E7
330
1F
100
AcDbEntity
  8
0
100
AcDbLine
 10
95.83037664039816
 20
234.818229842294
 30
0.0
 11
95.83037664039816
 21
231.318229842294
 31
0.0
  0
LINE
  5
18E8
330
1F
100
AcDbEntity
  8
0
100
AcDbLine
 10
95.83037664039816
 20
231.318229842294
 30
0.0
 11
85.83037664039813
 21
231.318229842294
 31
0.0
  0
LINE
  5
18E9
330
1F
100
AcDbEntity
  8
0
100
AcDbLine
 10
-259.5254758635411
 20
351.6226899231821
 30
0.0
 11
-249.5254758635411
 21
341.6226899231821
 31
0.0
  0
LINE
  5
18EA
330
1F
100
AcDbEntity
  8
0
100
AcDbLine
 10
-249.5254758635411
 20
341.6226899231821
 30
0.0
 11
-249.5254758635411
 21
351.6226899231821
 31
0.0
  0
LINE
  5
18EB
330
1F
100
AcDbEntity
  8
0
100
AcDbLine
 10
-249.5254758635411
 20
351.6226899231821
 30
0.0
 11
-246.0254758635411
 21
351.6226899231821
 31
0.0
  0
LINE
  5
18EC
330
1F
100
AcDbEntity
  8
0
100
AcDbLine
 10
-246.0254758635411
 20
351.6226899231821
 30
0.0
 11
-246.0254758635411
 21
341.6226899231821
 31
0.0
  0
LINE
  5
18ED
330
1F
100
AcDbEntity
  8
0
100
AcDbLine
 10
-246.0254758635411
 20
341.6226899231821
 30
0.0
 11
-216.0254758635409
 21
341.6226899231821
 31
0.0
  0
LINE
  5
18EE
330
1F
100
AcDbEntity
  8
0
100
AcDbLine
 10
-36.02547586354081
 20
341.6226899231821
 30
0.0
 11
-36.02547586354081
 21
351.6226899231821
 31
0.0
  0
LINE
  5
18EF
330
1F
100
AcDbEntity
  8
0
100
AcDbLine
 10
-36.02547586354081
 20
351.6226899231821
 30
0.0
 11
-32.52547586354081
 21
351.6226899231821
 31
0.0
  0
LINE
  5
18F0
330
1F
100
AcDbEntity
  8
0
100
AcDbLine
 10
-32.52547586354081
 20
351.6226899231821
 30
0.0
 11
-32.52547586354081
 21
341.6226899231821
 31
0.0
  0
LINE
  5
18F1
330
1F
100
AcDbEntity
  8
0
100
AcDbLine
 10
-22.52547586354081
 20
351.6226899231821
 30
0.0
 11
-32.52547586354081
 21
341.6226899231821
 31
0.0
  0
LINE
  5
18F2
330
1F
100
AcDbEntity
  8
0
100
AcDbLine
 10
-22.52547586354081
 20
351.6226899231821
 30
0.0
 11
-22.52547586354081
 21
366.6226899231821
 31
0.0
  0
LINE
  5
18F3
330
1F
100
AcDbEntity
  8
0
100
AcDbLine
 10
-22.52547586354081
 20
366.6226899231821
 30
0.0
 11
-36.02547586354081
 21
366.6226899231821
 31
0.0
  0
LINE
  5
18F4
330
1F
100
AcDbEntity
  8
0
100
AcDbLine
 10
-36.02547586354081
 20
366.6226899231821
 30
0.0
 11
-36.02547586354081
 21
461.6226899231821
 31
0.0
  0
LINE
  5
18F5
330
1F
100
AcDbEntity
  8
0
100
AcDbLine
 10
-36.02547586354081
 20
461.6226899231821
 30
0.0
 11
-32.52547586354081
 21
461.6226899231821
 31
0.0
  0
LINE
  5
18F6
330
1F
100
AcDbEntity
  8
0
100
AcDbLine
 10
-32.52547586354081
 20
461.6226899231821
 30
0.0
 11
-32.52547586354081
 21
451.6226899231821
 31
0.0
  0
LINE
  5
18F7
330
1F
100
AcDbEntity
  8
0
100
AcDbLine
 10
-22.52547586354081
 20
461.6226899231821
 30
0.0
 11
-32.52547586354081
 21
451.6226899231821
 31
0.0
  0
LINE
  5
18F8
330
1F
100
AcDbEntity
  8
0
100
AcDbLine
 10
-22.52547586354081
 20
461.6226899231821
 30
0.0
 11
-22.52547586354081
 21
476.6226899231821
 31
0.0
  0
LINE
  5
18F9
330
1F
100
AcDbEntity
  8
0
100
AcDbLine
 10
-36.02547586354081
 20
476.6226899231821
 30
0.0
 11
-36.02547586354081
 21
491.6226899231821
 31
0.0
  0
LINE
  5
18FA
330
1F
100
AcDbEntity
  8
0
100
AcDbLine
 10
-36.02547586354081
 20
491.6226899231821
 30
0.0
 11
-46.02547586354081
 21
491.6226899231821
 31
0.0
  0
LINE
  5
18FB
330
1F
100
AcDbEntity
  8
0
100
AcDbLine
 10
-46.02547586354081
 20
491.6226899231821
 30
0.0
 11
-46.02547586354081
 21
481.6226899231821
 31
0.0
  0
LINE
  5
18FC
330
1F
100
AcDbEntity
  8
0
100
AcDbLine
 10
-46.02547586354081
 20
481.6226899231821
 30
0.0
 11
-56.02547586354081
 21
481.6226899231821
 31
0.0
  0
LINE
  5
18FD
330
1F
100
AcDbEntity
  8
0
100
AcDbLine
 10
-116.0254758635408
 20
491.6226899231821
 30
0.0
 11
-116.0254758635408
 21
481.6226899231821
 31
0.0
  0
LINE
  5
18FE
330
1F
100
AcDbEntity
  8
0
100
AcDbLine
 10
-116.0254758635408
 20
481.6226899231821
 30
0.0
 11
-106.0254758635408
 21
481.6226899231821
 31
0.0
  0
LINE
  5
18FF
330
1F
100
AcDbEntity
  8
0
100
AcDbLine
 10
-106.0254758635408
 20
481.6226899231821
 30
0.0
 11
-106.0254758635408
 21
491.6226899231821
 31
0.0
  0
LINE
  5
1900
330
1F
100
AcDbEntity
  8
0
100
AcDbLine
 10
-106.0254758635408
 20
491.6226899231821
 30
0.0
 11
-96.0254758635408
 21
491.6226899231821
 31
0.0
  0
LINE
  5
1901
330
1F
100
AcDbEntity
  8
0
100
AcDbLine
 10
-96.0254758635408
 20
491.6226899231821
 30
0.0
 11
-96.0254758635408
 21
481.6226899231821
 31
0.0
  0
LINE
  5
1902
330
1F
100
AcDbEntity
  8
0
100
AcDbLine
 10
-96.0254758635408
 20
481.6226899231821
 30
0.0
 11
-86.0254758635408
 21
481.6226899231821
 31
0.0
  0
LINE
  5
1903
330
1F
100
AcDbEntity
  8
0
100
AcDbLine
 10
-86.0254758635408
 20
481.6226899231821
 30
0.0
 11
-86.0254758635408
 21
491.6226899231821
 31
0.0
  0
LINE
  5
1904
330
1F
100
AcDbEntity
  8
0
100
AcDbLine
 10
-86.0254758635408
 20
491.6226899231821
 30
0.0
 11
-76.0254758635408
 21
491.6226899231821
 31
0.0
  0
LINE
  5
1905
330
1F
100
AcDbEntity
  8
0
100
AcDbLine
 10
-76.0254758635408
 20
491.6226899231821
 30
0.0
 11
-76.0254758635408
 21
481.6226899231821
 31
0.0
  0
LINE
  5
1906
330
1F
100
AcDbEntity
  8
0
100
AcDbLine
 10
-76.0254758635408
 20
481.6226899231821
 30
0.0
 11
-66.0254758635408
 21
481.6226899231821
 31
0.0
  0
LINE
  5
1907
330
1F
100
AcDbEntity
  8
0
100
AcDbLine
 10
-66.0254758635408
 20
481.6226899231821
 30
0.0
 11
-66.0254758635408
 21
491.6226899231821
 31
0.0
  0
LINE
  5
1908
330
1F
100
AcDbEntity
  8
0
100
AcDbLine
 10
-66.0254758635408
 20
491.6226899231821
 30
0.0
 11
-56.02547586354081
 21
491.6226899231821
 31
0.0
  0
LINE
  5
1909
330
1F
100
AcDbEntity
  8
0
100
AcDbLine
 10
-56.02547586354081
 20
491.6226899231821
 30
0.0
 11
-56.02547586354081
 21
481.6226899231821
 31
0.0
  0
LINE
  5
190A
330
1F
100
AcDbEntity
  8
0
100
AcDbLine
 10
-126.0254758635408
 20
491.6226899231821
 30
0.0
 11
-126.0254758635408
 21
481.6226899231821
 31
0.0
  0
LINE
  5
190B
330
1F
100
AcDbEntity
  8
0
100
AcDbLine
 10
-126.0254758635408
 20
481.6226899231821
 30
0.0
 11
-136.0254758635408
 21
481.6226899231821
 31
0.0
  0
LINE
  5
190C
330
1F
100
AcDbEntity
  8
0
100
AcDbLine
 10
-196.0254758635408
 20
491.6226899231821
 30
0.0
 11
-196.0254758635408
 21
481.6226899231821
 31
0.0
  0
LINE
  5
190D
330
1F
100
AcDbEntity
  8
0
100
AcDbLine
 10
-196.0254758635408
 20
481.6226899231821
 30
0.0
 11
-186.0254758635408
 21
481.6226899231821
 31
0.0
  0
LINE
  5
190E
330
1F
100
AcDbEntity
  8
0
100
AcDbLine
 10
-186.0254758635408
 20
481.6226899231821
 30
0.0
 11
-186.0254758635408
 21
491.6226899231821
 31
0.0
  0
LINE
  5
190F
330
1F
100
AcDbEntity
  8
0
100
AcDbLine
 10
-186.0254758635408
 20
491.6226899231821
 30
0.0
 11
-176.0254758635408
 21
491.6226899231821
 31
0.0
  0
LINE
  5
1910
330
1F
100
AcDbEntity
  8
0
100
AcDbLine
 10
-176.0254758635408
 20
491.6226899231821
 30
0.0
 11
-176.0254758635408
 21
481.6226899231821
 31
0.0
  0
LINE
  5
1911
330
1F
100
AcDbEntity
  8
0
100
AcDbLine
 10
-176.0254758635408
 20
481.6226899231821
 30
0.0
 11
-166.0254758635408
 21
481.6226899231821
 31
0.0
  0
LINE
  5
1912
330
1F
100
AcDbEntity
  8
0
100
AcDbLine
 10
-166.0254758635408
 20
481.6226899231821
 30
0.0
 11
-166.0254758635408
 21
491.6226899231821
 31
0.0
  0
LINE
  5
1913
330
1F
100
AcDbEntity
  8
0
100
AcDbLine
 10
-166.0254758635408
 20
491.6226899231821
 30
0.0
 11
-156.0254758635408
 21
491.6226899231821
 31
0.0
  0
LINE
  5
1914
330
1F
100
AcDbEntity
  8
0
100
AcDbLine
 10
-156.0254758635408
 20
491.6226899231821
 30
0.0
 11
-156.0254758635408
 21
481.6226899231821
 31
0.0
  0
LINE
  5
1915
330
1F
100
AcDbEntity
  8
0
100
AcDbLine
 10
-156.0254758635408
 20
481.6226899231821
 30
0.0
 11
-146.0254758635408
 21
481.6226899231821
 31
0.0
  0
LINE
  5
1916
330
1F
100
AcDbEntity
  8
0
100
AcDbLine
 10
-146.0254758635408
 20
481.6226899231821
 30
0.0
 11
-146.0254758635408
 21
491.6226899231821
 31
0.0
  0
LINE
  5
1917
330
1F
100
AcDbEntity
  8
0
100
AcDbLine
 10
-146.0254758635408
 20
491.6226899231821
 30
0.0
 11
-136.0254758635408
 21
491.6226899231821
 31
0.0
  0
LINE
  5
1918
330
1F
100
AcDbEntity
  8
0
100
AcDbLine
 10
-136.0254758635408
 20
491.6226899231821
 30
0.0
 11
-136.0254758635408
 21
481.6226899231821
 31
0.0
  0
LINE
  5
1919
330
1F
100
AcDbEntity
  8
0
100
AcDbLine
 10
-116.0254758635408
 20
491.6226899231821
 30
0.0
 11
-126.0254758635408
 21
491.6226899231821
 31
0.0
  0
LINE
  5
191A
330
1F
100
AcDbEntity
  8
0
100
AcDbLine
 10
-246.0254758635411
 20
491.6226899231821
 30
0.0
 11
-236.0254758635409
 21
491.6226899231821
 31
0.0
  0
LINE
  5
191B
330
1F
100
AcDbEntity
  8
0
100
AcDbLine
 10
-236.0254758635409
 20
491.6226899231821
 30
0.0
 11
-236.0254758635409
 21
481.6226899231821
 31
0.0
  0
LINE
  5
191C
330
1F
100
AcDbEntity
  8
0
100
AcDbLine
 10
-236.0254758635409
 20
481.6226899231821
 30
0.0
 11
-226.0254758635409
 21
481.6226899231821
 31
0.0
  0
LINE
  5
191D
330
1F
100
AcDbEntity
  8
0
100
AcDbLine
 10
-226.0254758635409
 20
481.6226899231821
 30
0.0
 11
-226.0254758635409
 21
491.6226899231821
 31
0.0
  0
LINE
  5
191E
330
1F
100
AcDbEntity
  8
0
100
AcDbLine
 10
-226.0254758635409
 20
491.6226899231821
 30
0.0
 11
-216.0254758635409
 21
491.6226899231821
 31
0.0
  0
LINE
  5
191F
330
1F
100
AcDbEntity
  8
0
100
AcDbLine
 10
-216.0254758635409
 20
491.6226899231821
 30
0.0
 11
-216.0254758635409
 21
481.6226899231821
 31
0.0
  0
LINE
  5
1920
330
1F
100
AcDbEntity
  8
0
100
AcDbLine
 10
-216.0254758635409
 20
481.6226899231821
 30
0.0
 11
-206.0254758635408
 21
481.6226899231821
 31
0.0
  0
LINE
  5
1921
330
1F
100
AcDbEntity
  8
0
100
AcDbLine
 10
-206.0254758635408
 20
481.6226899231821
 30
0.0
 11
-206.0254758635408
 21
491.6226899231821
 31
0.0
  0
LINE
  5
1922
330
1F
100
AcDbEntity
  8
0
100
AcDbLine
 10
-206.0254758635408
 20
491.6226899231821
 30
0.0
 11
-196.0254758635408
 21
491.6226899231821
 31
0.0
  0
LINE
  5
1923
330
1F
100
AcDbEntity
  8
0
100
AcDbLine
 10
-259.5254758635411
 20
351.6226899231821
 30
0.0
 11
-259.5254758635411
 21
366.6226899231821
 31
0.0
  0
LINE
  5
1924
330
1F
100
AcDbEntity
  8
0
100
AcDbLine
 10
-259.5254758635411
 20
366.6226899231821
 30
0.0
 11
-246.0254758635411
 21
366.6226899231821
 31
0.0
  0
LINE
  5
1925
330
1F
100
AcDbEntity
  8
0
100
AcDbLine
 10
-246.0254758635411
 20
366.6226899231821
 30
0.0
 11
-246.0254758635411
 21
461.6226899231821
 31
0.0
  0
LINE
  5
1926
330
1F
100
AcDbEntity
  8
0
100
AcDbLine
 10
-246.0254758635411
 20
461.6226899231821
 30
0.0
 11
-249.5254758635411
 21
461.6226899231821
 31
0.0
  0
LINE
  5
1927
330
1F
100
AcDbEntity
  8
0
100
AcDbLine
 10
-249.5254758635411
 20
461.6226899231821
 30
0.0
 11
-249.5254758635411
 21
451.6226899231821
 31
0.0
  0
LINE
  5
1928
330
1F
100
AcDbEntity
  8
0
100
AcDbLine
 10
-259.5254758635411
 20
461.6226899231821
 30
0.0
 11
-249.5254758635411
 21
451.6226899231821
 31
0.0
  0
LINE
  5
1929
330
1F
100
AcDbEntity
  8
0
100
AcDbLine
 10
-259.5254758635411
 20
461.6226899231821
 30
0.0
 11
-259.5254758635411
 21
476.6226899231821
 31
0.0
  0
LINE
  5
192A
330
1F
100
AcDbEntity
  8
0
100
AcDbLine
 10
-22.52547586354081
 20
476.6226899231821
 30
0.0
 11
-36.02547586354081
 21
476.6226899231821
 31
0.0
  0
LINE
  5
192B
330
1F
100
AcDbEntity
  8
0
100
AcDbLine
 10
-259.5254758635411
 20
476.6226899231821
 30
0.0
 11
-246.0254758635411
 21
476.6226899231821
 31
0.0
  0
LINE
  5
192C
330
1F
100
AcDbEntity
  8
0
100
AcDbLine
 10
-246.0254758635411
 20
476.6226899231821
 30
0.0
 11
-246.0254758635411
 21
491.6226899231821
 31
0.0
  0
LINE
  5
192D
330
1F
100
AcDbEntity
  8
0
100
AcDbLine
 10
-216.0254758635409
 20
341.6226899231821
 30
0.0
 11
-216.0254758635409
 21
421.6226899231821
 31
0.0
  0
LINE
  5
192E
330
1F
100
AcDbEntity
  8
0
100
AcDbLine
 10
-66.0254758635408
 20
341.6226899231821
 30
0.0
 11
-66.0254758635408
 21
421.6226899231821
 31
0.0
  0
LINE
  5
192F
330
1F
100
AcDbEntity
  8
0
100
AcDbLine
 10
-86.0254758635408
 20
441.6226899231821
 30
0.0
 11
-196.0254758635408
 21
441.6226899231821
 31
0.0
  0
LINE
  5
1930
330
1F
100
AcDbEntity
  8
0
100
AcDbLine
 10
-66.0254758635408
 20
341.6226899231821
 30
0.0
 11
-36.02547586354081
 21
341.6226899231821
 31
0.0
  0
ARC
  5
1931
330
1F
100
AcDbEntity
  8
0
100
AcDbCircle
 10
-196.0254758635408
 20
421.622689923182
 30
0.0
 40
20.00000000000011
100
AcDbArc
 50
0.0000000000001628
 51
179.9999999999998
  0
ARC
  5
1932
330
1F
100
AcDbEntity
  8
0
100
AcDbCircle
 10
-86.0254758635408
 20
421.622689923182
 30
0.0
 40
20.00000000000011
100
AcDbArc
 50
0.0000000000001628
 51
179.9999999999998
  0
LINE
  5
2159
330
1F
100
AcDbEntity
  8
0
100
AcDbLine
 10
597.4018488718939
 20
-24.84456053629168
 30
0.0
 11
597.4018488718939
 21
25.15543946370835
 31
0.0
  0
LINE
  5
215A
330
1F
100
AcDbEntity
  8
0
100
AcDbLine
 10
607.4018488718939
 20
35.15543946370835
 30
0.0
 11
597.4018488718939
 21
25.15543946370835
 31
0.0
  0
LINE
  5
215B
330
1F
100
AcDbEntity
  8
0
100
AcDbLine
 10
610.9018488718939
 20
5.155439463708348
 30
0.0
 11
610.9018488718939
 21
110.1554394637083
 31
0.0
  0
LINE
  5
215C
330
1F
100
AcDbEntity
  8
0
100
AcDbLine
 10
610.9018488718939
 20
125.1554394637083
 30
0.0
 11
607.4018488718939
 21
125.1554394637083
 31
0.0
  0
LINE
  5
215D
330
1F
100
AcDbEntity
  8
0
100
AcDbLine
 10
607.4018488718939
 20
125.1554394637083
 30
0.0
 11
607.4018488718939
 21
145.1554394637083
 31
0.0
  0
LINE
  5
215E
330
1F
100
AcDbEntity
  8
0
100
AcDbLine
 10
597.4018488718939
 20
120.1554394637083
 30
0.0
 11
607.4018488718939
 21
110.1554394637083
 31
0.0
  0
LINE
  5
215F
330
1F
100
AcDbEntity
  8
0
100
AcDbLine
 10
597.4018488718939
 20
120.1554394637083
 30
0.0
 11
597.4018488718939
 21
155.1554394637083
 31
0.0
  0
LINE
  5
2160
330
1F
100
AcDbEntity
  8
0
100
AcDbLine
 10
597.4018488718939
 20
155.1554394637083
 30
0.0
 11
607.4018488718939
 21
155.1554394637083
 31
0.0
  0
LINE
  5
2161
330
1F
100
AcDbEntity
  8
0
100
AcDbLine
 10
607.4018488718939
 20
155.1554394637083
 30
0.0
 11
607.4018488718939
 21
145.1554394637083
 31
0.0
  0
LINE
  5
2162
330
1F
100
AcDbEntity
  8
0
100
AcDbLine
 10
617.4018488718939
 20
145.1554394637083
 30
0.0
 11
617.4018488718939
 21
155.1554394637083
 31
0.0
  0
LINE
  5
2163
330
1F
100
AcDbEntity
  8
0
100
AcDbLine
 10
617.4018488718939
 20
155.1554394637083
 30
0.0
 11
627.4018488718939
 21
155.1554394637083
 31
0.0
  0
LINE
  5
2164
330
1F
100
AcDbEntity
  8
0
100
AcDbLine
 10
627.4018488718939
 20
155.1554394637083
 30
0.0
 11
627.4018488718939
 21
145.1554394637083
 31
0.0
  0
LINE
  5
2165
330
1F
100
AcDbEntity
  8
0
100
AcDbLine
 10
627.4018488718939
 20
145.1554394637083
 30
0.0
 11
637.4018488718939
 21
145.1554394637083
 31
0.0
  0
LINE
  5
2166
330
1F
100
AcDbEntity
  8
0
100
AcDbLine
 10
637.4018488718939
 20
145.1554394637083
 30
0.0
 11
637.4018488718939
 21
155.1554394637083
 31
0.0
  0
LINE
  5
2167
330
1F
100
AcDbEntity
  8
0
100
AcDbLine
 10
637.4018488718939
 20
155.1554394637083
 30
0.0
 11
647.4018488718939
 21
155.1554394637083
 31
0.0
  0
LINE
  5
2168
330
1F
100
AcDbEntity
  8
0
100
AcDbLine
 10
647.4018488718939
 20
155.1554394637083
 30
0.0
 11
647.4018488718939
 21
145.1554394637083
 31
0.0
  0
LINE
  5
2169
330
1F
100
AcDbEntity
  8
0
100
AcDbLine
 10
647.4018488718939
 20
145.1554394637083
 30
0.0
 11
657.4018488718939
 21
145.1554394637083
 31
0.0
  0
LINE
  5
216A
330
1F
100
AcDbEntity
  8
0
100
AcDbLine
 10
657.4018488718939
 20
145.1554394637083
 30
0.0
 11
657.4018488718939
 21
155.1554394637083
 31
0.0
  0
LINE
  5
216B
330
1F
100
AcDbEntity
  8
0
100
AcDbLine
 10
657.4018488718939
 20
155.1554394637083
 30
0.0
 11
667.4018488718939
 21
155.1554394637083
 31
0.0
  0
LINE
  5
216C
330
1F
100
AcDbEntity
  8
0
100
AcDbLine
 10
667.4018488718939
 20
155.1554394637083
 30
0.0
 11
667.4018488718939
 21
145.1554394637083
 31
0.0
  0
LINE
  5
216D
330
1F
100
AcDbEntity
  8
0
100
AcDbLine
 10
667.4018488718939
 20
145.1554394637083
 30
0.0
 11
677.4018488718939
 21
145.1554394637083
 31
0.0
  0
LINE
  5
216E
330
1F
100
AcDbEntity
  8
0
100
AcDbLine
 10
677.4018488718939
 20
145.1554394637083
 30
0.0
 11
677.4018488718939
 21
155.1554394637083
 31
0.0
  0
LINE
  5
216F
330
1F
100
AcDbEntity
  8
0
100
AcDbLine
 10
677.4018488718939
 20
155.1554394637083
 30
0.0
 11
687.4018488718939
 21
155.1554394637083
 31
0.0
  0
LINE
  5
2170
330
1F
100
AcDbEntity
  8
0
100
AcDbLine
 10
687.4018488718939
 20
155.1554394637083
 30
0.0
 11
687.4018488718939
 21
145.1554394637083
 31
0.0
  0
LINE
  5
2171
330
1F
100
AcDbEntity
  8
0
100
AcDbLine
 10
717.4018488718939
 20
145.1554394637083
 30
0.0
 11
717.4018488718939
 21
155.1554394637083
 31
0.0
  0
LINE
  5
2172
330
1F
100
AcDbEntity
  8
0
100
AcDbLine
 10
717.4018488718939
 20
155.1554394637083
 30
0.0
 11
727.4018488718939
 21
155.1554394637083
 31
0.0
  0
LINE
  5
2173
330
1F
100
AcDbEntity
  8
0
100
AcDbLine
 10
727.4018488718939
 20
155.1554394637083
 30
0.0
 11
727.4018488718939
 21
120.1554394637083
 31
0.0
  0
LINE
  5
2174
330
1F
100
AcDbEntity
  8
0
100
AcDbLine
 10
727.4018488718939
 20
120.1554394637083
 30
0.0
 11
717.4018488718939
 21
110.1554394637083
 31
0.0
  0
LINE
  5
2176
330
1F
100
AcDbEntity
  8
0
100
AcDbLine
 10
717.4018488718939
 20
125.1554394637083
 30
0.0
 11
713.9018488718939
 21
125.1554394637083
 31
0.0
  0
LINE
  5
2177
330
1F
100
AcDbEntity
  8
0
100
AcDbLine
 10
717.4018488718939
 20
5.155439463708348
 30
0.0
 11
717.4018488718939
 21
35.15543946370835
 31
0.0
  0
LINE
  5
2178
330
1F
100
AcDbEntity
  8
0
100
AcDbLine
 10
717.4018488718939
 20
35.15543946370835
 30
0.0
 11
727.4018488718939
 21
25.15543946370835
 31
0.0
  0
LINE
  5
2179
330
1F
100
AcDbEntity
  8
0
100
AcDbLine
 10
727.4018488718939
 20
25.15543946370835
 30
0.0
 11
727.4018488718939
 21
-24.84456053629168
 31
0.0
  0
LINE
  5
217A
330
1F
100
AcDbEntity
  8
0
100
AcDbLine
 10
717.4018488718939
 20
5.155439463708348
 30
0.0
 11
713.9018488718939
 21
5.155439463708348
 31
0.0
  0
LINE
  5
217B
330
1F
100
AcDbEntity
  8
0
100
AcDbLine
 10
610.9018488718939
 20
5.155439463708348
 30
0.0
 11
607.4018488718939
 21
5.155439463708348
 31
0.0
  0
LINE
  5
217D
330
1F
100
AcDbEntity
  8
0
100
AcDbLine
 10
607.4018488718939
 20
35.15543946370835
 30
0.0
 11
607.4018488718939
 21
5.155439463708348
 31
0.0
  0
LINE
  5
217E
330
1F
100
AcDbEntity
  8
0
100
AcDbLine
 10
607.4018488718939
 20
110.1554394637083
 30
0.0
 11
610.9018488718939
 21
110.1554394637083
 31
0.0
  0
LINE
  5
2180
330
1F
100
AcDbEntity
  8
0
100
AcDbLine
 10
610.9018488718939
 20
125.1554394637083
 30
0.0
 11
610.9018488718939
 21
145.1554394637083
 31
0.0
  0
LINE
  5
2181
330
1F
100
AcDbEntity
  8
0
100
AcDbLine
 10
610.9018488718939
 20
145.1554394637083
 30
0.0
 11
617.4018488718939
 21
145.1554394637083
 31
0.0
  0
LINE
  5
2182
330
1F
100
AcDbEntity
  8
0
100
AcDbLine
 10
713.9018488718939
 20
125.1554394637083
 30
0.0
 11
713.9018488718939
 21
145.1554394637083
 31
0.0
  0
LINE
  5
2183
330
1F
100
AcDbEntity
  8
0
100
AcDbLine
 10
713.9018488718939
 20
145.1554394637083
 30
0.0
 11
707.4018488718939
 21
145.1554394637083
 31
0.0
  0
LINE
  5
2184
330
1F
100
AcDbEntity
  8
0
100
AcDbLine
 10
713.9018488718939
 20
110.1554394637083
 30
0.0
 11
713.9018488718939
 21
5.155439463708348
 31
0.0
  0
LINE
  5
218D
330
1F
100
AcDbEntity
  8
0
100
AcDbLine
 10
634.4018488718939
 20
95.21674937818531
 30
0.0
 11
634.4018488718939
 21
91.71674937818531
 31
0.0
  0
LINE
  5
218F
330
1F
100
AcDbEntity
  8
0
100
AcDbLine
 10
670.4018488718939
 20
91.71674937818531
 30
0.0
 11
670.4018488718939
 21
95.21674937818531
 31
0.0
  0
LINE
  5
2196
330
1F
100
AcDbEntity
  8
0
100
AcDbLine
 10
634.4018488718939
 20
95.21674937818531
 30
0.0
 11
670.4018488718939
 21
95.21674937818531
 31
0.0
  0
LINE
  5
2198
330
1F
100
AcDbEntity
  8
0
100
AcDbLine
 10
634.4018488718939
 20
91.71674937818531
 30
0.0
 11
670.4018488718939
 21
91.71674937818531
 31
0.0
  0
LINE
  5
2199
330
1F
100
AcDbEntity
  8
0
100
AcDbLine
 10
620.9018488718939
 20
95.21674937818531
 30
0.0
 11
624.4018488718939
 21
95.21674937818531
 31
0.0
  0
LINE
  5
219A
330
1F
100
AcDbEntity
  8
0
100
AcDbLine
 10
624.4018488718939
 20
95.21674937818531
 30
0.0
 11
624.4018488718939
 21
121.2167493781853
 31
0.0
  0
LINE
  5
219B
330
1F
100
AcDbEntity
  8
0
100
AcDbLine
 10
624.4018488718939
 20
121.2167493781853
 30
0.0
 11
620.9018488718939
 21
121.2167493781853
 31
0.0
  0
LINE
  5
219C
330
1F
100
AcDbEntity
  8
0
100
AcDbLine
 10
620.9018488718939
 20
121.2167493781853
 30
0.0
 11
620.9018488718939
 21
95.21674937818531
 31
0.0
  0
LINE
  5
219D
330
1F
100
AcDbEntity
  8
0
100
AcDbLine
 10
680.4018488718939
 20
95.21674937818531
 30
0.0
 11
683.9018488718939
 21
95.21674937818531
 31
0.0
  0
LINE
  5
219E
330
1F
100
AcDbEntity
  8
0
100
AcDbLine
 10
683.9018488718939
 20
95.21674937818531
 30
0.0
 11
683.9018488718939
 21
121.2167493781853
 31
0.0
  0
LINE
  5
219F
330
1F
100
AcDbEntity
  8
0
100
AcDbLine
 10
683.9018488718939
 20
121.2167493781853
 30
0.0
 11
680.4018488718939
 21
121.2167493781853
 31
0.0
  0
LINE
  5
21A0
330
1F
100
AcDbEntity
  8
0
100
AcDbLine
 10
680.4018488718939
 20
121.2167493781853
 30
0.0
 11
680.4018488718939
 21
95.21674937818531
 31
0.0
  0
LINE
  5
21A1
330
1F
100
AcDbEntity
  8
0
100
AcDbLine
 10
620.9018488718939
 20
5.155439463708348
 30
0.0
 11
620.9018488718939
 21
-14.84456053629165
 31
0.0
  0
LINE
  5
21A2
330
1F
100
AcDbEntity
  8
0
100
AcDbLine
 10
620.9018488718939
 20
-14.84456053629165
 30
0.0
 11
624.4018488718939
 21
-14.84456053629165
 31
0.0
  0
LINE
  5
21A3
330
1F
100
AcDbEntity
  8
0
100
AcDbLine
 10
624.4018488718939
 20
-14.84456053629165
 30
0.0
 11
624.4018488718939
 21
11.15543946370835
 31
0.0
  0
LINE
  5
21A4
330
1F
100
AcDbEntity
  8
0
100
AcDbLine
 10
624.4018488718939
 20
11.15543946370835
 30
0.0
 11
620.9018488718939
 21
11.15543946370835
 31
0.0
  0
LINE
  5
21A5
330
1F
100
AcDbEntity
  8
0
100
AcDbLine
 10
620.9018488718939
 20
11.15543946370835
 30
0.0
 11
620.9018488718939
 21
5.155439463708348
 31
0.0
  0
LINE
  5
21A6
330
1F
100
AcDbEntity
  8
0
100
AcDbLine
 10
683.9018488718939
 20
5.155439463708348
 30
0.0
 11
683.9018488718939
 21
-14.84456053629165
 31
0.0
  0
LINE
  5
21A7
330
1F
100
AcDbEntity
  8
0
100
AcDbLine
 10
683.9018488718939
 20
-14.84456053629165
 30
0.0
 11
680.4018488718939
 21
-14.84456053629165
 31
0.0
  0
LINE
  5
21A8
330
1F
100
AcDbEntity
  8
0
100
AcDbLine
 10
680.4018488718939
 20
-14.84456053629165
 30
0.0
 11
680.4018488718939
 21
11.15543946370835
 31
0.0
  0
LINE
  5
21A9
330
1F
100
AcDbEntity
  8
0
100
AcDbLine
 10
680.4018488718939
 20
11.15543946370835
 30
0.0
 11
683.9018488718939
 21
11.15543946370835
 31
0.0
  0
LINE
  5
21AA
330
1F
100
AcDbEntity
  8
0
100
AcDbLine
 10
683.9018488718939
 20
11.15543946370835
 30
0.0
 11
683.9018488718939
 21
5.155439463708348
 31
0.0
  0
LINE
  5
21B1
330
1F
100
AcDbEntity
  8
0
100
AcDbLine
 10
597.4018488718939
 20
-24.84456053629168
 30
0.0
 11
727.4018488718939
 21
-24.84456053629168
 31
0.0
  0
LINE
  5
21B2
330
1F
100
AcDbEntity
  8
0
100
AcDbLine
 10
713.9018488718939
 20
110.1554394637083
 30
0.0
 11
717.4018488718939
 21
110.1554394637083
 31
0.0
  0
LINE
  5
21B3
330
1F
100
AcDbEntity
  8
0
100
AcDbLine
 10
687.4018488718939
 20
145.1554394637083
 30
0.0
 11
697.4018488718939
 21
145.1554394637083
 31
0.0
  0
LINE
  5
21B4
330
1F
100
AcDbEntity
  8
0
100
AcDbLine
 10
697.4018488718939
 20
145.1554394637083
 30
0.0
 11
697.4018488718939
 21
155.1554394637083
 31
0.0
  0
LINE
  5
21B5
330
1F
100
AcDbEntity
  8
0
100
AcDbLine
 10
697.4018488718939
 20
155.1554394637083
 30
0.0
 11
707.4018488718939
 21
155.1554394637083
 31
0.0
  0
LINE
  5
21B6
330
1F
100
AcDbEntity
  8
0
100
AcDbLine
 10
707.4018488718939
 20
155.1554394637083
 30
0.0
 11
707.4018488718939
 21
145.1554394637083
 31
0.0
  0
LINE
  5
21BD
330
1F
100
AcDbEntity
  8
0
100
AcDbLine
 10
630.9018488718939
 20
125.1554394637083
 30
0.0
 11
650.9018488718939
 21
125.1554394637083
 31
0.0
  0
LINE
  5
21BE
330
1F
100
AcDbEntity
  8
0
100
AcDbLine
 10
650.9018488718939
 20
125.1554394637083
 30
0.0
 11
650.9018488718939
 21
121.6554394637083
 31
0.0
  0
LINE
  5
21BF
330
1F
100
AcDbEntity
  8
0
100
AcDbLine
 10
650.9018488718939
 20
121.6554394637083
 30
0.0
 11
630.9018488718939
 21
121.6554394637083
 31
0.0
  0
LINE
  5
21C0
330
1F
100
AcDbEntity
  8
0
100
AcDbLine
 10
630.9018488718939
 20
121.6554394637083
 30
0.0
 11
630.9018488718939
 21
125.1554394637083
 31
0.0
  0
LINE
  5
21E6
330
1F
100
AcDbEntity
  8
0
100
AcDbLine
 10
693.9018488718939
 20
121.6554394637083
 30
0.0
 11
693.9018488718939
 21
125.1554394637083
 31
0.0
  0
LINE
  5
21E7
330
1F
100
AcDbEntity
  8
0
100
AcDbLine
 10
693.9018488718939
 20
125.1554394637083
 30
0.0
 11
703.9018488718939
 21
125.1554394637083
 31
0.0
  0
LINE
  5
21E8
330
1F
100
AcDbEntity
  8
0
100
AcDbLine
 10
703.9018488718939
 20
125.1554394637083
 30
0.0
 11
703.9018488718939
 21
121.6554394637083
 31
0.0
  0
LINE
  5
21E9
330
1F
100
AcDbEntity
  8
0
100
AcDbLine
 10
693.9018488718939
 20
121.6554394637083
 30
0.0
 11
703.9018488718939
 21
121.6554394637083
 31
0.0
  0
LINE
  5
2275
330
1F
100
AcDbEntity
  8
0
100
AcDbLine
 10
7.131096583579847
 20
673.4090785496762
 30
0.0
 11
10.63109658357993
 21
673.4090785496762
 31
0.0
  0
LINE
  5
2276
330
1F
100
AcDbEntity
  8
0
100
AcDbLine
 10
10.63109658357993
 20
673.4090785496762
 30
0.0
 11
10.63109658357993
 21
699.4090785496762
 31
0.0
  0
LINE
  5
2277
330
1F
100
AcDbEntity
  8
0
100
AcDbLine
 10
10.63109658357993
 20
699.4090785496762
 30
0.0
 11
7.131096583579847
 21
699.4090785496762
 31
0.0
  0
LINE
  5
2278
330
1F
100
AcDbEntity
  8
0
100
AcDbLine
 10
7.131096583579847
 20
699.4090785496762
 30
0.0
 11
7.131096583579847
 21
673.4090785496762
 31
0.0
  0
LINE
  5
2279
330
1F
100
AcDbEntity
  8
0
100
AcDbLine
 10
66.63109658357993
 20
673.4090785496762
 30
0.0
 11
70.13109658357993
 21
673.4090785496762
 31
0.0
  0
LINE
  5
227A
330
1F
100
AcDbEntity
  8
0
100
AcDbLine
 10
70.13109658357993
 20
673.4090785496762
 30
0.0
 11
70.13109658357993
 21
699.4090785496762
 31
0.0
  0
LINE
  5
227B
330
1F
100
AcDbEntity
  8
0
100
AcDbLine
 10
70.13109658357993
 20
699.4090785496762
 30
0.0
 11
66.63109658357993
 21
699.4090785496762
 31
0.0
  0
LINE
  5
227C
330
1F
100
AcDbEntity
  8
0
100
AcDbLine
 10
66.63109658357993
 20
699.4090785496762
 30
0.0
 11
66.63109658357993
 21
673.4090785496762
 31
0.0
  0
LINE
  5
227D
330
1F
100
AcDbEntity
  8
0
100
AcDbLine
 10
10.63109658357993
 20
589.4090785496762
 30
0.0
 11
7.131096583579847
 21
589.4090785496762
 31
0.0
  0
LINE
  5
227F
330
1F
100
AcDbEntity
  8
0
100
AcDbLine
 10
717.4018488718939
 20
145.1554394637083
 30
0.0
 11
720.9018488718939
 21
145.1554394637083
 31
0.0
  0
LINE
  5
2280
330
1F
100
AcDbEntity
  8
0
100
AcDbLine
 10
720.9018488718939
 20
145.1554394637083
 30
0.0
 11
720.9018488718939
 21
125.1554394637083
 31
0.0
  0
LINE
  5
2281
330
1F
100
AcDbEntity
  8
0
100
AcDbLine
 10
720.9018488718939
 20
125.1554394637083
 30
0.0
 11
717.4018488718939
 21
125.1554394637083
 31
0.0
  0
LINE
  5
2282
330
1F
100
AcDbEntity
  8
0
100
AcDbLine
 10
656.5063200452216
 20
270.0990176663735
 30
0.0
 11
666.5063200452216
 21
270.0990176663735
 31
0.0
  0
LINE
  5
2283
330
1F
100
AcDbEntity
  8
0
100
AcDbLine
 10
666.5063200452216
 20
270.0990176663735
 30
0.0
 11
666.5063200452216
 21
300.0990176663735
 31
0.0
  0
LINE
  5
2284
330
1F
100
AcDbEntity
  8
0
100
AcDbLine
 10
666.5063200452216
 20
300.0990176663735
 30
0.0
 11
670.0063200452216
 21
300.0990176663735
 31
0.0
  0
LINE
  5
2285
330
1F
100
AcDbEntity
  8
0
100
AcDbLine
 10
670.0063200452216
 20
300.0990176663735
 30
0.0
 11
670.0063200452216
 21
270.0990176663735
 31
0.0
  0
LINE
  5
2286
330
1F
100
AcDbEntity
  8
0
100
AcDbLine
 10
670.0063200452216
 20
270.0990176663735
 30
0.0
 11
708.0063200452216
 21
270.0990176663735
 31
0.0
  0
LINE
  5
2289
330
1F
100
AcDbEntity
  8
0
100
AcDbLine
 10
711.5063200452216
 20
270.0990176663735
 30
0.0
 11
711.5063200452216
 21
295.0990176663735
 31
0.0
  0
LINE
  5
228A
330
1F
100
AcDbEntity
  8
0
100
AcDbLine
 10
711.5063200452216
 20
295.0990176663735
 30
0.0
 11
708.0063200452216
 21
295.0990176663735
 31
0.0
  0
LINE
  5
228B
330
1F
100
AcDbEntity
  8
0
100
AcDbLine
 10
708.0063200452216
 20
295.0990176663735
 30
0.0
 11
708.0063200452216
 21
270.0990176663735
 31
0.0
  0
LINE
  5
228C
330
1F
100
AcDbEntity
  8
0
100
AcDbLine
 10
711.5063200452216
 20
270.0990176663735
 30
0.0
 11
716.5063200452216
 21
270.0990176663735
 31
0.0
  0
LINE
  5
228D
330
1F
100
AcDbEntity
  8
0
100
AcDbLine
 10
711.5063200452216
 20
315.0990176663735
 30
0.0
 11
711.5063200452216
 21
330.0990176663735
 31
0.0
  0
LINE
  5
228E
330
1F
100
AcDbEntity
  8
0
100
AcDbLine
 10
711.5063200452216
 20
330.0990176663735
 30
0.0
 11
708.0063200452216
 21
330.0990176663735
 31
0.0
  0
LINE
  5
228F
330
1F
100
AcDbEntity
  8
0
100
AcDbLine
 10
708.0063200452216
 20
330.0990176663735
 30
0.0
 11
708.0063200452216
 21
315.0990176663735
 31
0.0
  0
LINE
  5
2290
330
1F
100
AcDbEntity
  8
0
100
AcDbLine
 10
708.0063200452216
 20
315.0990176663735
 30
0.0
 11
711.5063200452216
 21
315.0990176663735
 31
0.0
  0
LINE
  5
2291
330
1F
100
AcDbEntity
  8
0
100
AcDbLine
 10
711.5063200452216
 20
350.0990176663735
 30
0.0
 11
708.0063200452216
 21
350.0990176663735
 31
0.0
  0
LINE
  5
2292
330
1F
100
AcDbEntity
  8
0
100
AcDbLine
 10
708.0063200452216
 20
350.0990176663735
 30
0.0
 11
708.0063200452216
 21
365.0990176663735
 31
0.0
  0
LINE
  5
2293
330
1F
100
AcDbEntity
  8
0
100
AcDbLine
 10
708.0063200452216
 20
365.0990176663735
 30
0.0
 11
711.5063200452216
 21
365.0990176663735
 31
0.0
  0
LINE
  5
2294
330
1F
100
AcDbEntity
  8
0
100
AcDbLine
 10
711.5063200452216
 20
365.0990176663735
 30
0.0
 11
711.5063200452216
 21
350.0990176663735
 31
0.0
  0
LINE
  5
2295
330
1F
100
AcDbEntity
  8
0
100
AcDbLine
 10
711.5063200452216
 20
385.0990176663735
 30
0.0
 11
711.5063200452216
 21
400.0990176663735
 31
0.0
  0
LINE
  5
2296
330
1F
100
AcDbEntity
  8
0
100
AcDbLine
 10
711.5063200452216
 20
400.0990176663735
 30
0.0
 11
708.0063200452216
 21
400.0990176663735
 31
0.0
  0
LINE
  5
2297
330
1F
100
AcDbEntity
  8
0
100
AcDbLine
 10
708.0063200452216
 20
400.0990176663735
 30
0.0
 11
708.0063200452216
 21
385.0990176663735
 31
0.0
  0
LINE
  5
2298
330
1F
100
AcDbEntity
  8
0
100
AcDbLine
 10
708.0063200452216
 20
385.0990176663735
 30
0.0
 11
711.5063200452216
 21
385.0990176663735
 31
0.0
  0
LINE
  5
2299
330
1F
100
AcDbEntity
  8
0
100
AcDbLine
 10
656.5063200452216
 20
270.0990176663735
 30
0.0
 11
656.5063200452216
 21
320.0990176663735
 31
0.0
  0
LINE
  5
229A
330
1F
100
AcDbEntity
  8
0
100
AcDbLine
 10
656.5063200452216
 20
320.0990176663735
 30
0.0
 11
666.5063200452216
 21
330.0990176663735
 31
0.0
  0
LINE
  5
229B
330
1F
100
AcDbEntity
  8
0
100
AcDbLine
 10
666.5063200452216
 20
330.0990176663735
 30
0.0
 11
670.0063200452216
 21
330.0990176663735
 31
0.0
  0
LINE
  5
229C
330
1F
100
AcDbEntity
  8
0
100
AcDbLine
 10
670.0063200452216
 20
330.0990176663735
 30
0.0
 11
670.0063200452216
 21
420.0990176663735
 31
0.0
  0
LINE
  5
229D
330
1F
100
AcDbEntity
  8
0
100
AcDbLine
 10
670.0063200452216
 20
420.0990176663735
 30
0.0
 11
666.5063200452216
 21
420.0990176663735
 31
0.0
  0
LINE
  5
229E
330
1F
100
AcDbEntity
  8
0
100
AcDbLine
 10
666.5063200452216
 20
420.0990176663735
 30
0.0
 11
666.5063200452216
 21
405.0990176663735
 31
0.0
  0
LINE
  5
229F
330
1F
100
AcDbEntity
  8
0
100
AcDbLine
 10
666.5063200452216
 20
405.0990176663735
 30
0.0
 11
656.5063200452216
 21
415.0990176663735
 31
0.0
  0
LINE
  5
22A0
330
1F
100
AcDbEntity
  8
0
100
AcDbLine
 10
656.5063200452216
 20
415.0990176663735
 30
0.0
 11
656.5063200452216
 21
450.0990176663735
 31
0.0
  0
LINE
  5
22A1
330
1F
100
AcDbEntity
  8
0
100
AcDbLine
 10
656.5063200452216
 20
450.0990176663735
 30
0.0
 11
666.5063200452216
 21
450.0990176663735
 31
0.0
  0
LINE
  5
22A2
330
1F
100
AcDbEntity
  8
0
100
AcDbLine
 10
666.5063200452216
 20
450.0990176663735
 30
0.0
 11
666.5063200452216
 21
440.0990176663735
 31
0.0
  0
LINE
  5
22CF
330
1F
100
AcDbEntity
  8
0
100
AcDbLine
 10
666.5063200452216
 20
440.0990176663735
 30
0.0
 11
676.5063200452216
 21
440.0990176663735
 31
0.0
  0
LINE
  5
22D0
330
1F
100
AcDbEntity
  8
0
100
AcDbLine
 10
676.5063200452216
 20
440.0990176663735
 30
0.0
 11
676.5063200452216
 21
450.0990176663735
 31
0.0
  0
LINE
  5
22D1
330
1F
100
AcDbEntity
  8
0
100
AcDbLine
 10
676.5063200452216
 20
450.0990176663735
 30
0.0
 11
686.5063200452216
 21
450.0990176663735
 31
0.0
  0
LINE
  5
22D2
330
1F
100
AcDbEntity
  8
0
100
AcDbLine
 10
686.5063200452216
 20
450.0990176663735
 30
0.0
 11
686.5063200452216
 21
440.0990176663735
 31
0.0
  0
LINE
  5
22D3
330
1F
100
AcDbEntity
  8
0
100
AcDbLine
 10
686.5063200452216
 20
440.0990176663735
 30
0.0
 11
696.5063200452216
 21
440.0990176663735
 31
0.0
  0
LINE
  5
22D4
330
1F
100
AcDbEntity
  8
0
100
AcDbLine
 10
696.5063200452216
 20
440.0990176663735
 30
0.0
 11
696.5063200452216
 21
450.0990176663735
 31
0.0
  0
LINE
  5
22D5
330
1F
100
AcDbEntity
  8
0
100
AcDbLine
 10
696.5063200452216
 20
450.0990176663735
 30
0.0
 11
706.5063200452216
 21
450.0990176663735
 31
0.0
  0
LINE
  5
22D6
330
1F
100
AcDbEntity
  8
0
100
AcDbLine
 10
706.5063200452216
 20
450.0990176663735
 30
0.0
 11
706.5063200452216
 21
440.0990176663735
 31
0.0
  0
LINE
  5
22D7
330
1F
100
AcDbEntity
  8
0
100
AcDbLine
 10
706.5063200452216
 20
440.0990176663735
 30
0.0
 11
716.5063200452216
 21
440.0990176663735
 31
0.0
  0
LINE
  5
22D8
330
1F
100
AcDbEntity
  8
0
100
AcDbLine
 10
716.5063200452216
 20
440.0990176663735
 30
0.0
 11
716.5063200452216
 21
450.0990176663735
 31
0.0
  0
LINE
  5
22D9
330
1F
100
AcDbEntity
  8
0
100
AcDbLine
 10
716.5063200452216
 20
450.0990176663735
 30
0.0
 11
726.5063200452216
 21
450.0990176663735
 31
0.0
  0
LINE
  5
22DA
330
1F
100
AcDbEntity
  8
0
100
AcDbLine
 10
726.5063200452216
 20
450.0990176663735
 30
0.0
 11
726.5063200452216
 21
440.0990176663735
 31
0.0
  0
LINE
  5
22DB
330
1F
100
AcDbEntity
  8
0
100
AcDbLine
 10
726.5063200452216
 20
440.0990176663735
 30
0.0
 11
736.5063200452216
 21
440.0990176663735
 31
0.0
  0
LINE
  5
22DC
330
1F
100
AcDbEntity
  8
0
100
AcDbLine
 10
736.5063200452216
 20
440.0990176663735
 30
0.0
 11
736.5063200452216
 21
450.0990176663735
 31
0.0
  0
LINE
  5
22DD
330
1F
100
AcDbEntity
  8
0
100
AcDbLine
 10
736.5063200452216
 20
450.0990176663735
 30
0.0
 11
746.5063200452216
 21
450.0990176663735
 31
0.0
  0
LINE
  5
22DE
330
1F
100
AcDbEntity
  8
0
100
AcDbLine
 10
746.5063200452216
 20
450.0990176663735
 30
0.0
 11
746.5063200452216
 21
440.0990176663735
 31
0.0
  0
LINE
  5
232C
330
1F
100
AcDbEntity
  8
0
100
AcDbLine
 10
866.5063200452214
 20
270.0990176663735
 30
0.0
 11
856.5063200452214
 21
270.0990176663735
 31
0.0
  0
LINE
  5
232D
330
1F
100
AcDbEntity
  8
0
100
AcDbLine
 10
856.5063200452214
 20
270.0990176663735
 30
0.0
 11
856.5063200452214
 21
300.0990176663735
 31
0.0
  0
LINE
  5
232E
330
1F
100
AcDbEntity
  8
0
100
AcDbLine
 10
856.5063200452214
 20
300.0990176663735
 30
0.0
 11
853.0063200452214
 21
300.0990176663735
 31
0.0
  0
LINE
  5
232F
330
1F
100
AcDbEntity
  8
0
100
AcDbLine
 10
853.0063200452214
 20
300.0990176663735
 30
0.0
 11
853.0063200452214
 21
270.0990176663735
 31
0.0
  0
LINE
  5
2330
330
1F
100
AcDbEntity
  8
0
100
AcDbLine
 10
853.0063200452214
 20
270.0990176663735
 30
0.0
 11
815.0063200452216
 21
270.0990176663735
 31
0.0
  0
LINE
  5
2333
330
1F
100
AcDbEntity
  8
0
100
AcDbLine
 10
811.5063200452216
 20
270.0990176663735
 30
0.0
 11
811.5063200452216
 21
295.0990176663735
 31
0.0
  0
LINE
  5
2334
330
1F
100
AcDbEntity
  8
0
100
AcDbLine
 10
811.5063200452216
 20
295.0990176663735
 30
0.0
 11
815.0063200452216
 21
295.0990176663735
 31
0.0
  0
LINE
  5
2335
330
1F
100
AcDbEntity
  8
0
100
AcDbLine
 10
815.0063200452216
 20
295.0990176663735
 30
0.0
 11
815.0063200452216
 21
270.0990176663735
 31
0.0
  0
LINE
  5
2336
330
1F
100
AcDbEntity
  8
0
100
AcDbLine
 10
811.5063200452216
 20
270.0990176663735
 30
0.0
 11
806.5063200452216
 21
270.0990176663735
 31
0.0
  0
LINE
  5
2337
330
1F
100
AcDbEntity
  8
0
100
AcDbLine
 10
811.5063200452216
 20
315.0990176663735
 30
0.0
 11
811.5063200452216
 21
330.0990176663735
 31
0.0
  0
LINE
  5
2338
330
1F
100
AcDbEntity
  8
0
100
AcDbLine
 10
811.5063200452216
 20
330.0990176663735
 30
0.0
 11
815.0063200452216
 21
330.0990176663735
 31
0.0
  0
LINE
  5
2339
330
1F
100
AcDbEntity
  8
0
100
AcDbLine
 10
815.0063200452216
 20
330.0990176663735
 30
0.0
 11
815.0063200452216
 21
315.0990176663735
 31
0.0
  0
LINE
  5
233A
330
1F
100
AcDbEntity
  8
0
100
AcDbLine
 10
815.0063200452216
 20
315.0990176663735
 30
0.0
 11
811.5063200452216
 21
315.0990176663735
 31
0.0
  0
LINE
  5
233B
330
1F
100
AcDbEntity
  8
0
100
AcDbLine
 10
811.5063200452216
 20
350.0990176663735
 30
0.0
 11
815.0063200452216
 21
350.0990176663735
 31
0.0
  0
LINE
  5
233C
330
1F
100
AcDbEntity
  8
0
100
AcDbLine
 10
815.0063200452216
 20
350.0990176663735
 30
0.0
 11
815.0063200452216
 21
365.0990176663735
 31
0.0
  0
LINE
  5
233D
330
1F
100
AcDbEntity
  8
0
100
AcDbLine
 10
815.0063200452216
 20
365.0990176663735
 30
0.0
 11
811.5063200452216
 21
365.0990176663735
 31
0.0
  0
LINE
  5
233E
330
1F
100
AcDbEntity
  8
0
100
AcDbLine
 10
811.5063200452216
 20
365.0990176663735
 30
0.0
 11
811.5063200452216
 21
350.0990176663735
 31
0.0
  0
LINE
  5
233F
330
1F
100
AcDbEntity
  8
0
100
AcDbLine
 10
811.5063200452216
 20
385.0990176663735
 30
0.0
 11
811.5063200452216
 21
400.0990176663735
 31
0.0
  0
LINE
  5
2340
330
1F
100
AcDbEntity
  8
0
100
AcDbLine
 10
811.5063200452216
 20
400.0990176663735
 30
0.0
 11
815.0063200452216
 21
400.0990176663735
 31
0.0
  0
LINE
  5
2341
330
1F
100
AcDbEntity
  8
0
100
AcDbLine
 10
815.0063200452216
 20
400.0990176663735
 30
0.0
 11
815.0063200452216
 21
385.0990176663735
 31
0.0
  0
LINE
  5
2342
330
1F
100
AcDbEntity
  8
0
100
AcDbLine
 10
815.0063200452216
 20
385.0990176663735
 30
0.0
 11
811.5063200452216
 21
385.0990176663735
 31
0.0
  0
LINE
  5
2343
330
1F
100
AcDbEntity
  8
0
100
AcDbLine
 10
866.5063200452214
 20
270.0990176663735
 30
0.0
 11
866.5063200452214
 21
320.0990176663735
 31
0.0
  0
LINE
  5
2344
330
1F
100
AcDbEntity
  8
0
100
AcDbLine
 10
866.5063200452214
 20
320.0990176663735
 30
0.0
 11
856.5063200452214
 21
330.0990176663735
 31
0.0
  0
LINE
  5
2345
330
1F
100
AcDbEntity
  8
0
100
AcDbLine
 10
856.5063200452214
 20
330.0990176663735
 30
0.0
 11
853.0063200452214
 21
330.0990176663735
 31
0.0
  0
LINE
  5
2346
330
1F
100
AcDbEntity
  8
0
100
AcDbLine
 10
853.0063200452214
 20
330.0990176663735
 30
0.0
 11
853.0063200452214
 21
420.0990176663735
 31
0.0
  0
LINE
  5
2347
330
1F
100
AcDbEntity
  8
0
100
AcDbLine
 10
853.0063200452214
 20
420.0990176663735
 30
0.0
 11
856.5063200452214
 21
420.0990176663735
 31
0.0
  0
LINE
  5
2348
330
1F
100
AcDbEntity
  8
0
100
AcDbLine
 10
856.5063200452214
 20
420.0990176663735
 30
0.0
 11
856.5063200452214
 21
405.0990176663735
 31
0.0
  0
LINE
  5
2349
330
1F
100
AcDbEntity
  8
0
100
AcDbLine
 10
856.5063200452214
 20
405.0990176663735
 30
0.0
 11
866.5063200452214
 21
415.0990176663735
 31
0.0
  0
LINE
  5
234A
330
1F
100
AcDbEntity
  8
0
100
AcDbLine
 10
866.5063200452214
 20
415.0990176663735
 30
0.0
 11
866.5063200452214
 21
450.0990176663735
 31
0.0
  0
LINE
  5
234B
330
1F
100
AcDbEntity
  8
0
100
AcDbLine
 10
866.5063200452214
 20
450.0990176663735
 30
0.0
 11
856.5063200452214
 21
450.0990176663735
 31
0.0
  0
LINE
  5
234C
330
1F
100
AcDbEntity
  8
0
100
AcDbLine
 10
856.5063200452214
 20
450.0990176663735
 30
0.0
 11
856.5063200452214
 21
440.0990176663735
 31
0.0
  0
LINE
  5
234D
330
1F
100
AcDbEntity
  8
0
100
AcDbLine
 10
856.5063200452214
 20
440.0990176663735
 30
0.0
 11
846.5063200452214
 21
440.0990176663735
 31
0.0
  0
LINE
  5
234E
330
1F
100
AcDbEntity
  8
0
100
AcDbLine
 10
846.5063200452214
 20
440.0990176663735
 30
0.0
 11
846.5063200452214
 21
450.0990176663735
 31
0.0
  0
LINE
  5
234F
330
1F
100
AcDbEntity
  8
0
100
AcDbLine
 10
846.5063200452214
 20
450.0990176663735
 30
0.0
 11
836.5063200452214
 21
450.0990176663735
 31
0.0
  0
LINE
  5
2350
330
1F
100
AcDbEntity
  8
0
100
AcDbLine
 10
836.5063200452214
 20
450.0990176663735
 30
0.0
 11
836.5063200452214
 21
440.0990176663735
 31
0.0
  0
LINE
  5
2351
330
1F
100
AcDbEntity
  8
0
100
AcDbLine
 10
836.5063200452214
 20
440.0990176663735
 30
0.0
 11
826.5063200452216
 21
440.0990176663735
 31
0.0
  0
LINE
  5
2352
330
1F
100
AcDbEntity
  8
0
100
AcDbLine
 10
826.5063200452216
 20
440.0990176663735
 30
0.0
 11
826.5063200452216
 21
450.0990176663735
 31
0.0
  0
LINE
  5
2353
330
1F
100
AcDbEntity
  8
0
100
AcDbLine
 10
826.5063200452216
 20
450.0990176663735
 30
0.0
 11
816.5063200452216
 21
450.0990176663735
 31
0.0
  0
LINE
  5
2354
330
1F
100
AcDbEntity
  8
0
100
AcDbLine
 10
816.5063200452216
 20
450.0990176663735
 30
0.0
 11
816.5063200452216
 21
440.0990176663735
 31
0.0
  0
LINE
  5
2355
330
1F
100
AcDbEntity
  8
0
100
AcDbLine
 10
796.5063200452216
 20
440.0990176663735
 30
0.0
 11
786.5063200452216
 21
440.0990176663735
 31
0.0
  0
LINE
  5
2356
330
1F
100
AcDbEntity
  8
0
100
AcDbLine
 10
786.5063200452216
 20
440.0990176663735
 30
0.0
 11
786.5063200452216
 21
450.0990176663735
 31
0.0
  0
LINE
  5
2357
330
1F
100
AcDbEntity
  8
0
100
AcDbLine
 10
786.5063200452216
 20
450.0990176663735
 30
0.0
 11
776.5063200452216
 21
450.0990176663735
 31
0.0
  0
LINE
  5
2358
330
1F
100
AcDbEntity
  8
0
100
AcDbLine
 10
776.5063200452216
 20
450.0990176663735
 30
0.0
 11
776.5063200452216
 21
440.0990176663735
 31
0.0
  0
LINE
  5
2359
330
1F
100
AcDbEntity
  8
0
100
AcDbLine
 10
776.5063200452216
 20
440.0990176663735
 30
0.0
 11
766.5063200452216
 21
440.0990176663735
 31
0.0
  0
LINE
  5
235A
330
1F
100
AcDbEntity
  8
0
100
AcDbLine
 10
766.5063200452216
 20
440.0990176663735
 30
0.0
 11
766.5063200452216
 21
450.0990176663735
 31
0.0
  0
LINE
  5
235B
330
1F
100
AcDbEntity
  8
0
100
AcDbLine
 10
766.5063200452216
 20
450.0990176663735
 30
0.0
 11
756.5063200452216
 21
450.0990176663735
 31
0.0
  0
LINE
  5
235C
330
1F
100
AcDbEntity
  8
0
100
AcDbLine
 10
756.5063200452216
 20
450.0990176663735
 30
0.0
 11
756.5063200452216
 21
440.0990176663735
 31
0.0
  0
LINE
  5
235E
330
1F
100
AcDbEntity
  8
0
100
AcDbLine
 10
746.5063200452216
 20
440.0990176663735
 30
0.0
 11
756.5063200452216
 21
440.0990176663735
 31
0.0
  0
LINE
  5
2367
330
1F
100
AcDbEntity
  8
0
100
AcDbLine
 10
796.5063200452216
 20
440.0990176663735
 30
0.0
 11
796.5063200452216
 21
450.0990176663735
 31
0.0
  0
LINE
  5
2368
330
1F
100
AcDbEntity
  8
0
100
AcDbLine
 10
796.5063200452216
 20
450.0990176663735
 30
0.0
 11
806.5063200452216
 21
450.0990176663735
 31
0.0
  0
LINE
  5
2369
330
1F
100
AcDbEntity
  8
0
100
AcDbLine
 10
806.5063200452216
 20
450.0990176663735
 30
0.0
 11
806.5063200452216
 21
440.0990176663735
 31
0.0
  0
LINE
  5
236A
330
1F
100
AcDbEntity
  8
0
100
AcDbLine
 10
806.5063200452216
 20
440.0990176663735
 30
0.0
 11
816.5063200452216
 21
440.0990176663735
 31
0.0
  0
LINE
  5
236C
330
1F
100
AcDbEntity
  8
0
100
AcDbLine
 10
716.5063200452216
 20
270.0990176663735
 30
0.0
 11
716.5063200452216
 21
340.0990176663735
 31
0.0
  0
LINE
  5
236D
330
1F
100
AcDbEntity
  8
0
100
AcDbLine
 10
806.5063200452216
 20
270.0990176663735
 30
0.0
 11
806.5063200452216
 21
340.0990176663735
 31
0.0
  0
ARC
  5
236E
330
1F
100
AcDbEntity
  8
0
100
AcDbCircle
 10
761.5063200452216
 20
312.0990176663735
 30
0.0
 40
53.0
100
AcDbArc
 50
31.89079180184571
 51
148.1092081981543
  0
LINE
  5
23DB
330
1F
100
AcDbEntity
  8
0
100
AcDbLine
 10
899.5990216349096
 20
1.281194639335467
 30
0.0
 11
899.5990216349096
 21
51.28119463933547
 31
0.0
  0
LINE
  5
23DC
330
1F
100
AcDbEntity
  8
0
100
AcDbLine
 10
889.5990216349096
 20
61.28119463933547
 30
0.0
 11
899.5990216349096
 21
51.28119463933547
 31
0.0
  0
LINE
  5
23DD
330
1F
100
AcDbEntity
  8
0
100
AcDbLine
 10
886.0990216349096
 20
31.28119463933547
 30
0.0
 11
886.0990216349096
 21
136.2811946393355
 31
0.0
  0
LINE
  5
23DE
330
1F
100
AcDbEntity
  8
0
100
AcDbLine
 10
886.0990216349096
 20
151.2811946393355
 30
0.0
 11
889.5990216349096
 21
151.2811946393355
 31
0.0
  0
LINE
  5
23DF
330
1F
100
AcDbEntity
  8
0
100
AcDbLine
 10
889.5990216349096
 20
151.2811946393355
 30
0.0
 11
889.5990216349096
 21
171.2811946393355
 31
0.0
  0
LINE
  5
23E0
330
1F
100
AcDbEntity
  8
0
100
AcDbLine
 10
899.5990216349096
 20
146.2811946393355
 30
0.0
 11
889.5990216349096
 21
136.2811946393355
 31
0.0
  0
LINE
  5
23E1
330
1F
100
AcDbEntity
  8
0
100
AcDbLine
 10
899.5990216349096
 20
146.2811946393355
 30
0.0
 11
899.5990216349096
 21
181.2811946393355
 31
0.0
  0
LINE
  5
23E2
330
1F
100
AcDbEntity
  8
0
100
AcDbLine
 10
899.5990216349096
 20
181.2811946393355
 30
0.0
 11
889.5990216349096
 21
181.2811946393355
 31
0.0
  0
LINE
  5
23E3
330
1F
100
AcDbEntity
  8
0
100
AcDbLine
 10
889.5990216349096
 20
181.2811946393355
 30
0.0
 11
889.5990216349096
 21
171.2811946393355
 31
0.0
  0
LINE
  5
23E4
330
1F
100
AcDbEntity
  8
0
100
AcDbLine
 10
879.5990216349096
 20
171.2811946393355
 30
0.0
 11
879.5990216349096
 21
181.2811946393355
 31
0.0
  0
LINE
  5
23E5
330
1F
100
AcDbEntity
  8
0
100
AcDbLine
 10
879.5990216349096
 20
181.2811946393355
 30
0.0
 11
869.5990216349096
 21
181.2811946393355
 31
0.0
  0
LINE
  5
23E6
330
1F
100
AcDbEntity
  8
0
100
AcDbLine
 10
869.5990216349096
 20
181.2811946393355
 30
0.0
 11
869.5990216349096
 21
171.2811946393355
 31
0.0
  0
LINE
  5
23E7
330
1F
100
AcDbEntity
  8
0
100
AcDbLine
 10
869.5990216349096
 20
171.2811946393355
 30
0.0
 11
859.5990216349096
 21
171.2811946393355
 31
0.0
  0
LINE
  5
23E8
330
1F
100
AcDbEntity
  8
0
100
AcDbLine
 10
859.5990216349096
 20
171.2811946393355
 30
0.0
 11
859.5990216349096
 21
181.2811946393355
 31
0.0
  0
LINE
  5
23E9
330
1F
100
AcDbEntity
  8
0
100
AcDbLine
 10
859.5990216349096
 20
181.2811946393355
 30
0.0
 11
849.5990216349096
 21
181.2811946393355
 31
0.0
  0
LINE
  5
23EA
330
1F
100
AcDbEntity
  8
0
100
AcDbLine
 10
849.5990216349096
 20
181.2811946393355
 30
0.0
 11
849.5990216349096
 21
171.2811946393355
 31
0.0
  0
LINE
  5
23EB
330
1F
100
AcDbEntity
  8
0
100
AcDbLine
 10
849.5990216349096
 20
171.2811946393355
 30
0.0
 11
839.5990216349096
 21
171.2811946393355
 31
0.0
  0
LINE
  5
23EC
330
1F
100
AcDbEntity
  8
0
100
AcDbLine
 10
839.5990216349096
 20
171.2811946393355
 30
0.0
 11
839.5990216349096
 21
181.2811946393355
 31
0.0
  0
LINE
  5
23ED
330
1F
100
AcDbEntity
  8
0
100
AcDbLine
 10
839.5990216349096
 20
181.2811946393355
 30
0.0
 11
829.5990216349096
 21
181.2811946393355
 31
0.0
  0
LINE
  5
23EE
330
1F
100
AcDbEntity
  8
0
100
AcDbLine
 10
829.5990216349096
 20
181.2811946393355
 30
0.0
 11
829.5990216349096
 21
171.2811946393355
 31
0.0
  0
LINE
  5
23EF
330
1F
100
AcDbEntity
  8
0
100
AcDbLine
 10
829.5990216349096
 20
171.2811946393355
 30
0.0
 11
819.5990216349096
 21
171.2811946393355
 31
0.0
  0
LINE
  5
23F0
330
1F
100
AcDbEntity
  8
0
100
AcDbLine
 10
819.5990216349096
 20
171.2811946393355
 30
0.0
 11
819.5990216349096
 21
181.2811946393355
 31
0.0
  0
LINE
  5
23F1
330
1F
100
AcDbEntity
  8
0
100
AcDbLine
 10
819.5990216349096
 20
181.2811946393355
 30
0.0
 11
809.5990216349096
 21
181.2811946393355
 31
0.0
  0
LINE
  5
23F2
330
1F
100
AcDbEntity
  8
0
100
AcDbLine
 10
809.5990216349096
 20
181.2811946393355
 30
0.0
 11
809.5990216349096
 21
171.2811946393355
 31
0.0
  0
LINE
  5
23F3
330
1F
100
AcDbEntity
  8
0
100
AcDbLine
 10
779.5990216349097
 20
171.2811946393355
 30
0.0
 11
779.5990216349097
 21
181.2811946393355
 31
0.0
  0
LINE
  5
23F4
330
1F
100
AcDbEntity
  8
0
100
AcDbLine
 10
779.5990216349097
 20
181.2811946393355
 30
0.0
 11
769.5990216349097
 21
181.2811946393355
 31
0.0
  0
LINE
  5
23F5
330
1F
100
AcDbEntity
  8
0
100
AcDbLine
 10
769.5990216349097
 20
181.2811946393355
 30
0.0
 11
769.5990216349097
 21
146.2811946393355
 31
0.0
  0
LINE
  5
23F6
330
1F
100
AcDbEntity
  8
0
100
AcDbLine
 10
769.5990216349097
 20
146.2811946393355
 30
0.0
 11
779.5990216349097
 21
136.2811946393355
 31
0.0
  0
LINE
  5
23F7
330
1F
100
AcDbEntity
  8
0
100
AcDbLine
 10
779.5990216349097
 20
151.2811946393355
 30
0.0
 11
783.0990216349097
 21
151.2811946393355
 31
0.0
  0
LINE
  5
23F8
330
1F
100
AcDbEntity
  8
0
100
AcDbLine
 10
779.5990216349097
 20
31.28119463933547
 30
0.0
 11
779.5990216349097
 21
61.28119463933547
 31
0.0
  0
LINE
  5
23F9
330
1F
100
AcDbEntity
  8
0
100
AcDbLine
 10
779.5990216349097
 20
61.28119463933547
 30
0.0
 11
769.5990216349097
 21
51.28119463933547
 31
0.0
  0
LINE
  5
23FA
330
1F
100
AcDbEntity
  8
0
100
AcDbLine
 10
769.5990216349097
 20
51.28119463933547
 30
0.0
 11
769.5990216349097
 21
1.281194639335467
 31
0.0
  0
LINE
  5
23FB
330
1F
100
AcDbEntity
  8
0
100
AcDbLine
 10
779.5990216349097
 20
31.28119463933547
 30
0.0
 11
783.0990216349097
 21
31.28119463933547
 31
0.0
  0
LINE
  5
23FC
330
1F
100
AcDbEntity
  8
0
100
AcDbLine
 10
886.0990216349096
 20
31.28119463933547
 30
0.0
 11
889.5990216349096
 21
31.28119463933547
 31
0.0
  0
LINE
  5
23FD
330
1F
100
AcDbEntity
  8
0
100
AcDbLine
 10
889.5990216349096
 20
61.28119463933547
 30
0.0
 11
889.5990216349096
 21
31.28119463933547
 31
0.0
  0
LINE
  5
23FE
330
1F
100
AcDbEntity
  8
0
100
AcDbLine
 10
889.5990216349096
 20
136.2811946393355
 30
0.0
 11
886.0990216349096
 21
136.2811946393355
 31
0.0
  0
LINE
  5
23FF
330
1F
100
AcDbEntity
  8
0
100
AcDbLine
 10
886.0990216349096
 20
151.2811946393355
 30
0.0
 11
886.0990216349096
 21
171.2811946393355
 31
0.0
  0
LINE
  5
2400
330
1F
100
AcDbEntity
  8
0
100
AcDbLine
 10
886.0990216349096
 20
171.2811946393355
 30
0.0
 11
879.5990216349096
 21
171.2811946393355
 31
0.0
  0
LINE
  5
2401
330
1F
100
AcDbEntity
  8
0
100
AcDbLine
 10
783.0990216349097
 20
151.2811946393355
 30
0.0
 11
783.0990216349097
 21
171.2811946393355
 31
0.0
  0
LINE
  5
2402
330
1F
100
AcDbEntity
  8
0
100
AcDbLine
 10
783.0990216349097
 20
171.2811946393355
 30
0.0
 11
789.5990216349097
 21
171.2811946393355
 31
0.0
  0
LINE
  5
2403
330
1F
100
AcDbEntity
  8
0
100
AcDbLine
 10
783.0990216349097
 20
136.2811946393355
 30
0.0
 11
783.0990216349097
 21
31.28119463933547
 31
0.0
  0
LINE
  5
2404
330
1F
100
AcDbEntity
  8
0
100
AcDbLine
 10
862.5990216349096
 20
121.3425045538125
 30
0.0
 11
862.5990216349096
 21
117.8425045538125
 31
0.0
  0
LINE
  5
2405
330
1F
100
AcDbEntity
  8
0
100
AcDbLine
 10
826.5990216349096
 20
117.8425045538125
 30
0.0
 11
826.5990216349096
 21
121.3425045538125
 31
0.0
  0
LINE
  5
2406
330
1F
100
AcDbEntity
  8
0
100
AcDbLine
 10
862.5990216349096
 20
121.3425045538125
 30
0.0
 11
826.5990216349096
 21
121.3425045538125
 31
0.0
  0
LINE
  5
2407
330
1F
100
AcDbEntity
  8
0
100
AcDbLine
 10
862.5990216349096
 20
117.8425045538125
 30
0.0
 11
826.5990216349096
 21
117.8425045538125
 31
0.0
  0
LINE
  5
2408
330
1F
100
AcDbEntity
  8
0
100
AcDbLine
 10
876.0990216349096
 20
121.3425045538125
 30
0.0
 11
872.5990216349096
 21
121.3425045538125
 31
0.0
  0
LINE
  5
2409
330
1F
100
AcDbEntity
  8
0
100
AcDbLine
 10
872.5990216349096
 20
121.3425045538125
 30
0.0
 11
872.5990216349096
 21
147.3425045538125
 31
0.0
  0
LINE
  5
240A
330
1F
100
AcDbEntity
  8
0
100
AcDbLine
 10
872.5990216349096
 20
147.3425045538125
 30
0.0
 11
876.0990216349096
 21
147.3425045538125
 31
0.0
  0
LINE
  5
240B
330
1F
100
AcDbEntity
  8
0
100
AcDbLine
 10
876.0990216349096
 20
147.3425045538125
 30
0.0
 11
876.0990216349096
 21
121.3425045538125
 31
0.0
  0
LINE
  5
240C
330
1F
100
AcDbEntity
  8
0
100
AcDbLine
 10
816.5990216349096
 20
121.3425045538125
 30
0.0
 11
813.0990216349096
 21
121.3425045538125
 31
0.0
  0
LINE
  5
240D
330
1F
100
AcDbEntity
  8
0
100
AcDbLine
 10
813.0990216349096
 20
121.3425045538125
 30
0.0
 11
813.0990216349096
 21
147.3425045538125
 31
0.0
  0
LINE
  5
240E
330
1F
100
AcDbEntity
  8
0
100
AcDbLine
 10
813.0990216349096
 20
147.3425045538125
 30
0.0
 11
816.5990216349096
 21
147.3425045538125
 31
0.0
  0
LINE
  5
240F
330
1F
100
AcDbEntity
  8
0
100
AcDbLine
 10
816.5990216349096
 20
147.3425045538125
 30
0.0
 11
816.5990216349096
 21
121.3425045538125
 31
0.0
  0
LINE
  5
2410
330
1F
100
AcDbEntity
  8
0
100
AcDbLine
 10
876.0990216349096
 20
31.28119463933547
 30
0.0
 11
876.0990216349096
 21
11.28119463933547
 31
0.0
  0
LINE
  5
2411
330
1F
100
AcDbEntity
  8
0
100
AcDbLine
 10
876.0990216349096
 20
11.28119463933547
 30
0.0
 11
872.5990216349096
 21
11.28119463933547
 31
0.0
  0
LINE
  5
2412
330
1F
100
AcDbEntity
  8
0
100
AcDbLine
 10
872.5990216349096
 20
11.28119463933547
 30
0.0
 11
872.5990216349096
 21
37.28119463933547
 31
0.0
  0
LINE
  5
2413
330
1F
100
AcDbEntity
  8
0
100
AcDbLine
 10
872.5990216349096
 20
37.28119463933547
 30
0.0
 11
876.0990216349096
 21
37.28119463933547
 31
0.0
  0
LINE
  5
2414
330
1F
100
AcDbEntity
  8
0
100
AcDbLine
 10
876.0990216349096
 20
37.28119463933547
 30
0.0
 11
876.0990216349096
 21
31.28119463933547
 31
0.0
  0
LINE
  5
2415
330
1F
100
AcDbEntity
  8
0
100
AcDbLine
 10
813.0990216349096
 20
31.28119463933547
 30
0.0
 11
813.0990216349096
 21
11.28119463933547
 31
0.0
  0
LINE
  5
2416
330
1F
100
AcDbEntity
  8
0
100
AcDbLine
 10
813.0990216349096
 20
11.28119463933547
 30
0.0
 11
816.5990216349096
 21
11.28119463933547
 31
0.0
  0
LINE
  5
2417
330
1F
100
AcDbEntity
  8
0
100
AcDbLine
 10
816.5990216349096
 20
11.28119463933547
 30
0.0
 11
816.5990216349096
 21
37.28119463933547
 31
0.0
  0
LINE
  5
2418
330
1F
100
AcDbEntity
  8
0
100
AcDbLine
 10
816.5990216349096
 20
37.28119463933547
 30
0.0
 11
813.0990216349096
 21
37.28119463933547
 31
0.0
  0
LINE
  5
2419
330
1F
100
AcDbEntity
  8
0
100
AcDbLine
 10
813.0990216349096
 20
37.28119463933547
 30
0.0
 11
813.0990216349096
 21
31.28119463933547
 31
0.0
  0
LINE
  5
241A
330
1F
100
AcDbEntity
  8
0
100
AcDbLine
 10
899.5990216349096
 20
1.281194639335467
 30
0.0
 11
769.5990216349097
 21
1.281194639335467
 31
0.0
  0
LINE
  5
241B
330
1F
100
AcDbEntity
  8
0
100
AcDbLine
 10
783.0990216349097
 20
136.2811946393355
 30
0.0
 11
779.5990216349097
 21
136.2811946393355
 31
0.0
  0
LINE
  5
241C
330
1F
100
AcDbEntity
  8
0
100
AcDbLine
 10
809.5990216349096
 20
171.2811946393355
 30
0.0
 11
799.5990216349096
 21
171.2811946393355
 31
0.0
  0
LINE
  5
241D
330
1F
100
AcDbEntity
  8
0
100
AcDbLine
 10
799.5990216349096
 20
171.2811946393355
 30
0.0
 11
799.5990216349096
 21
181.2811946393355
 31
0.0
  0
LINE
  5
241E
330
1F
100
AcDbEntity
  8
0
100
AcDbLine
 10
799.5990216349096
 20
181.2811946393355
 30
0.0
 11
789.5990216349097
 21
181.2811946393355
 31
0.0
  0
LINE
  5
241F
330
1F
100
AcDbEntity
  8
0
100
AcDbLine
 10
789.5990216349097
 20
181.2811946393355
 30
0.0
 11
789.5990216349097
 21
171.2811946393355
 31
0.0
  0
LINE
  5
2420
330
1F
100
AcDbEntity
  8
0
100
AcDbLine
 10
866.0990216349096
 20
151.2811946393355
 30
0.0
 11
846.0990216349096
 21
151.2811946393355
 31
0.0
  0
LINE
  5
2421
330
1F
100
AcDbEntity
  8
0
100
AcDbLine
 10
846.0990216349096
 20
151.2811946393355
 30
0.0
 11
846.0990216349096
 21
147.7811946393355
 31
0.0
  0
LINE
  5
2422
330
1F
100
AcDbEntity
  8
0
100
AcDbLine
 10
846.0990216349096
 20
147.7811946393355
 30
0.0
 11
866.0990216349096
 21
147.7811946393355
 31
0.0
  0
LINE
  5
2423
330
1F
100
AcDbEntity
  8
0
100
AcDbLine
 10
866.0990216349096
 20
147.7811946393355
 30
0.0
 11
866.0990216349096
 21
151.2811946393355
 31
0.0
  0
LINE
  5
2424
330
1F
100
AcDbEntity
  8
0
100
AcDbLine
 10
803.0990216349096
 20
147.7811946393355
 30
0.0
 11
803.0990216349096
 21
151.2811946393355
 31
0.0
  0
LINE
  5
2425
330
1F
100
AcDbEntity
  8
0
100
AcDbLine
 10
803.0990216349096
 20
151.2811946393355
 30
0.0
 11
793.0990216349097
 21
151.2811946393355
 31
0.0
  0
LINE
  5
2426
330
1F
100
AcDbEntity
  8
0
100
AcDbLine
 10
793.0990216349097
 20
151.2811946393355
 30
0.0
 11
793.0990216349097
 21
147.7811946393355
 31
0.0
  0
LINE
  5
2427
330
1F
100
AcDbEntity
  8
0
100
AcDbLine
 10
803.0990216349096
 20
147.7811946393355
 30
0.0
 11
793.0990216349097
 21
147.7811946393355
 31
0.0
  0
LINE
  5
2428
330
1F
100
AcDbEntity
  8
0
100
AcDbLine
 10
779.5990216349097
 20
171.2811946393355
 30
0.0
 11
776.0990216349097
 21
171.2811946393355
 31
0.0
  0
LINE
  5
2429
330
1F
100
AcDbEntity
  8
0
100
AcDbLine
 10
776.0990216349097
 20
171.2811946393355
 30
0.0
 11
776.0990216349097
 21
151.2811946393355
 31
0.0
  0
LINE
  5
242A
330
1F
100
AcDbEntity
  8
0
100
AcDbLine
 10
776.0990216349097
 20
151.2811946393355
 30
0.0
 11
779.5990216349097
 21
151.2811946393355
 31
0.0
  0
LINE
  5
242B
330
1F
100
AcDbEntity
  8
0
100
AcDbLine
 10
295.8148964214279
 20
651.0781305660787
 30
0.0
 11
395.8148964214279
 21
651.0781305660787
 31
0.0
  0
LINE
  5
242C
330
1F
100
AcDbEntity
  8
0
100
AcDbLine
 10
395.8148964214279
 20
651.0781305660787
 30
0.0
 11
395.8148964214279
 21
561.0781305660787
 31
0.0
  0
LINE
  5
242D
330
1F
100
AcDbEntity
  8
0
100
AcDbLine
 10
395.8148964214279
 20
561.0781305660787
 30
0.0
 11
390.8148964214279
 21
561.0781305660787
 31
0.0
  0
LINE
  5
2430
330
1F
100
AcDbEntity
  8
0
100
AcDbLine
 10
385.8148964214279
 20
551.0781305660787
 30
0.0
 11
390.8148964214279
 21
561.0781305660787
 31
0.0
  0
LINE
  5
2431
330
1F
100
AcDbEntity
  8
0
100
AcDbLine
 10
295.8148964214279
 20
651.0781305660787
 30
0.0
 11
295.8148964214279
 21
561.0781305660787
 31
0.0
  0
LINE
  5
2432
330
1F
100
AcDbEntity
  8
0
100
AcDbLine
 10
295.8148964214279
 20
561.0781305660787
 30
0.0
 11
300.8148964214279
 21
561.0781305660787
 31
0.0
  0
LINE
  5
2435
330
1F
100
AcDbEntity
  8
0
100
AcDbLine
 10
380.8148964214279
 20
561.0781305660787
 30
0.0
 11
385.8148964214279
 21
551.0781305660787
 31
0.0
  0
LINE
  5
2436
330
1F
100
AcDbEntity
  8
0
100
AcDbLine
 10
380.8148964214279
 20
561.0781305660787
 30
0.0
 11
370.8148964214279
 21
561.0781305660787
 31
0.0
  0
LINE
  5
2456
330
1F
100
AcDbEntity
  8
0
100
AcDbLine
 10
325.8148964214279
 20
551.0781305660787
 30
0.0
 11
330.8148964214279
 21
561.0781305660787
 31
0.0
  0
LINE
  5
2457
330
1F
100
AcDbEntity
  8
0
100
AcDbLine
 10
320.8148964214279
 20
561.0781305660787
 30
0.0
 11
325.8148964214279
 21
551.0781305660787
 31
0.0
  0
LINE
  5
2458
330
1F
100
AcDbEntity
  8
0
100
AcDbLine
 10
320.8148964214279
 20
561.0781305660787
 30
0.0
 11
310.8148964214279
 21
561.0781305660787
 31
0.0
  0
LINE
  5
2478
330
1F
100
AcDbEntity
  8
0
100
AcDbLine
 10
305.8148964214279
 20
551.0781305660787
 30
0.0
 11
310.8148964214279
 21
561.0781305660787
 31
0.0
  0
LINE
  5
2479
330
1F
100
AcDbEntity
  8
0
100
AcDbLine
 10
300.8148964214279
 20
561.0781305660787
 30
0.0
 11
305.8148964214279
 21
551.0781305660787
 31
0.0
  0
LINE
  5
247B
330
1F
100
AcDbEntity
  8
0
100
AcDbLine
 10
365.8148964214279
 20
551.0781305660787
 30
0.0
 11
370.8148964214279
 21
561.0781305660787
 31
0.0
  0
LINE
  5
247C
330
1F
100
AcDbEntity
  8
0
100
AcDbLine
 10
360.8148964214279
 20
561.0781305660787
 30
0.0
 11
365.8148964214279
 21
551.0781305660787
 31
0.0
  0
LINE
  5
247D
330
1F
100
AcDbEntity
  8
0
100
AcDbLine
 10
360.8148964214279
 20
561.0781305660787
 30
0.0
 11
350.8148964214279
 21
561.0781305660787
 31
0.0
  0
LINE
  5
247E
330
1F
100
AcDbEntity
  8
0
100
AcDbLine
 10
345.8148964214279
 20
551.0781305660787
 30
0.0
 11
350.8148964214279
 21
561.0781305660787
 31
0.0
  0
LINE
  5
247F
330
1F
100
AcDbEntity
  8
0
100
AcDbLine
 10
340.8148964214279
 20
561.0781305660787
 30
0.0
 11
345.8148964214279
 21
551.0781305660787
 31
0.0
  0
LINE
  5
2480
330
1F
100
AcDbEntity
  8
0
100
AcDbLine
 10
330.8148964214279
 20
561.0781305660787
 30
0.0
 11
340.8148964214279
 21
561.0781305660787
 31
0.0
  0
LINE
  5
2482
330
1F
100
AcDbEntity
  8
0
100
AcDbLine
 10
310.8148964214279
 20
571.0781305660787
 30
0.0
 11
320.8148964214279
 21
571.0781305660787
 31
0.0
  0
LINE
  5
2483
330
1F
100
AcDbEntity
  8
0
100
AcDbLine
 10
320.8148964214279
 20
571.0781305660787
 30
0.0
 11
320.8148964214279
 21
581.0781305660787
 31
0.0
  0
LINE
  5
2484
330
1F
100
AcDbEntity
  8
0
100
AcDbLine
 10
320.8148964214279
 20
581.0781305660787
 30
0.0
 11
310.8148964214279
 21
581.0781305660787
 31
0.0
  0
LINE
  5
2485
330
1F
100
AcDbEntity
  8
0
100
AcDbLine
 10
310.8148964214279
 20
581.0781305660787
 30
0.0
 11
310.8148964214279
 21
571.0781305660787
 31
0.0
  0
LINE
  5
24A8
330
1F
100
AcDbEntity
  8
0
100
AcDbLine
 10
310.8148964214279
 20
591.0781305660787
 30
0.0
 11
320.8148964214279
 21
591.0781305660787
 31
0.0
  0
LINE
  5
24A9
330
1F
100
AcDbEntity
  8
0
100
AcDbLine
 10
320.8148964214279
 20
591.0781305660787
 30
0.0
 11
320.8148964214279
 21
601.0781305660787
 31
0.0
  0
LINE
  5
24AA
330
1F
100
AcDbEntity
  8
0
100
AcDbLine
 10
320.8148964214279
 20
601.0781305660787
 30
0.0
 11
310.8148964214279
 21
601.0781305660787
 31
0.0
  0
LINE
  5
24AB
330
1F
100
AcDbEntity
  8
0
100
AcDbLine
 10
310.8148964214279
 20
601.0781305660787
 30
0.0
 11
310.8148964214279
 21
591.0781305660787
 31
0.0
  0
LINE
  5
24CE
330
1F
100
AcDbEntity
  8
0
100
AcDbLine
 10
310.8148964214279
 20
611.0781305660787
 30
0.0
 11
320.8148964214279
 21
611.0781305660787
 31
0.0
  0
LINE
  5
24CF
330
1F
100
AcDbEntity
  8
0
100
AcDbLine
 10
320.8148964214279
 20
611.0781305660787
 30
0.0
 11
320.8148964214279
 21
621.0781305660787
 31
0.0
  0
LINE
  5
24D0
330
1F
100
AcDbEntity
  8
0
100
AcDbLine
 10
320.8148964214279
 20
621.0781305660787
 30
0.0
 11
310.8148964214279
 21
621.0781305660787
 31
0.0
  0
LINE
  5
24D1
330
1F
100
AcDbEntity
  8
0
100
AcDbLine
 10
310.8148964214279
 20
621.0781305660787
 30
0.0
 11
310.8148964214279
 21
611.0781305660787
 31
0.0
  0
LINE
  5
24F4
330
1F
100
AcDbEntity
  8
0
100
AcDbLine
 10
310.8148964214279
 20
631.0781305660787
 30
0.0
 11
320.8148964214279
 21
631.0781305660787
 31
0.0
  0
LINE
  5
24F5
330
1F
100
AcDbEntity
  8
0
100
AcDbLine
 10
320.8148964214279
 20
631.0781305660787
 30
0.0
 11
320.8148964214279
 21
641.0781305660787
 31
0.0
  0
LINE
  5
24F6
330
1F
100
AcDbEntity
  8
0
100
AcDbLine
 10
320.8148964214279
 20
641.0781305660787
 30
0.0
 11
310.8148964214279
 21
641.0781305660787
 31
0.0
  0
LINE
  5
24F7
330
1F
100
AcDbEntity
  8
0
100
AcDbLine
 10
310.8148964214279
 20
641.0781305660787
 30
0.0
 11
310.8148964214279
 21
631.0781305660787
 31
0.0
  0
LINE
  5
2529
330
1F
100
AcDbEntity
  8
0
100
AcDbLine
 10
330.8148964214279
 20
571.0781305660787
 30
0.0
 11
340.8148964214279
 21
571.0781305660787
 31
0.0
  0
LINE
  5
252A
330
1F
100
AcDbEntity
  8
0
100
AcDbLine
 10
340.8148964214279
 20
571.0781305660787
 30
0.0
 11
340.8148964214279
 21
581.0781305660787
 31
0.0
  0
LINE
  5
252B
330
1F
100
AcDbEntity
  8
0
100
AcDbLine
 10
340.8148964214279
 20
581.0781305660787
 30
0.0
 11
330.8148964214279
 21
581.0781305660787
 31
0.0
  0
LINE
  5
252C
330
1F
100
AcDbEntity
  8
0
100
AcDbLine
 10
330.8148964214279
 20
581.0781305660787
 30
0.0
 11
330.8148964214279
 21
571.0781305660787
 31
0.0
  0
LINE
  5
252E
330
1F
100
AcDbEntity
  8
0
100
AcDbLine
 10
330.8148964214279
 20
591.0781305660787
 30
0.0
 11
340.8148964214279
 21
591.0781305660787
 31
0.0
  0
LINE
  5
252F
330
1F
100
AcDbEntity
  8
0
100
AcDbLine
 10
340.8148964214279
 20
591.0781305660787
 30
0.0
 11
340.8148964214279
 21
601.0781305660787
 31
0.0
  0
LINE
  5
2530
330
1F
100
AcDbEntity
  8
0
100
AcDbLine
 10
340.8148964214279
 20
601.0781305660787
 30
0.0
 11
330.8148964214279
 21
601.0781305660787
 31
0.0
  0
LINE
  5
2531
330
1F
100
AcDbEntity
  8
0
100
AcDbLine
 10
330.8148964214279
 20
601.0781305660787
 30
0.0
 11
330.8148964214279
 21
591.0781305660787
 31
0.0
  0
LINE
  5
2533
330
1F
100
AcDbEntity
  8
0
100
AcDbLine
 10
330.8148964214279
 20
611.0781305660787
 30
0.0
 11
340.8148964214279
 21
611.0781305660787
 31
0.0
  0
LINE
  5
2534
330
1F
100
AcDbEntity
  8
0
100
AcDbLine
 10
340.8148964214279
 20
611.0781305660787
 30
0.0
 11
340.8148964214279
 21
621.0781305660787
 31
0.0
  0
LINE
  5
2535
330
1F
100
AcDbEntity
  8
0
100
AcDbLine
 10
340.8148964214279
 20
621.0781305660787
 30
0.0
 11
330.8148964214279
 21
621.0781305660787
 31
0.0
  0
LINE
  5
2536
330
1F
100
AcDbEntity
  8
0
100
AcDbLine
 10
330.8148964214279
 20
621.0781305660787
 30
0.0
 11
330.8148964214279
 21
611.0781305660787
 31
0.0
  0
LINE
  5
2538
330
1F
100
AcDbEntity
  8
0
100
AcDbLine
 10
330.8148964214279
 20
631.0781305660787
 30
0.0
 11
340.8148964214279
 21
631.0781305660787
 31
0.0
  0
LINE
  5
2539
330
1F
100
AcDbEntity
  8
0
100
AcDbLine
 10
340.8148964214279
 20
631.0781305660787
 30
0.0
 11
340.8148964214279
 21
641.0781305660787
 31
0.0
  0
LINE
  5
253A
330
1F
100
AcDbEntity
  8
0
100
AcDbLine
 10
340.8148964214279
 20
641.0781305660787
 30
0.0
 11
330.8148964214279
 21
641.0781305660787
 31
0.0
  0
LINE
  5
253B
330
1F
100
AcDbEntity
  8
0
100
AcDbLine
 10
330.8148964214279
 20
641.0781305660787
 30
0.0
 11
330.8148964214279
 21
631.0781305660787
 31
0.0
  0
LINE
  5
256D
330
1F
100
AcDbEntity
  8
0
100
AcDbLine
 10
350.8148964214279
 20
571.0781305660787
 30
0.0
 11
360.8148964214279
 21
571.0781305660787
 31
0.0
  0
LINE
  5
256E
330
1F
100
AcDbEntity
  8
0
100
AcDbLine
 10
360.8148964214279
 20
571.0781305660787
 30
0.0
 11
360.8148964214279
 21
581.0781305660787
 31
0.0
  0
LINE
  5
256F
330
1F
100
AcDbEntity
  8
0
100
AcDbLine
 10
360.8148964214279
 20
581.0781305660787
 30
0.0
 11
350.8148964214279
 21
581.0781305660787
 31
0.0
  0
LINE
  5
2570
330
1F
100
AcDbEntity
  8
0
100
AcDbLine
 10
350.8148964214279
 20
581.0781305660787
 30
0.0
 11
350.8148964214279
 21
571.0781305660787
 31
0.0
  0
LINE
  5
2572
330
1F
100
AcDbEntity
  8
0
100
AcDbLine
 10
350.8148964214279
 20
591.0781305660787
 30
0.0
 11
360.8148964214279
 21
591.0781305660787
 31
0.0
  0
LINE
  5
2573
330
1F
100
AcDbEntity
  8
0
100
AcDbLine
 10
360.8148964214279
 20
591.0781305660787
 30
0.0
 11
360.8148964214279
 21
601.0781305660787
 31
0.0
  0
LINE
  5
2574
330
1F
100
AcDbEntity
  8
0
100
AcDbLine
 10
360.8148964214279
 20
601.0781305660787
 30
0.0
 11
350.8148964214279
 21
601.0781305660787
 31
0.0
  0
LINE
  5
2575
330
1F
100
AcDbEntity
  8
0
100
AcDbLine
 10
350.8148964214279
 20
601.0781305660787
 30
0.0
 11
350.8148964214279
 21
591.0781305660787
 31
0.0
  0
LINE
  5
2577
330
1F
100
AcDbEntity
  8
0
100
AcDbLine
 10
350.8148964214279
 20
611.0781305660787
 30
0.0
 11
360.8148964214279
 21
611.0781305660787
 31
0.0
  0
LINE
  5
2578
330
1F
100
AcDbEntity
  8
0
100
AcDbLine
 10
360.8148964214279
 20
611.0781305660787
 30
0.0
 11
360.8148964214279
 21
621.0781305660787
 31
0.0
  0
LINE
  5
2579
330
1F
100
AcDbEntity
  8
0
100
AcDbLine
 10
360.8148964214279
 20
621.0781305660787
 30
0.0
 11
350.8148964214279
 21
621.0781305660787
 31
0.0
  0
LINE
  5
257A
330
1F
100
AcDbEntity
  8
0
100
AcDbLine
 10
350.8148964214279
 20
621.0781305660787
 30
0.0
 11
350.8148964214279
 21
611.0781305660787
 31
0.0
  0
LINE
  5
257C
330
1F
100
AcDbEntity
  8
0
100
AcDbLine
 10
350.8148964214279
 20
631.0781305660787
 30
0.0
 11
360.8148964214279
 21
631.0781305660787
 31
0.0
  0
LINE
  5
257D
330
1F
100
AcDbEntity
  8
0
100
AcDbLine
 10
360.8148964214279
 20
631.0781305660787
 30
0.0
 11
360.8148964214279
 21
641.0781305660787
 31
0.0
  0
LINE
  5
257E
330
1F
100
AcDbEntity
  8
0
100
AcDbLine
 10
360.8148964214279
 20
641.0781305660787
 30
0.0
 11
350.8148964214279
 21
641.0781305660787
 31
0.0
  0
LINE
  5
257F
330
1F
100
AcDbEntity
  8
0
100
AcDbLine
 10
350.8148964214279
 20
641.0781305660787
 30
0.0
 11
350.8148964214279
 21
631.0781305660787
 31
0.0
  0
LINE
  5
25B1
330
1F
100
AcDbEntity
  8
0
100
AcDbLine
 10
370.8148964214279
 20
571.0781305660787
 30
0.0
 11
380.8148964214279
 21
571.0781305660787
 31
0.0
  0
LINE
  5
25B2
330
1F
100
AcDbEntity
  8
0
100
AcDbLine
 10
380.8148964214279
 20
571.0781305660787
 30
0.0
 11
380.8148964214279
 21
581.0781305660787
 31
0.0
  0
LINE
  5
25B3
330
1F
100
AcDbEntity
  8
0
100
AcDbLine
 10
380.8148964214279
 20
581.0781305660787
 30
0.0
 11
370.8148964214279
 21
581.0781305660787
 31
0.0
  0
LINE
  5
25B4
330
1F
100
AcDbEntity
  8
0
100
AcDbLine
 10
370.8148964214279
 20
581.0781305660787
 30
0.0
 11
370.8148964214279
 21
571.0781305660787
 31
0.0
  0
LINE
  5
25B6
330
1F
100
AcDbEntity
  8
0
100
AcDbLine
 10
370.8148964214279
 20
591.0781305660787
 30
0.0
 11
380.8148964214279
 21
591.0781305660787
 31
0.0
  0
LINE
  5
25B7
330
1F
100
AcDbEntity
  8
0
100
AcDbLine
 10
380.8148964214279
 20
591.0781305660787
 30
0.0
 11
380.8148964214279
 21
601.0781305660787
 31
0.0
  0
LINE
  5
25B8
330
1F
100
AcDbEntity
  8
0
100
AcDbLine
 10
380.8148964214279
 20
601.0781305660787
 30
0.0
 11
370.8148964214279
 21
601.0781305660787
 31
0.0
  0
LINE
  5
25B9
330
1F
100
AcDbEntity
  8
0
100
AcDbLine
 10
370.8148964214279
 20
601.0781305660787
 30
0.0
 11
370.8148964214279
 21
591.0781305660787
 31
0.0
  0
LINE
  5
25BB
330
1F
100
AcDbEntity
  8
0
100
AcDbLine
 10
370.8148964214279
 20
611.0781305660787
 30
0.0
 11
380.8148964214279
 21
611.0781305660787
 31
0.0
  0
LINE
  5
25BC
330
1F
100
AcDbEntity
  8
0
100
AcDbLine
 10
380.8148964214279
 20
611.0781305660787
 30
0.0
 11
380.8148964214279
 21
621.0781305660787
 31
0.0
  0
LINE
  5
25BD
330
1F
100
AcDbEntity
  8
0
100
AcDbLine
 10
380.8148964214279
 20
621.0781305660787
 30
0.0
 11
370.8148964214279
 21
621.0781305660787
 31
0.0
  0
LINE
  5
25BE
330
1F
100
AcDbEntity
  8
0
100
AcDbLine
 10
370.8148964214279
 20
621.0781305660787
 30
0.0
 11
370.8148964214279
 21
611.0781305660787
 31
0.0
  0
LINE
  5
25C0
330
1F
100
AcDbEntity
  8
0
100
AcDbLine
 10
370.8148964214279
 20
631.0781305660787
 30
0.0
 11
380.8148964214279
 21
631.0781305660787
 31
0.0
  0
LINE
  5
25C1
330
1F
100
AcDbEntity
  8
0
100
AcDbLine
 10
380.8148964214279
 20
631.0781305660787
 30
0.0
 11
380.8148964214279
 21
641.0781305660787
 31
0.0
  0
LINE
  5
25C2
330
1F
100
AcDbEntity
  8
0
100
AcDbLine
 10
380.8148964214279
 20
641.0781305660787
 30
0.0
 11
370.8148964214279
 21
641.0781305660787
 31
0.0
  0
LINE
  5
25C3
330
1F
100
AcDbEntity
  8
0
100
AcDbLine
 10
370.8148964214279
 20
641.0781305660787
 30
0.0
 11
370.8148964214279
 21
631.0781305660787
 31
0.0
  0
CIRCLE
  5
25C4
330
1F
100
AcDbEntity
  8
0
100
AcDbCircle
 10
345.8148964214279
 20
646.0781305660787
 30
0.0
 40
1.0
  0
LINE
  5
25C5
330
1F
100
AcDbEntity
  8
0
100
AcDbLine
 10
608.878250229671
 20
270.0990176663735
 30
0.0
 11
591.878250229671
 21
270.0990176663735
 31
0.0
  0
LINE
  5
25C6
330
1F
100
AcDbEntity
  8
0
100
AcDbLine
 10
591.878250229671
 20
270.0990176663735
 30
0.0
 11
591.878250229671
 21
280.2977559452523
 31
0.0
  0
LINE
  5
25C7
330
1F
100
AcDbEntity
  8
0
100
AcDbLine
 10
591.878250229671
 20
280.2977559452523
 30
0.0
 11
583.378250229671
 21
280.2977559452523
 31
0.0
  0
LINE
  5
25C8
330
1F
100
AcDbEntity
  8
0
100
AcDbLine
 10
583.378250229671
 20
280.2977559452523
 30
0.0
 11
583.378250229671
 21
295.2977559452523
 31
0.0
  0
LINE
  5
25C9
330
1F
100
AcDbEntity
  8
0
100
AcDbLine
 10
583.378250229671
 20
295.2977559452523
 30
0.0
 11
588.378250229671
 21
295.2977559452523
 31
0.0
  0
LINE
  5
25CA
330
1F
100
AcDbEntity
  8
0
100
AcDbLine
 10
588.378250229671
 20
295.2977559452523
 30
0.0
 11
588.378250229671
 21
287.7977559452523
 31
0.0
  0
LINE
  5
25CB
330
1F
100
AcDbEntity
  8
0
100
AcDbLine
 10
588.378250229671
 20
287.7977559452523
 30
0.0
 11
591.878250229671
 21
287.7977559452523
 31
0.0
  0
LINE
  5
25CC
330
1F
100
AcDbEntity
  8
0
100
AcDbLine
 10
591.878250229671
 20
287.7977559452523
 30
0.0
 11
591.878250229671
 21
295.2315098522926
 31
0.0
  0
LINE
  5
25CD
330
1F
100
AcDbEntity
  8
0
100
AcDbLine
 10
591.878250229671
 20
295.2315098522926
 30
0.0
 11
598.878250229671
 21
295.2315098522926
 31
0.0
  0
LINE
  5
25CE
330
1F
100
AcDbEntity
  8
0
100
AcDbLine
 10
598.878250229671
 20
295.2315098522926
 30
0.0
 11
598.878250229671
 21
315.2315098522928
 31
0.0
  0
LINE
  5
25CF
330
1F
100
AcDbEntity
  8
0
100
AcDbLine
 10
598.878250229671
 20
315.2315098522928
 30
0.0
 11
583.378250229671
 21
315.2315098522928
 31
0.0
  0
LINE
  5
25D0
330
1F
100
AcDbEntity
  8
0
100
AcDbLine
 10
583.378250229671
 20
315.2315098522928
 30
0.0
 11
583.378250229671
 21
330.2315098522928
 31
0.0
  0
LINE
  5
25F5
330
1F
100
AcDbEntity
  8
0
100
AcDbLine
 10
583.378250229671
 20
330.2315098522928
 30
0.0
 11
588.378250229671
 21
330.2315098522928
 31
0.0
  0
LINE
  5
25F6
330
1F
100
AcDbEntity
  8
0
100
AcDbLine
 10
588.378250229671
 20
330.2315098522928
 30
0.0
 11
588.378250229671
 21
322.7315098522928
 31
0.0
  0
LINE
  5
25F7
330
1F
100
AcDbEntity
  8
0
100
AcDbLine
 10
588.378250229671
 20
322.7315098522928
 30
0.0
 11
591.878250229671
 21
322.7315098522928
 31
0.0
  0
LINE
  5
25F8
330
1F
100
AcDbEntity
  8
0
100
AcDbLine
 10
591.878250229671
 20
322.7315098522928
 30
0.0
 11
591.878250229671
 21
330.1652637593332
 31
0.0
  0
LINE
  5
25F9
330
1F
100
AcDbEntity
  8
0
100
AcDbLine
 10
591.878250229671
 20
330.1652637593332
 30
0.0
 11
598.878250229671
 21
330.1652637593332
 31
0.0
  0
LINE
  5
25FA
330
1F
100
AcDbEntity
  8
0
100
AcDbLine
 10
598.878250229671
 20
330.1652637593332
 30
0.0
 11
598.8782502296713
 21
350.1652637593332
 31
0.0
  0
LINE
  5
25FB
330
1F
100
AcDbEntity
  8
0
100
AcDbLine
 10
598.8782502296713
 20
350.1652637593332
 30
0.0
 11
583.3782502296713
 21
350.1652637593332
 31
0.0
  0
LINE
  5
25FC
330
1F
100
AcDbEntity
  8
0
100
AcDbLine
 10
583.3782502296713
 20
350.1652637593332
 30
0.0
 11
583.3782502296713
 21
365.1652637593332
 31
0.0
  0
LINE
  5
25FD
330
1F
100
AcDbEntity
  8
0
100
AcDbLine
 10
583.3782502296713
 20
365.1652637593332
 30
0.0
 11
588.3782502296713
 21
365.1652637593332
 31
0.0
  0
LINE
  5
25FE
330
1F
100
AcDbEntity
  8
0
100
AcDbLine
 10
588.3782502296713
 20
365.1652637593332
 30
0.0
 11
588.3782502296713
 21
357.6652637593332
 31
0.0
  0
LINE
  5
25FF
330
1F
100
AcDbEntity
  8
0
100
AcDbLine
 10
588.3782502296713
 20
357.6652637593332
 30
0.0
 11
591.8782502296713
 21
357.6652637593332
 31
0.0
  0
LINE
  5
2600
330
1F
100
AcDbEntity
  8
0
100
AcDbLine
 10
591.8782502296713
 20
357.6652637593332
 30
0.0
 11
591.8782502296713
 21
365.0990176663737
 31
0.0
  0
LINE
  5
2601
330
1F
100
AcDbEntity
  8
0
100
AcDbLine
 10
591.8782502296713
 20
365.0990176663737
 30
0.0
 11
598.8782502296713
 21
365.0990176663737
 31
0.0
  0
LINE
  5
2602
330
1F
100
AcDbEntity
  8
0
100
AcDbLine
 10
598.8782502296713
 20
365.0990176663737
 30
0.0
 11
598.8782502296713
 21
385.0990176663737
 31
0.0
  0
LINE
  5
2603
330
1F
100
AcDbEntity
  8
0
100
AcDbLine
 10
598.8782502296713
 20
385.0990176663737
 30
0.0
 11
583.3782502296713
 21
385.0990176663737
 31
0.0
  0
LINE
  5
2604
330
1F
100
AcDbEntity
  8
0
100
AcDbLine
 10
583.3782502296713
 20
385.0990176663737
 30
0.0
 11
583.3782502296713
 21
400.0990176663737
 31
0.0
  0
LINE
  5
2605
330
1F
100
AcDbEntity
  8
0
100
AcDbLine
 10
583.3782502296713
 20
400.0990176663737
 30
0.0
 11
588.3782502296713
 21
400.0990176663737
 31
0.0
  0
LINE
  5
2606
330
1F
100
AcDbEntity
  8
0
100
AcDbLine
 10
588.3782502296713
 20
400.0990176663737
 30
0.0
 11
588.3782502296713
 21
392.5990176663737
 31
0.0
  0
LINE
  5
2607
330
1F
100
AcDbEntity
  8
0
100
AcDbLine
 10
588.3782502296713
 20
392.5990176663737
 30
0.0
 11
591.8782502296713
 21
392.5990176663737
 31
0.0
  0
LINE
  5
2608
330
1F
100
AcDbEntity
  8
0
100
AcDbLine
 10
591.8782502296713
 20
392.5990176663737
 30
0.0
 11
591.8782502296713
 21
400.0327715734142
 31
0.0
  0
LINE
  5
2609
330
1F
100
AcDbEntity
  8
0
100
AcDbLine
 10
591.8782502296713
 20
400.0327715734142
 30
0.0
 11
598.8782502296713
 21
400.0327715734142
 31
0.0
  0
LINE
  5
260D
330
1F
100
AcDbEntity
  8
0
100
AcDbLine
 10
598.8782502296713
 20
400.0327715734142
 30
0.0
 11
598.8782502296713
 21
410.0327715734142
 31
0.0
  0
LINE
  5
2610
330
1F
100
AcDbEntity
  8
0
100
AcDbLine
 10
608.8782502296713
 20
400.0327715734142
 30
0.0
 11
598.8782502296713
 21
410.0327715734142
 31
0.0
  0
LINE
  5
2611
330
1F
100
AcDbEntity
  8
0
100
AcDbLine
 10
608.8782502296713
 20
400.0327715734142
 30
0.0
 11
608.878250229671
 21
270.0990176663735
 31
0.0
  0
LINE
  5
2652
330
1F
100
AcDbEntity
  8
0
100
AcDbLine
 10
593.4489305471068
 20
160.1554394637083
 30
0.0
 11
593.448930547107
 21
177.1554394637083
 31
0.0
  0
LINE
  5
2653
330
1F
100
AcDbEntity
  8
0
100
AcDbLine
 10
593.448930547107
 20
177.1554394637083
 30
0.0
 11
603.6476688259856
 21
177.1554394637083
 31
0.0
  0
LINE
  5
2654
330
1F
100
AcDbEntity
  8
0
100
AcDbLine
 10
603.6476688259856
 20
177.1554394637083
 30
0.0
 11
603.6476688259856
 21
185.6554394637083
 31
0.0
  0
LINE
  5
2655
330
1F
100
AcDbEntity
  8
0
100
AcDbLine
 10
603.6476688259856
 20
185.6554394637083
 30
0.0
 11
618.6476688259856
 21
185.6554394637083
 31
0.0
  0
LINE
  5
2656
330
1F
100
AcDbEntity
  8
0
100
AcDbLine
 10
618.6476688259856
 20
185.6554394637083
 30
0.0
 11
618.6476688259856
 21
180.6554394637083
 31
0.0
  0
LINE
  5
2657
330
1F
100
AcDbEntity
  8
0
100
AcDbLine
 10
618.6476688259856
 20
180.6554394637083
 30
0.0
 11
611.1476688259856
 21
180.6554394637083
 31
0.0
  0
LINE
  5
2658
330
1F
100
AcDbEntity
  8
0
100
AcDbLine
 10
611.1476688259856
 20
180.6554394637083
 30
0.0
 11
611.1476688259856
 21
177.1554394637083
 31
0.0
  0
LINE
  5
2659
330
1F
100
AcDbEntity
  8
0
100
AcDbLine
 10
611.1476688259856
 20
177.1554394637083
 30
0.0
 11
618.5814227330261
 21
177.1554394637083
 31
0.0
  0
LINE
  5
265A
330
1F
100
AcDbEntity
  8
0
100
AcDbLine
 10
618.5814227330261
 20
177.1554394637083
 30
0.0
 11
618.5814227330261
 21
170.1554394637083
 31
0.0
  0
LINE
  5
265B
330
1F
100
AcDbEntity
  8
0
100
AcDbLine
 10
618.5814227330261
 20
170.1554394637083
 30
0.0
 11
638.5814227330261
 21
170.1554394637083
 31
0.0
  0
LINE
  5
265C
330
1F
100
AcDbEntity
  8
0
100
AcDbLine
 10
638.5814227330261
 20
170.1554394637083
 30
0.0
 11
638.5814227330261
 21
185.6554394637083
 31
0.0
  0
LINE
  5
265D
330
1F
100
AcDbEntity
  8
0
100
AcDbLine
 10
638.5814227330261
 20
185.6554394637083
 30
0.0
 11
653.5814227330261
 21
185.6554394637083
 31
0.0
  0
LINE
  5
265E
330
1F
100
AcDbEntity
  8
0
100
AcDbLine
 10
653.5814227330261
 20
185.6554394637083
 30
0.0
 11
653.5814227330261
 21
180.6554394637083
 31
0.0
  0
LINE
  5
265F
330
1F
100
AcDbEntity
  8
0
100
AcDbLine
 10
653.5814227330261
 20
180.6554394637083
 30
0.0
 11
646.0814227330261
 21
180.6554394637083
 31
0.0
  0
LINE
  5
2660
330
1F
100
AcDbEntity
  8
0
100
AcDbLine
 10
646.0814227330261
 20
180.6554394637083
 30
0.0
 11
646.0814227330261
 21
177.1554394637083
 31
0.0
  0
LINE
  5
2661
330
1F
100
AcDbEntity
  8
0
100
AcDbLine
 10
646.0814227330261
 20
177.1554394637083
 30
0.0
 11
653.5151766400666
 21
177.1554394637083
 31
0.0
  0
LINE
  5
2662
330
1F
100
AcDbEntity
  8
0
100
AcDbLine
 10
653.5151766400666
 20
177.1554394637083
 30
0.0
 11
653.5151766400666
 21
170.1554394637083
 31
0.0
  0
LINE
  5
2663
330
1F
100
AcDbEntity
  8
0
100
AcDbLine
 10
653.5151766400666
 20
170.1554394637083
 30
0.0
 11
673.5151766400666
 21
170.1554394637083
 31
0.0
  0
LINE
  5
2664
330
1F
100
AcDbEntity
  8
0
100
AcDbLine
 10
673.5151766400666
 20
170.1554394637083
 30
0.0
 11
673.5151766400666
 21
185.6554394637083
 31
0.0
  0
LINE
  5
2665
330
1F
100
AcDbEntity
  8
0
100
AcDbLine
 10
673.5151766400666
 20
185.6554394637083
 30
0.0
 11
688.5151766400666
 21
185.6554394637083
 31
0.0
  0
LINE
  5
2666
330
1F
100
AcDbEntity
  8
0
100
AcDbLine
 10
688.5151766400666
 20
185.6554394637083
 30
0.0
 11
688.5151766400666
 21
180.6554394637083
 31
0.0
  0
LINE
  5
2667
330
1F
100
AcDbEntity
  8
0
100
AcDbLine
 10
688.5151766400666
 20
180.6554394637083
 30
0.0
 11
681.0151766400666
 21
180.6554394637083
 31
0.0
  0
LINE
  5
2668
330
1F
100
AcDbEntity
  8
0
100
AcDbLine
 10
681.0151766400666
 20
180.6554394637083
 30
0.0
 11
681.0151766400666
 21
177.1554394637083
 31
0.0
  0
LINE
  5
2669
330
1F
100
AcDbEntity
  8
0
100
AcDbLine
 10
681.0151766400666
 20
177.1554394637083
 30
0.0
 11
688.448930547107
 21
177.1554394637083
 31
0.0
  0
LINE
  5
266A
330
1F
100
AcDbEntity
  8
0
100
AcDbLine
 10
688.448930547107
 20
177.1554394637083
 30
0.0
 11
688.448930547107
 21
170.1554394637083
 31
0.0
  0
LINE
  5
266B
330
1F
100
AcDbEntity
  8
0
100
AcDbLine
 10
688.448930547107
 20
170.1554394637083
 30
0.0
 11
708.448930547107
 21
170.1554394637083
 31
0.0
  0
LINE
  5
266C
330
1F
100
AcDbEntity
  8
0
100
AcDbLine
 10
708.448930547107
 20
170.1554394637083
 30
0.0
 11
708.448930547107
 21
185.6554394637083
 31
0.0
  0
LINE
  5
266D
330
1F
100
AcDbEntity
  8
0
100
AcDbLine
 10
708.448930547107
 20
185.6554394637083
 30
0.0
 11
723.448930547107
 21
185.6554394637082
 31
0.0
  0
LINE
  5
266E
330
1F
100
AcDbEntity
  8
0
100
AcDbLine
 10
723.448930547107
 20
185.6554394637082
 30
0.0
 11
723.448930547107
 21
180.6554394637082
 31
0.0
  0
LINE
  5
266F
330
1F
100
AcDbEntity
  8
0
100
AcDbLine
 10
723.448930547107
 20
180.6554394637082
 30
0.0
 11
715.948930547107
 21
180.6554394637083
 31
0.0
  0
LINE
  5
2670
330
1F
100
AcDbEntity
  8
0
100
AcDbLine
 10
715.948930547107
 20
180.6554394637083
 30
0.0
 11
715.948930547107
 21
177.1554394637083
 31
0.0
  0
LINE
  5
2671
330
1F
100
AcDbEntity
  8
0
100
AcDbLine
 10
715.948930547107
 20
177.1554394637083
 30
0.0
 11
723.3826844541475
 21
177.1554394637083
 31
0.0
  0
LINE
  5
2672
330
1F
100
AcDbEntity
  8
0
100
AcDbLine
 10
723.3826844541475
 20
177.1554394637083
 30
0.0
 11
723.3826844541475
 21
170.1554394637083
 31
0.0
  0
LINE
  5
2673
330
1F
100
AcDbEntity
  8
0
100
AcDbLine
 10
723.3826844541475
 20
170.1554394637083
 30
0.0
 11
733.3826844541475
 21
170.1554394637083
 31
0.0
  0
LINE
  5
2674
330
1F
100
AcDbEntity
  8
0
100
AcDbLine
 10
723.3826844541475
 20
160.1554394637083
 30
0.0
 11
733.3826844541475
 21
170.1554394637083
 31
0.0
  0
LINE
  5
2675
330
1F
100
AcDbEntity
  8
0
100
AcDbLine
 10
723.3826844541475
 20
160.1554394637083
 30
0.0
 11
593.4489305471068
 21
160.1554394637083
 31
0.0
  0
LINE
  5
273E
330
1F
100
AcDbEntity
  8
0
100
AcDbLine
 10
446.3406759117863
 20
565.9848610169423
 30
0.0
 11
456.3406759117863
 21
565.9848610169423
 31
0.0
  0
LINE
  5
273F
330
1F
100
AcDbEntity
  8
0
100
AcDbLine
 10
456.3406759117863
 20
565.9848610169423
 30
0.0
 11
456.3406759117863
 21
595.9848610169423
 31
0.0
  0
LINE
  5
2740
330
1F
100
AcDbEntity
  8
0
100
AcDbLine
 10
456.3406759117863
 20
595.9848610169423
 30
0.0
 11
459.8406759117863
 21
595.9848610169423
 31
0.0
  0
LINE
  5
2741
330
1F
100
AcDbEntity
  8
0
100
AcDbLine
 10
459.8406759117863
 20
595.9848610169423
 30
0.0
 11
459.8406759117863
 21
565.9848610169423
 31
0.0
  0
LINE
  5
2742
330
1F
100
AcDbEntity
  8
0
100
AcDbLine
 10
459.8406759117863
 20
565.9848610169423
 30
0.0
 11
474.8406759117863
 21
565.9848610169423
 31
0.0
  0
LINE
  5
2753
330
1F
100
AcDbEntity
  8
0
100
AcDbLine
 10
446.3406759117863
 20
565.9848610169423
 30
0.0
 11
446.3406759117863
 21
615.9848610169423
 31
0.0
  0
LINE
  5
2754
330
1F
100
AcDbEntity
  8
0
100
AcDbLine
 10
446.3406759117863
 20
615.9848610169423
 30
0.0
 11
456.3406759117863
 21
625.9848610169423
 31
0.0
  0
LINE
  5
2755
330
1F
100
AcDbEntity
  8
0
100
AcDbLine
 10
456.3406759117863
 20
625.9848610169423
 30
0.0
 11
459.8406759117863
 21
625.9848610169423
 31
0.0
  0
LINE
  5
2756
330
1F
100
AcDbEntity
  8
0
100
AcDbLine
 10
459.8406759117863
 20
625.9848610169423
 30
0.0
 11
459.8406759117863
 21
715.9848610169423
 31
0.0
  0
LINE
  5
2757
330
1F
100
AcDbEntity
  8
0
100
AcDbLine
 10
459.8406759117863
 20
715.9848610169423
 30
0.0
 11
456.3406759117863
 21
715.9848610169423
 31
0.0
  0
LINE
  5
2758
330
1F
100
AcDbEntity
  8
0
100
AcDbLine
 10
456.3406759117863
 20
715.9848610169423
 30
0.0
 11
456.3406759117863
 21
700.9848610169423
 31
0.0
  0
LINE
  5
2759
330
1F
100
AcDbEntity
  8
0
100
AcDbLine
 10
456.3406759117863
 20
700.9848610169423
 30
0.0
 11
446.3406759117863
 21
710.9848610169423
 31
0.0
  0
LINE
  5
275A
330
1F
100
AcDbEntity
  8
0
100
AcDbLine
 10
446.3406759117863
 20
710.9848610169423
 30
0.0
 11
446.3406759117863
 21
745.9848610169423
 31
0.0
  0
LINE
  5
275B
330
1F
100
AcDbEntity
  8
0
100
AcDbLine
 10
446.3406759117863
 20
745.9848610169423
 30
0.0
 11
456.3406759117863
 21
745.9848610169423
 31
0.0
  0
LINE
  5
275C
330
1F
100
AcDbEntity
  8
0
100
AcDbLine
 10
456.3406759117863
 20
745.9848610169423
 30
0.0
 11
456.3406759117863
 21
735.9848610169423
 31
0.0
  0
LINE
  5
275D
330
1F
100
AcDbEntity
  8
0
100
AcDbLine
 10
456.3406759117863
 20
735.9848610169423
 30
0.0
 11
466.3406759117863
 21
735.9848610169423
 31
0.0
  0
LINE
  5
275E
330
1F
100
AcDbEntity
  8
0
100
AcDbLine
 10
466.3406759117863
 20
735.9848610169423
 30
0.0
 11
466.3406759117863
 21
745.9848610169423
 31
0.0
  0
LINE
  5
275F
330
1F
100
AcDbEntity
  8
0
100
AcDbLine
 10
466.3406759117863
 20
745.9848610169423
 30
0.0
 11
476.3406759117863
 21
745.9848610169423
 31
0.0
  0
LINE
  5
2760
330
1F
100
AcDbEntity
  8
0
100
AcDbLine
 10
476.3406759117863
 20
745.9848610169423
 30
0.0
 11
476.3406759117863
 21
735.9848610169423
 31
0.0
  0
LINE
  5
2761
330
1F
100
AcDbEntity
  8
0
100
AcDbLine
 10
476.3406759117863
 20
735.9848610169423
 30
0.0
 11
486.3406759117863
 21
735.9848610169423
 31
0.0
  0
LINE
  5
2762
330
1F
100
AcDbEntity
  8
0
100
AcDbLine
 10
486.3406759117863
 20
735.9848610169423
 30
0.0
 11
486.3406759117863
 21
745.9848610169423
 31
0.0
  0
LINE
  5
2763
330
1F
100
AcDbEntity
  8
0
100
AcDbLine
 10
486.3406759117863
 20
745.9848610169423
 30
0.0
 11
496.3406759117863
 21
745.9848610169423
 31
0.0
  0
LINE
  5
2764
330
1F
100
AcDbEntity
  8
0
100
AcDbLine
 10
496.3406759117863
 20
745.9848610169423
 30
0.0
 11
496.3406759117863
 21
735.9848610169423
 31
0.0
  0
LINE
  5
2765
330
1F
100
AcDbEntity
  8
0
100
AcDbLine
 10
496.3406759117863
 20
735.9848610169423
 30
0.0
 11
506.3406759117863
 21
735.9848610169423
 31
0.0
  0
LINE
  5
2766
330
1F
100
AcDbEntity
  8
0
100
AcDbLine
 10
506.3406759117863
 20
735.9848610169423
 30
0.0
 11
506.3406759117863
 21
745.9848610169423
 31
0.0
  0
LINE
  5
2767
330
1F
100
AcDbEntity
  8
0
100
AcDbLine
 10
506.3406759117863
 20
745.9848610169423
 30
0.0
 11
516.3406759117863
 21
745.9848610169423
 31
0.0
  0
LINE
  5
2768
330
1F
100
AcDbEntity
  8
0
100
AcDbLine
 10
516.3406759117863
 20
745.9848610169423
 30
0.0
 11
516.3406759117863
 21
735.9848610169423
 31
0.0
  0
LINE
  5
2769
330
1F
100
AcDbEntity
  8
0
100
AcDbLine
 10
516.3406759117863
 20
735.9848610169423
 30
0.0
 11
526.3406759117863
 21
735.9848610169423
 31
0.0
  0
LINE
  5
276A
330
1F
100
AcDbEntity
  8
0
100
AcDbLine
 10
526.3406759117863
 20
735.9848610169423
 30
0.0
 11
526.3406759117863
 21
745.9848610169423
 31
0.0
  0
LINE
  5
276B
330
1F
100
AcDbEntity
  8
0
100
AcDbLine
 10
526.3406759117863
 20
745.9848610169423
 30
0.0
 11
536.3406759117863
 21
745.9848610169423
 31
0.0
  0
LINE
  5
276C
330
1F
100
AcDbEntity
  8
0
100
AcDbLine
 10
536.3406759117863
 20
745.9848610169423
 30
0.0
 11
536.3406759117863
 21
735.9848610169423
 31
0.0
  0
LINE
  5
276D
330
1F
100
AcDbEntity
  8
0
100
AcDbLine
 10
656.3406759117863
 20
565.9848610169423
 30
0.0
 11
646.3406759117863
 21
565.9848610169423
 31
0.0
  0
LINE
  5
276E
330
1F
100
AcDbEntity
  8
0
100
AcDbLine
 10
646.3406759117863
 20
565.9848610169423
 30
0.0
 11
646.3406759117863
 21
595.9848610169423
 31
0.0
  0
LINE
  5
276F
330
1F
100
AcDbEntity
  8
0
100
AcDbLine
 10
646.3406759117863
 20
595.9848610169423
 30
0.0
 11
642.8406759117863
 21
595.9848610169423
 31
0.0
  0
LINE
  5
2770
330
1F
100
AcDbEntity
  8
0
100
AcDbLine
 10
642.8406759117863
 20
595.9848610169423
 30
0.0
 11
642.8406759117863
 21
565.9848610169423
 31
0.0
  0
LINE
  5
2771
330
1F
100
AcDbEntity
  8
0
100
AcDbLine
 10
642.8406759117863
 20
565.9848610169423
 30
0.0
 11
627.8406759117863
 21
565.9848610169423
 31
0.0
  0
LINE
  5
2782
330
1F
100
AcDbEntity
  8
0
100
AcDbLine
 10
656.3406759117863
 20
565.9848610169423
 30
0.0
 11
656.3406759117863
 21
615.9848610169423
 31
0.0
  0
LINE
  5
2783
330
1F
100
AcDbEntity
  8
0
100
AcDbLine
 10
656.3406759117863
 20
615.9848610169423
 30
0.0
 11
646.3406759117863
 21
625.9848610169423
 31
0.0
  0
LINE
  5
2784
330
1F
100
AcDbEntity
  8
0
100
AcDbLine
 10
646.3406759117863
 20
625.9848610169423
 30
0.0
 11
642.8406759117863
 21
625.9848610169423
 31
0.0
  0
LINE
  5
2785
330
1F
100
AcDbEntity
  8
0
100
AcDbLine
 10
642.8406759117863
 20
625.9848610169423
 30
0.0
 11
642.8406759117863
 21
715.9848610169423
 31
0.0
  0
LINE
  5
2786
330
1F
100
AcDbEntity
  8
0
100
AcDbLine
 10
642.8406759117863
 20
715.9848610169423
 30
0.0
 11
646.3406759117863
 21
715.9848610169423
 31
0.0
  0
LINE
  5
2787
330
1F
100
AcDbEntity
  8
0
100
AcDbLine
 10
646.3406759117863
 20
715.9848610169423
 30
0.0
 11
646.3406759117863
 21
700.9848610169423
 31
0.0
  0
LINE
  5
2788
330
1F
100
AcDbEntity
  8
0
100
AcDbLine
 10
646.3406759117863
 20
700.9848610169423
 30
0.0
 11
656.3406759117863
 21
710.9848610169423
 31
0.0
  0
LINE
  5
2789
330
1F
100
AcDbEntity
  8
0
100
AcDbLine
 10
656.3406759117863
 20
710.9848610169423
 30
0.0
 11
656.3406759117863
 21
745.9848610169423
 31
0.0
  0
LINE
  5
278A
330
1F
100
AcDbEntity
  8
0
100
AcDbLine
 10
656.3406759117863
 20
745.9848610169423
 30
0.0
 11
646.3406759117863
 21
745.9848610169423
 31
0.0
  0
LINE
  5
278B
330
1F
100
AcDbEntity
  8
0
100
AcDbLine
 10
646.3406759117863
 20
745.9848610169423
 30
0.0
 11
646.3406759117863
 21
735.9848610169423
 31
0.0
  0
LINE
  5
278C
330
1F
100
AcDbEntity
  8
0
100
AcDbLine
 10
646.3406759117863
 20
735.9848610169423
 30
0.0
 11
636.3406759117863
 21
735.9848610169423
 31
0.0
  0
LINE
  5
278D
330
1F
100
AcDbEntity
  8
0
100
AcDbLine
 10
636.3406759117863
 20
735.9848610169423
 30
0.0
 11
636.3406759117863
 21
745.9848610169423
 31
0.0
  0
LINE
  5
278E
330
1F
100
AcDbEntity
  8
0
100
AcDbLine
 10
636.3406759117863
 20
745.9848610169423
 30
0.0
 11
626.3406759117863
 21
745.9848610169423
 31
0.0
  0
LINE
  5
278F
330
1F
100
AcDbEntity
  8
0
100
AcDbLine
 10
626.3406759117863
 20
745.9848610169423
 30
0.0
 11
626.3406759117863
 21
735.9848610169423
 31
0.0
  0
LINE
  5
2790
330
1F
100
AcDbEntity
  8
0
100
AcDbLine
 10
626.3406759117863
 20
735.9848610169423
 30
0.0
 11
616.3406759117863
 21
735.9848610169423
 31
0.0
  0
LINE
  5
2791
330
1F
100
AcDbEntity
  8
0
100
AcDbLine
 10
616.3406759117863
 20
735.9848610169423
 30
0.0
 11
616.3406759117863
 21
745.9848610169423
 31
0.0
  0
LINE
  5
2792
330
1F
100
AcDbEntity
  8
0
100
AcDbLine
 10
616.3406759117863
 20
745.9848610169423
 30
0.0
 11
606.3406759117863
 21
745.9848610169423
 31
0.0
  0
LINE
  5
2793
330
1F
100
AcDbEntity
  8
0
100
AcDbLine
 10
606.3406759117863
 20
745.9848610169423
 30
0.0
 11
606.3406759117863
 21
735.9848610169423
 31
0.0
  0
LINE
  5
2794
330
1F
100
AcDbEntity
  8
0
100
AcDbLine
 10
586.3406759117863
 20
735.9848610169423
 30
0.0
 11
576.3406759117863
 21
735.9848610169423
 31
0.0
  0
LINE
  5
2795
330
1F
100
AcDbEntity
  8
0
100
AcDbLine
 10
576.3406759117863
 20
735.9848610169423
 30
0.0
 11
576.3406759117863
 21
745.9848610169423
 31
0.0
  0
LINE
  5
2796
330
1F
100
AcDbEntity
  8
0
100
AcDbLine
 10
576.3406759117863
 20
745.9848610169423
 30
0.0
 11
566.3406759117863
 21
745.9848610169423
 31
0.0
  0
LINE
  5
2797
330
1F
100
AcDbEntity
  8
0
100
AcDbLine
 10
566.3406759117863
 20
745.9848610169423
 30
0.0
 11
566.3406759117863
 21
735.9848610169423
 31
0.0
  0
LINE
  5
2798
330
1F
100
AcDbEntity
  8
0
100
AcDbLine
 10
566.3406759117863
 20
735.9848610169423
 30
0.0
 11
556.3406759117863
 21
735.9848610169423
 31
0.0
  0
LINE
  5
2799
330
1F
100
AcDbEntity
  8
0
100
AcDbLine
 10
556.3406759117863
 20
735.9848610169423
 30
0.0
 11
556.3406759117863
 21
745.9848610169423
 31
0.0
  0
LINE
  5
279A
330
1F
100
AcDbEntity
  8
0
100
AcDbLine
 10
556.3406759117863
 20
745.9848610169423
 30
0.0
 11
546.3406759117863
 21
745.9848610169423
 31
0.0
  0
LINE
  5
279B
330
1F
100
AcDbEntity
  8
0
100
AcDbLine
 10
546.3406759117863
 20
745.9848610169423
 30
0.0
 11
546.3406759117863
 21
735.9848610169423
 31
0.0
  0
LINE
  5
279C
330
1F
100
AcDbEntity
  8
0
100
AcDbLine
 10
536.3406759117863
 20
735.9848610169423
 30
0.0
 11
546.3406759117863
 21
735.9848610169423
 31
0.0
  0
LINE
  5
279D
330
1F
100
AcDbEntity
  8
0
100
AcDbLine
 10
586.3406759117863
 20
735.9848610169423
 30
0.0
 11
586.3406759117863
 21
745.9848610169423
 31
0.0
  0
LINE
  5
279E
330
1F
100
AcDbEntity
  8
0
100
AcDbLine
 10
586.3406759117863
 20
745.9848610169423
 30
0.0
 11
596.3406759117863
 21
745.9848610169423
 31
0.0
  0
LINE
  5
279F
330
1F
100
AcDbEntity
  8
0
100
AcDbLine
 10
596.3406759117863
 20
745.9848610169423
 30
0.0
 11
596.3406759117863
 21
735.9848610169423
 31
0.0
  0
LINE
  5
27A0
330
1F
100
AcDbEntity
  8
0
100
AcDbLine
 10
596.3406759117863
 20
735.9848610169423
 30
0.0
 11
606.3406759117863
 21
735.9848610169423
 31
0.0
  0
LINE
  5
27C5
330
1F
100
AcDbEntity
  8
0
100
AcDbLine
 10
474.8406759117863
 20
565.9848610169423
 30
0.0
 11
474.8406759117863
 21
665.9848610169423
 31
0.0
  0
ARC
  5
27C6
330
1F
100
AcDbEntity
  8
0
100
AcDbCircle
 10
494.8406759117864
 20
665.9848610169423
 30
0.0
 40
20.00000000000011
100
AcDbArc
 50
0.0
 51
180.0
  0
LINE
  5
27C7
330
1F
100
AcDbEntity
  8
0
100
AcDbLine
 10
607.8406759117863
 20
685.9848610169423
 30
0.0
 11
494.8406759117864
 21
685.9848610169423
 31
0.0
  0
ARC
  5
27C8
330
1F
100
AcDbEntity
  8
0
100
AcDbCircle
 10
607.8406759117863
 20
665.9848610169423
 30
0.0
 40
20.00000000000011
100
AcDbArc
 50
0.0
 51
180.0
  0
LINE
  5
27C9
330
1F
100
AcDbEntity
  8
0
100
AcDbLine
 10
627.8406759117863
 20
565.9848610169423
 30
0.0
 11
627.8406759117864
 21
665.9848610169421
 31
0.0
  0
LINE
  5
2831
330
1F
100
AcDbEntity
  8
0
100
AcDbLine
 10
736.3760852839381
 20
565.9848610169423
 30
0.0
 11
736.3760852839381
 21
583.6835992958212
 31
0.0
  0
LINE
  5
2832
330
1F
100
AcDbEntity
  8
0
100
AcDbLine
 10
736.3760852839381
 20
583.6835992958212
 30
0.0
 11
732.8760852839381
 21
583.6835992958212
 31
0.0
  0
LINE
  5
2833
330
1F
100
AcDbEntity
  8
0
100
AcDbLine
 10
732.8760852839381
 20
583.6835992958212
 30
0.0
 11
732.8760852839381
 21
565.9848610169423
 31
0.0
  0
LINE
  5
2834
330
1F
100
AcDbEntity
  8
0
100
AcDbLine
 10
736.3760852839381
 20
565.9848610169423
 30
0.0
 11
741.3760852839381
 21
565.9848610169423
 31
0.0
  0
LINE
  5
2835
330
1F
100
AcDbEntity
  8
0
100
AcDbLine
 10
736.3760852839381
 20
603.6835992958212
 30
0.0
 11
736.3760852839381
 21
618.6835992958212
 31
0.0
  0
LINE
  5
2836
330
1F
100
AcDbEntity
  8
0
100
AcDbLine
 10
736.3760852839381
 20
618.6835992958212
 30
0.0
 11
732.8760852839381
 21
618.6835992958212
 31
0.0
  0
LINE
  5
2837
330
1F
100
AcDbEntity
  8
0
100
AcDbLine
 10
732.8760852839381
 20
618.6835992958212
 30
0.0
 11
732.8760852839381
 21
603.6835992958212
 31
0.0
  0
LINE
  5
2838
330
1F
100
AcDbEntity
  8
0
100
AcDbLine
 10
732.8760852839381
 20
603.6835992958212
 30
0.0
 11
736.3760852839381
 21
603.6835992958212
 31
0.0
  0
LINE
  5
2839
330
1F
100
AcDbEntity
  8
0
100
AcDbLine
 10
736.3760852839381
 20
638.6835992958212
 30
0.0
 11
732.8760852839381
 21
638.6835992958212
 31
0.0
  0
LINE
  5
283A
330
1F
100
AcDbEntity
  8
0
100
AcDbLine
 10
732.8760852839381
 20
638.6835992958212
 30
0.0
 11
732.8760852839381
 21
653.6835992958212
 31
0.0
  0
LINE
  5
283B
330
1F
100
AcDbEntity
  8
0
100
AcDbLine
 10
732.8760852839381
 20
653.6835992958212
 30
0.0
 11
736.3760852839381
 21
653.6835992958212
 31
0.0
  0
LINE
  5
283C
330
1F
100
AcDbEntity
  8
0
100
AcDbLine
 10
736.3760852839381
 20
653.6835992958212
 30
0.0
 11
736.3760852839381
 21
638.6835992958212
 31
0.0
  0
LINE
  5
283D
330
1F
100
AcDbEntity
  8
0
100
AcDbLine
 10
736.3760852839381
 20
673.6835992958212
 30
0.0
 11
736.3760852839381
 21
688.6835992958212
 31
0.0
  0
LINE
  5
283E
330
1F
100
AcDbEntity
  8
0
100
AcDbLine
 10
736.3760852839381
 20
688.6835992958212
 30
0.0
 11
732.8760852839381
 21
688.6835992958212
 31
0.0
  0
LINE
  5
283F
330
1F
100
AcDbEntity
  8
0
100
AcDbLine
 10
732.8760852839381
 20
688.6835992958212
 30
0.0
 11
732.8760852839381
 21
673.6835992958212
 31
0.0
  0
LINE
  5
2840
330
1F
100
AcDbEntity
  8
0
100
AcDbLine
 10
732.8760852839381
 20
673.6835992958212
 30
0.0
 11
736.3760852839381
 21
673.6835992958212
 31
0.0
  0
LINE
  5
2841
330
1F
100
AcDbEntity
  8
0
100
AcDbLine
 10
836.376085283938
 20
565.9848610169423
 30
0.0
 11
836.376085283938
 21
583.6835992958212
 31
0.0
  0
LINE
  5
2842
330
1F
100
AcDbEntity
  8
0
100
AcDbLine
 10
836.376085283938
 20
583.6835992958212
 30
0.0
 11
839.876085283938
 21
583.6835992958212
 31
0.0
  0
LINE
  5
2843
330
1F
100
AcDbEntity
  8
0
100
AcDbLine
 10
839.876085283938
 20
583.6835992958212
 30
0.0
 11
839.876085283938
 21
565.9848610169423
 31
0.0
  0
LINE
  5
2845
330
1F
100
AcDbEntity
  8
0
100
AcDbLine
 10
836.376085283938
 20
603.6835992958212
 30
0.0
 11
836.376085283938
 21
618.6835992958212
 31
0.0
  0
LINE
  5
2846
330
1F
100
AcDbEntity
  8
0
100
AcDbLine
 10
836.376085283938
 20
618.6835992958212
 30
0.0
 11
839.876085283938
 21
618.6835992958212
 31
0.0
  0
LINE
  5
2847
330
1F
100
AcDbEntity
  8
0
100
AcDbLine
 10
839.876085283938
 20
618.6835992958212
 30
0.0
 11
839.876085283938
 21
603.6835992958212
 31
0.0
  0
LINE
  5
2848
330
1F
100
AcDbEntity
  8
0
100
AcDbLine
 10
839.876085283938
 20
603.6835992958212
 30
0.0
 11
836.376085283938
 21
603.6835992958212
 31
0.0
  0
LINE
  5
2849
330
1F
100
AcDbEntity
  8
0
100
AcDbLine
 10
836.376085283938
 20
638.6835992958212
 30
0.0
 11
839.876085283938
 21
638.6835992958212
 31
0.0
  0
LINE
  5
284A
330
1F
100
AcDbEntity
  8
0
100
AcDbLine
 10
839.876085283938
 20
638.6835992958212
 30
0.0
 11
839.876085283938
 21
653.6835992958212
 31
0.0
  0
LINE
  5
284B
330
1F
100
AcDbEntity
  8
0
100
AcDbLine
 10
839.876085283938
 20
653.6835992958212
 30
0.0
 11
836.376085283938
 21
653.6835992958212
 31
0.0
  0
LINE
  5
284C
330
1F
100
AcDbEntity
  8
0
100
AcDbLine
 10
836.376085283938
 20
653.6835992958212
 30
0.0
 11
836.376085283938
 21
638.6835992958212
 31
0.0
  0
LINE
  5
284D
330
1F
100
AcDbEntity
  8
0
100
AcDbLine
 10
836.376085283938
 20
673.6835992958212
 30
0.0
 11
836.376085283938
 21
688.6835992958212
 31
0.0
  0
LINE
  5
284E
330
1F
100
AcDbEntity
  8
0
100
AcDbLine
 10
836.376085283938
 20
688.6835992958212
 30
0.0
 11
839.876085283938
 21
688.6835992958212
 31
0.0
  0
LINE
  5
284F
330
1F
100
AcDbEntity
  8
0
100
AcDbLine
 10
839.876085283938
 20
688.6835992958212
 30
0.0
 11
839.876085283938
 21
673.6835992958212
 31
0.0
  0
LINE
  5
2850
330
1F
100
AcDbEntity
  8
0
100
AcDbLine
 10
839.876085283938
 20
673.6835992958212
 30
0.0
 11
836.376085283938
 21
673.6835992958212
 31
0.0
  0
LINE
  5
2873
330
1F
100
AcDbEntity
  8
0
100
AcDbLine
 10
741.3760852839381
 20
565.9848610169423
 30
0.0
 11
741.3760852839381
 21
651.1835992958212
 31
0.0
  0
ARC
  5
2874
330
1F
100
AcDbEntity
  8
0
100
AcDbCircle
 10
786.3760852839381
 20
623.1835992958212
 30
0.0
 40
53.0
100
AcDbArc
 50
31.89079180184571
 51
148.1092081981543
  0
LINE
  5
2875
330
1F
100
AcDbEntity
  8
0
100
AcDbLine
 10
831.376085283938
 20
565.9848610169423
 30
0.0
 11
831.376085283938
 21
651.1835992958212
 31
0.0
  0
LINE
  5
2876
330
1F
100
AcDbEntity
  8
0
100
AcDbLine
 10
831.376085283938
 20
565.9848610169423
 30
0.0
 11
836.376085283938
 21
565.9848610169423
 31
0.0
  0
LINE
  5
28B1
330
1F
100
AcDbEntity
  8
0
100
AcDbLine
 10
877.876085283938
 20
565.9848610169423
 30
0.0
 11
839.876085283938
 21
565.9848610169423
 31
0.0
  0
LINE
  5
28B2
330
1F
100
AcDbEntity
  8
0
100
AcDbLine
 10
694.8760852839381
 20
565.9848610169423
 30
0.0
 11
732.8760852839381
 21
565.9848610169423
 31
0.0
  0
LINE
  5
28B3
330
1F
100
AcDbEntity
  8
0
100
AcDbLine
 10
694.8760852839381
 20
565.9848610169423
 30
0.0
 11
694.8760852839381
 21
717.6835992958212
 31
0.0
  0
LINE
  5
28B4
330
1F
100
AcDbEntity
  8
0
100
AcDbLine
 10
694.8760852839381
 20
717.6835992958212
 30
0.0
 11
877.876085283938
 21
717.6835992958212
 31
0.0
  0
LINE
  5
28B5
330
1F
100
AcDbEntity
  8
0
100
AcDbLine
 10
877.876085283938
 20
717.6835992958212
 30
0.0
 11
877.876085283938
 21
565.9848610169423
 31
0.0
  0
LINE
  5
28DB
330
1F
100
AcDbEntity
  8
0
100
AcDbLine
 10
-251.7065104008868
 20
706.3046396956289
 30
0.0
 11
-255.2065104008868
 21
706.3046396956289
 31
0.0
  0
LINE
  5
28DC
330
1F
100
AcDbEntity
  8
0
100
AcDbLine
 10
-255.2065104008868
 20
696.304639695629
 30
0.0
 11
-255.2065104008868
 21
706.3046396956289
 31
0.0
  0
LINE
  5
28DD
330
1F
100
AcDbEntity
  8
0
100
AcDbLine
 10
-255.2065104008868
 20
696.304639695629
 30
0.0
 11
-251.7065104008868
 21
696.304639695629
 31
0.0
  0
LINE
  5
28DE
330
1F
100
AcDbEntity
  8
0
100
AcDbLine
 10
-255.2065104008868
 20
633.304639695629
 30
0.0
 11
-251.7065104008868
 21
633.304639695629
 31
0.0
  0
LINE
  5
28DF
330
1F
100
AcDbEntity
  8
0
100
AcDbLine
 10
-255.2065104008868
 20
653.304639695629
 30
0.0
 11
-255.2065104008868
 21
633.304639695629
 31
0.0
  0
LINE
  5
28E0
330
1F
100
AcDbEntity
  8
0
100
AcDbLine
 10
-251.7065104008868
 20
653.304639695629
 30
0.0
 11
-255.2065104008868
 21
653.304639695629
 31
0.0
  0
LINE
  5
28E1
330
1F
100
AcDbEntity
  8
0
100
AcDbLine
 10
-251.7065104008868
 20
613.304639695629
 30
0.0
 11
-68.70651040088683
 21
613.304639695629
 31
0.0
  0
LINE
  5
28E2
330
1F
100
AcDbEntity
  8
0
100
AcDbLine
 10
-251.7065104008868
 20
696.304639695629
 30
0.0
 11
-251.7065104008868
 21
653.304639695629
 31
0.0
  0
LINE
  5
28E3
330
1F
100
AcDbEntity
  8
0
100
AcDbLine
 10
-251.7065104008868
 20
633.304639695629
 30
0.0
 11
-251.7065104008868
 21
613.304639695629
 31
0.0
  0
LINE
  5
28E4
330
1F
100
AcDbEntity
  8
0
100
AcDbLine
 10
-251.7065104008868
 20
706.3046396956289
 30
0.0
 11
-251.7065104008868
 21
708.3046396956289
 31
0.0
  0
LINE
  5
28E5
330
1F
100
AcDbEntity
  8
0
100
AcDbLine
 10
-251.7065104008868
 20
708.3046396956289
 30
0.0
 11
-68.70651040088683
 21
708.3046396956289
 31
0.0
  0
LINE
  5
28E6
330
1F
100
AcDbEntity
  8
0
100
AcDbLine
 10
-68.70651040088683
 20
706.3046396956289
 30
0.0
 11
-68.70651040088683
 21
708.3046396956289
 31
0.0
  0
LINE
  5
28E7
330
1F
100
AcDbEntity
  8
0
100
AcDbLine
 10
-68.70651040088683
 20
706.3046396956289
 30
0.0
 11
-65.20651040088683
 21
706.3046396956289
 31
0.0
  0
LINE
  5
28E8
330
1F
100
AcDbEntity
  8
0
100
AcDbLine
 10
-65.20651040088683
 20
696.304639695629
 30
0.0
 11
-65.20651040088683
 21
706.3046396956289
 31
0.0
  0
LINE
  5
28E9
330
1F
100
AcDbEntity
  8
0
100
AcDbLine
 10
-65.20651040088683
 20
696.304639695629
 30
0.0
 11
-68.70651040088683
 21
696.304639695629
 31
0.0
  0
LINE
  5
28EA
330
1F
100
AcDbEntity
  8
0
100
AcDbLine
 10
-68.70651040088683
 20
696.304639695629
 30
0.0
 11
-68.70651040088683
 21
653.304639695629
 31
0.0
  0
LINE
  5
28EB
330
1F
100
AcDbEntity
  8
0
100
AcDbLine
 10
-68.70651040088683
 20
653.304639695629
 30
0.0
 11
-65.20651040088683
 21
653.304639695629
 31
0.0
  0
LINE
  5
28EC
330
1F
100
AcDbEntity
  8
0
100
AcDbLine
 10
-65.20651040088683
 20
653.304639695629
 30
0.0
 11
-65.20651040088683
 21
633.304639695629
 31
0.0
  0
LINE
  5
28ED
330
1F
100
AcDbEntity
  8
0
100
AcDbLine
 10
-65.20651040088683
 20
633.304639695629
 30
0.0
 11
-68.70651040088683
 21
633.304639695629
 31
0.0
  0
LINE
  5
28EE
330
1F
100
AcDbEntity
  8
0
100
AcDbLine
 10
-68.70651040088683
 20
633.304639695629
 30
0.0
 11
-68.70651040088683
 21
613.304639695629
 31
0.0
  0
LINE
  5
292F
330
1F
100
AcDbEntity
  8
0
100
AcDbLine
 10
-255.0164671834748
 20
919.010726594163
 30
0.0
 11
-255.0164671834748
 21
892.510726594163
 31
0.0
  0
LINE
  5
2933
330
1F
100
AcDbEntity
  8
0
100
AcDbLine
 10
-219.0164671834748
 20
919.010726594163
 30
0.0
 11
-219.0164671834748
 21
892.510726594163
 31
0.0
  0
ARC
  5
2934
330
1F
100
AcDbEntity
  8
0
100
AcDbCircle
 10
-237.0164671834748
 20
892.1830685589334
 30
0.0
 40
18.00298196933079
100
AcDbArc
 50
178.9571472564602
 51
1.042852743539471
  0
LINE
  5
2988
330
1F
100
AcDbEntity
  8
0
100
AcDbLine
 10
-255.0164671834748
 20
919.010726594163
 30
0.0
 11
-252.0164671834748
 21
919.010726594163
 31
0.0
  0
LINE
  5
2989
330
1F
100
AcDbEntity
  8
0
100
AcDbLine
 10
-252.0164671834748
 20
919.010726594163
 30
0.0
 11
-252.0164671834748
 21
892.510726594163
 31
0.0
  0
LINE
  5
298A
330
1F
100
AcDbEntity
  8
0
100
AcDbLine
 10
-219.0164671834748
 20
919.010726594163
 30
0.0
 11
-222.0164671834748
 21
919.010726594163
 31
0.0
  0
LINE
  5
298B
330
1F
100
AcDbEntity
  8
0
100
AcDbLine
 10
-222.0164671834748
 20
919.010726594163
 30
0.0
 11
-222.0164671834748
 21
892.510726594163
 31
0.0
  0
ARC
  5
298C
330
1F
100
AcDbEntity
  8
0
100
AcDbCircle
 10
-237.0164671834748
 20
892.510726594163
 30
0.0
 40
15.0
100
AcDbArc
 50
180.0
 51
0.0
  0
LINE
  5
29D4
330
1F
100
AcDbEntity
  8
0
100
AcDbLine
 10
-202.0422664346765
 20
880.1169749159694
 30
0.0
 11
-202.0422664346765
 21
906.6169749159694
 31
0.0
  0
LINE
  5
29D5
330
1F
100
AcDbEntity
  8
0
100
AcDbLine
 10
-238.0422664346765
 20
880.1169749159694
 30
0.0
 11
-238.0422664346765
 21
906.6169749159694
 31
0.0
  0
ARC
  5
29D6
330
1F
100
AcDbEntity
  8
0
100
AcDbCircle
 10
-220.0422664346764
 20
906.944632951199
 30
0.0
 40
18.00298196933079
100
AcDbArc
 50
358.9571472564602
 51
181.0428527435394
  0
LINE
  5
29D7
330
1F
100
AcDbEntity
  8
0
100
AcDbLine
 10
-202.0422664346765
 20
880.1169749159694
 30
0.0
 11
-205.0422664346765
 21
880.1169749159694
 31
0.0
  0
LINE
  5
29D8
330
1F
100
AcDbEntity
  8
0
100
AcDbLine
 10
-205.0422664346765
 20
880.1169749159694
 30
0.0
 11
-205.0422664346765
 21
906.6169749159694
 31
0.0
  0
LINE
  5
29D9
330
1F
100
AcDbEntity
  8
0
100
AcDbLine
 10
-238.0422664346765
 20
880.1169749159694
 30
0.0
 11
-235.0422664346765
 21
880.1169749159694
 31
0.0
  0
LINE
  5
29DA
330
1F
100
AcDbEntity
  8
0
100
AcDbLine
 10
-235.0422664346765
 20
880.1169749159694
 30
0.0
 11
-235.0422664346765
 21
906.6169749159694
 31
0.0
  0
ARC
  5
29DB
330
1F
100
AcDbEntity
  8
0
100
AcDbCircle
 10
-220.0422664346765
 20
906.6169749159694
 30
0.0
 40
15.0
100
AcDbArc
 50
0.0
 51
180.0
  0
LINE
  5
2A7E
330
1F
100
AcDbEntity
  8
0
100
AcDbLine
 10
-261.5502179482628
 20
872.3311474551238
 30
0.0
 11
-261.5502179482628
 21
907.6311474551237
 31
0.0
  0
LINE
  5
2A7F
330
1F
100
AcDbEntity
  8
0
100
AcDbLine
 10
-261.5502179482628
 20
872.3311474551238
 30
0.0
 11
-198.5502179482629
 21
872.322912716832
 31
0.0
  0
LINE
  5
2A82
330
1F
100
AcDbEntity
  8
0
100
AcDbLine
 10
-198.5502179482629
 20
872.322912716832
 30
0.0
 11
-198.5502179482629
 21
907.6311474551237
 31
0.0
  0
ARC
  5
2A84
330
1F
100
AcDbEntity
  8
0
100
AcDbCircle
 10
-217.5106241917482
 20
908.6707412116381
 30
0.0
 40
18.98888517255778
100
AcDbArc
 50
356.8616309194454
 51
93.13836908055443
  0
LINE
  5
2A85
330
1F
100
AcDbEntity
  8
0
100
AcDbLine
 10
-241.5502179482628
 20
927.6311474551237
 30
0.0
 11
-218.5502179482628
 21
927.6311474551237
 31
0.0
  0
ARC
  5
2AA2
330
1F
100
AcDbEntity
  8
0
100
AcDbCircle
 10
-242.5898117047774
 20
908.6707412116381
 30
0.0
 40
18.98888517255778
100
AcDbArc
 50
86.86163091944557
 51
183.1383690805546
  0
LINE
  5
2AC1
330
1F
100
AcDbEntity
  8
0
100
AcDbLine
 10
-264.7502179482628
 20
869.1311474551237
 30
0.0
 11
-264.7502179482628
 21
907.6311474551234
 31
0.0
  0
LINE
  5
2AC2
330
1F
100
AcDbEntity
  8
0
100
AcDbLine
 10
-264.7502179482628
 20
869.1311474551237
 30
0.0
 11
-195.3502179482629
 21
869.1311474551237
 31
0.0
  0
LINE
  5
2AE0
330
1F
100
AcDbEntity
  8
0
100
AcDbLine
 10
-195.3502179482629
 20
869.1311474551237
 30
0.0
 11
-195.3502179482629
 21
907.6311474551237
 31
0.0
  0
LINE
  5
2AFE
330
1F
100
AcDbEntity
  8
0
100
AcDbLine
 10
-241.5502179482669
 20
930.8311474551238
 30
0.0
 11
-218.5502179482669
 21
930.8311474551238
 31
0.0
  0
ARC
  5
2B1C
330
1F
100
AcDbEntity
  8
0
100
AcDbCircle
 10
-242.5063072544348
 20
908.5872367613442
 30
0.0
 40
22.264448560799
100
AcDbArc
 50
87.53882374058799
 51
182.4611762592879
  0
ARC
  5
2B3A
330
1F
100
AcDbEntity
  8
0
100
AcDbCircle
 10
-217.4809790162311
 20
908.7003863871557
 30
0.0
 40
22.15657593901345
100
AcDbArc
 50
357.2339281103623
 51
92.76607188964745
  0
LINE
  5
2BE4
330
1F
100
AcDbEntity
  8
0
100
AcDbLine
 10
-22.97763033784776
 20
889.0758115937256
 30
0.0
 11
-22.97763033784776
 21
944.0758115937256
 31
0.0
  0
LINE
  5
2BE8
330
1F
100
AcDbEntity
  8
0
100
AcDbLine
 10
-85.97763033784764
 20
889.0758115937256
 30
0.0
 11
-85.97763033784764
 21
944.0758115937256
 31
0.0
  0
LINE
  5
2C0B
330
1F
100
AcDbEntity
  8
0
100
AcDbLine
 10
-65.94915140877526
 20
963.0362178372112
 30
0.0
 11
-42.94915140877526
 21
963.0362178372112
 31
0.0
  0
ARC
  5
2C0C
330
1F
100
AcDbEntity
  8
0
100
AcDbCircle
 10
-41.90955765226067
 20
944.0758115937256
 30
0.0
 40
18.98888517255778
100
AcDbArc
 50
356.8616309194454
 51
93.13836908055443
  0
ARC
  5
2C0D
330
1F
100
AcDbEntity
  8
0
100
AcDbCircle
 10
-41.87991247674356
 20
944.1054567692432
 30
0.0
 40
22.15657593901345
100
AcDbArc
 50
357.2339281103623
 51
92.76607188964745
  0
LINE
  5
2C0E
330
1F
100
AcDbEntity
  8
0
100
AcDbLine
 10
-65.94915140877936
 20
966.2362178372113
 30
0.0
 11
-42.94915140877936
 21
966.2362178372113
 31
0.0
  0
ARC
  5
2C0F
330
1F
100
AcDbEntity
  8
0
100
AcDbCircle
 10
-66.90524071494724
 20
943.9923071434317
 30
0.0
 40
22.264448560799
100
AcDbArc
 50
87.53882374058799
 51
182.4611762592879
  0
ARC
  5
2C10
330
1F
100
AcDbEntity
  8
0
100
AcDbCircle
 10
-66.98874516528986
 20
944.0758115937256
 30
0.0
 40
18.98888517255778
100
AcDbArc
 50
86.86163091944557
 51
183.1383690805546
  0
LINE
  5
2C2E
330
1F
100
AcDbEntity
  8
0
100
AcDbLine
 10
-89.14915140877524
 20
889.0758115937256
 30
0.0
 11
-89.14915140877523
 21
943.0362178372109
 31
0.0
  0
LINE
  5
2C4C
330
1F
100
AcDbEntity
  8
0
100
AcDbLine
 10
-19.74915140877538
 20
889.0758115937256
 30
0.0
 11
-19.74915140877536
 21
943.0362178372109
 31
0.0
  0
LINE
  5
2C4D
330
1F
100
AcDbEntity
  8
0
100
AcDbLine
 10
-89.14915140877524
 20
889.0758115937256
 30
0.0
 11
-85.97763033784764
 21
889.0758115937256
 31
0.0
  0
LINE
  5
2C4E
330
1F
100
AcDbEntity
  8
0
100
AcDbLine
 10
-22.97763033784776
 20
889.0758115937256
 30
0.0
 11
-19.74915140877538
 21
889.0758115937256
 31
0.0
  0
LINE
  5
2C7A
330
1F
100
AcDbEntity
  8
0
100
AcDbLine
 10
-74.41946050939416
 20
913.1843643728128
 30
0.0
 11
-74.41946050939416
 21
886.6843643728128
 31
0.0
  0
LINE
  5
2C7B
330
1F
100
AcDbEntity
  8
0
100
AcDbLine
 10
-38.41946050939416
 20
913.1843643728128
 30
0.0
 11
-38.41946050939416
 21
886.6843643728128
 31
0.0
  0
ARC
  5
2C7C
330
1F
100
AcDbEntity
  8
0
100
AcDbCircle
 10
-56.41946050939416
 20
886.3567063375832
 30
0.0
 40
18.00298196933079
100
AcDbArc
 50
178.9571472564602
 51
1.042852743539471
  0
LINE
  5
2C7D
330
1F
100
AcDbEntity
  8
0
100
AcDbLine
 10
-74.41946050939416
 20
913.1843643728128
 30
0.0
 11
-71.41946050939416
 21
913.1843643728128
 31
0.0
  0
LINE
  5
2C7E
330
1F
100
AcDbEntity
  8
0
100
AcDbLine
 10
-71.41946050939416
 20
913.1843643728128
 30
0.0
 11
-71.41946050939416
 21
886.6843643728128
 31
0.0
  0
LINE
  5
2C7F
330
1F
100
AcDbEntity
  8
0
100
AcDbLine
 10
-38.41946050939416
 20
913.1843643728128
 30
0.0
 11
-41.41946050939416
 21
913.1843643728128
 31
0.0
  0
LINE
  5
2C80
330
1F
100
AcDbEntity
  8
0
100
AcDbLine
 10
-41.41946050939416
 20
913.1843643728128
 30
0.0
 11
-41.41946050939416
 21
886.6843643728128
 31
0.0
  0
ARC
  5
2C81
330
1F
100
AcDbEntity
  8
0
100
AcDbCircle
 10
-56.41946050939416
 20
886.6843643728128
 30
0.0
 40
15.0
100
AcDbArc
 50
180.0
 51
0.0
  0
LINE
  5
2C82
330
1F
100
AcDbEntity
  8
0
100
AcDbLine
 10
-74.41946050939416
 20
915.0915217875327
 30
0.0
 11
-74.41946050939416
 21
941.5915217875327
 31
0.0
  0
LINE
  5
2C83
330
1F
100
AcDbEntity
  8
0
100
AcDbLine
 10
-74.41946050939416
 20
915.0915217875327
 30
0.0
 11
-71.41946050939416
 21
915.0915217875327
 31
0.0
  0
LINE
  5
2C84
330
1F
100
AcDbEntity
  8
0
100
AcDbLine
 10
-71.41946050939416
 20
915.0915217875327
 30
0.0
 11
-71.41946050939416
 21
941.5915217875327
 31
0.0
  0
ARC
  5
2C85
330
1F
100
AcDbEntity
  8
0
100
AcDbCircle
 10
-56.41946050939413
 20
941.9191798227622
 30
0.0
 40
18.00298196933079
100
AcDbArc
 50
358.9571472564602
 51
181.0428527435394
  0
ARC
  5
2C86
330
1F
100
AcDbEntity
  8
0
100
AcDbCircle
 10
-56.41946050939416
 20
941.5915217875327
 30
0.0
 40
15.0
100
AcDbArc
 50
0.0
 51
180.0
  0
LINE
  5
2C87
330
1F
100
AcDbEntity
  8
0
100
AcDbLine
 10
-41.41946050939416
 20
915.0915217875327
 30
0.0
 11
-41.41946050939416
 21
941.5915217875327
 31
0.0
  0
LINE
  5
2C88
330
1F
100
AcDbEntity
  8
0
100
AcDbLine
 10
-38.41946050939416
 20
915.0915217875327
 30
0.0
 11
-38.41946050939416
 21
941.5915217875327
 31
0.0
  0
LINE
  5
2CB1
330
1F
100
AcDbEntity
  8
0
100
AcDbLine
 10
-79.27067254028015
 20
939.9337480414015
 30
0.0
 11
-79.27067254028015
 21
884.9337480414015
 31
0.0
  0
LINE
  5
2CB2
330
1F
100
AcDbEntity
  8
0
100
AcDbLine
 10
-16.27067254028026
 20
939.9337480414015
 30
0.0
 11
-16.27067254028026
 21
884.9337480414015
 31
0.0
  0
LINE
  5
2CB3
330
1F
100
AcDbEntity
  8
0
100
AcDbLine
 10
-36.29915146935264
 20
865.9733417979159
 30
0.0
 11
-59.29915146935264
 21
865.9733417979159
 31
0.0
  0
ARC
  5
2CB4
330
1F
100
AcDbEntity
  8
0
100
AcDbCircle
 10
-60.33874522586723
 20
884.9337480414015
 30
0.0
 40
18.98888517255778
100
AcDbArc
 50
176.8616309194454
 51
273.1383690805545
  0
ARC
  5
2CB5
330
1F
100
AcDbEntity
  8
0
100
AcDbCircle
 10
-60.36839040138435
 20
884.9041028658838
 30
0.0
 40
22.15657593901345
100
AcDbArc
 50
177.2339281103623
 51
272.7660718896474
  0
LINE
  5
2CB6
330
1F
100
AcDbEntity
  8
0
100
AcDbLine
 10
-36.29915146934854
 20
862.7733417979158
 30
0.0
 11
-59.29915146934854
 21
862.7733417979158
 31
0.0
  0
ARC
  5
2CB7
330
1F
100
AcDbEntity
  8
0
100
AcDbCircle
 10
-35.34306216318066
 20
885.0172524916953
 30
0.0
 40
22.264448560799
100
AcDbArc
 50
267.538823740588
 51
2.461176259287856
  0
ARC
  5
2CB8
330
1F
100
AcDbEntity
  8
0
100
AcDbCircle
 10
-35.25955771283805
 20
884.9337480414015
 30
0.0
 40
18.98888517255778
100
AcDbArc
 50
266.8616309194455
 51
3.138369080554606
  0
LINE
  5
2CB9
330
1F
100
AcDbEntity
  8
0
100
AcDbLine
 10
-13.09915146935265
 20
939.9337480414015
 30
0.0
 11
-13.09915146935271
 21
885.9733417979162
 31
0.0
  0
LINE
  5
2CBA
330
1F
100
AcDbEntity
  8
0
100
AcDbLine
 10
-82.49915146935251
 20
939.9337480414015
 30
0.0
 11
-82.49915146935254
 21
885.9733417979162
 31
0.0
  0
LINE
  5
2CBB
330
1F
100
AcDbEntity
  8
0
100
AcDbLine
 10
-13.09915146935265
 20
939.9337480414015
 30
0.0
 11
-16.27067254028026
 21
939.9337480414015
 31
0.0
  0
LINE
  5
2CBC
330
1F
100
AcDbEntity
  8
0
100
AcDbLine
 10
-79.27067254028015
 20
939.9337480414015
 30
0.0
 11
-82.49915146935251
 21
939.9337480414015
 31
0.0
  0
LINE
  5
2CBD
330
1F
100
AcDbEntity
  8
0
100
AcDbLine
 10
-41.41946050939416
 20
915.0915217875327
 30
0.0
 11
-38.41946050939416
 21
915.0915217875327
 31
0.0
  0
ENDSEC
  0
SECTION
  2
OBJECTS
  0
DICTIONARY
  5
C
330
0
100
AcDbDictionary
281
     1
  3
ACAD_GROUP
350
D
  3
ACAD_IMAGE_VARS
350
6A
  3
ACAD_LAYOUT
350
1A
  3
ACAD_MLINESTYLE
350
17
  3
ACAD_PLOTSETTINGS
350
19
  3
ACAD_PLOTSTYLENAME
350
E
  3
ACAD_SCALELIST
350
40
  3
AcDbVariableDictionary
350
3D
  3
APPDATA
350
71
  3
DWGPROPS
350
2CC0
  0
DICTIONARY
  5
1FC
330
2
100
AcDbDictionary
280
     1
281
     1
  3
ACAD_LAYERSTATES
360
1FD
  3
ACLYDICTIONARY
360
204
  0
DICTIONARY
  5
D
102
{ACAD_REACTORS
330
C
102
}
330
C
100
AcDbDictionary
281
     1
  0
RASTERVARIABLES
  5
6A
102
{ACAD_REACTORS
330
C
102
}
330
C
100
AcDbRasterVariables
 90
        0
 70
     1
 71
     1
 72
     1
  0
DICTIONARY
  5
1A
102
{ACAD_REACTORS
330
C
102
}
330
C
100
AcDbDictionary
281
     1
  3
Model
350
22
  3
Sheet1
350
1E
  3
Sheet2
350
26
  0
DICTIONARY
  5
17
102
{ACAD_REACTORS
330
C
102
}
330
C
100
AcDbDictionary
281
     1
  3
Standard
350
18
  0
DICTIONARY
  5
19
102
{ACAD_REACTORS
330
C
102
}
330
C
100
AcDbDictionary
281
     1
  0
ACDBDICTIONARYWDFLT
  5
E
102
{ACAD_REACTORS
330
C
102
}
330
C
100
AcDbDictionary
281
     1
  3
Normal
350
F
100
AcDbDictionaryWithDefault
340
F
  0
DICTIONARY
  5
40
102
{ACAD_REACTORS
330
C
102
}
330
C
100
AcDbDictionary
281
     1
  3
A0
350
41
  3
A1
350
42
  3
A2
350
43
  3
A3
350
44
  3
A4
350
45
  3
A5
350
46
  3
A6
350
47
  3
A7
350
48
  3
A8
350
49
  3
A9
350
4A
  3
B0
350
4B
  3
B1
350
4C
  3
B2
350
4D
  3
B3
350
4E
  3
B4
350
4F
  3
B5
350
50
  3
B6
350
51
  3
B7
350
52
  3
B8
350
53
  3
B9
350
54
  3
C0
350
55
  3
C1
350
56
  3
C2
350
57
  3
C3
350
58
  3
C4
350
59
  3
C5
350
5A
  3
C6
350
5B
  3
C7
350
5C
  3
C8
350
5D
  3
C9
350
5E
  3
D0
350
5F
  3
D1
350
60
  3
D2
350
61
  0
DICTIONARY
  5
3D
102
{ACAD_REACTORS
330
C
102
}
330
C
100
AcDbDictionary
281
     1
  3
CANNOSCALE
350
2CC1
  3
XCLIPFRAME
350
684
  3
CANNOSCALE
350
2CBF
  0
DICTIONARY
  5
71
102
{ACAD_REACTORS
330
C
102
}
330
C
100
AcDbDictionary
281
     1
  0
XRECORD
  5
2CC0
102
{ACAD_REACTORS
330
C
102
}
330
C
100
AcDbXrecord
280
     1
  1
DWGPROPS COOKIE
  2

  3

  4

  6

  7

  8
Sean
  9

300
=
301
=
302
=
303
=
304
=
305
=
306
=
307
=
308
=
309
=
 40
0.0
 41
2455022.637359514
 42
2456112.862379421
  1

 90
        0
  0
DICTIONARY
  5
1FD
102
{ACAD_REACTORS
330
1FC
102
}
330
1FC
100
AcDbDictionary
281
     1
  3
ARGON_LAYERP_1
350
1FE
  3
ARGON_LAYERP_2
350
205
  3
ARGON_LAYERP_3
350
206
  0
DICTIONARY
  5
204
102
{ACAD_REACTORS
330
1FC
102
}
330
1FC
100
AcDbDictionary
281
     1
1001
ACAD
1000
<All
  0
LAYOUT
  5
22
102
{ACAD_REACTORS
330
1A
102
}
330
1A
100
AcDbPlotSettings
  1

  2
none_device
  4
ISO_A3_(420.00_x_297.00_MM)
  6

 40
7.5
 41
20.0
 42
7.5
 43
20.0
 44
420.0
 45
297.0
 46
53.16699257028399
 47
0.0
 48
0.0
 49
0.0
140
0.0
141
0.0
142
1.0
143
3.90384964749864
 70
  1204
 72
     1
 73
     0
 74
     1
  7
monochrome.ctb
 75
     0
147
0.2561574062261188
148
132.161279306056
149
37.03230360025054
100
AcDbLayout
  1
Model
 70
     1
 71
     0
 10
0.0
 20
0.0
 11
420.0
 21
297.0
 12
0.0
 22
0.0
 32
0.0
 14
1.000000000000000E+20
 24
1.000000000000000E+20
 34
1.000000000000000E+20
 15
-1.000000000000000E+20
 25
-1.000000000000000E+20
 35
-1.000000000000000E+20
146
0.0
 13
0.0
 23
0.0
 33
0.0
 16
1.0
 26
0.0
 36
0.0
 17
0.0
 27
1.0
 37
0.0
 76
     0
330
1F
331
29
  0
LAYOUT
  5
1E
102
{ACAD_REACTORS
330
1A
102
}
330
1A
100
AcDbPlotSettings
  1

  2
none_device
  4

  6

 40
0.0
 41
0.0
 42
0.0
 43
0.0
 44
0.0
 45
0.0
 46
0.0
 47
0.0
 48
0.0
 49
0.0
140
0.0
141
0.0
142
1.0
143
1.0
 70
   688
 72
     0
 73
     0
 74
     5
  7

 75
    16
147
1.0
148
0.0
149
0.0
100
AcDbLayout
  1
Sheet1
 70
     1
 71
     1
 10
0.0
 20
0.0
 11
420.0
 21
297.0
 12
0.0
 22
0.0
 32
0.0
 14
1.000000000000000E+20
 24
1.000000000000000E+20
 34
1.000000000000000E+20
 15
-1.000000000000000E+20
 25
-1.000000000000000E+20
 35
-1.000000000000000E+20
146
0.0
 13
0.0
 23
0.0
 33
0.0
 16
1.0
 26
0.0
 36
0.0
 17
0.0
 27
1.0
 37
0.0
 76
     0
330
1B
  0
LAYOUT
  5
26
102
{ACAD_REACTORS
330
1A
102
}
330
1A
100
AcDbPlotSettings
  1

  2
none_device
  4

  6

 40
0.0
 41
0.0
 42
0.0
 43
0.0
 44
0.0
 45
0.0
 46
0.0
 47
0.0
 48
0.0
 49
0.0
140
0.0
141
0.0
142
1.0
143
1.0
 70
   688
 72
     0
 73
     0
 74
     5
  7

 75
    16
147
1.0
148
0.0
149
0.0
100
AcDbLayout
  1
Sheet2
 70
     1
 71
     2
 10
0.0
 20
0.0
 11
0.0
 21
0.0
 12
0.0
 22
0.0
 32
0.0
 14
0.0
 24
0.0
 34
0.0
 15
0.0
 25
0.0
 35
0.0
146
0.0
 13
0.0
 23
0.0
 33
0.0
 16
1.0
 26
0.0
 36
0.0
 17
0.0
 27
1.0
 37
0.0
 76
     0
330
23
  0
MLINESTYLE
  5
18
102
{ACAD_REACTORS
330
17
102
}
330
17
100
AcDbMlineStyle
  2
Standard
 70
     0
  3

 62
   256
 51
90.0
 52
90.0
 71
     2
 49
0.5
 62
   256
  6
BYLAYER
 49
-0.5
 62
   256
  6
BYLAYER
  0
ACDBPLACEHOLDER
  5
F
102
{ACAD_REACTORS
330
E
102
}
330
E
  0
SCALE
  5
41
102
{ACAD_REACTORS
330
40
102
}
330
40
100
AcDbScale
 70
     0
300
1:1
140
1.0
141
1.0
290
     1
  0
SCALE
  5
42
102
{ACAD_REACTORS
330
40
102
}
330
40
100
AcDbScale
 70
     0
300
1:2
140
1.0
141
2.0
290
     0
  0
SCALE
  5
43
102
{ACAD_REACTORS
330
40
102
}
330
40
100
AcDbScale
 70
     0
300
1:4
140
1.0
141
4.0
290
     0
  0
SCALE
  5
44
102
{ACAD_REACTORS
330
40
102
}
330
40
100
AcDbScale
 70
     0
300
1:5
140
1.0
141
5.0
290
     0
  0
SCALE
  5
45
102
{ACAD_REACTORS
330
40
102
}
330
40
100
AcDbScale
 70
     0
300
1:8
140
1.0
141
8.0
290
     0
  0
SCALE
  5
46
102
{ACAD_REACTORS
330
40
102
}
330
40
100
AcDbScale
 70
     0
300
1:10
140
1.0
141
10.0
290
     0
  0
SCALE
  5
47
102
{ACAD_REACTORS
330
40
102
}
330
40
100
AcDbScale
 70
     0
300
1:16
140
1.0
141
16.0
290
     0
  0
SCALE
  5
48
102
{ACAD_REACTORS
330
40
102
}
330
40
100
AcDbScale
 70
     0
300
1:20
140
1.0
141
20.0
290
     0
  0
SCALE
  5
49
102
{ACAD_REACTORS
330
40
102
}
330
40
100
AcDbScale
 70
     0
300
1:30
140
1.0
141
30.0
290
     0
  0
SCALE
  5
4A
102
{ACAD_REACTORS
330
40
102
}
330
40
100
AcDbScale
 70
     0
300
1:40
140
1.0
141
40.0
290
     0
  0
SCALE
  5
4B
102
{ACAD_REACTORS
330
40
102
}
330
40
100
AcDbScale
 70
     0
300
1:50
140
1.0
141
50.0
290
     0
  0
SCALE
  5
4C
102
{ACAD_REACTORS
330
40
102
}
330
40
100
AcDbScale
 70
     0
300
1:100
140
1.0
141
100.0
290
     0
  0
SCALE
  5
4D
102
{ACAD_REACTORS
330
40
102
}
330
40
100
AcDbScale
 70
     0
300
2:1
140
2.0
141
1.0
290
     0
  0
SCALE
  5
4E
102
{ACAD_REACTORS
330
40
102
}
330
40
100
AcDbScale
 70
     0
300
4:1
140
4.0
141
1.0
290
     0
  0
SCALE
  5
4F
102
{ACAD_REACTORS
330
40
102
}
330
40
100
AcDbScale
 70
     0
300
8:1
140
8.0
141
1.0
290
     0
  0
SCALE
  5
50
102
{ACAD_REACTORS
330
40
102
}
330
40
100
AcDbScale
 70
     0
300
10:1
140
10.0
141
1.0
290
     0
  0
SCALE
  5
51
102
{ACAD_REACTORS
330
40
102
}
330
40
100
AcDbScale
 70
     0
300
100:1
140
100.0
141
1.0
290
     0
  0
SCALE
  5
52
102
{ACAD_REACTORS
330
40
102
}
330
40
100
AcDbScale
 70
     0
300
1/128" = 1'-0"
140
0.0078125
141
12.0
290
     0
  0
SCALE
  5
53
102
{ACAD_REACTORS
330
40
102
}
330
40
100
AcDbScale
 70
     0
300
1/64" = 1'-0"
140
0.015625
141
12.0
290
     0
  0
SCALE
  5
54
102
{ACAD_REACTORS
330
40
102
}
330
40
100
AcDbScale
 70
     0
300
1/32" = 1'-0"
140
0.03125
141
12.0
290
     0
  0
SCALE
  5
55
102
{ACAD_REACTORS
330
40
102
}
330
40
100
AcDbScale
 70
     0
300
1/16" = 1'-0"
140
0.0625
141
12.0
290
     0
  0
SCALE
  5
56
102
{ACAD_REACTORS
330
40
102
}
330
40
100
AcDbScale
 70
     0
300
3/32" = 1'-0"
140
0.09375
141
12.0
290
     0
  0
SCALE
  5
57
102
{ACAD_REACTORS
330
40
102
}
330
40
100
AcDbScale
 70
     0
300
1/8" = 1'-0"
140
0.125
141
12.0
290
     0
  0
SCALE
  5
58
102
{ACAD_REACTORS
330
40
102
}
330
40
100
AcDbScale
 70
     0
300
3/16" = 1'-0"
140
0.1875
141
12.0
290
     0
  0
SCALE
  5
59
102
{ACAD_REACTORS
330
40
102
}
330
40
100
AcDbScale
 70
     0
300
1/4" = 1'-0"
140
0.25
141
12.0
290
     0
  0
SCALE
  5
5A
102
{ACAD_REACTORS
330
40
102
}
330
40
100
AcDbScale
 70
     0
300
3/8" = 1'-0"
140
0.375
141
12.0
290
     0
  0
SCALE
  5
5B
102
{ACAD_REACTORS
330
40
102
}
330
40
100
AcDbScale
 70
     0
300
1/2" = 1'-0"
140
0.5
141
12.0
290
     0
  0
SCALE
  5
5C
102
{ACAD_REACTORS
330
40
102
}
330
40
100
AcDbScale
 70
     0
300
3/4" = 1'-0"
140
0.75
141
12.0
290
     0
  0
SCALE
  5
5D
102
{ACAD_REACTORS
330
40
102
}
330
40
100
AcDbScale
 70
     0
300
1" = 1'-0"
140
1.0
141
12.0
290
     0
  0
SCALE
  5
5E
102
{ACAD_REACTORS
330
40
102
}
330
40
100
AcDbScale
 70
     0
300
1-1/2" = 1'-0"
140
1.5
141
12.0
290
     0
  0
SCALE
  5
5F
102
{ACAD_REACTORS
330
40
102
}
330
40
100
AcDbScale
 70
     0
300
3" = 1'-0"
140
3.0
141
12.0
290
     0
  0
SCALE
  5
60
102
{ACAD_REACTORS
330
40
102
}
330
40
100
AcDbScale
 70
     0
300
6" = 1'-0"
140
6.0
141
12.0
290
     0
  0
SCALE
  5
61
102
{ACAD_REACTORS
330
40
102
}
330
40
100
AcDbScale
 70
     0
300
1'-0" = 1'-0"
140
12.0
141
12.0
290
     0
  0
DICTIONARYVAR
  5
2CC1
102
{ACAD_REACTORS
330
3D
102
}
330
3D
100
DictionaryVariables
280
     0
  1
1:1
  0
DICTIONARYVAR
  5
684
102
{ACAD_REACTORS
330
3D
102
}
330
3D
100
DictionaryVariables
280
     0
  1
0
  0
DICTIONARYVAR
  5
2CBF
102
{ACAD_REACTORS
330
3D
102
}
330
3D
100
DictionaryVariables
280
     0
  1
1:1
  0
XRECORD
  5
1FE
102
{ACAD_REACTORS
330
1FD
102
}
330
1FD
100
AcDbXrecord
280
     1
 91
     1023
301

290
     0
302
0
330
10
 90
        8
 62
     7
370
    -3
331
16
  1
Color_7
  0
XRECORD
  5
205
102
{ACAD_REACTORS
330
1FD
102
}
330
1FD
100
AcDbXrecord
280
     1
 91
     1023
301

290
     0
302
0
330
10
 90
        8
 62
     7
370
    -3
331
16
  1
Color_7
330
1FF
 90
        8
 62
     1
370
    -3
331
16
  1
Color_1
  0
XRECORD
  5
206
102
{ACAD_REACTORS
330
1FD
102
}
330
1FD
100
AcDbXrecord
280
     1
 91
     1023
301

290
     0
302
Labels
330
10
 90
        8
 62
     7
370
    -3
331
16
  1
Color_7
330
1FF
 90
        8
 62
     1
370
    -3
331
16
  1
Color_1
  0
ENDSEC
  0
EOF
