  0
SECTION
  2
HEADER
  9
$ACADVER
  1
AC1014
  9
$ACADMAINTVER
 70
     0
  9
$DWGCODEPAGE
  3
ANSI_1252
  9
$INSBASE
 10
0.0
 20
0.0
 30
0.0
  9
$EXTMIN
 10
1.000000E+20
 20
1.000000E+20
 30
1.000000E+20
  9
$EXTMAX
 10
-1.000000E+20
 20
-1.000000E+20
 30
-1.000000E+20
  9
$LIMMIN
 10
0.0
 20
0.0
  9
$LIMMAX
 10
0.0
 20
0.0
  9
$ORTHOMODE
 70
     0
  9
$REGENMODE
 70
     1
  9
$FILLMODE
 70
     1
  9
$QTEXTMODE
 70
     0
  9
$MIRRTEXT
 70
     1
  9
$DRAGMODE
 70
     2
  9
$LTSCALE
 40
1.0
  9
$OSMODE
 70
     0
  9
$ATTMODE
 70
     1
  9
$TEXTSIZE
 40
0.2
  9
$TRACEWID
 40
0.05
  9
$TEXTSTYLE
  7
STANDARD
  9
$CLAYER
  8
0
  9
$CELTYPE
  6
CONTINUOUS
  9
$CECOLOR
 62
   256
  9
$CELTSCALE
 40
1.0
  9
$DELOBJ
 70
     1
  9
$DISPSILH
 70
     0
  9
$DIMSCALE
 40
1.0
  9
$DIMASZ
 40
0.18
  9
$DIMEXO
 40
0.0625
  9
$DIMDLI
 40
0.38
  9
$DIMRND
 40
0.0
  9
$DIMDLE
 40
0.0
  9
$DIMEXE
 40
0.18
  9
$DIMTP
 40
0.0
  9
$DIMTM
 40
0.0
  9
$DIMTXT
 40
0.18
  9
$DIMCEN
 40
0.09
  9
$DIMTSZ
 40
0.0
  9
$DIMTOL
 70
     0
  9
$DIMLIM
 70
     0
  9
$DIMTIH
 70
     1
  9
$DIMTOH
 70
     1
  9
$DIMSE1
 70
     0
  9
$DIMSE2
 70
     0
  9
$DIMTAD
 70
     0
  9
$DIMZIN
 70
     0
  9
$DIMBLK
  1

  9
$DIMASO
 70
     1
  9
$DIMSHO
 70
     1
  9
$DIMPOST
  1

  9
$DIMAPOST
  1

  9
$DIMALT
 70
     0
  9
$DIMALTD
 70
     2
  9
$DIMALTF
 40
25.4
  9
$DIMLFAC
 40
1.0
  9
$DIMTOFL
 70
     0
  9
$DIMTVP
 40
0.0
  9
$DIMTIX
 70
     0
  9
$DIMSOXD
 70
     0
  9
$DIMSAH
 70
     0
  9
$DIMBLK1
  1

  9
$DIMBLK2
  1

  9
$DIMSTYLE
  2
STANDARD
  9
$DIMCLRD
 70
     0
  9
$DIMCLRE
 70
     0
  9
$DIMCLRT
 70
     0
  9
$DIMTFAC
 40
1.0
  9
$DIMGAP
 40
0.09
  9
$DIMJUST
 70
     0
  9
$DIMSD1
 70
     0
  9
$DIMSD2
 70
     0
  9
$DIMTOLJ
 70
     1
  9
$DIMTZIN
 70
     0
  9
$DIMALTZ
 70
     0
  9
$DIMALTTZ
 70
     0
  9
$DIMFIT
 70
     3
  9
$DIMUPT
 70
     0
  9
$DIMUNIT
 70
     2
  9
$DIMDEC
 70
     4
  9
$DIMTDEC
 70
     4
  9
$DIMALTU
 70
     2
  9
$DIMALTTD
 70
     2
  9
$DIMTXSTY
  7
STANDARD
  9
$DIMAUNIT
 70
     0
  9
$LUNITS
 70
     2
  9
$LUPREC
 70
     4
  9
$SKETCHINC
 40
0.1
  9
$FILLETRAD
 40
0.0
  9
$AUNITS
 70
     0
  9
$AUPREC
 70
     0
  9
$MENU
  1
acad
  9
$ELEVATION
 40
0.0
  9
$PELEVATION
 40
0.0
  9
$THICKNESS
 40
0.0
  9
$LIMCHECK
 70
     0
  9
$BLIPMODE
 70
     1
  9
$CHAMFERA
 40
0.0
  9
$CHAMFERB
 40
0.0
  9
$CHAMFERC
 40
0.0
  9
$CHAMFERD
 40
0.0
  9
$SKPOLY
 70
     0
  9
$TDCREATE
 40
0.000000000
  9
$TDUPDATE
 40
0.000000000
  9
$TDINDWG
 40
0.0000000000
  9
$TDUSRTIMER
 40
0.0000000000
  9
$USRTIMER
 70
     1
  9
$ANGBASE
 50
0.0
  9
$ANGDIR
 70
     0
  9
$PDMODE
 70
     0
  9
$PDSIZE
 40
0.0
  9
$PLINEWID
 40
0.0
  9
$COORDS
 70
     0
  9
$SPLFRAME
 70
     0
  9
$SPLINETYPE
 70
     6
  9
$SPLINESEGS
 70
     8
  9
$ATTDIA
 70
     0
  9
$ATTREQ
 70
     1
  9
$HANDLING
 70
     1
  9
$HANDSEED
  5
93
  9
$SURFTAB1
 70
     6
  9
$SURFTAB2
 70
     6
  9
$SURFTYPE
 70
     6
  9
$SURFU
 70
     6
  9
$SURFV
 70
     6
  9
$UCSNAME
  2

  9
$UCSORG
 10
0.0
 20
0.0
 30
0.0
  9
$UCSXDIR
 10
1.0
 20
0.0
 30
0.0
  9
$UCSYDIR
 10
0.0
 20
1.0
 30
0.0
  9
$PUCSNAME
  2

  9
$PUCSORG
 10
0.0
 20
0.0
 30
0.0
  9
$PUCSXDIR
 10
1.0
 20
0.0
 30
0.0
  9
$PUCSYDIR
 10
0.0
 20
1.0
 30
0.0
  9
$USERI1
 70
     0
  9
$USERI2
 70
     0
  9
$USERI3
 70
     0
  9
$USERI4
 70
     0
  9
$USERI5
 70
     0
  9
$USERR1
 40
0.0
  9
$USERR2
 40
0.0
  9
$USERR3
 40
0.0
  9
$USERR4
 40
0.0
  9
$USERR5
 40
0.0
  9
$WORLDVIEW
 70
     1
  9
$SHADEDGE
 70
     3
  9
$SHADEDIF
 70
    70
  9
$TILEMODE
 70
     1
  9
$MAXACTVP
 70
    16
  9
$PINSBASE
 10
0.0
 20
0.0
 30
0.0
  9
$PLIMCHECK
 70
     0
  9
$PEXTMIN
 10
1.000000E+20
 20
1.000000E+20
 30
1.000000E+20
  9
$PEXTMAX
 10
-1.000000E+20
 20
-1.000000E+20
 30
-1.000000E+20
  9
$PLIMMIN
 10
0.0
 20
0.0
  9
$PLIMMAX
 10
12.0
 20
9.0
  9
$UNITMODE
 70
     0
  9
$VISRETAIN
 70
     0
  9
$PLINEGEN
 70
     1
  9
$PSLTSCALE
 70
     0
  9
$TREEDEPTH
 70
  3020
  9
$PICKSTYLE
 70
     1
  9
$CMLSTYLE
  2
STANDARD
  9
$CMLJUST
 70
     0
  9
$CMLSCALE
 40
1.0
  9
$PROXYGRAPHICS
 70
     0
  9
$MEASUREMENT
 70
     0
  0
ENDSEC
  0
SECTION
  2
CLASSES
  0
CLASS
  1
LWPOLYLINE
  2
AcDbPolyline
  3
"AutoCAD"
 90
        0
280
     0
281
     1
  0
CLASS
  1
IMAGE
  2
AcDbRasterImage
  3
ISM
 90
      127
280
     0
281
     1
  0
CLASS
  1
OLE2FRAME
  2
AcDbOle2Frame
  3
""
 90
        0
280
     0
281
     1
  0
CLASS
  1
HATCH
  2
AcDbHatch
  3
"ACAD_SEDONA"
 90
        0
280
     0
281
     1
  0
CLASS
  1
DICTIONARYVAR
  2
AcDbDictionaryVar
  3
"AutoCAD"
 90
        0
280
     0
281
     0
  0
CLASS
  1
RASTERVARIABLES
  2
AcDbRasterVariables
  3
ISM
 90
        0
280
     0
281
     0
  0
CLASS
  1
IMAGEDEF
  2
AcDbRasterImageDef
  3
ISM
 90
        0
280
     0
281
     0
  0
CLASS
  1
IMAGEDEF_REACTOR
  2
AcDbRasterImageDefReactor
  3
ISM
 90
        1
280
     0
281
     0
  0
CLASS
  1
IDBUFFER
  2
AcDbIdBuffer
  3
"Acad"
 90
        0
280
     0
281
     0
  0
CLASS
  1
SPATIAL_FILTER
  2
AcDbSpatialFilter
  3
"Acad"
 90
        0
280
     0
281
     0
  0
CLASS
  1
XRECORD
  2
AcDbXrecord
  3
"<Built In>"
 90
        0
280
     0
281
     0
  0
CLASS
  1
SORTENTSTABLE
  2
AcDbSortentsTable
  3
"AutoCAD"
 90
        0
280
     0
281
     0
  0
CLASS
  1
LAYER_INDEX
  2
AcDbLayerIndex
  3
"Acad"
 90
        0
280
     0
281
     0
  0
CLASS
  1
SPATIAL_INDEX
  2
AcDbSpatialIndex
  3
"Acad"
 90
        0
280
     0
281
     0
  0
CLASS
  1
OBJECT_PTR
  2
CAseDLPNTableRecord
  3
"ASE-LPNTableRecord"
 90
        1
280
     0
281
     0
  0
CLASS
  1
LAYOUT
  2
AcDbLayout
  3
"AutoCAD 2000"
 90
        0
280
     0
281
     0
  0
CLASS
  1
PLOTSETTINGS
  2
AcDbPlotSettings
  3
"AutoCAD 2000"
 90
        0
280
     0
281
     0
  0
CLASS
  1
ACDBDICTIONARYWDFLT
  2
AcDbDictionaryWithDefault
  3
"AutoCAD 2000"
 90
        0
280
     0
281
     0
  0
CLASS
  1
ACDBPLACEHOLDER
  2
AcDbPlaceHolder
  3
"AutoCAD 2000"
 90
        0
280
     0
281
     0
  0
CLASS
  1
VBA_PROJECT
  2
AcDbVbaProject
  3
"acadvba"
 90
        0
280
     0
281
     0
  0
CLASS
  1
WIPEOUT
  2
AcDbWipeout
  3
WipeOut|AutoCAD Express Tool|expresstools@autodesk.com
 90
      127
280
     0
281
     1
  0
CLASS
  1
WIPEOUTVARIABLES
  2
AcDbWipeoutVariables
  3
WipeOut|AutoCAD Express Tool|expresstools@autodesk.com
 90
        0
280
     0
281
     0
  0
CLASS
  1
RTEXT
  2
RText
  3
RText|AutoCAD Express Tool|expresstools@autodesk.com
 90
        0
280
     0
281
     1
  0
CLASS
  1
ARCALIGNEDTEXT
  2
AcDbArcAlignedText
  3
ATEXT|AutoCAD Express Tool|expresstools@autodesk.com
 90
        0
280
     0
281
     1
  0
ENDSEC
  0
SECTION
  2
TABLES
  0
TABLE
  2
VPORT
  5
7
100
AcDbSymbolTable
 70
     1
  0
VPORT
  5
15
100
AcDbSymbolTableRecord
100
AcDbViewportTableRecord
  2
*ACTIVE
 70
     0
 10
0.0
 20
0.0
 11
1.0
 21
1.0
 12
246.358994
 22
126.261085
 13
0.0
 23
0.0
 14
1.0
 24
1.0
 15
0.0
 25
0.0
 16
0.0
 26
0.0
 36
1.0
 17
0.0
 27
0.0
 37
0.0
 40
325.37063
 41
1.630742
 42
50.0
 43
0.0
 44
0.0
 50
0.0
 51
0.0
 71
     0
 72
   100
 73
     1
 74
     1
 75
     0
 76
     0
 77
     0
 78
     0
  0
ENDTAB
  0
TABLE
  2
LTYPE
  5
4
100
AcDbSymbolTable
 70
     3
  0
LTYPE
  5
11
100
AcDbSymbolTableRecord
100
AcDbLinetypeTableRecord
  2
BYBLOCK
 70
    64
  3

 72
    65
 73
     0
 40
0.0
  0
LTYPE
  5
12
100
AcDbSymbolTableRecord
100
AcDbLinetypeTableRecord
  2
BYLAYER
 70
    64
  3

 72
    65
 73
     0
 40
0.0
  0
LTYPE
  5
13
100
AcDbSymbolTableRecord
100
AcDbLinetypeTableRecord
  2
CONTINUOUS
 70
    64
  3
Solid line
 72
    65
 73
     0
 40
0.0
  0
ENDTAB
  0
TABLE
  2
LAYER
  5
2
100
AcDbSymbolTable
 70
     2
  0
LAYER
  5
14
100
AcDbSymbolTableRecord
100
AcDbLayerTableRecord
  2
0
 70
     0
 62
     7
  6
CONTINUOUS
  0
LAYER
  5
1D
100
AcDbSymbolTableRecord
100
AcDbLayerTableRecord
  2
2
 70
     0
 62
     7
  6
CONTINUOUS
  0
ENDTAB
  0
TABLE
  2
STYLE
  5
3
100
AcDbSymbolTable
 70
     1
  0
STYLE
  5
17
100
AcDbSymbolTableRecord
100
AcDbTextStyleTableRecord
  2
STANDARD
 70
     0
 40
0.0
 41
1.0
 50
0.0
 71
     0
 42
0.0
  3
txt
  4

  0
ENDTAB
  0
TABLE
  2
VIEW
  5
5
100
AcDbSymbolTable
 70
     0
  0
ENDTAB
  0
TABLE
  2
UCS
  5
6
100
AcDbSymbolTable
 70
     0
  0
ENDTAB
  0
TABLE
  2
APPID
  5
8
100
AcDbSymbolTable
 70
     1
  0
APPID
  5
16
100
AcDbSymbolTableRecord
100
AcDbRegAppTableRecord
  2
ACAD
 70
     0
  0
ENDTAB
  0
TABLE
  2
DIMSTYLE
  5
9
100
AcDbSymbolTable
 70
     1
  0
DIMSTYLE
105
18
100
AcDbSymbolTableRecord
100
AcDbDimStyleTableRecord
  2
STANDARD
 70
     0
  3

  4

  5

  6

  7

 40
1.0
 41
0.18
 42
0.0625
 43
0.38
 44
0.18
 45
0.0
 46
0.0
 47
0.0
 48
0.0
 71
     0
 72
     0
 73
     1
 74
     1
 75
     0
 76
     0
 77
     0
 78
     0
140
0.18
141
0.09
142
0.0
143
25.4
144
1.0
145
0.0
146
1.0
147
0.09
170
     0
171
     2
172
     0
173
     0
174
     0
175
     0
176
     0
177
     0
178
     0
270
     2
271
     4
272
     4
273
     2
274
     2
275
     0
280
     0
281
     0
282
     0
283
     1
284
     0
285
     0
286
     0
287
     0
288
     0
340
17
  0
ENDTAB
  0
TABLE
  2
BLOCK_RECORD
  5
1
100
AcDbSymbolTable
 70
     0
  0
BLOCK_RECORD
  5
A
100
AcDbSymbolTableRecord
100
AcDbBlockTableRecord
  2
*MODEL_SPACE
  0
BLOCK_RECORD
  5
B
100
AcDbSymbolTableRecord
100
AcDbBlockTableRecord
  2
*PAPER_SPACE
  0
ENDTAB
  0
ENDSEC
  0
SECTION
  2
BLOCKS
  0
BLOCK
  5
D
100
AcDbEntity
  8
0
100
AcDbBlockBegin
  2
*MODEL_SPACE
 70
     0
 10
0.0
 20
0.0
 30
0.0
  3
*MODEL_SPACE
  1

  0
ENDBLK
  5
E
100
AcDbEntity
  8
0
100
AcDbBlockEnd
  0
BLOCK
  5
F
100
AcDbEntity
 67
     1
  8
0
100
AcDbBlockBegin
  2
*PAPER_SPACE
 70
     0
 10
0.0
 20
0.0
 30
0.0
  3
*PAPER_SPACE
  1

  0
ENDBLK
  5
10
100
AcDbEntity
 67
     1
  8
0
100
AcDbBlockEnd
  0
ENDSEC
  0
SECTION
  2
ENTITIES
  0
LWPOLYLINE
  5
1E
100
AcDbEntity
  8
2
100
AcDbPolyline
 90
        8
 70
     1
 10
124.197756
 20
40.780785
 42
0.116532
 10
126.253756
 20
41.921885
 42
0.131078
 10
127.627756
 20
44.180785
 42
-0.071912
 10
123.736756
 20
47.184585
 42
-0.114654
 10
119.768756
 20
53.939985
 42
-0.078951
 10
119.349756
 20
49.919685
 42
-0.126483
 10
115.621756
 20
43.887785
 42
-0.089184
 10
111.057756
 20
40.780785
  0
LWPOLYLINE
  5
1F
100
AcDbEntity
  8
2
100
AcDbPolyline
 90
        4
 70
     1
 10
123.197756
 20
66.480785
 10
126.197756
 20
66.780785
 10
127.567756
 20
56.780785
 10
124.567756
 20
56.480785
  0
LWPOLYLINE
  5
20
100
AcDbEntity
  8
2
100
AcDbPolyline
 90
        5
 70
     1
 10
119.197756
 20
69.780785
 10
119.197756
 20
57.930785
 42
0.069413
 10
117.673756
 20
62.630685
 42
0.082256
 10
115.035756
 20
66.321685
 42
0.107565
 10
109.507756
 20
69.780785
  0
LWPOLYLINE
  5
21
100
AcDbEntity
  8
2
100
AcDbPolyline
 90
       18
 70
     1
 10
104.158856
 20
47.373985
 42
0.041999
 10
105.192756
 20
48.547885
 42
0.154482
 10
105.713756
 20
50.032485
 10
105.568256
 20
51.227785
 42
-0.207403
 10
105.693756
 20
52.152085
 42
-0.163531
 10
106.396656
 20
52.517385
 42
-0.07922
 10
107.536956
 20
52.529085
 42
-0.068223
 10
108.850256
 20
54.043985
 42
-0.228822
 10
109.882756
 20
54.414085
 42
-0.21653
 10
110.675756
 20
53.392985
 42
-0.059923
 10
111.123756
 20
51.583085
 42
-0.112125
 10
110.891756
 20
49.036085
 42
-0.05551
 10
109.817756
 20
46.793385
 42
-0.047066
 10
108.618356
 20
45.069085
 42
-0.115936
 10
107.060756
 20
43.890485
 42
-0.108806
 10
105.088156
 20
43.613385
 42
-0.055028
 10
103.070656
 20
43.963085
 42
-0.101246
 10
100.168756
 20
45.487085
 42
0.166684
  0
LWPOLYLINE
  5
22
100
AcDbEntity
  8
2
100
AcDbPolyline
 90
       28
 70
     1
 10
112.356756
 20
46.140285
 42
0.078991
 10
113.444756
 20
48.897985
 42
0.049438
 10
113.880756
 20
51.583085
 42
0.087054
 10
113.372756
 20
55.864785
 42
0.053224
 10
112.012756
 20
59.496285
 42
0.092388
 10
110.968756
 20
60.840685
 42
0.188104
 10
109.598756
 20
61.343985
 42
0.098894
 10
107.977456
 20
60.951285
 42
0.167152
 10
106.741056
 20
59.844285
 42
0.10802
 10
106.454256
 20
57.935285
 42
-0.10169
 10
106.322156
 20
56.451285
 42
-0.409797
 10
105.806056
 20
56.446385
 42
-0.086153
 10
104.539456
 20
57.621985
 42
-0.059273
 10
103.385956
 20
59.396385
 42
-0.242821
 10
103.641656
 20
63.860285
 42
-0.164351
 10
106.699156
 20
66.755885
 42
-0.128532
 10
108.315356
 20
66.953685
 42
-0.099187
 10
110.919756
 20
66.008885
 42
-0.048138
 10
113.317756
 20
64.284485
 42
-0.109725
 10
115.947756
 20
60.702985
 42
-0.069545
 10
117.143756
 20
56.409085
 42
-0.146949
 10
116.208756
 20
48.717185
 42
-0.130769
 10
113.227756
 20
44.761385
 42
-0.032748
 10
110.373756
 20
42.789285
 10
109.296756
 20
42.224285
 10
109.031756
 20
42.163185
 42
-0.621573
 10
109.019556
 20
42.293985
 42
-0.03063
 10
110.833756
 20
44.325985
 42
0.045078
  0
LWPOLYLINE
  5
23
100
AcDbEntity
  8
2
100
AcDbPolyline
 90
        4
 70
     1
 10
92.018056
 20
51.881485
 42
-0.351394
 10
91.277356
 20
50.916785
 42
-0.337786
 10
90.429656
 20
51.687885
 42
-0.323571
 10
91.156956
 20
52.498785
 42
-0.31773
  0
LWPOLYLINE
  5
24
100
AcDbEntity
  8
2
100
AcDbPolyline
 90
        5
 70
     1
 10
98.572756
 20
44.108285
 42
0.038469
 10
101.692256
 20
42.221385
 42
0.080176
 10
106.867756
 20
40.780785
 10
95.767756
 20
40.780785
 42
0.108363
 10
95.525756
 20
46.357985
 42
0.02341
  0
LWPOLYLINE
  5
25
100
AcDbEntity
  8
2
100
AcDbPolyline
 90
       10
 70
     1
 10
104.407756
 20
69.780785
 42
0.13499
 10
99.755456
 20
65.777185
 42
0.108404
 10
98.137456
 20
61.743085
 42
-0.215221
 10
97.557056
 20
60.509385
 42
-0.17684
 10
96.990656
 20
60.331685
 42
-0.187337
 10
96.468856
 20
60.727085
 42
-0.152692
 10
96.033556
 20
62.178485
 42
0.116864
 10
95.111856
 20
64.811485
 42
0.023951
 10
93.513756
 20
67.033785
 42
0.054398
 10
90.957756
 20
69.780785
  0
LWPOLYLINE
  5
26
100
AcDbEntity
  8
2
100
AcDbPolyline
 90
       40
 70
     1
 10
95.752756
 20
50.163785
 42
0.192002
 10
96.277756
 20
51.213985
 42
0.264805
 10
95.502856
 20
52.389085
 42
0.094039
 10
94.735156
 20
52.529685
 42
-0.104679
 10
94.204256
 20
52.598585
 42
-0.408596
 10
94.329956
 20
52.765285
 10
95.035756
 20
53.183985
 42
0.142757
 10
95.631256
 20
53.773685
 42
0.276155
 10
95.303156
 20
55.086385
 42
0.199393
 10
94.318656
 20
55.480185
 42
0.126079
 10
93.596856
 20
55.187785
 42
-0.079336
 10
92.874856
 20
54.823885
 10
92.361056
 20
54.734885
 42
-0.066076
 10
92.612256
 20
55.545785
 42
-0.093405
 10
93.166656
 20
56.261285
 10
93.859256
 20
56.924185
 42
0.044274
 10
94.559656
 20
57.979685
 42
-0.192229
 10
95.308056
 20
58.695085
 42
-0.160082
 10
96.280056
 20
58.425585
 42
0.100618
 10
97.339456
 20
58.041985
 42
0.178308
 10
98.505156
 20
58.633985
 42
-0.100501
 10
99.515856
 20
59.348285
 42
-0.317858
 10
100.136956
 20
59.032285
 42
-0.056864
 10
100.850156
 20
57.450885
 42
0.091696
 10
101.692256
 20
55.864785
 42
0.070812
 10
103.941256
 20
54.123085
 42
0.086
 10
102.051356
 20
54.161685
 42
0.134655
 10
100.676556
 20
53.542485
 42
0.082248
 10
99.603356
 20
52.081485
 42
0.080549
 10
99.323256
 20
51.317385
 42
0.443999
 10
99.515856
 20
50.929985
 42
0.06284
 10
100.596456
 20
51.042785
 42
-0.227557
 10
101.626456
 20
50.887385
 42
-0.156633
 10
101.920156
 20
50.007985
 42
-0.202684
 10
101.634956
 20
49.194185
 42
-0.118276
 10
100.341456
 20
48.375285
 42
-0.038374
 10
98.895956
 20
47.948885
 42
-0.154439
 10
96.392356
 20
48.201685
 42
-0.093605
 10
93.718156
 20
50.032485
 42
0.097662
 10
94.913556
 20
49.829685
 42
0.17478
  0
LWPOLYLINE
  5
27
100
AcDbEntity
  8
2
100
AcDbPolyline
 90
       34
 70
     1
 10
85.196056
 20
45.359985
 42
0.147977
 10
84.474156
 20
49.363685
 42
0.111884
 10
82.811156
 20
51.158885
 42
0.081974
 10
80.210956
 20
52.354985
 42
0.078098
 10
81.211356
 20
53.388085
 42
0.134105
 10
81.586356
 20
54.417585
 42
0.153997
 10
81.340056
 20
55.107185
 42
0.042271
 10
80.429756
 20
56.179185
 42
-0.120454
 10
79.879956
 20
56.911685
 42
-0.415265
 10
80.222656
 20
57.030085
 42
-0.0399
 10
83.161456
 20
56.189685
 42
-0.090015
 10
86.114856
 20
54.876985
 42
-0.042561
 10
87.299056
 20
53.906585
 42
-0.08767
 10
87.652056
 20
53.422585
 42
-0.3103
 10
87.618056
 20
53.034485
 42
-0.100784
 10
86.902556
 20
52.690585
 42
0.151105
 10
86.167056
 20
52.236285
 42
0.279849
 10
86.312156
 20
50.567085
 42
0.097
 10
86.867956
 20
50.046885
 42
0.21139
 10
87.545456
 20
49.913985
 42
0.128989
 10
88.350256
 20
50.652985
 10
88.698256
 20
51.015185
 42
-0.355576
 10
89.009856
 20
51.048685
 42
-0.172766
 10
89.344956
 20
50.420385
 42
-0.210781
 10
89.051356
 20
49.758085
 42
0.083517
 10
88.590956
 20
49.121785
 42
0.254986
 10
88.841556
 20
48.199785
 42
0.121063
 10
89.721856
 20
47.519085
 42
0.236473
 10
91.390456
 20
47.664285
 42
0.226214
 10
91.970856
 20
49.188285
 42
-0.116928
 10
93.701356
 20
44.537985
 42
-0.088717
 10
93.447756
 20
40.780785
 10
82.487756
 20
40.780785
 42
0.078856
 10
84.359356
 20
42.977385
 42
0.102792
  0
LWPOLYLINE
  5
28
100
AcDbEntity
  8
2
100
AcDbPolyline
 90
       32
 70
     1
 10
81.053956
 20
58.755185
 42
0.168556
 10
83.399856
 20
60.556385
 42
0.164924
 10
84.028156
 20
62.608985
 42
0.138497
 10
83.318056
 20
63.857085
 10
82.226956
 20
65.038485
 42
-0.098322
 10
81.640456
 20
66.001885
 42
-0.19188
 10
81.766156
 20
67.467985
 42
-0.203323
 10
82.493056
 20
67.960685
 42
-0.050525
 10
83.567456
 20
68.096385
 42
-0.171854
 10
89.505756
 20
66.588385
 42
-0.069716
 10
91.763856
 20
64.741285
 42
-0.107244
 10
93.204156
 20
62.251085
 42
-0.045452
 10
93.501056
 20
61.087185
 42
-0.140475
 10
93.349256
 20
59.928785
 42
-0.091836
 10
92.405856
 20
58.653585
 10
91.864956
 20
58.246885
 42
-0.242558
 10
91.463056
 20
58.187085
 42
-0.209224
 10
91.230956
 20
59.085085
 10
91.223256
 20
60.514485
 10
91.142956
 20
61.574785
 42
0.125585
 10
90.846256
 20
62.399485
 42
0.240147
 10
89.458956
 20
62.840485
 42
0.114783
 10
87.731656
 20
62.319385
 42
0.264307
 10
86.238256
 20
59.844285
 42
0.148331
 10
86.779056
 20
58.670485
 10
87.746356
 20
57.666085
 42
0.117622
 10
90.427356
 20
56.158085
 42
-0.079377
 10
90.146256
 20
55.242985
 42
-0.217622
 10
89.715156
 20
54.859585
 42
-0.193991
 10
89.172656
 20
55.035585
 10
88.542256
 20
55.529785
 42
0.075246
 10
85.274756
 20
57.498485
 42
0.067045
  0
LWPOLYLINE
  5
29
100
AcDbEntity
  8
2
100
AcDbPolyline
 90
       11
 70
     1
 10
72.801556
 20
56.074285
 42
-0.053694
 10
77.864056
 20
55.875685
 42
-0.049572
 10
79.052856
 20
55.262385
 42
-0.199886
 10
79.486156
 20
54.745685
 42
-0.28716
 10
79.279556
 20
54.460685
 42
-0.074438
 10
77.074356
 20
53.854185
 42
-0.035779
 10
75.041556
 20
53.672785
 42
0.039268
 10
73.262356
 20
53.519085
 42
0.047192
 10
69.673256
 20
52.487185
 42
0.066605
 10
68.877256
 20
53.827685
 42
0.079822
 10
67.494956
 20
55.084285
 42
-0.05721
  0
LWPOLYLINE
  5
2A
100
AcDbEntity
  8
2
100
AcDbPolyline
 90
       24
 70
     1
 10
76.743556
 20
50.430085
 10
79.250656
 20
50.301685
 42
-0.150326
 10
81.455156
 20
49.494985
 42
-0.19512
 10
83.030256
 20
46.344485
 42
-0.135072
 10
82.389256
 20
43.570585
 42
-0.192361
 10
80.416656
 20
41.759685
 42
-0.265255
 10
77.037456
 20
42.347485
 42
-0.072443
 10
75.943656
 20
43.680285
 10
75.637456
 20
44.296085
 42
-0.304921
 10
75.641656
 20
44.625285
 42
-0.199108
 10
76.019056
 20
44.560185
 10
77.047056
 20
44.078085
 42
0.104168
 10
78.259656
 20
43.776785
 42
0.249035
 10
79.959156
 20
44.598485
 42
0.21828
 10
79.809756
 20
46.316785
 42
0.183865
 10
78.617556
 20
47.402685
 42
0.084676
 10
76.896256
 20
47.773485
 42
0.110811
 10
74.594956
 20
47.374385
 42
0.136747
 10
72.997056
 20
46.241885
 42
0.218206
 10
72.697656
 20
43.999485
 42
0.088181
 10
74.247756
 20
40.780785
 10
66.827756
 20
40.780785
 42
0.12889
 10
69.765256
 20
44.698785
 42
0.132606
 10
70.237156
 20
49.714385
 42
-0.086751
  0
LWPOLYLINE
  5
2B
100
AcDbEntity
  8
2
100
AcDbPolyline
 90
       10
 70
     1
 10
57.565256
 20
46.048585
 42
-0.136175
 10
67.341056
 20
49.107485
 42
-0.160017
 10
67.120756
 20
45.653985
 42
-0.125633
 10
65.431156
 20
43.523085
 42
0.067009
 10
62.554956
 20
45.179185
 42
0.089852
 10
61.566056
 20
45.371385
 42
0.171314
 10
60.876556
 20
45.139685
 42
0.221501
 10
60.390056
 20
43.649785
 42
0.063741
 10
60.877756
 20
40.780785
 10
52.357756
 20
40.780785
 42
-0.098421
  0
LWPOLYLINE
  5
2C
100
AcDbEntity
  8
2
100
AcDbPolyline
 90
        9
 70
     1
 10
62.878456
 20
52.410685
 10
64.590956
 20
54.430785
 42
-0.066279
 10
65.889556
 20
53.324985
 42
-0.087937
 10
67.075956
 20
51.398085
 42
0.055556
 10
64.394956
 20
50.937285
 42
0.062459
 10
61.588356
 20
49.722585
 42
-0.237815
 10
60.946356
 20
49.693585
 42
-0.249527
 10
60.858656
 20
49.972585
 10
61.001856
 20
50.476585
  0
LWPOLYLINE
  5
2D
100
AcDbEntity
  8
2
100
AcDbPolyline
 90
        8
 70
     1
 10
57.860056
 20
54.665385
 42
0.064773
 10
57.734356
 20
56.634185
 42
-0.141537
 10
61.912356
 20
55.704385
 42
-0.016431
 10
59.936456
 20
53.288985
 10
57.860056
 20
51.062985
 42
-0.256351
 10
57.082256
 20
50.923285
 42
-0.234201
 10
56.966756
 20
51.219185
 10
57.064156
 20
51.775085
 42
0.098446
  0
LWPOLYLINE
  5
2E
100
AcDbEntity
  8
2
100
AcDbPolyline
 90
       19
 70
     1
 10
75.231156
 20
66.001885
 42
-0.036956
 10
76.539256
 20
66.384385
 42
-0.135518
 10
77.870256
 20
66.295185
 42
-0.132068
 10
79.838956
 20
64.843785
 42
-0.108201
 10
80.345956
 20
63.855785
 42
-0.203633
 10
80.210956
 20
62.914985
 42
-0.131902
 10
79.623256
 20
62.329085
 42
-0.177323
 10
78.686356
 20
62.337585
 42
0.072179
 10
77.650656
 20
62.525185
 42
0.259614
 10
76.058856
 20
61.352285
 42
0.209884
 10
76.236156
 20
60.431785
 42
0.084363
 10
77.241956
 20
59.341585
 42
0.058521
 10
74.471256
 20
59.122285
 10
71.712356
 20
58.503885
 42
0.026253
 10
66.824656
 20
57.094985
 42
-0.092672
 10
67.034156
 20
59.189385
 42
-0.14163
 10
68.454456
 20
61.145085
 10
70.581356
 20
62.776485
 10
72.793656
 20
64.613885
 42
-0.087064
  0
LWPOLYLINE
  5
2F
100
AcDbEntity
  8
2
100
AcDbPolyline
 90
        7
 70
     1
 10
79.787756
 20
69.780785
 42
0.02676
 10
74.560956
 20
67.719385
 42
0.035708
 10
70.916456
 20
65.876285
 42
0.070654
 10
66.727356
 20
62.231985
 42
0.102899
 10
66.853056
 20
65.164185
 42
0.06083
 10
66.099056
 20
67.342385
 42
0.049692
 10
64.717756
 20
69.780785
  0
LWPOLYLINE
  5
30
100
AcDbEntity
  8
2
100
AcDbPolyline
 90
       21
 70
     1
 10
48.230456
 20
67.222285
 42
-0.059693
 10
53.018556
 20
69.109085
 42
-0.072787
 10
59.257756
 20
69.780785
 42
0.088006
 10
58.359756
 20
68.950285
 42
0.143945
 10
58.024356
 20
68.056785
 42
0.200031
 10
58.704456
 20
66.440885
 42
0.18844
 10
59.939356
 20
66.097385
 10
61.434556
 20
66.143385
 42
-0.154814
 10
63.825456
 20
65.387885
 42
-0.219776
 10
64.423256
 20
63.684685
 42
-0.029671
 10
64.202456
 20
61.366585
 42
-0.029671
 10
63.934956
 20
59.550685
 42
-0.078432
 10
63.659356
 20
58.850385
 42
-0.188337
 10
63.197056
 20
58.476285
 42
-0.134915
 10
62.176156
 20
58.596085
 10
60.998856
 20
58.912785
 42
-0.049882
 10
58.894956
 20
59.203085
 42
-0.089722
 10
58.314556
 20
59.493385
 42
-0.147043
 10
57.806756
 20
60.509385
 42
0.077912
 10
56.689256
 20
62.847985
 42
0.131284
 10
53.315356
 20
65.864085
 42
0.097381
  0
LWPOLYLINE
  5
31
100
AcDbEntity
  8
2
100
AcDbPolyline
 90
       15
 70
     1
 10
41.410956
 20
58.441085
 42
-0.101202
 10
45.401056
 20
64.972485
 42
0.102936
 10
45.487456
 20
62.300785
 42
0.176111
 10
46.634356
 20
60.618285
 42
0.051373
 10
47.498556
 20
60.116685
 42
0.152717
 10
48.448056
 20
59.965085
 42
0.199607
 10
49.753956
 20
60.981085
 42
0.141597
 10
49.942856
 20
62.440685
 42
-0.119463
 10
50.001456
 20
63.670485
 42
-0.310853
 10
50.552756
 20
63.864485
 42
-0.091525
 10
51.968256
 20
63.298685
 42
-0.03822
 10
53.383556
 20
62.333685
 42
-0.172248
 10
55.321656
 20
59.315085
 42
0.120611
 10
45.753356
 20
56.277285
 42
0.087291
 10
40.366656
 20
51.398085
 42
-0.094138
  0
LWPOLYLINE
  5
32
100
AcDbEntity
  8
2
100
AcDbPolyline
 90
        7
 70
     1
 10
39.034256
 20
42.134585
 42
0.125171
 10
40.764256
 20
40.335185
 42
0.129663
 10
43.255456
 20
39.643085
 42
-0.08858
 10
41.944556
 20
39.097885
 42
0.049761
 10
40.418256
 20
38.535685
 42
0.062229
 10
37.788656
 20
36.943885
 42
0.065869
 10
38.757456
 20
39.435485
 42
0.066857
  0
LWPOLYLINE
  5
33
100
AcDbEntity
  8
2
100
AcDbPolyline
 90
       32
 70
     1
 10
47.947456
 20
52.414085
 10
48.920256
 20
51.263785
 42
0.208197
 10
50.116656
 20
50.567085
 42
0.095286
 10
51.119956
 20
50.695985
 42
0.173994
 10
51.856856
 20
51.230685
 42
0.218269
 10
51.944756
 20
52.635985
 42
0.220571
 10
51.004556
 20
53.261785
 42
-0.087767
 10
49.749156
 20
53.777885
 42
-0.086165
 10
49.095156
 20
54.486785
 42
-0.174658
 10
48.870956
 20
55.223285
 42
-0.228825
 10
49.489956
 20
55.825485
 10
50.583456
 20
56.233285
 42
-0.040479
 10
53.000756
 20
56.759885
 42
-0.026054
 10
55.566856
 20
57.049185
 42
-0.086298
 10
55.766456
 20
53.100785
 42
-0.111996
 10
54.567556
 20
49.848185
 42
-0.059611
 10
53.537856
 20
48.630485
 10
52.096056
 20
47.376785
 42
-0.392459
 10
51.238756
 20
47.253085
 10
49.814456
 20
48.256785
 42
0.19252
 10
48.325856
 20
48.759085
 42
0.243232
 10
46.859656
 20
47.669985
 42
0.224131
 10
47.248556
 20
46.788985
 42
-0.047281
 10
48.020956
 20
45.800985
 42
-0.225654
 10
48.023056
 20
43.894685
 42
-0.132857
 10
46.845556
 20
42.347485
 42
-0.203193
 10
44.705456
 20
42.020185
 42
-0.127352
 10
42.584856
 20
43.008785
 42
-0.189225
 10
41.597956
 20
45.069085
 42
-0.095444
 10
41.850156
 20
47.637885
 42
-0.130596
 10
44.467856
 20
51.757985
 42
-0.121904
 10
46.289156
 20
52.825485
 42
-0.265995
  0
LWPOLYLINE
  5
34
100
AcDbEntity
  8
2
100
AcDbPolyline
 90
        4
 70
     1
 10
31.697756
 20
61.280785
 10
34.697756
 20
60.980785
 10
32.697756
 20
45.980785
 10
29.485556
 20
46.281885
  0
LWPOLYLINE
  5
35
100
AcDbEntity
  8
2
100
AcDbPolyline
 90
       37
 70
     1
 10
135.260756
 20
39.419585
 42
0.121399
 10
138.707756
 20
44.180785
 42
-0.127646
 10
134.114756
 20
48.157985
 42
-0.144904
 10
132.197756
 20
54.780785
 10
129.197756
 20
76.780785
 10
109.197756
 20
76.780785
 10
109.197756
 20
79.780785
 10
94.197756
 20
79.780785
 10
94.197756
 20
76.780785
 10
49.197756
 20
76.780785
 10
49.197756
 20
79.780785
 10
34.197756
 20
79.780785
 10
34.197756
 20
76.780785
 10
14.197756
 20
76.780785
 42
0.093019
 10
15.774016
 20
72.353785
 42
0.133765
 10
18.589396
 20
69.638385
 42
0.052853
 10
20.489456
 20
68.796985
 42
0.110731
 10
22.824056
 20
68.630085
 42
0.039692
 10
26.282756
 20
69.654485
 42
-0.05849
 10
27.577956
 20
69.972885
 42
-0.558404
 10
28.054356
 20
69.619885
 42
-0.131518
 10
26.942656
 20
67.492685
 42
-0.044405
 10
25.742856
 20
66.499285
 42
0.123717
 10
24.788256
 20
65.451085
 42
0.167491
 10
24.779156
 20
63.248885
 42
0.143897
 10
25.772956
 20
61.800085
 42
0.094058
 10
27.697756
 20
60.780785
 10
23.197756
 20
30.280785
 42
0.152251
 10
23.602756
 20
27.669785
 42
0.186055
 10
26.439856
 20
25.593485
 42
0.105524
 10
29.208656
 20
25.453485
 42
0.086859
 10
33.454356
 20
26.817885
 42
0.021179
 10
37.396656
 20
29.123185
 42
-0.064939
 10
44.873556
 20
32.348285
 42
-0.014021
 10
52.658056
 20
34.313885
 42
-0.055236
 10
72.197756
 20
36.780785
 10
128.197756
 20
36.780785
 42
0.155838
  0
LWPOLYLINE
  5
36
100
AcDbEntity
  8
2
100
AcDbPolyline
 90
        4
 70
     1
 10
4.291192
 20
5.708218
 10
7.491192
 20
8.808218
 10
15.411192
 20
0.708218
 10
12.311192
 20
-2.291782
  0
LWPOLYLINE
  5
37
100
AcDbEntity
  8
2
100
AcDbPolyline
 90
        4
 70
     1
 10
153.161192
 20
35.708218
 10
156.261192
 20
35.708218
 10
156.261192
 20
27.708218
 10
153.161192
 20
27.708218
  0
LWPOLYLINE
  5
38
100
AcDbEntity
  8
2
100
AcDbPolyline
 90
       10
 70
     1
 10
162.193192
 20
8.848618
 42
0.092122
 10
164.410192
 20
7.523418
 42
0.027578
 10
167.011192
 20
6.708218
 42
-0.034472
 10
163.264192
 20
6.403618
 42
-0.061733
 10
161.706192
 20
6.601518
 42
-0.120059
 10
160.526192
 20
7.219718
 42
-0.118628
 10
159.809192
 20
8.351518
 42
-0.075617
 10
159.402192
 20
10.793518
 42
-0.018124
 10
159.421192
 20
13.708218
 42
0.023731
 10
160.615192
 20
11.023418
 42
0.085182
  0
LWPOLYLINE
  5
39
100
AcDbEntity
  8
2
100
AcDbPolyline
 90
        9
 70
     1
 10
148.311192
 20
13.708218
 42
-0.036256
 10
147.362192
 20
9.591418
 42
-0.166732
 10
145.453192
 20
6.758418
 42
-0.100203
 10
143.878192
 20
6.171118
 42
-0.068346
 10
140.878192
 20
6.142718
 42
-0.017254
 10
137.473192
 20
6.655918
 42
0.020126
 10
141.064192
 20
7.508718
 42
0.071602
 10
144.174192
 20
8.858018
 42
0.081679
 10
146.483192
 20
11.034918
 42
0.02614
  0
LWPOLYLINE
  5
3A
100
AcDbEntity
  8
2
100
AcDbPolyline
 90
        4
 70
     1
 10
116.311192
 20
-2.291782
 10
116.311192
 20
0.808218
 10
136.411192
 20
0.808218
 10
136.411192
 20
-2.291782
  0
LWPOLYLINE
  5
3B
100
AcDbEntity
  8
2
100
AcDbPolyline
 90
        4
 70
     1
 10
56.311192
 20
0.808218
 10
76.411192
 20
0.808218
 10
76.411192
 20
-2.291782
 10
56.311192
 20
-2.291782
  0
LWPOLYLINE
  5
3C
100
AcDbEntity
  8
2
100
AcDbPolyline
 90
       78
 70
     1
 10
214.427192
 20
-3.787082
 42
0.120296
 10
217.322192
 20
-4.463582
 42
0.106443
 10
220.715192
 20
-3.646582
 42
0.068421
 10
224.311192
 20
-1.294282
 42
0.097992
 10
226.759192
 20
1.637518
 42
0.206454
 10
226.927192
 20
4.158418
 42
0.102136
 10
225.620192
 20
6.137118
 42
0.070104
 10
223.884192
 20
7.595118
 42
0.111397
 10
221.792192
 20
8.307018
 42
0.167116
 10
216.941192
 20
6.984818
 42
0.193913
 10
214.327192
 20
3.131318
 42
0.092723
 10
212.709192
 20
4.076018
 42
0.036388
 10
209.051192
 20
5.085918
 42
0.033595
 10
193.589192
 20
7.384118
 42
0.019485
 10
185.175192
 20
7.636418
 10
178.296192
 20
7.505918
 42
-0.022905
 10
170.504192
 20
7.615018
 42
0.129674
 10
172.087192
 20
9.809618
 42
0.082368
 10
172.231192
 20
13.208218
 42
-0.029396
 10
170.155192
 20
11.489218
 42
-0.157661
 10
167.581192
 20
10.341418
 42
-0.183254
 10
164.114192
 20
11.686218
 42
-0.156183
 10
161.778192
 20
15.786418
 42
-0.108438
 10
161.756192
 20
21.650918
 10
162.718192
 20
21.021718
 42
0.129554
 10
163.630192
 20
20.749318
 42
0.148158
 10
164.458192
 20
21.071718
 10
165.236192
 20
21.750918
 42
-0.024434
 10
162.687192
 20
26.706818
 42
-0.080867
 10
161.280192
 20
31.823018
 42
-0.07791
 10
161.777192
 20
37.206818
 42
-0.022706
 10
163.416192
 20
42.750918
 42
-0.082355
 10
161.762192
 20
41.181618
 42
-0.106004
 10
159.811192
 20
40.708218
 42
0.074986
 10
159.205192
 20
44.727418
 42
0.113106
 10
157.399192
 20
48.159618
 42
0.211088
 10
154.510192
 20
49.408318
 42
0.198913
 10
151.636192
 20
48.072218
 42
0.112117
 10
149.811192
 20
44.708718
 42
0.078901
 10
149.211192
 20
40.708218
 42
-0.106401
 10
147.743192
 20
41.234418
 42
-0.052737
 10
146.126192
 20
42.750918
 42
-0.022041
 10
147.679192
 20
37.207218
 42
-0.074753
 10
148.137192
 20
31.811418
 42
-0.077207
 10
146.768192
 20
26.662318
 42
-0.023502
 10
144.304192
 20
21.661218
 10
145.272192
 20
21.035518
 42
0.12116
 10
146.181192
 20
20.749718
 42
0.148619
 10
146.993192
 20
21.030418
 10
147.746192
 20
21.650918
 42
-0.194971
 10
145.664192
 20
15.024018
 42
-0.128237
 10
139.076192
 20
10.072818
 42
-0.206271
 10
133.505192
 20
10.306818
 42
-0.130493
 10
129.811192
 20
13.208218
 42
0.217653
 10
130.034192
 20
9.646918
 42
0.061885
 10
131.245192
 20
8.111418
 42
-0.042253
 10
132.320192
 20
6.890118
 42
-0.273351
 10
132.445192
 20
6.006418
 42
-0.170242
 10
131.716192
 20
5.411118
 42
-0.06994
 10
129.048192
 20
4.823318
 42
-0.038233
 10
126.551192
 20
4.708218
 10
33.311192
 20
4.708218
 42
-0.092671
 10
30.376192
 20
2.877118
 42
-0.115786
 10
27.305692
 20
2.362118
 42
-0.142492
 10
24.858392
 20
3.388418
 42
-0.049011
 10
22.783992
 20
5.446618
 42
0.021351
 10
17.869792
 20
10.839718
 42
0.044784
 10
14.290692
 20
13.847618
 42
0.104164
 10
9.919432
 20
15.746918
 42
0.118542
 10
5.047962
 20
15.383418
 42
0.096142
 10
0.516912
 20
12.954118
 42
0.198241
 10
-4.267508
 20
4.332218
 42
0.203066
 10
-1.148578
 20
-4.581582
 42
0.16815
 10
7.311192
 20
-9.291782
 10
168.551192
 20
-9.291782
 42
-0.102643
 10
180.341192
 20
-3.295182
 42
-0.047325
 10
187.093192
 20
-2.198582
 42
-0.02568
 10
194.929192
 20
-2.088982
 42
-0.027479
  0
LWPOLYLINE
  5
3D
100
AcDbEntity
  8
2
100
AcDbPolyline
 90
        4
 70
     1
 10
93.45
 20
167.5
 10
93.45
 20
164.8
 10
96.55
 20
164.8
 10
96.55
 20
167.5
  0
LWPOLYLINE
  5
3E
100
AcDbEntity
  8
2
100
AcDbPolyline
 90
        4
 70
     1
 10
96.55
 20
86.5
 10
96.55
 20
89.2
 10
93.45
 20
89.2
 10
93.45
 20
86.5
  0
LWPOLYLINE
  5
3F
100
AcDbEntity
  8
2
100
AcDbPolyline
 90
        4
 70
     1
 10
36.55
 20
86.5
 10
36.55
 20
89.2
 10
33.45
 20
89.2
 10
33.45
 20
86.5
  0
LWPOLYLINE
  5
40
100
AcDbEntity
  8
2
100
AcDbPolyline
 90
        4
 70
     1
 10
36.55
 20
167.5
 10
36.55
 20
164.8
 10
33.45
 20
164.8
 10
33.45
 20
167.5
  0
LWPOLYLINE
  5
41
100
AcDbEntity
  8
2
100
AcDbPolyline
 90
        4
 70
     1
 10
123.0
 20
134.55
 10
126.2
 20
134.55
 10
126.2
 20
119.45
 10
123.0
 20
119.45
  0
LWPOLYLINE
  5
42
100
AcDbEntity
  8
2
100
AcDbPolyline
 90
        4
 70
     1
 10
95.0
 20
95.3
 10
95.0
 20
98.5
 10
110.1
 20
98.5
 10
110.1
 20
95.3
  0
LWPOLYLINE
  5
43
100
AcDbEntity
  8
2
100
AcDbPolyline
 90
        4
 70
     1
 10
34.8
 20
137.05
 10
38.0
 20
137.05
 10
38.0
 20
116.95
 10
34.8
 20
116.95
  0
LWPOLYLINE
  5
44
100
AcDbEntity
  8
2
100
AcDbPolyline
 90
        4
 70
     1
 10
35.0
 20
95.3
 10
35.0
 20
98.5
 10
50.1
 20
98.5
 10
50.1
 20
95.3
  0
LWPOLYLINE
  5
45
100
AcDbEntity
  8
2
100
AcDbPolyline
 90
        4
 70
     1
 10
35.0
 20
158.7
 10
50.1
 20
158.7
 10
50.1
 20
155.5
 10
35.0
 20
155.5
  0
LWPOLYLINE
  5
46
100
AcDbEntity
  8
2
100
AcDbPolyline
 90
        4
 70
     1
 10
95.0
 20
158.7
 10
110.1
 20
158.7
 10
110.1
 20
155.5
 10
95.0
 20
155.5
  0
LWPOLYLINE
  5
47
100
AcDbEntity
  8
2
100
AcDbPolyline
 90
        6
 70
     1
 10
184.132299
 20
41.62092
 10
183.132299
 20
41.62092
 10
181.332299
 20
46.62092
 10
180.632299
 20
46.62092
 10
180.632299
 20
48.62092
 10
184.132299
 20
48.62092
  0
LWPOLYLINE
  5
48
100
AcDbEntity
  8
2
100
AcDbPolyline
 90
        4
 70
     1
 10
145.829598
 20
80.942759
 10
146.129598
 20
77.892759
 10
143.629598
 20
77.682759
 10
143.329598
 20
80.772759
  0
LWPOLYLINE
  5
49
100
AcDbEntity
  8
2
100
AcDbPolyline
 90
        4
 70
     1
 10
215.329598
 20
80.772759
 10
215.029598
 20
77.682759
 10
212.529598
 20
77.892759
 10
212.829598
 20
80.942759
  0
LWPOLYLINE
  5
4A
100
AcDbEntity
  8
2
100
AcDbPolyline
 90
       19
 70
     1
 10
156.794598
 20
71.790859
 10
154.499598
 20
83.841759
 10
156.810598
 20
83.842759
 42
-0.360457
 10
157.100598
 20
83.639759
 42
0.104823
 10
157.859598
 20
82.773759
 10
158.520598
 20
82.426759
 42
-0.238398
 10
158.907598
 20
82.025759
 42
-0.173234
 10
158.628598
 20
81.403759
 10
158.010598
 20
80.691759
 42
0.041053
 10
157.028598
 20
79.446759
 42
0.145339
 10
156.554598
 20
78.186659
 42
0.110165
 10
156.953598
 20
77.062559
 42
-0.155864
 10
157.140598
 20
76.368159
 10
157.031598
 20
75.420959
 42
0.164862
 10
157.586598
 20
73.878259
 42
0.068798
 10
159.132598
 20
72.656259
 42
-0.155718
 10
159.697598
 20
72.136659
 42
-0.274658
 10
159.611598
 20
71.883259
 10
159.451598
 20
71.798359
  0
LWPOLYLINE
  5
4B
100
AcDbEntity
  8
2
100
AcDbPolyline
 90
       30
 70
     1
 10
173.146598
 20
78.387959
 42
-0.082546
 10
171.173598
 20
77.612159
 42
-0.086955
 10
168.685598
 20
77.399959
 10
167.768598
 20
77.624159
 42
0.139653
 10
167.128598
 20
77.694659
 42
0.186469
 10
166.702598
 20
77.284459
 10
166.404598
 20
76.607859
 10
165.912598
 20
75.325559
 42
-0.212062
 10
165.103598
 20
74.270659
 42
-0.144352
 10
163.038598
 20
74.186559
 42
-0.082474
 10
160.925598
 20
75.057959
 42
-0.182307
 10
159.711598
 20
76.278959
 42
-0.215818
 10
160.043598
 20
77.632659
 42
-0.44133
 10
160.822598
 20
77.866159
 10
161.691598
 20
77.086959
 42
0.204943
 10
162.816598
 20
77.043059
 42
0.282598
 10
163.301598
 20
77.700559
 42
0.243226
 10
163.117598
 20
78.832759
 42
0.095972
 10
162.480598
 20
79.217759
 10
161.690598
 20
79.579759
 42
-0.186918
 10
160.741598
 20
80.595759
 42
-0.335865
 10
161.245598
 20
81.358759
 10
161.760598
 20
81.715759
 42
0.30965
 10
161.900598
 20
82.266759
 42
0.166862
 10
160.251598
 20
83.813759
 10
167.896598
 20
83.826759
 42
0.062157
 10
167.681598
 20
82.147759
 42
0.221268
 10
168.350598
 20
80.745759
 42
0.098815
 10
170.490598
 20
79.802759
 42
0.018582
 10
173.513598
 20
79.135759
 42
-0.39162
  0
LWPOLYLINE
  5
4C
100
AcDbEntity
  8
2
100
AcDbPolyline
 90
       13
 70
     1
 10
167.356598
 20
71.797059
 42
-0.300568
 10
167.064598
 20
72.076159
 42
-0.257702
 10
167.208598
 20
72.284559
 10
167.847598
 20
72.672359
 10
170.813598
 20
74.239759
 10
173.840598
 20
75.857059
 10
175.347598
 20
76.753159
 42
-0.197367
 10
176.244598
 20
76.882959
 42
0.114488
 10
175.959598
 20
76.297859
 42
0.128766
 10
175.635598
 20
74.242159
 42
0.113139
 10
176.625598
 20
72.331359
 10
176.952598
 20
71.925259
 10
176.964598
 20
71.803859
  0
LWPOLYLINE
  5
4D
100
AcDbEntity
  8
2
100
AcDbPolyline
 90
       10
 70
     1
 10
185.551598
 20
83.829759
 42
-0.256294
 10
185.617598
 20
83.265759
 42
-0.196301
 10
185.316598
 20
83.029759
 10
184.273598
 20
82.705759
 42
-0.01122
 10
179.722598
 20
81.627759
 42
-0.022889
 10
176.242598
 20
81.026759
 42
-0.050068
 10
174.380598
 20
80.964759
 42
-0.035762
 10
172.814598
 20
81.193759
 42
-0.223193
 10
171.622598
 20
81.894759
 42
-0.162057
 10
171.355598
 20
83.828759
  0
LWPOLYLINE
  5
4E
100
AcDbEntity
  8
2
100
AcDbPolyline
 90
       13
 70
     1
 10
179.345598
 20
76.820159
 42
-0.223176
 10
180.645598
 20
78.387759
 42
-0.049648
 10
184.114598
 20
80.066759
 42
-0.079668
 10
186.905598
 20
80.649759
 42
-0.126811
 10
187.465598
 20
80.549759
 42
-0.299025
 10
187.594598
 20
80.317759
 42
0.079587
 10
184.549598
 20
77.334259
 42
0.195103
 10
183.750598
 20
74.653159
 42
0.124175
 10
184.880598
 20
71.771659
 10
180.615598
 20
71.769259
 42
0.259715
 10
180.584598
 20
73.403559
 42
0.075983
 10
179.963598
 20
73.944059
 42
-0.125369
 10
179.365598
 20
74.597059
 42
-0.153938
  0
LWPOLYLINE
  5
4F
100
AcDbEntity
  8
2
100
AcDbPolyline
 90
       20
 70
     1
 10
195.521598
 20
75.230459
 42
0.168517
 10
194.557598
 20
73.973959
 42
0.201892
 10
195.112598
 20
72.608359
 42
0.087034
 10
195.953598
 20
71.813759
 10
189.293598
 20
71.809859
 42
0.12618
 10
189.723598
 20
73.563359
 42
0.17796
 10
188.771598
 20
74.743259
 42
-0.186006
 10
187.549598
 20
74.444659
 42
-0.208005
 10
186.734598
 20
75.046259
 42
-0.229729
 10
186.575598
 20
76.058159
 42
-0.207308
 10
187.345598
 20
77.219659
 42
-0.207373
 10
187.877598
 20
77.111659
 10
188.363598
 20
76.822059
 42
0.344349
 10
189.028598
 20
76.976959
 42
0.12629
 10
189.506598
 20
77.673059
 42
-0.055094
 10
189.860598
 20
78.691759
 42
-0.219016
 10
191.093598
 20
79.293759
 42
-0.119519
 10
193.770598
 20
79.155759
 42
-0.15564
 10
195.815598
 20
77.503659
 42
-0.16893
 10
196.398598
 20
75.629059
 42
0.160037
  0
LWPOLYLINE
  5
50
100
AcDbEntity
  8
2
100
AcDbPolyline
 90
       13
 70
     1
 10
201.087598
 20
83.845759
 10
200.590598
 20
75.888659
 42
-0.157227
 10
198.335598
 20
78.419359
 42
-0.057318
 10
197.975598
 20
79.941759
 42
0.054515
 10
197.683598
 20
81.294759
 42
0.229384
 10
196.279598
 20
82.615759
 42
0.305193
 10
195.452598
 20
82.231759
 42
-0.20881
 10
194.529598
 20
81.826759
 42
-0.076802
 10
192.831598
 20
82.098759
 42
-0.044255
 10
191.634598
 20
82.598759
 10
191.251598
 20
82.778759
 10
190.213598
 20
83.194759
 10
189.940598
 20
83.839759
  0
LWPOLYLINE
  5
51
100
AcDbEntity
  8
2
100
AcDbPolyline
 90
        4
 70
     1
 10
221.615248
 20
182.512392
 10
221.315248
 20
179.522392
 10
218.715248
 20
179.812392
 10
219.015248
 20
182.762392
  0
LWPOLYLINE
  5
52
100
AcDbEntity
  8
2
100
AcDbPolyline
 90
        4
 70
     1
 10
150.415248
 20
182.762392
 10
150.715248
 20
179.812392
 10
148.115248
 20
179.522392
 10
147.815248
 20
182.512392
  0
LWPOLYLINE
  5
53
100
AcDbEntity
  8
2
100
AcDbPolyline
 90
       20
 70
     1
 10
184.052248
 20
175.203392
 42
-0.149486
 10
184.317248
 20
176.119392
 10
184.477248
 20
176.460392
 42
0.310299
 10
184.436248
 20
176.699392
 42
0.084086
 10
183.502248
 20
176.954392
 42
-0.146539
 10
182.292248
 20
177.526392
 42
-0.15951
 10
181.749248
 20
178.947392
 42
-0.064232
 10
181.809248
 20
180.686392
 42
-0.120169
 10
182.742248
 20
183.095392
 42
-0.250495
 10
184.072248
 20
183.968392
 42
-0.257159
 10
185.417248
 20
182.992392
 42
-0.283763
 10
185.415248
 20
181.094392
 42
-0.084003
 10
184.594248
 20
180.483392
 42
0.171295
 10
183.948248
 20
179.864392
 42
0.225529
 10
184.182248
 20
178.950392
 42
0.129659
 10
185.157248
 20
178.137392
 10
186.435248
 20
177.732392
 42
-0.289944
 10
187.216248
 20
177.013392
 42
-0.241348
 10
185.791248
 20
174.123392
 42
-0.295845
 10
184.643248
 20
174.245392
 42
-0.202321
  0
LWPOLYLINE
  5
54
100
AcDbEntity
  8
2
100
AcDbPolyline
 90
       24
 70
     1
 10
186.060248
 20
190.858392
 42
-0.140875
 10
185.189248
 20
188.753392
 42
-0.195366
 10
183.631248
 20
187.810392
 42
-0.23342
 10
186.623248
 20
187.510392
 42
-0.311504
 10
187.257248
 20
185.318392
 42
-0.529226
 10
185.813248
 20
184.760392
 42
-0.060941
 10
184.973248
 20
185.646392
 42
0.18692
 10
184.156248
 20
186.256392
 42
0.206096
 10
183.317248
 20
185.684392
 10
182.414248
 20
184.661392
 42
-0.140288
 10
181.532248
 20
184.165392
 42
-0.701393
 10
181.234248
 20
184.529392
 42
-0.041586
 10
181.840248
 20
185.737392
 42
0.155124
 10
182.221248
 20
187.001392
 42
0.246129
 10
181.435248
 20
187.612392
 42
-0.159855
 10
180.745248
 20
187.933392
 42
-0.219793
 10
180.938248
 20
188.170392
 42
0.045282
 10
182.764248
 20
189.481392
 42
0.228003
 10
183.765248
 20
192.207392
 42
0.109512
 10
183.328248
 20
193.161392
 42
-0.142578
 10
183.025248
 20
193.738392
 42
-0.303569
 10
183.472248
 20
194.031392
 42
-0.122116
 10
184.297248
 20
193.970392
 42
-0.179413
 10
185.530248
 20
192.740392
 42
-0.154552
  0
LWPOLYLINE
  5
55
100
AcDbEntity
  8
2
100
AcDbPolyline
 90
       25
 70
     1
 10
196.462248
 20
200.819392
 42
-0.060479
 10
198.705248
 20
199.097392
 10
200.667248
 20
197.140392
 10
201.520248
 20
196.232392
 10
201.654248
 20
196.046392
 42
0.02913
 10
199.465248
 20
196.498392
 42
0.134946
 10
197.670248
 20
196.337392
 42
0.162162
 10
196.532248
 20
195.156392
 42
0.038535
 10
195.787248
 20
193.361392
 42
0.037313
 10
193.596248
 20
194.020392
 42
0.129949
 10
191.475248
 20
193.946392
 42
0.102851
 10
189.468248
 20
192.648392
 42
0.024784
 10
187.531248
 20
190.617392
 42
0.071604
 10
187.169248
 20
193.184392
 42
0.116662
 10
185.944248
 20
194.801392
 42
0.08603
 10
188.728248
 20
196.516392
 42
0.132228
 10
189.788248
 20
198.925392
 42
0.194492
 10
191.336248
 20
196.864392
 42
0.236306
 10
193.478248
 20
196.956392
 42
0.115676
 10
195.388248
 20
198.449392
 42
-0.090427
 10
193.908248
 20
198.374392
 42
-0.140303
 10
192.754248
 20
198.758392
 42
-0.408405
 10
192.803248
 20
199.467392
 42
-0.05695
 10
193.667248
 20
200.335392
 42
-0.105071
 10
194.823248
 20
201.060392
 42
-0.204143
  0
LWPOLYLINE
  5
56
100
AcDbEntity
  8
2
100
AcDbPolyline
 90
       22
 70
     1
 10
202.928248
 20
191.190392
 42
-0.118628
 10
203.691248
 20
186.449392
 42
-0.118875
 10
201.113248
 20
179.737392
 42
-0.123779
 10
200.652248
 20
179.241392
 42
-0.235984
 10
200.132248
 20
179.088392
 42
-0.272279
 10
200.035248
 20
179.670392
 10
200.322248
 20
180.981392
 10
200.759248
 20
182.853392
 42
0.07441
 10
200.861248
 20
184.882392
 42
0.081756
 10
200.285248
 20
186.673392
 10
199.511248
 20
188.119392
 42
-0.093432
 10
199.138248
 20
189.190392
 42
-0.275773
 10
199.426248
 20
189.888392
 42
-0.074735
 10
200.348248
 20
190.279392
 42
0.153153
 10
201.057248
 20
190.649392
 42
0.297216
 10
200.813248
 20
191.233392
 10
200.109248
 20
191.844392
 10
199.621248
 20
192.255392
 42
-0.262202
 10
199.495248
 20
192.522392
 42
-0.246424
 10
200.307248
 20
192.889392
 42
-0.120027
 10
201.899248
 20
192.748392
 42
-0.160574
 10
202.433248
 20
192.277392
 42
-0.047575
  0
LWPOLYLINE
  5
57
100
AcDbEntity
  8
2
100
AcDbPolyline
 90
       14
 70
     1
 10
208.824248
 20
178.769392
 42
-0.075382
 10
208.470248
 20
175.903392
 10
207.528248
 20
172.662392
 42
0.007601
 10
205.665248
 20
165.940392
 10
198.465248
 20
165.940392
 42
0.040073
 10
200.032248
 20
167.707392
 42
0.183348
 10
200.633248
 20
169.524392
 42
0.145656
 10
199.622248
 20
171.424392
 42
0.02898
 10
197.646248
 20
173.375392
 42
0.091663
 10
203.688248
 20
177.712392
 42
0.030133
 10
205.496248
 20
180.107392
 10
206.191248
 20
180.994392
 42
-0.125808
 10
206.847248
 20
181.463392
 42
-0.324375
 10
208.123248
 20
180.864392
 42
-0.140362
  0
LWPOLYLINE
  5
58
100
AcDbEntity
  8
2
100
AcDbPolyline
 90
       35
 70
     1
 10
197.485248
 20
185.810392
 42
-0.068878
 10
197.845248
 20
182.299392
 42
-0.090403
 10
196.965248
 20
178.741392
 10
196.673248
 20
178.443392
 42
0.179919
 10
196.065248
 20
179.301392
 42
0.143815
 10
194.706248
 20
179.686392
 42
0.081903
 10
192.769248
 20
179.410392
 42
0.076768
 10
192.010248
 20
179.048392
 42
0.217675
 10
191.679248
 20
178.564392
 42
0.17555
 10
191.910248
 20
177.979392
 10
192.851248
 20
176.972392
 42
-0.093557
 10
193.658248
 20
175.893392
 42
-0.267145
 10
193.403248
 20
174.511392
 42
-0.105557
 10
192.084248
 20
173.420392
 42
-0.159384
 10
188.752248
 20
172.773392
 42
-0.091777
 10
189.071248
 20
177.263392
 42
-0.071553
 10
189.688248
 20
178.482392
 42
0.100942
 10
190.110248
 20
179.298392
 42
0.147424
 10
189.946248
 20
180.158392
 10
189.455248
 20
180.968392
 10
189.013248
 20
181.564392
 42
-0.149817
 10
188.829248
 20
182.076392
 42
-0.596938
 10
189.689248
 20
182.641392
 42
-0.045933
 10
190.719248
 20
181.984392
 42
0.123383
 10
191.827248
 20
181.468392
 42
0.241439
 10
192.719248
 20
181.937392
 42
0.060766
 10
193.398248
 20
183.050392
 42
0.135125
 10
194.023248
 20
185.322392
 42
0.350931
 10
192.735248
 20
186.518392
 42
0.056206
 10
191.544248
 20
186.499392
 42
-0.050178
 10
190.399248
 20
186.463392
 42
-0.352662
 10
189.338248
 20
187.356392
 42
-0.318018
 10
189.920248
 20
188.287392
 42
-0.19927
 10
193.079248
 20
190.072392
 42
-0.22885
 10
196.153248
 20
188.884392
 42
-0.131022
  0
LWPOLYLINE
  5
59
100
AcDbEntity
  8
2
100
AcDbPolyline
 90
       14
 70
     1
 10
196.221248
 20
170.815392
 42
-0.342721
 10
196.220248
 20
169.780392
 10
194.799248
 20
168.691392
 42
0.172191
 10
193.867248
 20
167.208392
 42
0.26492
 10
194.355248
 20
165.940392
 10
181.215248
 20
165.940392
 10
184.621248
 20
168.514392
 10
185.967248
 20
169.460392
 42
-0.078226
 10
187.300248
 20
170.036392
 42
-0.049577
 10
188.891248
 20
170.215392
 10
190.685248
 20
170.296392
 42
0.059262
 10
193.995248
 20
170.979392
 10
194.889248
 20
171.365392
 42
-0.130039
 10
195.416248
 20
171.517392
 42
-0.222069
  0
LWPOLYLINE
  5
5A
100
AcDbEntity
  8
2
100
AcDbPolyline
 90
       25
 70
     1
 10
178.659248
 20
175.330392
 42
0.152134
 10
181.217248
 20
172.468392
 42
0.126221
 10
184.877248
 20
171.366392
 42
-0.062003
 10
180.620248
 20
168.307392
 42
-0.053586
 10
178.369248
 20
167.315392
 42
-0.13762
 10
176.252248
 20
167.208392
 42
-0.327703
 10
173.810248
 20
170.462392
 42
-0.070942
 10
174.321248
 20
172.924392
 42
0.094943
 10
174.721248
 20
175.401392
 42
0.083504
 10
173.921248
 20
177.635392
 10
173.521248
 20
178.663392
 42
-0.129936
 10
173.494248
 20
179.647392
 42
-0.101005
 10
174.020248
 20
180.603392
 10
175.332248
 20
182.044392
 42
0.112823
 10
176.309248
 20
183.586392
 42
0.162242
 10
176.011248
 20
185.775392
 42
-0.04214
 10
175.374248
 20
187.341392
 42
-0.397696
 10
175.541248
 20
187.620392
 42
-0.130868
 10
176.351248
 20
187.520392
 10
177.419248
 20
187.124392
 10
178.614248
 20
186.577392
 42
-0.119487
 10
179.404248
 20
185.870392
 42
-0.227187
 10
179.528248
 20
183.325392
 10
178.788248
 20
181.575392
 42
0.05641
 10
178.107248
 20
179.570392
 42
0.150836
  0
LWPOLYLINE
  5
5B
100
AcDbEntity
  8
2
100
AcDbPolyline
 90
       26
 70
     1
 10
167.659248
 20
182.302392
 42
-0.065437
 10
169.000248
 20
180.511392
 42
-0.1571
 10
169.432248
 20
178.853392
 42
-0.189296
 10
168.626248
 20
177.731392
 42
0.034875
 10
167.377248
 20
176.715392
 42
0.261203
 10
166.615248
 20
173.700392
 42
0.088453
 10
167.451248
 20
172.076392
 42
0.024102
 10
168.785248
 20
170.452392
 10
171.446248
 20
167.463392
 10
172.885248
 20
165.940392
 10
163.765248
 20
165.940392
 42
-0.017506
 10
162.446248
 20
170.256392
 10
161.046248
 20
175.640392
 42
0.008818
 10
159.441248
 20
181.083392
 10
158.889248
 20
182.915392
 42
-0.142313
 10
158.798248
 20
183.836392
 42
-0.334222
 10
158.995248
 20
183.922392
 42
-0.08876
 10
160.455248
 20
183.066392
 42
0.033397
 10
163.406248
 20
181.129392
 42
0.07578
 10
164.540248
 20
180.726392
 42
0.336375
 10
165.054248
 20
180.851392
 42
0.16407
 10
164.844248
 20
181.437392
 10
164.379248
 20
182.395392
 42
-0.107884
 10
164.219248
 20
183.512392
 42
-0.378169
 10
164.718248
 20
184.125392
 42
-0.147842
 10
166.023248
 20
183.653392
 42
-0.060415
  0
LWPOLYLINE
  5
5C
100
AcDbEntity
  8
2
100
AcDbPolyline
 90
       19
 70
     1
 10
167.322248
 20
195.054392
 42
0.037653
 10
169.524248
 20
190.824392
 10
171.773248
 20
187.302392
 10
172.898248
 20
185.572392
 10
172.901248
 20
185.500392
 10
172.830248
 20
185.300392
 42
-0.220187
 10
172.062248
 20
184.574392
 42
-0.259687
 10
169.522248
 20
185.034392
 42
-0.071271
 10
167.804248
 20
186.768392
 42
-0.035682
 10
165.973248
 20
189.549392
 42
-0.039984
 10
164.283248
 20
193.080392
 42
-0.085302
 10
163.499248
 20
196.765392
 42
-0.100501
 10
164.170248
 20
199.996392
 42
-0.045687
 10
165.473248
 20
202.413392
 42
-0.035467
 10
166.437248
 20
203.762392
 10
166.719248
 20
204.004392
 42
-0.510309
 10
166.870248
 20
203.949392
 42
-0.091202
 10
166.828248
 20
202.979392
 10
166.564248
 20
201.095392
 42
0.138251
  0
LWPOLYLINE
  5
5D
100
AcDbEntity
  8
2
100
AcDbPolyline
 90
       16
 70
     1
 10
177.284248
 20
195.733392
 42
0.064865
 10
178.825248
 20
194.507392
 10
180.282248
 20
193.637392
 42
-0.071052
 10
181.235248
 20
192.855392
 42
-0.152612
 10
181.606248
 20
192.100392
 42
-0.222126
 10
180.930248
 20
190.729392
 42
-0.169198
 10
179.237248
 20
189.893392
 42
-0.15213
 10
175.865248
 20
190.434392
 42
-0.09322
 10
171.647248
 20
193.757392
 42
-0.036982
 10
169.952248
 20
195.922392
 42
-0.089103
 10
169.169248
 20
197.487392
 42
-0.316182
 10
169.271248
 20
197.802392
 42
-0.141536
 10
169.950248
 20
197.855392
 10
171.036248
 20
197.795392
 42
0.095064
 10
174.141248
 20
198.610392
 42
0.193608
 10
175.420248
 20
199.716392
 42
0.141979
  0
LWPOLYLINE
  5
5E
100
AcDbEntity
  8
2
100
AcDbPolyline
 90
       19
 70
     1
 10
182.382248
 20
202.718392
 42
0.35795
 10
183.904248
 20
200.870392
 42
0.12444
 10
185.003248
 20
201.041392
 42
-0.054086
 10
186.076248
 20
201.362392
 42
-0.428758
 10
187.591248
 20
200.345392
 42
-0.137927
 10
187.260248
 20
199.009392
 42
-0.078135
 10
186.162248
 20
197.524392
 42
-0.109343
 10
184.460248
 20
196.385392
 42
-0.166219
 10
182.170248
 20
196.344392
 42
-0.107311
 10
179.515248
 20
197.937392
 42
-0.127309
 10
177.699248
 20
200.566392
 42
-0.154912
 10
177.753248
 20
203.411392
 42
-0.084134
 10
179.043248
 20
205.869392
 42
-0.124892
 10
182.359248
 20
208.571392
 42
-0.090249
 10
185.660248
 20
209.540392
 42
-0.305066
 10
185.803248
 20
207.905392
 42
-0.066918
 10
185.072248
 20
206.965392
 10
183.993248
 20
205.801392
 42
0.047031
 10
182.903248
 20
204.288392
 42
0.121171
  0
LWPOLYLINE
  5
5F
100
AcDbEntity
  8
2
100
AcDbPolyline
 90
       15
 70
     1
 10
204.588248
 20
197.241392
 10
204.294248
 20
196.942392
 42
0.115382
 10
201.102248
 20
201.505392
 42
0.065874
 10
198.625248
 20
203.290392
 42
0.130525
 10
195.857248
 20
203.992392
 42
0.09131
 10
193.163248
 20
203.222392
 42
-0.064895
 10
191.000248
 20
202.419392
 42
-0.303422
 10
189.710248
 20
203.056392
 42
-0.095094
 10
189.075248
 20
204.897392
 42
-0.101684
 10
189.008248
 20
207.166392
 42
-0.310691
 10
190.497248
 20
208.630392
 42
-0.111734
 10
194.219248
 20
208.280392
 42
-0.066929
 10
198.524248
 20
206.458392
 42
-0.134701
 10
203.443248
 20
201.197392
 42
-0.055929
 10
204.360248
 20
199.050392
 42
-0.078091
  0
LWPOLYLINE
  5
60
100
AcDbEntity
  8
2
100
AcDbPolyline
 90
       19
 70
     1
 10
193.142248
 20
212.752392
 42
-0.157424
 10
193.534248
 20
212.376392
 42
-0.230483
 10
193.142248
 20
212.153392
 42
0.093695
 10
186.414248
 20
212.210392
 42
0.081731
 10
179.090248
 20
209.825392
 42
0.159307
 10
175.315248
 20
205.935392
 42
0.17524
 10
174.862248
 20
202.017392
 42
0.105771
 10
174.288248
 20
203.591392
 42
0.142209
 10
173.200248
 20
204.642392
 42
0.509203
 10
171.377248
 20
203.804392
 42
0.162534
 10
171.796248
 20
202.498392
 42
0.11371
 10
172.901248
 20
201.416392
 42
-0.327869
 10
171.222248
 20
201.039392
 42
-0.237151
 10
169.005248
 20
203.120392
 42
-0.134568
 10
168.936248
 20
205.199392
 42
-0.102768
 10
170.110248
 20
207.721392
 42
-0.142773
 10
176.782248
 20
212.531392
 42
-0.083947
 10
186.780248
 20
214.272392
 42
-0.061708
 10
190.452248
 20
213.889392
 42
-0.080694
  0
LWPOLYLINE
  5
61
100
AcDbEntity
  8
2
100
AcDbPolyline
 90
       18
 70
     1
 10
201.782248
 20
218.359392
 42
-0.451897
 10
201.472248
 20
217.113392
 10
200.420248
 20
216.543392
 42
0.198688
 10
199.566248
 20
215.453392
 42
0.079562
 10
199.550248
 20
213.504392
 42
-0.090628
 10
199.564248
 20
211.942392
 42
-0.363896
 10
199.251248
 20
211.767392
 42
-0.120584
 10
198.382248
 20
212.230392
 10
197.221248
 20
213.252392
 10
195.442248
 20
214.909392
 42
0.078956
 10
193.180248
 20
216.301392
 42
0.049951
 10
190.348248
 20
217.018392
 42
-0.036494
 10
187.860248
 20
217.552392
 42
-0.172843
 10
186.608248
 20
218.451392
 42
-0.173689
 10
186.388248
 20
219.568392
 42
-0.142072
 10
187.269248
 20
221.366392
 42
-0.289712
 10
187.976248
 20
221.765392
 42
-0.034545
 10
194.140248
 20
220.764392
 42
-0.020981
  0
LWPOLYLINE
  5
62
100
AcDbEntity
  8
2
100
AcDbPolyline
 90
       32
 70
     1
 10
164.606248
 20
217.400392
 42
-0.325129
 10
164.745248
 20
216.909392
 10
164.657248
 20
215.747392
 42
0.069663
 10
164.765248
 20
214.151392
 42
0.158194
 10
165.633248
 20
212.636392
 42
0.123498
 10
167.612248
 20
211.719392
 42
0.096473
 10
170.069248
 20
211.656392
 42
0.060736
 10
166.396248
 20
208.634392
 10
165.032248
 20
207.036392
 42
-0.118429
 10
163.722248
 20
206.000392
 42
-0.098474
 10
162.225248
 20
205.872392
 42
0.133766
 10
160.812248
 20
205.671392
 42
0.175685
 10
159.903248
 20
204.525392
 42
0.277135
 10
159.997248
 20
203.335392
 42
0.182499
 10
161.264248
 20
203.051392
 10
162.469248
 20
203.065392
 42
-0.439675
 10
162.606248
 20
202.888392
 42
-0.075373
 10
162.303248
 20
202.243392
 10
161.749248
 20
201.075392
 42
0.047632
 10
160.789248
 20
196.538392
 42
0.081424
 10
160.733248
 20
193.466392
 10
161.021248
 20
191.118392
 42
-0.101646
 10
161.008248
 20
189.483392
 42
-0.539992
 10
160.725248
 20
189.496392
 42
-0.095704
 10
159.344248
 20
192.040392
 42
-0.052057
 10
158.228248
 20
196.980392
 10
157.523248
 20
202.489392
 42
-0.01845
 10
157.255248
 20
205.423392
 42
-0.053082
 10
157.410248
 20
208.410392
 42
-0.115628
 10
159.687248
 20
213.730392
 42
-0.090789
 10
162.779248
 20
216.376392
 10
163.938248
 20
217.138392
 42
-0.157131
  0
LWPOLYLINE
  5
63
100
AcDbEntity
  8
2
100
AcDbPolyline
 90
       23
 70
     1
 10
172.517248
 20
220.064392
 42
-0.020708
 10
176.072248
 20
220.905392
 42
-0.016221
 10
179.691248
 20
221.556392
 42
-0.028583
 10
182.477248
 20
221.764392
 42
-0.08431
 10
183.626248
 20
221.663392
 42
-0.20769
 10
184.525248
 20
220.847392
 42
-0.129689
 10
185.052248
 20
217.222392
 42
-0.373575
 10
184.480248
 20
216.611392
 42
-0.03982
 10
183.190248
 20
216.679392
 42
0.059764
 10
177.933248
 20
216.276392
 42
0.012674
 10
170.654248
 20
214.653392
 42
-0.043868
 10
169.043248
 20
214.360392
 42
-0.290769
 10
168.524248
 20
214.591392
 42
-0.089778
 10
168.230248
 20
215.186392
 42
-0.261897
 10
168.302248
 20
215.749392
 42
-0.152891
 10
168.974248
 20
215.962392
 10
169.858248
 20
216.086392
 42
0.166642
 10
170.457248
 20
216.439392
 42
0.311208
 10
170.477248
 20
217.007392
 42
0.078645
 10
169.851248
 20
217.681392
 10
169.211248
 20
218.290392
 42
-0.429641
 10
169.207248
 20
218.713392
 42
-0.084686
 10
169.855248
 20
219.087392
 42
-0.032487
  0
LWPOLYLINE
  5
64
100
AcDbEntity
  8
2
100
AcDbPolyline
 90
        4
 70
     1
 10
191.830248
 20
231.462392
 42
-0.357859
 10
191.189248
 20
230.678392
 42
-0.33628
 10
190.460248
 20
231.467392
 42
-0.391159
 10
191.184248
 20
232.042392
 42
-0.415736
  0
LWPOLYLINE
  5
65
100
AcDbEntity
  8
2
100
AcDbPolyline
 90
        5
 70
     1
 10
184.230248
 20
232.575392
 42
0.076855
 10
184.715248
 20
234.076392
 42
0.076855
 10
185.200248
 20
232.575392
 42
0.090174
 10
186.215248
 20
231.533392
 10
183.215248
 20
231.533392
 42
0.090174
  0
LWPOLYLINE
  5
66
100
AcDbEntity
  8
2
100
AcDbPolyline
 90
       10
 70
     1
 10
184.715248
 20
229.499392
 42
-0.075742
 10
187.465248
 20
229.023392
 42
-0.022702
 10
190.215248
 20
227.974392
 42
0.123094
 10
186.114248
 20
227.224392
 42
0.100053
 10
185.153248
 20
226.386392
 42
-0.152968
 10
184.715248
 20
225.940392
 42
-0.152963
 10
184.278248
 20
226.386392
 42
0.100054
 10
183.317248
 20
227.224392
 42
0.123095
 10
179.215248
 20
227.974392
 42
-0.022702
 10
181.965248
 20
229.023392
 42
-0.075742
  0
LWPOLYLINE
  5
67
100
AcDbEntity
  8
2
100
AcDbPolyline
 90
       35
 70
     1
 10
206.109248
 20
215.253392
 42
-0.188818
 10
206.693248
 20
215.080392
 42
-0.09115
 10
208.013248
 20
213.783392
 42
-0.0726
 10
209.329248
 20
211.300392
 42
-0.059315
 10
210.336248
 20
206.350392
 42
-0.021447
 10
210.658248
 20
200.127392
 42
-0.013026
 10
210.614248
 20
193.791392
 10
210.463248
 20
191.468392
 42
-0.081168
 10
210.215248
 20
190.271392
 42
-0.500841
 10
210.053248
 20
190.208392
 42
-0.12645
 10
209.719248
 20
190.850392
 42
-0.018827
 10
208.540248
 20
195.653392
 42
0.02188
 10
207.044248
 20
201.085392
 10
206.627248
 20
202.543392
 42
-0.137934
 10
206.691248
 20
203.671392
 42
-0.059619
 10
207.321248
 20
204.777392
 42
0.072692
 10
207.848248
 20
205.704392
 42
0.355425
 10
207.642248
 20
206.238392
 42
0.138679
 10
206.975248
 20
206.396392
 42
0.100625
 10
205.719248
 20
206.053392
 42
-0.156087
 10
205.168248
 20
205.895392
 10
204.974248
 20
206.064392
 10
204.573248
 20
206.654392
 42
-0.04413
 10
202.960248
 20
209.559392
 42
-0.080416
 10
202.005248
 20
213.221392
 42
-0.106274
 10
202.168248
 20
214.417392
 42
-0.272773
 10
202.986248
 20
215.117392
 42
-0.167488
 10
203.989248
 20
214.910392
 42
-0.324904
 10
204.685248
 20
213.502392
 10
204.403248
 20
212.293392
 42
0.210932
 10
204.407248
 20
211.376392
 42
0.314298
 10
205.253248
 20
211.378392
 42
0.227376
 10
206.035248
 20
212.402392
 42
0.077592
 10
205.959248
 20
214.154392
 10
205.908248
 20
214.888392
 42
-0.32661
  0
LWPOLYLINE
  5
68
100
AcDbEntity
  8
2
100
AcDbPolyline
 90
        6
 70
     1
 10
185.04419
 20
27.818609
 10
184.04419
 20
27.818609
 10
182.24419
 20
32.818609
 10
181.54419
 20
32.818609
 10
181.54419
 20
34.818609
 10
185.04419
 20
34.818609
  0
LWPOLYLINE
  5
69
100
AcDbEntity
  8
2
100
AcDbPolyline
 90
        6
 70
     1
 10
194.611581
 20
27.695159
 10
193.611581
 20
27.695159
 10
191.811581
 20
32.695159
 10
191.111581
 20
32.695159
 10
191.111581
 20
34.695159
 10
194.611581
 20
34.695159
  0
LWPOLYLINE
  5
6A
100
AcDbEntity
  8
2
100
AcDbPolyline
 90
        6
 70
     1
 10
193.94659
 20
41.49747
 10
192.94659
 20
41.49747
 10
191.14659
 20
46.49747
 10
190.44659
 20
46.49747
 10
190.44659
 20
48.49747
 10
193.94659
 20
48.49747
  0
LWPOLYLINE
  5
6B
100
AcDbEntity
  8
2
100
AcDbPolyline
 90
        6
 70
     1
 10
204.672771
 20
27.509984
 10
203.672771
 20
27.509984
 10
201.872771
 20
32.509984
 10
201.172771
 20
32.509984
 10
201.172771
 20
34.509984
 10
204.672771
 20
34.509984
  0
LWPOLYLINE
  5
6C
100
AcDbEntity
  8
2
100
AcDbPolyline
 90
        6
 70
     1
 10
203.946055
 20
41.188844
 10
202.946055
 20
41.188844
 10
201.146055
 20
46.188844
 10
200.446055
 20
46.188844
 10
200.446055
 20
48.188844
 10
203.946055
 20
48.188844
  0
LWPOLYLINE
  5
6D
100
AcDbEntity
  8
2
100
AcDbPolyline
 90
        6
 70
     1
 10
214.72697
 20
27.380023
 10
213.72697
 20
27.380023
 10
211.92697
 20
32.380023
 10
211.22697
 20
32.380023
 10
211.22697
 20
34.380023
 10
214.72697
 20
34.380023
  0
LWPOLYLINE
  5
6E
100
AcDbEntity
  8
2
100
AcDbPolyline
 90
        6
 70
     1
 10
214.425578
 20
41.093363
 10
213.425578
 20
41.093363
 10
211.625578
 20
46.093363
 10
210.925578
 20
46.093363
 10
210.925578
 20
48.093363
 10
214.425578
 20
48.093363
  0
LWPOLYLINE
  5
6F
100
AcDbEntity
  8
0
100
AcDbPolyline
 90
       35
 70
     1
 10
201.726
 20
126.6
 42
-0.095728
 10
201.484
 20
127.645
 42
-0.173837
 10
201.726
 20
128.4
 42
-0.171995
 10
202.726
 20
128.94
 42
0.097864
 10
213.726
 20
128.0
 10
213.726
 20
132.6
 10
216.826
 20
132.6
 10
216.826
 20
129.6
 10
219.726
 20
129.6
 10
219.726
 20
134.593934
 42
0.414214
 10
217.719934
 20
136.6
 10
213.726
 20
136.6
 10
213.726
 20
139.6
 10
197.726
 20
136.4
 42
-0.186798
 10
196.226
 20
137.1
 42
-0.178336
 10
195.726
 20
138.6
 42
-0.08481
 10
188.726
 20
137.6
 42
-0.125271
 10
178.726
 20
140.6
 42
-0.125271
 10
168.726
 20
137.6
 42
-0.08481
 10
161.726
 20
138.6
 42
-0.178336
 10
161.226
 20
137.1
 42
-0.186798
 10
159.726
 20
136.4
 10
143.726
 20
139.6
 10
143.726
 20
136.6
 10
139.732065
 20
136.6
 42
0.414214
 10
137.726
 20
134.593934
 10
137.726
 20
129.6
 10
140.626
 20
129.6
 10
140.626
 20
132.6
 10
143.726
 20
132.6
 10
143.726
 20
128.0
 42
0.119208
 10
154.726
 20
129.169998
 42
-0.16432
 10
155.726
 20
128.4
 42
-0.235814
 10
155.726
 20
126.6
 42
-0.103843
 10
178.726
 20
131.6
 42
-0.103843
  0
LWPOLYLINE
  5
70
100
AcDbEntity
  8
0
100
AcDbPolyline
 90
       56
 70
     1
 10
130.0
 20
92.0
 10
130.0
 20
162.0
 10
105.0
 20
162.0
 10
105.0
 20
166.993934
 42
0.414214
 10
102.993934
 20
169.0
 10
87.006065
 20
169.0
 42
0.414214
 10
85.0
 20
166.993934
 10
85.0
 20
162.0
 10
45.0
 20
162.0
 10
45.0
 20
166.993934
 42
0.414214
 10
42.993934
 20
169.0
 10
27.006065
 20
169.0
 42
0.414214
 10
25.0
 20
166.993934
 10
25.0
 20
162.0
 10
13.63
 20
162.0
 42
0.017549
 10
8.57785
 20
160.244
 42
0.046065
 10
3.46823
 20
157.673
 42
0.035442
 10
-1.73715
 20
153.744
 42
0.010001
 10
-7.0
 20
149.0
 42
0.119155
 10
-3.69458
 20
144.303
 42
0.153894
 10
1.06339
 20
142.028
 42
0.088006
 10
3.52478
 20
142.243
 42
0.062886
 10
7.14956
 20
143.79
 10
10.6855
 20
145.829
 42
-0.037653
 10
12.9963
 20
146.918
 42
-0.136277
 10
16.472
 20
147.32
 42
-0.153236
 10
20.0845
 20
145.25
 42
-0.056202
 10
22.5686
 20
142.071
 42
-0.063147
 10
25.7039
 20
135.235
 42
-0.077231
 10
27.0027
 20
127.184
 42
-0.101009
 10
24.695
 20
116.889
 42
-0.089532
 10
19.92
 20
109.555
 42
-0.077123
 10
17.4896
 20
107.713
 42
-0.14868
 10
14.013
 20
107.025
 42
-0.090043
 10
10.595
 20
108.103
 10
5.91283
 20
110.702
 42
0.04757
 10
3.50354
 20
111.695
 42
0.090374
 10
1.04933
 20
111.982
 42
0.160096
 10
-3.71611
 20
109.741
 42
0.12147
 10
-7.0
 20
105.0
 42
0.012681
 10
-1.74509
 20
100.173
 42
0.043278
 10
3.64351
 20
96.2068
 42
0.0511
 10
9.25491
 20
93.6734
 42
0.018029
 10
15.0
 20
92.0
 10
25.0
 20
92.0
 10
25.0
 20
87.006065
 42
0.414214
 10
27.006065
 20
85.0
 10
42.993934
 20
85.0
 42
0.414214
 10
45.0
 20
87.006065
 10
45.0
 20
92.0
 10
85.0
 20
92.0
 10
85.0
 20
87.006065
 42
0.414214
 10
87.006065
 20
85.0
 10
102.993934
 20
85.0
 42
0.414214
 10
105.0
 20
87.006065
 10
105.0
 20
92.0
  0
LWPOLYLINE
  5
71
100
AcDbEntity
  8
0
100
AcDbPolyline
 90
       37
 70
     1
 10
206.948598
 20
95.237759
 42
0.073596
 10
204.545598
 20
94.890759
 42
0.087734
 10
202.870598
 20
94.140759
 42
0.433924
 10
202.683598
 20
93.451759
 10
203.191598
 20
92.763759
 42
-0.292877
 10
203.171598
 20
91.184759
 42
-0.237741
 10
201.689598
 20
90.442759
 10
194.689598
 20
90.442759
 10
191.689598
 20
88.442759
 10
166.689598
 20
88.442759
 10
163.689598
 20
90.442759
 10
156.689598
 20
90.442759
 42
-0.24072
 10
155.197598
 20
91.154759
 42
-0.289158
 10
155.163598
 20
92.719759
 10
155.640598
 20
93.386759
 42
0.42127
 10
155.431598
 20
94.064759
 42
0.138748
 10
151.440598
 20
95.206759
 42
0.242175
 10
147.939598
 20
93.442759
 10
148.829598
 20
84.442759
 10
143.886117
 20
84.089653
 42
0.422256
 10
142.032739
 20
81.891031
 10
142.634532
 20
75.812918
 42
0.410358
 10
144.802157
 20
74.011835
 10
149.829598
 20
74.442759
 10
150.829598
 20
64.442759
 10
171.829598
 20
64.442759
 10
171.829598
 20
61.442759
 10
186.829598
 20
61.442759
 10
186.829598
 20
64.442759
 10
207.829598
 20
64.442759
 10
208.829598
 20
74.442759
 10
213.858971
 20
74.011669
 42
0.410071
 10
216.026401
 20
75.810795
 10
216.627139
 20
81.818175
 42
0.418368
 10
214.80235
 20
84.016523
 10
209.829598
 20
84.442759
 10
210.708598
 20
93.439759
 42
0.223596
  0
LWPOLYLINE
  5
72
100
AcDbEntity
  8
0
100
AcDbPolyline
 90
      109
 70
     1
 10
214.715248
 20
173.762392
 10
219.693141
 20
173.193489
 42
0.418453
 10
221.917098
 20
174.987627
 10
223.017759
 20
186.030925
 42
0.412049
 10
221.235297
 20
188.224529
 10
216.215248
 20
188.762392
 10
218.215248
 20
208.652392
 42
0.042191
 10
217.656248
 20
212.645392
 42
0.119944
 10
215.765248
 20
216.332392
 42
0.076545
 10
211.656248
 20
219.509392
 42
0.018128
 10
206.215248
 20
222.381392
 42
0.134188
 10
205.707248
 20
224.314392
 42
0.214182
 10
204.444248
 20
225.421392
 42
0.143413
 10
203.707248
 20
225.300392
 42
0.037381
 10
202.453248
 20
224.561392
 42
-0.067315
 10
200.895248
 20
223.795392
 42
-0.1269
 10
198.351248
 20
223.714392
 42
-0.166741
 10
196.183248
 20
224.961392
 42
-0.151905
 10
195.308248
 20
227.435392
 42
-0.091456
 10
195.637248
 20
230.274392
 42
-0.205753
 10
198.625248
 20
234.032392
 42
-0.22597
 10
202.715248
 20
234.076392
 42
0.220309
 10
201.638248
 20
236.589392
 42
0.228783
 10
198.617248
 20
237.518392
 42
0.094839
 10
196.895248
 20
236.811392
 42
0.046189
 10
195.297248
 20
235.575392
 10
194.014248
 20
234.323392
 10
193.579248
 20
233.945392
 42
-0.333359
 10
193.334248
 20
233.883392
 42
-0.16579
 10
193.453248
 20
234.825392
 42
-0.040192
 10
194.083248
 20
236.368392
 10
194.814248
 20
237.644392
 42
0.104471
 10
195.232248
 20
238.773392
 42
0.349815
 10
194.070248
 20
240.737392
 42
0.25518
 10
191.340248
 20
239.826392
 42
0.143154
 10
190.794248
 20
238.575392
 42
0.038538
 10
190.715248
 20
237.091392
 10
190.646248
 20
235.614392
 42
-0.167464
 10
190.261248
 20
234.621392
 42
-0.412523
 10
188.762248
 20
234.981392
 42
-0.216187
 10
188.771248
 20
235.736392
 10
189.193248
 20
236.579392
 42
0.153621
 10
189.712248
 20
238.166392
 42
0.35084
 10
188.608248
 20
239.176392
 10
187.612248
 20
239.130392
 10
187.221248
 20
239.163392
 42
-0.296545
 10
187.030248
 20
239.377392
 42
-0.0986
 10
187.319248
 20
240.497392
 42
0.062494
 10
187.719248
 20
241.910392
 42
0.184206
 10
187.418248
 20
242.958392
 10
186.611248
 20
243.843392
 10
185.678248
 20
244.787392
 42
0.175933
 10
184.715248
 20
245.262392
 42
0.175951
 10
183.752248
 20
244.788392
 10
182.819248
 20
243.843392
 10
182.013248
 20
242.958392
 42
0.184127
 10
181.712248
 20
241.909392
 42
0.062447
 10
182.111248
 20
240.497392
 42
-0.098641
 10
182.400248
 20
239.377392
 42
-0.296468
 10
182.209248
 20
239.163392
 10
180.822248
 20
239.175392
 42
0.350846
 10
179.718248
 20
238.166392
 42
0.153619
 10
180.237248
 20
236.579392
 10
180.659248
 20
235.736392
 42
-0.21619
 10
180.668248
 20
234.981392
 42
-0.412528
 10
179.170248
 20
234.621392
 42
-0.167466
 10
178.784248
 20
235.614392
 10
178.715248
 20
237.091392
 42
0.038569
 10
178.636248
 20
238.575392
 42
0.14314
 10
178.090248
 20
239.826392
 42
0.255166
 10
175.360248
 20
240.737392
 42
0.349813
 10
174.199248
 20
238.773392
 42
0.104471
 10
174.616248
 20
237.644392
 10
175.347248
 20
236.368392
 42
-0.040193
 10
175.977248
 20
234.825392
 42
-0.165795
 10
176.096248
 20
233.883392
 42
-0.333359
 10
175.851248
 20
233.945392
 10
174.133248
 20
235.575392
 42
0.046183
 10
172.535248
 20
236.811392
 42
0.094836
 10
170.813248
 20
237.518392
 42
0.228796
 10
167.792248
 20
236.590392
 42
0.220358
 10
166.715248
 20
234.076392
 42
-0.22596
 10
170.805248
 20
234.032392
 42
-0.205759
 10
173.794248
 20
230.274392
 42
-0.091464
 10
174.122248
 20
227.435392
 42
-0.151901
 10
173.247248
 20
224.961392
 42
-0.166738
 10
171.079248
 20
223.714392
 42
-0.126901
 10
168.535248
 20
223.795392
 42
-0.06966
 10
166.532248
 20
224.846392
 10
165.723248
 20
225.300392
 42
0.143413
 10
164.986248
 20
225.421392
 42
0.214182
 10
163.723248
 20
224.314392
 42
0.134188
 10
163.215248
 20
222.381392
 42
0.018128
 10
157.774248
 20
219.509392
 42
0.076545
 10
153.665248
 20
216.332392
 42
0.119944
 10
151.774248
 20
212.645392
 42
0.042191
 10
151.215248
 20
208.652392
 10
153.215248
 20
188.762392
 10
148.180777
 20
188.187023
 42
0.410141
 10
146.412488
 20
185.993925
 10
147.513292
 20
175.007903
 42
0.417055
 10
149.728707
 20
173.213872
 10
154.715248
 20
173.762392
 10
156.215248
 20
158.31339
 10
174.715248
 20
158.31339
 10
174.715248
 20
155.262392
 10
194.715248
 20
155.262392
 10
194.715248
 20
158.31339
 10
213.215248
 20
158.31339
  0
LWPOLYLINE
  5
73
100
AcDbEntity
  8
0
100
AcDbPolyline
 90
       35
 70
     1
 10
202.645776
 20
106.364936
 42
-0.095728
 10
202.403776
 20
107.409936
 42
-0.173837
 10
202.645776
 20
108.164936
 42
-0.171995
 10
203.645776
 20
108.704936
 42
0.097864
 10
214.645776
 20
107.764936
 10
214.645776
 20
112.364936
 10
217.745776
 20
112.364936
 10
217.745776
 20
109.364936
 10
220.645776
 20
109.364936
 10
220.645776
 20
114.35887
 42
0.414214
 10
218.63971
 20
116.364936
 10
214.645776
 20
116.364936
 10
214.645776
 20
119.364936
 10
198.645776
 20
116.164936
 42
-0.186798
 10
197.145776
 20
116.864936
 42
-0.178336
 10
196.645776
 20
118.364936
 42
-0.08481
 10
189.645776
 20
117.364936
 42
-0.125271
 10
179.645776
 20
120.364936
 42
-0.125271
 10
169.645776
 20
117.364936
 42
-0.08481
 10
162.645776
 20
118.364936
 42
-0.178336
 10
162.145776
 20
116.864936
 42
-0.186798
 10
160.645776
 20
116.164936
 10
144.645776
 20
119.364936
 10
144.645776
 20
116.364936
 10
140.651841
 20
116.364936
 42
0.414214
 10
138.645776
 20
114.35887
 10
138.645776
 20
109.364936
 10
141.545776
 20
109.364936
 10
141.545776
 20
112.364936
 10
144.645776
 20
112.364936
 10
144.645776
 20
107.764936
 42
0.119208
 10
155.645776
 20
108.934934
 42
-0.16432
 10
156.645776
 20
108.164936
 42
-0.235814
 10
156.645776
 20
106.364936
 42
-0.103843
 10
179.645776
 20
111.364936
 42
-0.103843
  0
LWPOLYLINE
  5
74
100
AcDbEntity
  8
2
100
AcDbPolyline
 90
        8
 70
     1
 10
120.575565
 20
216.684548
 42
-0.116532
 10
122.627228
 20
215.535668
 42
-0.131078
 10
123.992662
 20
213.27158
 42
0.071912
 10
120.090312
 20
210.28254
 42
0.114654
 10
116.096752
 20
203.542219
 42
0.078951
 10
115.692983
 20
207.564077
 42
0.126483
 10
111.987858
 20
213.610055
 42
0.089184
 10
107.43566
 20
216.73432
  0
LWPOLYLINE
  5
75
100
AcDbEntity
  8
2
100
AcDbPolyline
 90
        4
 70
     1
 10
119.478225
 20
190.98852
 10
122.477067
 20
190.677159
 10
123.884936
 20
200.671898
 10
120.886093
 20
200.983259
  0
LWPOLYLINE
  5
76
100
AcDbEntity
  8
2
100
AcDbPolyline
 90
        5
 70
     1
 10
115.465754
 20
187.703695
 10
115.51064
 20
199.55361
 42
-0.069413
 10
113.968848
 20
194.859517
 42
-0.082256
 10
111.316886
 20
191.178535
 42
-0.107565
 10
105.775823
 20
187.740399
  0
LWPOLYLINE
  5
77
100
AcDbEntity
  8
2
100
AcDbPolyline
 90
       18
 70
     1
 10
100.511835
 20
210.1673
 42
-0.041999
 10
101.541281
 20
208.989492
 42
-0.154482
 10
102.056654
 20
207.502929
 10
101.906627
 20
206.308189
 42
0.207403
 10
102.028625
 20
205.38342
 42
0.163531
 10
102.730137
 20
205.01546
 42
0.07922
 10
103.870384
 20
204.999441
 42
0.068223
 10
105.177936
 20
203.479577
 42
0.228822
 10
106.209027
 20
203.105569
 42
0.21653
 10
107.005889
 20
204.123658
 42
0.059923
 10
107.460742
 20
205.931848
 42
0.112125
 10
107.238391
 20
208.479708
 42
0.05551
 10
106.172894
 20
210.72646
 42
0.047066
 10
104.980034
 20
212.455291
 42
0.115936
 10
103.426909
 20
213.639783
 42
0.108806
 10
101.455373
 20
213.924353
 42
0.055028
 10
99.436563
 20
213.582297
 42
0.101246
 10
96.528911
 20
212.0693
 42
-0.166684
  0
LWPOLYLINE
  5
78
100
AcDbEntity
  8
2
100
AcDbPolyline
 90
       28
 70
     1
 10
108.714349
 20
211.369938
 42
-0.078991
 10
109.791896
 20
208.608137
 42
-0.049438
 10
110.217722
 20
205.921405
 42
-0.087054
 10
109.693507
 20
201.64166
 42
-0.053224
 10
108.319761
 20
198.015337
 42
-0.092388
 10
107.270676
 20
196.674901
 42
-0.188104
 10
105.89878
 20
196.176794
 42
-0.098894
 10
104.278979
 20
196.575633
 42
-0.167152
 10
103.046781
 20
197.687308
 42
-0.10802
 10
102.767214
 20
199.597381
 42
0.10169
 10
102.640736
 20
201.08187
 42
0.409797
 10
102.124658
 20
201.088725
 42
0.086153
 10
100.853614
 20
199.917931
 42
0.059273
 10
99.693402
 20
198.147913
 42
0.242821
 10
99.932191
 20
193.683077
 42
0.164351
 10
102.978701
 20
190.775916
 42
0.128532
 10
104.59414
 20
190.571996
 42
0.099187
 10
107.2021
 20
191.506924
 42
0.048138
 10
109.606615
 20
193.222228
 42
0.109725
 10
112.250162
 20
196.793741
 42
0.069545
 10
113.462418
 20
201.083079
 42
0.146949
 10
112.556561
 20
208.778466
 42
0.130769
 10
109.590566
 20
212.745529
 42
0.032748
 10
106.744057
 20
214.728426
 10
105.669205
 20
215.297501
 10
105.404438
 20
215.359604
 42
0.621573
 10
105.391742
 20
215.228851
 42
0.03063
 10
107.198233
 20
213.189994
 42
-0.045078
  0
LWPOLYLINE
  5
79
100
AcDbEntity
  8
2
100
AcDbPolyline
 90
        4
 70
     1
 10
88.354048
 20
205.705819
 42
0.351394
 10
87.617008
 20
206.673318
 42
0.337786
 10
86.766393
 20
205.905435
 42
0.323571
 10
87.490616
 20
205.091786
 42
0.31773
  0
LWPOLYLINE
  5
7A
100
AcDbEntity
  8
2
100
AcDbPolyline
 90
        5
 70
     1
 10
94.938145
 20
213.454135
 42
-0.038469
 10
98.06477
 20
215.329206
 42
-0.080176
 10
103.24569
 20
216.750191
 10
92.145769
 20
216.792236
 42
-0.108363
 10
91.882645
 20
211.215993
 42
-0.02341
  0
LWPOLYLINE
  5
7B
100
AcDbEntity
  8
2
100
AcDbPolyline
 90
       10
 70
     1
 10
100.67586
 20
187.759717
 42
-0.13499
 10
96.038758
 20
191.780911
 42
-0.108404
 10
94.43605
 20
195.821111
 42
0.215221
 10
93.860327
 20
197.057
 42
0.17684
 10
93.294605
 20
197.236845
 42
0.187337
 10
92.771311
 20
196.843424
 42
0.152692
 10
92.330516
 20
195.393683
 42
-0.116864
 10
91.398849
 20
192.764193
 42
-0.023951
 10
89.792343
 20
190.547963
 42
-0.054398
 10
87.225956
 20
187.810664
  0
LWPOLYLINE
  5
7C
100
AcDbEntity
  8
2
100
AcDbPolyline
 90
       40
 70
     1
 10
92.095228
 20
207.409361
 42
-0.192002
 10
92.616246
 20
206.35718
 42
-0.264805
 10
91.836901
 20
205.185023
 42
-0.094039
 10
91.068674
 20
205.047332
 42
0.104679
 10
90.537516
 20
204.980444
 42
0.408596
 10
90.662584
 20
204.813269
 10
91.366793
 20
204.391898
 42
-0.142757
 10
91.960055
 20
203.799947
 42
-0.276155
 10
91.626985
 20
202.488499
 42
-0.199393
 10
90.641001
 20
202.098431
 42
-0.126079
 10
89.920313
 20
202.393563
 42
0.079336
 10
89.199697
 20
202.760195
 10
88.686238
 20
202.851141
 42
0.066076
 10
88.934364
 20
202.039295
 42
0.093405
 10
89.48605
 20
201.3217
 10
90.176134
 20
200.656181
 42
-0.044274
 10
90.872531
 20
199.598036
 42
0.192229
 10
91.618216
 20
198.879806
 42
0.160082
 10
92.59123
 20
199.145623
 42
-0.100618
 10
93.652075
 20
199.525207
 42
-0.178308
 10
94.815524
 20
198.928796
 42
0.100501
 10
95.823512
 20
198.210672
 42
0.317858
 10
96.445804
 20
198.524318
 42
0.056864
 10
97.164989
 20
200.103005
 42
-0.091696
 10
98.013091
 20
201.685904
 42
-0.070812
 10
100.268672
 20
203.419072
 42
-0.086
 10
98.378639
 20
203.387631
 42
-0.134655
 10
97.006195
 20
204.012034
 42
-0.082248
 10
95.938536
 20
205.477089
 42
-0.080549
 10
95.661333
 20
206.242244
 42
-0.443999
 10
95.855399
 20
206.628912
 42
-0.06284
 10
96.935564
 20
206.51202
 42
0.227557
 10
97.966145
 20
206.663517
 42
0.156633
 10
98.263174
 20
207.541798
 42
0.202684
 10
97.981059
 20
208.356673
 42
0.118276
 10
96.69067
 20
209.180466
 42
0.038374
 10
95.246795
 20
209.612339
 42
0.154439
 10
92.742256
 20
209.369024
 42
0.093605
 10
90.06114
 20
207.548366
 42
-0.097662
 10
91.2573
 20
207.746637
 42
-0.17478
  0
LWPOLYLINE
  5
7D
100
AcDbEntity
  8
2
100
AcDbPolyline
 90
       34
 70
     1
 10
81.5568
 20
212.253113
 42
-0.147977
 10
80.81974
 20
208.252177
 42
-0.111884
 10
79.149952
 20
206.463289
 42
-0.081974
 10
76.54524
 20
205.277046
 42
-0.078098
 10
77.541719
 20
204.240164
 42
-0.134105
 10
77.912817
 20
203.209251
 42
-0.153997
 10
77.663907
 20
202.520589
 42
-0.042271
 10
76.749553
 20
201.452045
 42
0.120454
 10
76.196982
 20
200.721633
 42
0.415265
 10
76.539231
 20
200.601936
 42
0.0399
 10
79.481193
 20
201.431198
 42
0.090015
 10
82.439544
 20
202.732701
 42
0.042561
 10
83.627411
 20
203.698609
 42
0.08767
 10
83.982242
 20
204.181268
 42
0.3103
 10
83.949713
 20
204.569494
 42
0.100784
 10
83.23552
 20
204.916102
 42
-0.151105
 10
82.501746
 20
205.373185
 42
-0.279849
 10
82.653168
 20
207.041823
 42
-0.097
 10
83.210935
 20
207.559914
 42
-0.21139
 10
83.888933
 20
207.690247
 42
-0.128989
 10
84.690928
 20
206.948204
 10
85.037554
 20
206.584688
 42
0.355576
 10
85.349025
 20
206.550008
 42
0.172766
 10
85.686502
 20
207.177034
 42
0.210781
 10
85.395413
 20
207.840442
 42
-0.083517
 10
84.937426
 20
208.478481
 42
-0.254986
 10
85.191517
 20
209.399525
 42
-0.121063
 10
86.074389
 20
210.076886
 42
-0.236473
 10
87.742427
 20
209.925366
 42
-0.226214
 10
88.31705
 20
208.399179
 42
0.116928
 10
90.065152
 20
213.042891
 42
0.088717
 10
89.825786
 20
216.801024
 10
78.865865
 20
216.842539
 42
-0.078856
 10
80.729131
 20
214.638866
 42
-0.102792
  0
LWPOLYLINE
  5
7E
100
AcDbEntity
  8
2
100
AcDbPolyline
 90
       32
 70
     1
 10
77.363991
 20
198.873699
 42
-0.168556
 10
79.703051
 20
197.063626
 42
-0.164924
 10
80.323572
 20
195.008661
 42
-0.138497
 10
79.608749
 20
193.76326
 10
78.513182
 20
192.586001
 42
0.098322
 10
77.923037
 20
191.62483
 42
0.19188
 10
78.043183
 20
190.158264
 42
0.203323
 10
78.768211
 20
189.662814
 42
0.050525
 10
79.842089
 20
189.523045
 42
0.171854
 10
85.786059
 20
191.008541
 42
0.069716
 10
88.051139
 20
192.847075
 42
0.107244
 10
89.500861
 20
195.331801
 42
0.045452
 10
89.802168
 20
196.494568
 42
0.140475
 10
89.654757
 20
197.653535
 42
0.091836
 10
88.716194
 20
198.932299
 10
88.176838
 20
199.341045
 42
0.242558
 10
87.775168
 20
199.402367
 42
0.209224
 10
87.539668
 20
198.505253
 10
87.526554
 20
197.075892
 10
87.442238
 20
196.015904
 42
-0.125585
 10
87.142416
 20
195.192333
 42
-0.240147
 10
85.753456
 20
194.756592
 42
-0.114783
 10
84.028142
 20
195.284231
 42
-0.264307
 10
82.544128
 20
197.76497
 42
-0.148331
 10
83.08937
 20
198.936713
 10
84.060468
 20
199.937441
 42
-0.117622
 10
86.747161
 20
201.435275
 42
0.079377
 10
86.469529
 20
202.351434
 42
0.217622
 10
86.039884
 20
202.736464
 42
0.193991
 10
85.496722
 20
202.56252
 10
84.864454
 20
202.070711
 42
-0.075246
 10
81.58952
 20
200.114402
 42
-0.067045
  0
LWPOLYLINE
  5
7F
100
AcDbEntity
  8
2
100
AcDbPolyline
 90
       11
 70
     1
 10
69.121805
 20
201.585839
 42
0.053694
 10
74.185021
 20
201.765261
 42
0.049572
 10
75.376135
 20
202.374054
 42
0.199886
 10
75.811389
 20
202.889109
 42
0.28716
 10
75.60587
 20
203.174889
 42
0.074438
 10
73.402983
 20
203.789738
 42
0.035779
 10
71.370885
 20
203.978837
 42
-0.039268
 10
69.59228
 20
204.139275
 42
-0.047192
 10
66.007114
 20
205.184763
 42
-0.066605
 10
65.206043
 20
203.847287
 42
-0.079822
 10
63.818993
 20
202.595932
 42
0.05721
  0
LWPOLYLINE
  5
80
100
AcDbEntity
  8
2
100
AcDbPolyline
 90
       24
 70
     1
 10
73.085156
 20
207.215067
 10
75.592724
 20
207.333969
 42
0.150326
 10
77.800264
 20
208.132313
 42
0.19512
 10
79.387286
 20
211.276824
 42
0.135072
 10
78.756798
 20
214.053132
 42
0.192361
 10
76.791072
 20
215.871491
 42
0.265255
 10
73.409669
 20
215.296495
 42
0.072443
 10
72.310829
 20
213.967848
 10
72.002298
 20
213.353212
 42
0.304921
 10
72.005251
 20
213.023999
 42
0.199108
 10
72.382895
 20
213.087669
 10
73.412714
 20
213.565871
 42
-0.104168
 10
74.626447
 20
213.862576
 42
-0.249035
 10
76.322822
 20
213.034445
 42
-0.21828
 10
76.166914
 20
211.316723
 42
-0.183865
 10
74.97061
 20
210.235346
 42
-0.084676
 10
73.247917
 20
209.871069
 42
-0.110811
 10
70.948146
 20
210.278883
 42
-0.136747
 10
69.354547
 20
211.417428
 42
-0.218206
 10
69.063643
 20
213.660946
 42
-0.088181
 10
70.625924
 20
216.873751
 10
63.205977
 20
216.901857
 42
-0.12889
 10
66.128615
 20
212.972758
 42
-0.132606
 10
66.581513
 20
207.955407
 42
0.086751
  0
LWPOLYLINE
  5
81
100
AcDbEntity
  8
2
100
AcDbPolyline
 90
       10
 70
     1
 10
53.92359
 20
211.66918
 42
0.136175
 10
63.687733
 20
208.573272
 42
0.160017
 10
63.480516
 20
212.027582
 42
0.125633
 10
61.799
 20
214.164867
 42
-0.067009
 10
58.916547
 20
212.519673
 42
-0.089852
 10
57.926926
 20
212.33122
 42
-0.171314
 10
57.238309
 20
212.56553
 42
-0.221501
 10
56.757456
 20
214.057263
 42
-0.063741
 10
57.25602
 20
216.924395
 10
48.736081
 20
216.956667
 42
0.098421
  0
LWPOLYLINE
  5
82
100
AcDbEntity
  8
2
100
AcDbPolyline
 90
        9
 70
     1
 10
59.212653
 20
205.287
 10
60.917489
 20
203.260428
 42
0.066279
 10
62.220268
 20
204.361301
 42
0.087937
 10
63.413958
 20
206.283693
 42
-0.055556
 10
60.734723
 20
206.754645
 42
-0.062459
 10
57.932744
 20
207.979967
 42
0.237815
 10
57.290859
 20
208.011399
 42
0.249527
 10
57.202103
 20
207.732733
 10
57.343392
 20
207.228194
  0
LWPOLYLINE
  5
83
100
AcDbEntity
  8
2
100
AcDbPolyline
 90
        8
 70
     1
 10
54.185748
 20
203.051325
 42
-0.064773
 10
54.052592
 20
201.083015
 42
0.141537
 10
58.234084
 20
201.996983
 42
0.016431
 10
56.267347
 20
204.41985
 10
54.199394
 20
206.653699
 42
0.256351
 10
53.422129
 20
206.796344
 42
0.234201
 10
53.305509
 20
206.500884
 10
53.400802
 20
205.944619
 42
-0.098446
  0
LWPOLYLINE
  5
84
100
AcDbEntity
  8
2
100
AcDbPolyline
 90
       19
 70
     1
 10
71.513783
 20
191.649107
 42
0.036956
 10
72.820425
 20
191.261655
 42
0.135518
 10
74.151753
 20
191.345813
 42
0.132068
 10
76.125937
 20
192.789745
 42
0.108201
 10
76.636675
 20
193.775818
 42
0.203633
 10
76.50524
 20
194.717122
 42
0.131902
 10
75.919763
 20
195.305244
 42
0.177323
 10
74.982838
 20
195.300293
 42
-0.072179
 10
73.946435
 20
195.116617
 42
-0.259614
 10
72.359089
 20
196.295538
 42
-0.209884
 10
72.539874
 20
197.21536
 42
-0.084363
 10
73.549797
 20
198.301743
 42
-0.058521
 10
70.779947
 20
198.531536
 10
68.023409
 20
199.160382
 42
-0.026253
 10
63.141081
 20
200.587786
 42
0.092672
 10
63.342646
 20
198.492607
 42
0.14163
 10
64.755528
 20
196.531541
 10
66.876234
 20
194.892097
 10
69.081558
 20
193.04633
 42
0.087064
  0
LWPOLYLINE
  5
85
100
AcDbEntity
  8
2
100
AcDbPolyline
 90
        7
 70
     1
 10
76.056036
 20
187.852974
 42
-0.02676
 10
70.837082
 20
189.934158
 42
-0.035708
 10
67.19959
 20
191.79105
 42
-0.070654
 10
63.024324
 20
195.451191
 42
-0.102899
 10
63.138916
 20
192.518536
 42
-0.06083
 10
62.376671
 20
190.343208
 42
-0.049692
 10
60.986144
 20
187.910057
  0
LWPOLYLINE
  5
86
100
AcDbEntity
  8
2
100
AcDbPolyline
 90
       21
 70
     1
 10
44.508654
 20
190.53099
 42
0.059693
 10
49.289573
 20
188.626067
 42
0.072787
 10
55.526184
 20
187.930739
 42
-0.088006
 10
54.631336
 20
188.764635
 42
-0.143945
 10
54.299323
 20
189.659399
 42
-0.200031
 10
54.985539
 20
191.272711
 42
-0.18844
 10
56.221731
 20
191.611531
 10
57.716746
 20
191.559868
 42
0.154814
 10
60.11049
 20
192.306306
 42
0.219776
 10
60.714738
 20
194.007229
 42
0.029671
 10
60.50272
 20
196.326149
 42
0.029671
 10
60.2421
 20
198.143049
 42
0.078432
 10
59.969155
 20
198.844388
 42
0.188337
 10
59.508275
 20
199.220236
 42
0.134915
 10
58.486929
 20
199.104304
 10
57.308437
 20
198.792066
 42
0.049882
 10
55.203453
 20
198.509737
 42
0.089722
 10
54.621957
 20
198.221638
 42
0.147043
 10
54.110313
 20
197.207569
 42
-0.077912
 10
52.983962
 20
194.873218
 42
-0.131284
 10
49.598662
 20
191.86992
 42
-0.097381
  0
LWPOLYLINE
  5
87
100
AcDbEntity
  8
2
100
AcDbPolyline
 90
       15
 70
     1
 10
37.722465
 20
199.337959
 42
0.101202
 10
41.687796
 20
192.791492
 42
-0.102936
 10
41.784315
 20
195.462845
 42
-0.176111
 10
42.93758
 20
197.140989
 42
-0.051373
 10
43.803674
 20
197.639312
 42
-0.152717
 10
44.753742
 20
197.787314
 42
-0.199607
 10
46.055784
 20
196.766375
 42
-0.141597
 10
46.239154
 20
195.30607
 42
0.119463
 10
46.293095
 20
194.076057
 42
0.310853
 10
46.843656
 20
193.87997
 42
0.091525
 10
48.261289
 20
194.440404
 42
0.03822
 10
49.680234
 20
195.400036
 42
0.172248
 10
51.629754
 20
198.411273
 42
-0.120611
 10
42.07303
 20
201.485295
 42
-0.087291
 10
36.70485
 20
206.384864
 42
0.094138
  0
LWPOLYLINE
  5
88
100
AcDbEntity
  8
2
100
AcDbPolyline
 90
        7
 70
     1
 10
35.407548
 20
215.653344
 42
-0.125171
 10
37.144352
 20
217.446178
 42
-0.129663
 10
39.638155
 20
218.128837
 42
0.08858
 10
38.32933
 20
218.678999
 42
-0.049761
 10
36.805171
 20
219.246976
 42
-0.062229
 10
34.181619
 20
220.848725
 42
-0.065869
 10
35.140974
 20
218.353473
 42
-0.066857
  0
LWPOLYLINE
  5
89
100
AcDbEntity
  8
2
100
AcDbPolyline
 90
       32
 70
     1
 10
44.281747
 20
205.340156
 10
45.258897
 20
206.486763
 42
-0.208197
 10
46.457928
 20
207.178926
 42
-0.095286
 10
47.460732
 20
207.046227
 42
-0.173994
 10
48.195602
 20
206.508739
 42
-0.218269
 10
48.278178
 20
205.103117
 42
-0.220571
 10
47.335614
 20
204.480882
 42
0.087767
 10
46.078268
 20
203.969541
 42
0.086165
 10
45.421588
 20
203.263124
 42
0.174658
 10
45.1946
 20
202.527478
 42
0.228825
 10
45.811314
 20
201.922938
 10
46.903262
 20
201.510999
 42
0.040479
 10
49.31855
 20
200.975246
 42
0.026054
 10
51.883535
 20
200.676228
 42
0.086298
 10
52.09809
 20
204.623844
 42
0.111996
 10
50.911519
 20
207.880962
 42
0.059611
 10
49.886439
 20
209.102553
 10
48.449398
 20
210.361706
 42
0.392459
 10
47.592573
 20
210.488652
 10
46.164481
 20
209.490354
 42
-0.19252
 10
44.673989
 20
208.993697
 42
-0.243232
 10
43.211925
 20
210.088343
 42
-0.224131
 10
43.604159
 20
210.967863
 42
0.047281
 10
44.380296
 20
211.95293
 42
0.225654
 10
44.389617
 20
213.859209
 42
0.132857
 10
43.217986
 20
215.410858
 42
0.203193
 10
41.079141
 20
215.746262
 42
0.127352
 10
38.954812
 20
214.765701
 42
0.189225
 10
37.960114
 20
212.709154
 42
0.095444
 10
38.202582
 20
210.139418
 42
0.130596
 10
40.804657
 20
206.009432
 42
0.121904
 10
42.621901
 20
204.93504
 42
0.265995
  0
LWPOLYLINE
  5
8A
100
AcDbEntity
  8
2
100
AcDbPolyline
 90
        4
 70
     1
 10
27.998578
 20
196.535071
 10
30.999693
 20
196.823705
 10
29.056525
 20
211.831174
 10
25.843207
 20
211.542243
  0
LWPOLYLINE
  5
8B
100
AcDbEntity
  8
2
100
AcDbPolyline
 90
       37
 70
     1
 10
131.643642
 20
218.003833
 42
-0.121399
 10
135.072583
 20
213.229611
 42
0.127646
 10
130.46455
 20
209.269837
 42
0.144904
 10
128.522478
 20
202.654345
 10
125.439167
 20
180.665867
 10
105.43931
 20
180.741624
 10
105.427947
 20
177.741645
 10
90.428054
 20
177.798463
 10
90.439418
 20
180.798442
 10
45.439741
 20
180.968895
 10
45.428377
 20
177.968917
 10
30.428485
 20
178.025734
 10
30.439848
 20
181.025713
 10
10.439992
 20
181.10147
 42
-0.093019
 10
12.033009
 20
185.522467
 42
-0.133765
 10
14.858655
 20
188.227184
 42
-0.052853
 10
16.761888
 20
189.061381
 42
-0.110731
 10
19.097104
 20
189.219436
 42
-0.039692
 10
22.551899
 20
188.181942
 42
0.05849
 10
23.845883
 20
187.858639
 42
0.558404
 10
24.323617
 20
188.209832
 42
0.131518
 10
23.219982
 20
190.341227
 42
0.044405
 10
22.023954
 20
191.339165
 42
-0.123717
 10
21.073331
 20
192.390973
 42
-0.167491
 10
21.072573
 20
194.593192
 42
-0.143897
 10
22.071853
 20
196.038217
 42
-0.094058
 10
24.000501
 20
197.050219
 10
19.616062
 20
227.567046
 42
-0.152251
 10
20.03095
 20
230.176493
 42
-0.186055
 10
22.875894
 20
232.242031
 42
-0.105524
 10
25.645204
 20
232.371543
 42
-0.086859
 10
29.885706
 20
230.99107
 42
-0.021179
 10
33.819245
 20
228.670854
 42
0.064939
 10
41.283875
 20
225.417456
 42
0.014021
 10
49.060874
 20
223.422383
 42
0.055236
 10
68.59109
 20
220.881487
 10
124.590688
 20
220.669368
 42
-0.155838
  0
LWPOLYLINE
  5
8C
100
AcDbEntity
  8
2
100
AcDbPolyline
 90
        4
 70
     1
 10
271.352359
 20
207.76981
 10
268.252359
 20
204.56981
 10
276.352359
 20
196.64981
 10
279.352359
 20
199.74981
  0
LWPOLYLINE
  5
8D
100
AcDbEntity
  8
2
100
AcDbPolyline
 90
        4
 70
     1
 10
241.352359
 20
58.89981
 10
241.352359
 20
55.79981
 10
249.352359
 20
55.79981
 10
249.352359
 20
58.89981
  0
LWPOLYLINE
  5
8E
100
AcDbEntity
  8
2
100
AcDbPolyline
 90
       10
 70
     1
 10
268.211959
 20
49.86781
 42
-0.092122
 10
269.537159
 20
47.65081
 42
-0.027578
 10
270.352359
 20
45.04981
 42
0.034472
 10
270.656959
 20
48.79681
 42
0.061733
 10
270.459059
 20
50.35481
 42
0.120059
 10
269.840859
 20
51.53481
 42
0.118628
 10
268.709059
 20
52.25181
 42
0.075617
 10
266.267059
 20
52.65881
 42
0.018124
 10
263.352359
 20
52.63981
 42
-0.023731
 10
266.037159
 20
51.44581
 42
-0.085182
  0
LWPOLYLINE
  5
8F
100
AcDbEntity
  8
2
100
AcDbPolyline
 90
        9
 70
     1
 10
263.352359
 20
63.74981
 42
0.036256
 10
267.469159
 20
64.69881
 42
0.166732
 10
270.302159
 20
66.60781
 42
0.100203
 10
270.889459
 20
68.18281
 42
0.068346
 10
270.917859
 20
71.18281
 42
0.017254
 10
270.404659
 20
74.58781
 42
-0.020126
 10
269.551859
 20
70.99681
 42
-0.071602
 10
268.202559
 20
67.88681
 42
-0.081679
 10
266.025659
 20
65.57781
 42
-0.02614
  0
LWPOLYLINE
  5
90
100
AcDbEntity
  8
2
100
AcDbPolyline
 90
        4
 70
     1
 10
279.352359
 20
95.74981
 10
276.252359
 20
95.74981
 10
276.252359
 20
75.64981
 10
279.352359
 20
75.64981
  0
LWPOLYLINE
  5
91
100
AcDbEntity
  8
2
100
AcDbPolyline
 90
        4
 70
     1
 10
276.252359
 20
155.74981
 10
276.252359
 20
135.64981
 10
279.352359
 20
135.64981
 10
279.352359
 20
155.74981
  0
LWPOLYLINE
  5
92
100
AcDbEntity
  8
2
100
AcDbPolyline
 90
       78
 70
     1
 10
280.847659
 20
-2.36619
 42
-0.120296
 10
281.524159
 20
-5.26119
 42
-0.106443
 10
280.707159
 20
-8.65419
 42
-0.068421
 10
278.354859
 20
-12.25019
 42
-0.097992
 10
275.423059
 20
-14.69819
 42
-0.206454
 10
272.902159
 20
-14.86619
 42
-0.102136
 10
270.923459
 20
-13.55919
 42
-0.070104
 10
269.465459
 20
-11.82319
 42
-0.111397
 10
268.753559
 20
-9.73119
 42
-0.167116
 10
270.075759
 20
-4.88019
 42
-0.193913
 10
273.929259
 20
-2.26619
 42
-0.092723
 10
272.984559
 20
-0.64819
 42
-0.036388
 10
271.974659
 20
3.00981
 42
-0.033595
 10
269.676459
 20
18.47181
 42
-0.019485
 10
269.424159
 20
26.88581
 10
269.554659
 20
33.76481
 42
0.022905
 10
269.445559
 20
41.55681
 42
-0.129674
 10
267.250959
 20
39.97381
 42
-0.082368
 10
263.852359
 20
39.82981
 42
0.029396
 10
265.571359
 20
41.90581
 42
0.157661
 10
266.719159
 20
44.47981
 42
0.183254
 10
265.374359
 20
47.94681
 42
0.156183
 10
261.274159
 20
50.28281
 42
0.108438
 10
255.409659
 20
50.30481
 10
256.038859
 20
49.34281
 42
-0.129554
 10
256.311259
 20
48.43081
 42
-0.148158
 10
255.988859
 20
47.60281
 10
255.309659
 20
46.82481
 42
0.024434
 10
250.353759
 20
49.37381
 42
0.080867
 10
245.237559
 20
50.78081
 42
0.07791
 10
239.853759
 20
50.28381
 42
0.022706
 10
234.309659
 20
48.64481
 42
0.082355
 10
235.878959
 20
50.29881
 42
0.106004
 10
236.352359
 20
52.24981
 42
-0.074986
 10
232.333159
 20
52.85581
 42
-0.113106
 10
228.900959
 20
54.66181
 42
-0.211088
 10
227.652259
 20
57.55081
 42
-0.198913
 10
228.988359
 20
60.42481
 42
-0.112117
 10
232.351859
 20
62.24981
 42
-0.078901
 10
236.352359
 20
62.84981
 42
0.106401
 10
235.826159
 20
64.31781
 42
0.052737
 10
234.309659
 20
65.93481
 42
0.022041
 10
239.853359
 20
64.38181
 42
0.074753
 10
245.249159
 20
63.92381
 42
0.077207
 10
250.398259
 20
65.29281
 42
0.023502
 10
255.399359
 20
67.75681
 10
256.025059
 20
66.78881
 42
-0.12116
 10
256.310859
 20
65.87981
 42
-0.148619
 10
256.030159
 20
65.06781
 10
255.409659
 20
64.31481
 42
0.194971
 10
262.036559
 20
66.39681
 42
0.128237
 10
266.987759
 20
72.98481
 42
0.206271
 10
266.753759
 20
78.55581
 42
0.130493
 10
263.852359
 20
82.24981
 42
-0.217653
 10
267.413659
 20
82.02681
 42
-0.061885
 10
268.949159
 20
80.81581
 42
0.042253
 10
270.170459
 20
79.74081
 42
0.273351
 10
271.054159
 20
79.61581
 42
0.170242
 10
271.649459
 20
80.34481
 42
0.06994
 10
272.237259
 20
83.01281
 42
0.038233
 10
272.352359
 20
85.50981
 10
272.352359
 20
178.74981
 42
0.092671
 10
274.183459
 20
181.68481
 42
0.115786
 10
274.698459
 20
184.75531
 42
0.142492
 10
273.672159
 20
187.20261
 42
0.049011
 10
271.613959
 20
189.27701
 42
-0.021351
 10
266.220859
 20
194.19121
 42
-0.044784
 10
263.212959
 20
197.77031
 42
-0.104164
 10
261.313659
 20
202.14157
 42
-0.118542
 10
261.677159
 20
207.01304
 42
-0.096142
 10
264.106459
 20
211.54409
 42
-0.198241
 10
272.728359
 20
216.32851
 42
-0.203066
 10
281.642159
 20
213.20958
 42
-0.16815
 10
286.352359
 20
204.74981
 10
286.352359
 20
43.50981
 42
0.102643
 10
280.355759
 20
31.71981
 42
0.047325
 10
279.259159
 20
24.96781
 42
0.02568
 10
279.149559
 20
17.13181
 42
0.027479
  0
ENDSEC
  0
SECTION
  2
OBJECTS
  0
DICTIONARY
  5
19
100
AcDbDictionary
  3
ACAD_GROUP
350
1A
  3
ACAD_MLINESTYLE
350
1B
  0
DICTIONARY
  5
1A
102
{ACAD_REACTORS
330
19
102
}
100
AcDbDictionary
  0
DICTIONARY
  5
1B
102
{ACAD_REACTORS
330
19
102
}
100
AcDbDictionary
  3
STANDARD
350
1C
  0
MLINESTYLE
  5
1C
102
{ACAD_REACTORS
330
1B
102
}
100
AcDbMlineStyle
  2
STANDARD
 70
     0
  3

 62
     0
 51
90.0
 52
90.0
 71
     2
 49
0.5
 62
   256
  6
BYLAYER
 49
-0.5
 62
   256
  6
BYLAYER
  0
ENDSEC
  0
EOF
