ISO-10303-21;
HEADER;
/* Generated by software containing ST-Developer
 * from STEP Tools, Inc. (www.steptools.com) 
 */

FILE_DESCRIPTION(
/* description */ (''),
/* implementation_level */ '2;1');

FILE_NAME(
/* name */ 
'C:/Users/mchug/OneDrive - Innopharma Labs/Projects/Arduino/Ardunio TF
T Touchscreen Doorlock/Top Cover_Bezel.step',
/* time_stamp */ '2019-01-04T14:07:28+00:00',
/* author */ (''),
/* organization */ (''),
/* preprocessor_version */ 'ST-DEVELOPER v17.2',
/* originating_system */ 'Autodesk Translation Framework v7.6.0.251',
/* authorisation */ '');

FILE_SCHEMA (('AUTOMOTIVE_DESIGN { 1 0 10303 214 3 1 1 }'));
ENDSEC;

DATA;
#10=MECHANICAL_DESIGN_GEOMETRIC_PRESENTATION_REPRESENTATION('',(#13),#461);
#11=SHAPE_REPRESENTATION_RELATIONSHIP('SRR','None',#468,#12);
#12=ADVANCED_BREP_SHAPE_REPRESENTATION('',(#14),#460);
#13=STYLED_ITEM('',(#477),#14);
#14=MANIFOLD_SOLID_BREP('Body3',#285);
#15=FACE_BOUND('',#38,.T.);
#16=FACE_BOUND('',#42,.T.);
#17=FACE_BOUND('',#50,.T.);
#18=FACE_OUTER_BOUND('',#33,.T.);
#19=FACE_OUTER_BOUND('',#34,.T.);
#20=FACE_OUTER_BOUND('',#35,.T.);
#21=FACE_OUTER_BOUND('',#36,.T.);
#22=FACE_OUTER_BOUND('',#37,.T.);
#23=FACE_OUTER_BOUND('',#39,.T.);
#24=FACE_OUTER_BOUND('',#40,.T.);
#25=FACE_OUTER_BOUND('',#41,.T.);
#26=FACE_OUTER_BOUND('',#43,.T.);
#27=FACE_OUTER_BOUND('',#44,.T.);
#28=FACE_OUTER_BOUND('',#45,.T.);
#29=FACE_OUTER_BOUND('',#46,.T.);
#30=FACE_OUTER_BOUND('',#47,.T.);
#31=FACE_OUTER_BOUND('',#48,.T.);
#32=FACE_OUTER_BOUND('',#49,.T.);
#33=EDGE_LOOP('',(#183,#184,#185,#186));
#34=EDGE_LOOP('',(#187,#188,#189,#190));
#35=EDGE_LOOP('',(#191,#192,#193,#194));
#36=EDGE_LOOP('',(#195,#196,#197,#198));
#37=EDGE_LOOP('',(#199,#200,#201,#202));
#38=EDGE_LOOP('',(#203,#204,#205,#206));
#39=EDGE_LOOP('',(#207,#208,#209,#210));
#40=EDGE_LOOP('',(#211,#212,#213,#214));
#41=EDGE_LOOP('',(#215,#216,#217,#218));
#42=EDGE_LOOP('',(#219,#220,#221,#222));
#43=EDGE_LOOP('',(#223,#224,#225,#226));
#44=EDGE_LOOP('',(#227,#228,#229,#230));
#45=EDGE_LOOP('',(#231,#232,#233,#234));
#46=EDGE_LOOP('',(#235,#236,#237,#238));
#47=EDGE_LOOP('',(#239,#240,#241,#242));
#48=EDGE_LOOP('',(#243,#244,#245,#246));
#49=EDGE_LOOP('',(#247,#248,#249,#250));
#50=EDGE_LOOP('',(#251,#252,#253,#254));
#51=LINE('',#386,#87);
#52=LINE('',#388,#88);
#53=LINE('',#390,#89);
#54=LINE('',#391,#90);
#55=LINE('',#394,#91);
#56=LINE('',#396,#92);
#57=LINE('',#397,#93);
#58=LINE('',#400,#94);
#59=LINE('',#402,#95);
#60=LINE('',#403,#96);
#61=LINE('',#405,#97);
#62=LINE('',#406,#98);
#63=LINE('',#410,#99);
#64=LINE('',#412,#100);
#65=LINE('',#414,#101);
#66=LINE('',#415,#102);
#67=LINE('',#418,#103);
#68=LINE('',#420,#104);
#69=LINE('',#421,#105);
#70=LINE('',#424,#106);
#71=LINE('',#425,#107);
#72=LINE('',#429,#108);
#73=LINE('',#431,#109);
#74=LINE('',#433,#110);
#75=LINE('',#434,#111);
#76=LINE('',#437,#112);
#77=LINE('',#438,#113);
#78=LINE('',#440,#114);
#79=LINE('',#444,#115);
#80=LINE('',#445,#116);
#81=LINE('',#446,#117);
#82=LINE('',#449,#118);
#83=LINE('',#450,#119);
#84=LINE('',#453,#120);
#85=LINE('',#454,#121);
#86=LINE('',#456,#122);
#87=VECTOR('',#318,10.);
#88=VECTOR('',#319,10.);
#89=VECTOR('',#320,10.);
#90=VECTOR('',#321,10.);
#91=VECTOR('',#324,10.);
#92=VECTOR('',#325,10.);
#93=VECTOR('',#326,10.);
#94=VECTOR('',#329,10.);
#95=VECTOR('',#330,10.);
#96=VECTOR('',#331,10.);
#97=VECTOR('',#334,10.);
#98=VECTOR('',#335,10.);
#99=VECTOR('',#338,10.);
#100=VECTOR('',#339,10.);
#101=VECTOR('',#340,10.);
#102=VECTOR('',#341,10.);
#103=VECTOR('',#344,10.);
#104=VECTOR('',#345,10.);
#105=VECTOR('',#346,10.);
#106=VECTOR('',#349,10.);
#107=VECTOR('',#350,10.);
#108=VECTOR('',#353,10.);
#109=VECTOR('',#354,10.);
#110=VECTOR('',#355,10.);
#111=VECTOR('',#356,10.);
#112=VECTOR('',#359,10.);
#113=VECTOR('',#360,10.);
#114=VECTOR('',#363,10.);
#115=VECTOR('',#366,10.);
#116=VECTOR('',#367,10.);
#117=VECTOR('',#368,10.);
#118=VECTOR('',#371,10.);
#119=VECTOR('',#372,10.);
#120=VECTOR('',#375,10.);
#121=VECTOR('',#376,10.);
#122=VECTOR('',#379,10.);
#123=VERTEX_POINT('',#384);
#124=VERTEX_POINT('',#385);
#125=VERTEX_POINT('',#387);
#126=VERTEX_POINT('',#389);
#127=VERTEX_POINT('',#393);
#128=VERTEX_POINT('',#395);
#129=VERTEX_POINT('',#399);
#130=VERTEX_POINT('',#401);
#131=VERTEX_POINT('',#408);
#132=VERTEX_POINT('',#409);
#133=VERTEX_POINT('',#411);
#134=VERTEX_POINT('',#413);
#135=VERTEX_POINT('',#417);
#136=VERTEX_POINT('',#419);
#137=VERTEX_POINT('',#423);
#138=VERTEX_POINT('',#427);
#139=VERTEX_POINT('',#428);
#140=VERTEX_POINT('',#430);
#141=VERTEX_POINT('',#432);
#142=VERTEX_POINT('',#436);
#143=VERTEX_POINT('',#442);
#144=VERTEX_POINT('',#443);
#145=VERTEX_POINT('',#448);
#146=VERTEX_POINT('',#452);
#147=EDGE_CURVE('',#123,#124,#51,.T.);
#148=EDGE_CURVE('',#124,#125,#52,.T.);
#149=EDGE_CURVE('',#126,#125,#53,.T.);
#150=EDGE_CURVE('',#123,#126,#54,.T.);
#151=EDGE_CURVE('',#127,#123,#55,.T.);
#152=EDGE_CURVE('',#128,#126,#56,.T.);
#153=EDGE_CURVE('',#127,#128,#57,.T.);
#154=EDGE_CURVE('',#129,#127,#58,.T.);
#155=EDGE_CURVE('',#130,#128,#59,.T.);
#156=EDGE_CURVE('',#129,#130,#60,.T.);
#157=EDGE_CURVE('',#124,#129,#61,.T.);
#158=EDGE_CURVE('',#125,#130,#62,.T.);
#159=EDGE_CURVE('',#131,#132,#63,.T.);
#160=EDGE_CURVE('',#133,#131,#64,.T.);
#161=EDGE_CURVE('',#134,#133,#65,.T.);
#162=EDGE_CURVE('',#132,#134,#66,.T.);
#163=EDGE_CURVE('',#135,#134,#67,.T.);
#164=EDGE_CURVE('',#135,#136,#68,.T.);
#165=EDGE_CURVE('',#136,#132,#69,.T.);
#166=EDGE_CURVE('',#137,#133,#70,.T.);
#167=EDGE_CURVE('',#137,#135,#71,.T.);
#168=EDGE_CURVE('',#138,#139,#72,.T.);
#169=EDGE_CURVE('',#139,#140,#73,.T.);
#170=EDGE_CURVE('',#140,#141,#74,.T.);
#171=EDGE_CURVE('',#141,#138,#75,.T.);
#172=EDGE_CURVE('',#142,#131,#76,.T.);
#173=EDGE_CURVE('',#142,#137,#77,.T.);
#174=EDGE_CURVE('',#136,#142,#78,.T.);
#175=EDGE_CURVE('',#143,#144,#79,.T.);
#176=EDGE_CURVE('',#143,#138,#80,.T.);
#177=EDGE_CURVE('',#144,#141,#81,.T.);
#178=EDGE_CURVE('',#144,#145,#82,.T.);
#179=EDGE_CURVE('',#145,#140,#83,.T.);
#180=EDGE_CURVE('',#145,#146,#84,.T.);
#181=EDGE_CURVE('',#146,#139,#85,.T.);
#182=EDGE_CURVE('',#146,#143,#86,.T.);
#183=ORIENTED_EDGE('',*,*,#147,.T.);
#184=ORIENTED_EDGE('',*,*,#148,.T.);
#185=ORIENTED_EDGE('',*,*,#149,.F.);
#186=ORIENTED_EDGE('',*,*,#150,.F.);
#187=ORIENTED_EDGE('',*,*,#151,.T.);
#188=ORIENTED_EDGE('',*,*,#150,.T.);
#189=ORIENTED_EDGE('',*,*,#152,.F.);
#190=ORIENTED_EDGE('',*,*,#153,.F.);
#191=ORIENTED_EDGE('',*,*,#154,.T.);
#192=ORIENTED_EDGE('',*,*,#153,.T.);
#193=ORIENTED_EDGE('',*,*,#155,.F.);
#194=ORIENTED_EDGE('',*,*,#156,.F.);
#195=ORIENTED_EDGE('',*,*,#157,.T.);
#196=ORIENTED_EDGE('',*,*,#156,.T.);
#197=ORIENTED_EDGE('',*,*,#158,.F.);
#198=ORIENTED_EDGE('',*,*,#148,.F.);
#199=ORIENTED_EDGE('',*,*,#159,.F.);
#200=ORIENTED_EDGE('',*,*,#160,.F.);
#201=ORIENTED_EDGE('',*,*,#161,.F.);
#202=ORIENTED_EDGE('',*,*,#162,.F.);
#203=ORIENTED_EDGE('',*,*,#157,.F.);
#204=ORIENTED_EDGE('',*,*,#147,.F.);
#205=ORIENTED_EDGE('',*,*,#151,.F.);
#206=ORIENTED_EDGE('',*,*,#154,.F.);
#207=ORIENTED_EDGE('',*,*,#162,.T.);
#208=ORIENTED_EDGE('',*,*,#163,.F.);
#209=ORIENTED_EDGE('',*,*,#164,.T.);
#210=ORIENTED_EDGE('',*,*,#165,.T.);
#211=ORIENTED_EDGE('',*,*,#161,.T.);
#212=ORIENTED_EDGE('',*,*,#166,.F.);
#213=ORIENTED_EDGE('',*,*,#167,.T.);
#214=ORIENTED_EDGE('',*,*,#163,.T.);
#215=ORIENTED_EDGE('',*,*,#168,.T.);
#216=ORIENTED_EDGE('',*,*,#169,.T.);
#217=ORIENTED_EDGE('',*,*,#170,.T.);
#218=ORIENTED_EDGE('',*,*,#171,.T.);
#219=ORIENTED_EDGE('',*,*,#158,.T.);
#220=ORIENTED_EDGE('',*,*,#155,.T.);
#221=ORIENTED_EDGE('',*,*,#152,.T.);
#222=ORIENTED_EDGE('',*,*,#149,.T.);
#223=ORIENTED_EDGE('',*,*,#160,.T.);
#224=ORIENTED_EDGE('',*,*,#172,.F.);
#225=ORIENTED_EDGE('',*,*,#173,.T.);
#226=ORIENTED_EDGE('',*,*,#166,.T.);
#227=ORIENTED_EDGE('',*,*,#159,.T.);
#228=ORIENTED_EDGE('',*,*,#165,.F.);
#229=ORIENTED_EDGE('',*,*,#174,.T.);
#230=ORIENTED_EDGE('',*,*,#172,.T.);
#231=ORIENTED_EDGE('',*,*,#175,.F.);
#232=ORIENTED_EDGE('',*,*,#176,.T.);
#233=ORIENTED_EDGE('',*,*,#171,.F.);
#234=ORIENTED_EDGE('',*,*,#177,.F.);
#235=ORIENTED_EDGE('',*,*,#178,.F.);
#236=ORIENTED_EDGE('',*,*,#177,.T.);
#237=ORIENTED_EDGE('',*,*,#170,.F.);
#238=ORIENTED_EDGE('',*,*,#179,.F.);
#239=ORIENTED_EDGE('',*,*,#180,.F.);
#240=ORIENTED_EDGE('',*,*,#179,.T.);
#241=ORIENTED_EDGE('',*,*,#169,.F.);
#242=ORIENTED_EDGE('',*,*,#181,.F.);
#243=ORIENTED_EDGE('',*,*,#182,.F.);
#244=ORIENTED_EDGE('',*,*,#181,.T.);
#245=ORIENTED_EDGE('',*,*,#168,.F.);
#246=ORIENTED_EDGE('',*,*,#176,.F.);
#247=ORIENTED_EDGE('',*,*,#182,.T.);
#248=ORIENTED_EDGE('',*,*,#175,.T.);
#249=ORIENTED_EDGE('',*,*,#178,.T.);
#250=ORIENTED_EDGE('',*,*,#180,.T.);
#251=ORIENTED_EDGE('',*,*,#174,.F.);
#252=ORIENTED_EDGE('',*,*,#164,.F.);
#253=ORIENTED_EDGE('',*,*,#167,.F.);
#254=ORIENTED_EDGE('',*,*,#173,.F.);
#255=PLANE('',#299);
#256=PLANE('',#300);
#257=PLANE('',#301);
#258=PLANE('',#302);
#259=PLANE('',#303);
#260=PLANE('',#304);
#261=PLANE('',#305);
#262=PLANE('',#306);
#263=PLANE('',#307);
#264=PLANE('',#308);
#265=PLANE('',#309);
#266=PLANE('',#310);
#267=PLANE('',#311);
#268=PLANE('',#312);
#269=PLANE('',#313);
#270=ADVANCED_FACE('',(#18),#255,.T.);
#271=ADVANCED_FACE('',(#19),#256,.T.);
#272=ADVANCED_FACE('',(#20),#257,.T.);
#273=ADVANCED_FACE('',(#21),#258,.T.);
#274=ADVANCED_FACE('',(#22,#15),#259,.F.);
#275=ADVANCED_FACE('',(#23),#260,.T.);
#276=ADVANCED_FACE('',(#24),#261,.T.);
#277=ADVANCED_FACE('',(#25,#16),#262,.T.);
#278=ADVANCED_FACE('',(#26),#263,.T.);
#279=ADVANCED_FACE('',(#27),#264,.T.);
#280=ADVANCED_FACE('',(#28),#265,.T.);
#281=ADVANCED_FACE('',(#29),#266,.T.);
#282=ADVANCED_FACE('',(#30),#267,.T.);
#283=ADVANCED_FACE('',(#31),#268,.T.);
#284=ADVANCED_FACE('',(#32,#17),#269,.F.);
#285=CLOSED_SHELL('',(#270,#271,#272,#273,#274,#275,#276,#277,#278,#279,
#280,#281,#282,#283,#284));
#286=DERIVED_UNIT_ELEMENT(#288,1.);
#287=DERIVED_UNIT_ELEMENT(#463,3.);
#288=(
MASS_UNIT()
NAMED_UNIT(*)
SI_UNIT(.KILO.,.GRAM.)
);
#289=DERIVED_UNIT((#286,#287));
#290=MEASURE_REPRESENTATION_ITEM('density measure',
POSITIVE_RATIO_MEASURE(7850.),#289);
#291=PROPERTY_DEFINITION_REPRESENTATION(#296,#293);
#292=PROPERTY_DEFINITION_REPRESENTATION(#297,#294);
#293=REPRESENTATION('material name',(#295),#460);
#294=REPRESENTATION('density',(#290),#460);
#295=DESCRIPTIVE_REPRESENTATION_ITEM('Steel','Steel');
#296=PROPERTY_DEFINITION('material property','material name',#470);
#297=PROPERTY_DEFINITION('material property','density of part',#470);
#298=AXIS2_PLACEMENT_3D('placement',#382,#314,#315);
#299=AXIS2_PLACEMENT_3D('',#383,#316,#317);
#300=AXIS2_PLACEMENT_3D('',#392,#322,#323);
#301=AXIS2_PLACEMENT_3D('',#398,#327,#328);
#302=AXIS2_PLACEMENT_3D('',#404,#332,#333);
#303=AXIS2_PLACEMENT_3D('',#407,#336,#337);
#304=AXIS2_PLACEMENT_3D('',#416,#342,#343);
#305=AXIS2_PLACEMENT_3D('',#422,#347,#348);
#306=AXIS2_PLACEMENT_3D('',#426,#351,#352);
#307=AXIS2_PLACEMENT_3D('',#435,#357,#358);
#308=AXIS2_PLACEMENT_3D('',#439,#361,#362);
#309=AXIS2_PLACEMENT_3D('',#441,#364,#365);
#310=AXIS2_PLACEMENT_3D('',#447,#369,#370);
#311=AXIS2_PLACEMENT_3D('',#451,#373,#374);
#312=AXIS2_PLACEMENT_3D('',#455,#377,#378);
#313=AXIS2_PLACEMENT_3D('',#457,#380,#381);
#314=DIRECTION('axis',(0.,0.,1.));
#315=DIRECTION('refdir',(1.,0.,0.));
#316=DIRECTION('center_axis',(1.93082265152201E-16,0.,-1.));
#317=DIRECTION('ref_axis',(-1.,0.,-1.93082265152201E-16));
#318=DIRECTION('',(-1.,0.,-1.93082265152201E-16));
#319=DIRECTION('',(0.,1.,0.));
#320=DIRECTION('',(-1.,0.,-1.93082265152201E-16));
#321=DIRECTION('',(0.,1.,0.));
#322=DIRECTION('center_axis',(-1.,0.,6.99353086378051E-17));
#323=DIRECTION('ref_axis',(6.99353086378051E-17,0.,1.));
#324=DIRECTION('',(6.99353086378051E-17,0.,1.));
#325=DIRECTION('',(6.99353086378051E-17,0.,1.));
#326=DIRECTION('',(0.,1.,0.));
#327=DIRECTION('center_axis',(0.,0.,1.));
#328=DIRECTION('ref_axis',(1.,0.,0.));
#329=DIRECTION('',(1.,0.,0.));
#330=DIRECTION('',(1.,0.,0.));
#331=DIRECTION('',(0.,1.,0.));
#332=DIRECTION('center_axis',(1.,0.,-6.99353086378051E-17));
#333=DIRECTION('ref_axis',(-6.99353086378051E-17,0.,-1.));
#334=DIRECTION('',(-6.99353086378051E-17,0.,-1.));
#335=DIRECTION('',(-6.99353086378051E-17,0.,-1.));
#336=DIRECTION('center_axis',(0.,1.,0.));
#337=DIRECTION('ref_axis',(1.,0.,0.));
#338=DIRECTION('',(1.,0.,0.));
#339=DIRECTION('',(0.,0.,1.));
#340=DIRECTION('',(-1.,0.,0.));
#341=DIRECTION('',(0.,0.,-1.));
#342=DIRECTION('center_axis',(-1.,0.,0.));
#343=DIRECTION('ref_axis',(0.,0.,1.));
#344=DIRECTION('',(0.,1.,0.));
#345=DIRECTION('',(0.,0.,1.));
#346=DIRECTION('',(0.,1.,0.));
#347=DIRECTION('center_axis',(0.,0.,1.));
#348=DIRECTION('ref_axis',(1.,0.,0.));
#349=DIRECTION('',(0.,1.,0.));
#350=DIRECTION('',(1.,0.,0.));
#351=DIRECTION('center_axis',(0.,1.,0.));
#352=DIRECTION('ref_axis',(0.,0.,1.));
#353=DIRECTION('',(1.,0.,0.));
#354=DIRECTION('',(0.,0.,-1.));
#355=DIRECTION('',(-1.,0.,0.));
#356=DIRECTION('',(0.,0.,1.));
#357=DIRECTION('center_axis',(1.,0.,0.));
#358=DIRECTION('ref_axis',(0.,0.,-1.));
#359=DIRECTION('',(0.,1.,0.));
#360=DIRECTION('',(0.,0.,-1.));
#361=DIRECTION('center_axis',(0.,0.,-1.));
#362=DIRECTION('ref_axis',(-1.,0.,0.));
#363=DIRECTION('',(-1.,0.,0.));
#364=DIRECTION('center_axis',(-1.,0.,0.));
#365=DIRECTION('ref_axis',(0.,0.,1.));
#366=DIRECTION('',(0.,0.,-1.));
#367=DIRECTION('',(0.,1.,0.));
#368=DIRECTION('',(0.,1.,0.));
#369=DIRECTION('center_axis',(0.,0.,-1.));
#370=DIRECTION('ref_axis',(-1.,0.,0.));
#371=DIRECTION('',(1.,0.,0.));
#372=DIRECTION('',(0.,1.,0.));
#373=DIRECTION('center_axis',(1.,0.,0.));
#374=DIRECTION('ref_axis',(0.,0.,-1.));
#375=DIRECTION('',(0.,0.,1.));
#376=DIRECTION('',(0.,1.,0.));
#377=DIRECTION('center_axis',(0.,0.,1.));
#378=DIRECTION('ref_axis',(1.,0.,0.));
#379=DIRECTION('',(-1.,0.,0.));
#380=DIRECTION('center_axis',(0.,1.,0.));
#381=DIRECTION('ref_axis',(1.,0.,0.));
#382=CARTESIAN_POINT('',(0.,0.,0.));
#383=CARTESIAN_POINT('Origin',(23.2264600343431,20.6,-4.49999999999999));
#384=CARTESIAN_POINT('',(23.2264600343431,20.6,-4.49999999999999));
#385=CARTESIAN_POINT('',(-22.7735399656569,20.6,-4.5));
#386=CARTESIAN_POINT('',(23.2264600343431,20.6,-4.49999999999999));
#387=CARTESIAN_POINT('',(-22.7735399656569,21.4,-4.5));
#388=CARTESIAN_POINT('',(-22.7735399656569,20.6,-4.5));
#389=CARTESIAN_POINT('',(23.2264600343431,21.4,-4.49999999999999));
#390=CARTESIAN_POINT('',(23.2264600343431,21.4,-4.49999999999999));
#391=CARTESIAN_POINT('',(23.2264600343431,20.6,-4.49999999999999));
#392=CARTESIAN_POINT('Origin',(23.2264600343431,20.6,-68.));
#393=CARTESIAN_POINT('',(23.2264600343431,20.6,-68.));
#394=CARTESIAN_POINT('',(23.2264600343431,20.6,-68.));
#395=CARTESIAN_POINT('',(23.2264600343431,21.4,-68.));
#396=CARTESIAN_POINT('',(23.2264600343431,21.4,-68.));
#397=CARTESIAN_POINT('',(23.2264600343431,20.6,-68.));
#398=CARTESIAN_POINT('Origin',(-22.7735399656569,20.6,-68.));
#399=CARTESIAN_POINT('',(-22.7735399656569,20.6,-68.));
#400=CARTESIAN_POINT('',(-22.7735399656569,20.6,-68.));
#401=CARTESIAN_POINT('',(-22.7735399656569,21.4,-68.));
#402=CARTESIAN_POINT('',(-22.7735399656569,21.4,-68.));
#403=CARTESIAN_POINT('',(-22.7735399656569,20.6,-68.));
#404=CARTESIAN_POINT('Origin',(-22.7735399656569,20.6,-4.5));
#405=CARTESIAN_POINT('',(-22.7735399656569,20.6,-4.5));
#406=CARTESIAN_POINT('',(-22.7735399656569,21.4,-4.5));
#407=CARTESIAN_POINT('Origin',(0.226460034343123,20.6,-35.));
#408=CARTESIAN_POINT('',(-26.2735399656569,20.6,1.));
#409=CARTESIAN_POINT('',(26.7264600343431,20.6,1.));
#410=CARTESIAN_POINT('',(13.4764600343431,20.6,1.));
#411=CARTESIAN_POINT('',(-26.2735399656569,20.6,-71.));
#412=CARTESIAN_POINT('',(-26.2735399656569,20.6,-17.));
#413=CARTESIAN_POINT('',(26.7264600343431,20.6,-71.));
#414=CARTESIAN_POINT('',(-13.0235399656569,20.6,-71.));
#415=CARTESIAN_POINT('',(26.7264600343431,20.6,-53.));
#416=CARTESIAN_POINT('Origin',(26.7264600343431,18.4,-71.));
#417=CARTESIAN_POINT('',(26.7264600343431,18.4,-71.));
#418=CARTESIAN_POINT('',(26.7264600343431,18.4,-71.));
#419=CARTESIAN_POINT('',(26.7264600343431,18.4,1.));
#420=CARTESIAN_POINT('',(26.7264600343431,18.4,-71.));
#421=CARTESIAN_POINT('',(26.7264600343431,18.4,1.));
#422=CARTESIAN_POINT('Origin',(-26.2735399656569,18.4,-71.));
#423=CARTESIAN_POINT('',(-26.2735399656569,18.4,-71.));
#424=CARTESIAN_POINT('',(-26.2735399656569,18.4,-71.));
#425=CARTESIAN_POINT('',(-26.2735399656569,18.4,-71.));
#426=CARTESIAN_POINT('Origin',(0.226460034343123,21.4,-36.25));
#427=CARTESIAN_POINT('',(-29.7735399656569,21.4,2.00000000000001));
#428=CARTESIAN_POINT('',(30.2264600343431,21.4,2.00000000000001));
#429=CARTESIAN_POINT('',(30.2264600343431,21.4,2.00000000000001));
#430=CARTESIAN_POINT('',(30.2264600343431,21.4,-74.5));
#431=CARTESIAN_POINT('',(30.2264600343431,21.4,-74.5));
#432=CARTESIAN_POINT('',(-29.7735399656569,21.4,-74.5));
#433=CARTESIAN_POINT('',(-29.7735399656569,21.4,-74.5));
#434=CARTESIAN_POINT('',(-29.7735399656569,21.4,2.00000000000001));
#435=CARTESIAN_POINT('Origin',(-26.2735399656569,18.4,1.));
#436=CARTESIAN_POINT('',(-26.2735399656569,18.4,1.));
#437=CARTESIAN_POINT('',(-26.2735399656569,18.4,1.));
#438=CARTESIAN_POINT('',(-26.2735399656569,18.4,1.));
#439=CARTESIAN_POINT('Origin',(26.7264600343431,18.4,1.));
#440=CARTESIAN_POINT('',(26.7264600343431,18.4,1.));
#441=CARTESIAN_POINT('Origin',(-29.7735399656569,18.4,-74.5));
#442=CARTESIAN_POINT('',(-29.7735399656569,18.4,2.00000000000001));
#443=CARTESIAN_POINT('',(-29.7735399656569,18.4,-74.5));
#444=CARTESIAN_POINT('',(-29.7735399656569,18.4,2.00000000000001));
#445=CARTESIAN_POINT('',(-29.7735399656569,18.4,2.00000000000001));
#446=CARTESIAN_POINT('',(-29.7735399656569,18.4,-74.5));
#447=CARTESIAN_POINT('Origin',(30.2264600343431,18.4,-74.5));
#448=CARTESIAN_POINT('',(30.2264600343431,18.4,-74.5));
#449=CARTESIAN_POINT('',(-29.7735399656569,18.4,-74.5));
#450=CARTESIAN_POINT('',(30.2264600343431,18.4,-74.5));
#451=CARTESIAN_POINT('Origin',(30.2264600343431,18.4,2.00000000000001));
#452=CARTESIAN_POINT('',(30.2264600343431,18.4,2.00000000000001));
#453=CARTESIAN_POINT('',(30.2264600343431,18.4,-74.5));
#454=CARTESIAN_POINT('',(30.2264600343431,18.4,2.00000000000001));
#455=CARTESIAN_POINT('Origin',(-29.7735399656569,18.4,2.00000000000001));
#456=CARTESIAN_POINT('',(30.2264600343431,18.4,2.00000000000001));
#457=CARTESIAN_POINT('Origin',(0.226460034343123,18.4,-36.25));
#458=UNCERTAINTY_MEASURE_WITH_UNIT(LENGTH_MEASURE(0.01),#462,
'DISTANCE_ACCURACY_VALUE',
'Maximum model space distance between geometric entities at asserted c
onnectivities');
#459=UNCERTAINTY_MEASURE_WITH_UNIT(LENGTH_MEASURE(0.01),#462,
'DISTANCE_ACCURACY_VALUE',
'Maximum model space distance between geometric entities at asserted c
onnectivities');
#460=(
GEOMETRIC_REPRESENTATION_CONTEXT(3)
GLOBAL_UNCERTAINTY_ASSIGNED_CONTEXT((#458))
GLOBAL_UNIT_ASSIGNED_CONTEXT((#462,#464,#465))
REPRESENTATION_CONTEXT('','3D')
);
#461=(
GEOMETRIC_REPRESENTATION_CONTEXT(3)
GLOBAL_UNCERTAINTY_ASSIGNED_CONTEXT((#459))
GLOBAL_UNIT_ASSIGNED_CONTEXT((#462,#464,#465))
REPRESENTATION_CONTEXT('','3D')
);
#462=(
LENGTH_UNIT()
NAMED_UNIT(*)
SI_UNIT(.MILLI.,.METRE.)
);
#463=(
LENGTH_UNIT()
NAMED_UNIT(*)
SI_UNIT($,.METRE.)
);
#464=(
NAMED_UNIT(*)
PLANE_ANGLE_UNIT()
SI_UNIT($,.RADIAN.)
);
#465=(
NAMED_UNIT(*)
SI_UNIT($,.STERADIAN.)
SOLID_ANGLE_UNIT()
);
#466=SHAPE_DEFINITION_REPRESENTATION(#467,#468);
#467=PRODUCT_DEFINITION_SHAPE('',$,#470);
#468=SHAPE_REPRESENTATION('',(#298),#460);
#469=PRODUCT_DEFINITION_CONTEXT('part definition',#474,'design');
#470=PRODUCT_DEFINITION('Top Cover','Top Cover',#471,#469);
#471=PRODUCT_DEFINITION_FORMATION('',$,#476);
#472=PRODUCT_RELATED_PRODUCT_CATEGORY('Top Cover','Top Cover',(#476));
#473=APPLICATION_PROTOCOL_DEFINITION('international standard',
'automotive_design',2009,#474);
#474=APPLICATION_CONTEXT(
'Core Data for Automotive Mechanical Design Process');
#475=PRODUCT_CONTEXT('part definition',#474,'mechanical');
#476=PRODUCT('Top Cover','Top Cover',$,(#475));
#477=PRESENTATION_STYLE_ASSIGNMENT((#478));
#478=SURFACE_STYLE_USAGE(.BOTH.,#479);
#479=SURFACE_SIDE_STYLE('',(#480));
#480=SURFACE_STYLE_FILL_AREA(#481);
#481=FILL_AREA_STYLE('Plastic - Glossy (Black)',(#482));
#482=FILL_AREA_STYLE_COLOUR('Plastic - Glossy (Black)',#483);
#483=COLOUR_RGB('Plastic - Glossy (Black)',0.0980392156862745,0.0980392156862745,
0.0980392156862745);
ENDSEC;
END-ISO-10303-21;
