  0
SECTION
  2
HEADER
  9
$ACADVER
  1
AC1014
  9
$HANDSEED
  5
FFFF
  9
$MEASUREMENT
 70
     1
  0
ENDSEC
  0
SECTION
  2
TABLES
  0
TABLE
  2
VPORT
  5
8
330
0
100
AcDbSymbolTable
 70
     4
  0
VPORT
  5
2E
330
8
100
AcDbSymbolTableRecord
100
AcDbViewportTableRecord
  2
*ACTIVE
 70
     0
 10
0.0
 20
0.0
 11
1.0
 21
1.0
 12
210.0
 22
148.5
 13
0.0
 23
0.0
 14
10.0
 24
10.0
 15
10.0
 25
10.0
 16
0.0
 26
0.0
 36
1.0
 17
0.0
 27
0.0
 37
0.0
 40
341.0
 41
1.24
 42
50.0
 43
0.0
 44
0.0
 50
0.0
 51
0.0
 71
     0
 72
   100
 73
     1
 74
     3
 75
     0
 76
     0
 77
     0
 78
     0
  0
ENDTAB
  0
TABLE
  2
LTYPE
  5
5
330
0
100
AcDbSymbolTable
 70
     1
  0
LTYPE
  5
14
330
5
100
AcDbSymbolTableRecord
100
AcDbLinetypeTableRecord
  2
BYBLOCK
 70
     0
  3

 72
    65
 73
     0
 40
0.0
  0
LTYPE
  5
15
330
5
100
AcDbSymbolTableRecord
100
AcDbLinetypeTableRecord
  2
BYLAYER
 70
     0
  3

 72
    65
 73
     0
 40
0.0
  0
LTYPE
  5
16
330
5
100
AcDbSymbolTableRecord
100
AcDbLinetypeTableRecord
  2
CONTINUOUS
 70
     0
  3
Solid line
 72
    65
 73
     0
 40
0.0
  0
ENDTAB
  0
TABLE
  2
LAYER
  5
2
100
AcDbSymbolTable
 70
2
  0
LAYER
  5
50
100
AcDbSymbolTableRecord
100
AcDbLayerTableRecord
  2
0
 70
0
  6
CONTINUOUS
  0
LAYER
  5
51
100
AcDbSymbolTableRecord
100
AcDbLayerTableRecord
  2
Camada_1
 70
0
  6
CONTINUOUS
  0
ENDTAB
  0
TABLE
  2
STYLE
  5
3
330
0
100
AcDbSymbolTable
 70
     1
  0
STYLE
  5
11
330
3
100
AcDbSymbolTableRecord
100
AcDbTextStyleTableRecord
  2
STANDARD
 70
     0
 40
0.0
 41
1.0
 50
0.0
 71
     0
 42
2.5
  3
txt
  4

  0
ENDTAB
  0
TABLE
  2
VIEW
  5
6
330
0
100
AcDbSymbolTable
 70
     0
  0
ENDTAB
  0
TABLE
  2
UCS
  5
7
330
0
100
AcDbSymbolTable
 70
     0
  0
ENDTAB
  0
TABLE
  2
APPID
  5
9
330
0
100
AcDbSymbolTable
 70
     2
  0
APPID
  5
12
330
9
100
AcDbSymbolTableRecord
100
AcDbRegAppTableRecord
  2
ACAD
 70
     0
  0
ENDTAB
  0
TABLE
  2
DIMSTYLE
  5
A
330
0
100
AcDbSymbolTable
 70
     1
  0
DIMSTYLE
105
27
330
A
100
AcDbSymbolTableRecord
100
AcDbDimStyleTableRecord
  2
ISO-25
 70
     0
  3

  4

  5

  6

  7

 40
1.0
 41
2.5
 42
0.625
 43
3.75
 44
1.25
 45
0.0
 46
0.0
 47
0.0
 48
0.0
140
2.5
141
2.5
142
0.0
143
0.03937007874016
144
1.0
145
0.0
146
1.0
147
0.625
 71
     0
 72
     0
 73
     0
 74
     0
 75
     0
 76
     0
 77
     1
 78
     8
170
     0
171
     3
172
     1
173
     0
174
     0
175
     0
176
     0
177
     0
178
     0
270
     2
271
     2
272
     2
273
     2
274
     3
340
11
275
     0
280
     0
281
     0
282
     0
283
     0
284
     8
285
     0
286
     0
287
     3
288
     0
  0
ENDTAB
  0
TABLE
  2
BLOCK_RECORD
  5
1
330
0
100
AcDbSymbolTable
 70
     1
  0
BLOCK_RECORD
  5
1F
330
1
100
AcDbSymbolTableRecord
100
AcDbBlockTableRecord
  2
*MODEL_SPACE
  0
BLOCK_RECORD
  5
1B
330
1
100
AcDbSymbolTableRecord
100
AcDbBlockTableRecord
  2
*PAPER_SPACE
  0
ENDTAB
  0
ENDSEC
  0
SECTION
  2
BLOCKS
  0
BLOCK
  5
20
330
1F
100
AcDbEntity
  8
0
100
AcDbBlockBegin
  2
*MODEL_SPACE
 70
     0
 10
0.0
 20
0.0
 30
0.0
  3
*MODEL_SPACE
  1

  0
ENDBLK
  5
21
330
1F
100
AcDbEntity
  8
0
100
AcDbBlockEnd
  0
BLOCK
  5
1C
330
1B
100
AcDbEntity
 67
     1
  8
0
100
AcDbBlockBegin
  2
*PAPER_SPACE
  1

  0
ENDBLK
  5
1D
330
1B
100
AcDbEntity
 67
     1
  8
0
100
AcDbBlockEnd
  0
ENDSEC
  0
SECTION
  2
ENTITIES
  0
SPLINE
  5
100
100
AcDbEntity
  8
Camada_1
 62
7
100
AcDbSpline
 70
8
 71
3
 72
8
 73
4
 74
0
 40
0
 40
0
 40
0
 40
0
 40
1
 40
1
 40
1
 40
1
 10
115.159120
 20
236.449243
 30
0.0
 10
111.657340
 20
236.449243
 30
0.0
 10
108.734990
 20
233.965686
 30
0.0
 10
108.043790
 20
230.669751
 30
0.0
  0
SPLINE
  5
101
100
AcDbEntity
  8
Camada_1
 62
7
100
AcDbSpline
 70
8
 71
3
 72
8
 73
4
 74
0
 40
0
 40
0
 40
0
 40
0
 40
1
 40
1
 40
1
 40
1
 10
108.043790
 20
230.669751
 30
0.0
 10
104.060610
 20
233.606607
 30
0.0
 10
99.142141
 20
235.416231
 30
0.0
 10
93.817788
 20
235.416231
 30
0.0
  0
SPLINE
  5
102
100
AcDbEntity
  8
Camada_1
 62
7
100
AcDbSpline
 70
8
 71
3
 72
8
 73
4
 74
0
 40
0
 40
0
 40
0
 40
0
 40
1
 40
1
 40
1
 40
1
 10
93.817788
 20
235.416231
 30
0.0
 10
81.739780
 20
235.416231
 30
0.0
 10
71.744342
 20
226.358907
 30
0.0
 10
70.041461
 20
214.959598
 30
0.0
  0
LINE
  5
103
100
AcDbEntity
  8
Camada_1
 62
7
100
AcDbLine
 10
70.041461
 20
214.959598
 30
0.0
 11
69.982031
 21
214.959598
 31
0.0
  0
SPLINE
  5
104
100
AcDbEntity
  8
Camada_1
 62
7
100
AcDbSpline
 70
8
 71
3
 72
8
 73
4
 74
0
 40
0
 40
0
 40
0
 40
0
 40
1
 40
1
 40
1
 40
1
 10
69.982031
 20
214.959598
 30
0.0
 10
65.984820
 20
214.959598
 30
0.0
 10
62.732861
 20
211.714296
 30
0.0
 10
62.732861
 20
207.725415
 30
0.0
  0
SPLINE
  5
105
100
AcDbEntity
  8
Camada_1
 62
7
100
AcDbSpline
 70
8
 71
3
 72
8
 73
4
 74
0
 40
0
 40
0
 40
0
 40
0
 40
1
 40
1
 40
1
 40
1
 10
62.732861
 20
207.725415
 30
0.0
 10
62.732861
 20
203.736535
 30
0.0
 10
65.984820
 20
200.491233
 30
0.0
 10
69.982031
 20
200.491233
 30
0.0
  0
LINE
  5
106
100
AcDbEntity
  8
Camada_1
 62
7
100
AcDbLine
 10
69.982031
 20
200.491233
 30
0.0
 11
95.176876
 21
200.491233
 31
0.0
  0
LINE
  5
107
100
AcDbEntity
  8
Camada_1
 62
7
100
AcDbLine
 10
95.176876
 20
200.491233
 30
0.0
 11
95.176876
 21
203.998513
 31
0.0
  0
LINE
  5
108
100
AcDbEntity
  8
Camada_1
 62
7
100
AcDbLine
 10
95.176876
 20
203.998513
 30
0.0
 11
69.982033
 21
203.998513
 31
0.0
  0
SPLINE
  5
109
100
AcDbEntity
  8
Camada_1
 62
7
100
AcDbSpline
 70
8
 71
3
 72
8
 73
4
 74
0
 40
0
 40
0
 40
0
 40
0
 40
1
 40
1
 40
1
 40
1
 10
69.982033
 20
203.998513
 30
0.0
 10
67.918758
 20
203.998513
 30
0.0
 10
66.313006
 20
205.597091
 30
0.0
 10
66.313006
 20
207.652035
 30
0.0
  0
SPLINE
  5
10a
100
AcDbEntity
  8
Camada_1
 62
7
100
AcDbSpline
 70
8
 71
3
 72
8
 73
4
 74
0
 40
0
 40
0
 40
0
 40
0
 40
1
 40
1
 40
1
 40
1
 10
66.313006
 20
207.652035
 30
0.0
 10
66.313006
 20
209.706980
 30
0.0
 10
67.918758
 20
211.232693
 30
0.0
 10
69.982033
 20
211.232693
 30
0.0
  0
LINE
  5
10b
100
AcDbEntity
  8
Camada_1
 62
7
100
AcDbLine
 10
69.982033
 20
211.232693
 30
0.0
 11
127.767140
 21
211.232693
 31
0.0
  0
LINE
  5
10c
100
AcDbEntity
  8
Camada_1
 62
7
100
AcDbLine
 10
127.767140
 20
211.232693
 30
0.0
 11
116.957460
 21
222.188097
 31
0.0
  0
SPLINE
  5
10d
100
AcDbEntity
  8
Camada_1
 62
7
100
AcDbSpline
 70
8
 71
3
 72
8
 73
4
 74
0
 40
0
 40
0
 40
0
 40
0
 40
1
 40
1
 40
1
 40
1
 10
116.957460
 20
222.188097
 30
0.0
 10
120.103230
 20
222.988242
 30
0.0
 10
122.429480
 20
225.802030
 30
0.0
 10
122.429480
 20
229.197489
 30
0.0
  0
SPLINE
  5
10e
100
AcDbEntity
  8
Camada_1
 62
7
100
AcDbSpline
 70
8
 71
3
 72
8
 73
4
 74
0
 40
0
 40
0
 40
0
 40
0
 40
1
 40
1
 40
1
 40
1
 10
122.429480
 20
229.197489
 30
0.0
 10
122.429480
 20
233.213115
 30
0.0
 10
119.174750
 20
236.449243
 30
0.0
 10
115.159120
 20
236.449243
 30
0.0
  0
LINE
  5
10f
100
AcDbEntity
  8
Camada_1
 62
7
100
AcDbLine
 10
115.159120
 20
236.449243
 30
0.0
 11
115.159120
 21
236.449243
 31
0.0
  0
LINE
  5
110
100
AcDbEntity
  8
Camada_1
 62
1
100
AcDbLine
 10
79.569562
 20
219.715897
 30
0.0
 11
84.375470
 21
218.337687
 31
0.0
  0
LINE
  5
111
100
AcDbEntity
  8
Camada_1
 62
1
100
AcDbLine
 10
84.375470
 20
218.337687
 30
0.0
 11
82.997259
 21
213.531780
 31
0.0
  0
LINE
  5
112
100
AcDbEntity
  8
Camada_1
 62
1
100
AcDbLine
 10
82.997259
 20
213.531780
 30
0.0
 11
78.191351
 21
214.909473
 31
0.0
  0
LINE
  5
113
100
AcDbEntity
  8
Camada_1
 62
1
100
AcDbLine
 10
78.191351
 20
214.909473
 30
0.0
 11
79.569562
 21
219.715897
 31
0.0
  0
LINE
  5
114
100
AcDbEntity
  8
Camada_1
 62
1
100
AcDbLine
 10
112.997490
 20
219.701957
 30
0.0
 11
114.375710
 21
214.896049
 31
0.0
  0
LINE
  5
115
100
AcDbEntity
  8
Camada_1
 62
1
100
AcDbLine
 10
114.375710
 20
214.896049
 30
0.0
 11
109.569280
 21
213.517838
 31
0.0
  0
LINE
  5
116
100
AcDbEntity
  8
Camada_1
 62
1
100
AcDbLine
 10
109.569280
 20
213.517838
 30
0.0
 11
108.191590
 21
218.323745
 31
0.0
  0
LINE
  5
117
100
AcDbEntity
  8
Camada_1
 62
1
100
AcDbLine
 10
108.191590
 20
218.323745
 30
0.0
 11
112.997490
 21
219.701957
 31
0.0
  0
ENDSEC
  0
SECTION
  2
OBJECTS
  0
DICTIONARY
  5
C
330
0
100
AcDbDictionary
  3
ACAD_GROUP
350
D
  3
ACAD_MLINESTYLE
350
17
  0
DICTIONARY
  5
D
330
C
100
AcDbDictionary
  0
DICTIONARY
  5
1A
330
C
100
AcDbDictionary
  0
DICTIONARY
  5
17
330
C
100
AcDbDictionary
  3
STANDARD
350
18
  0
DICTIONARY
  5
19
330
C
100
AcDbDictionary
  0
ENDSEC
  0
EOF
