  0
SECTION
  2
HEADER
  9
$ACADVER
  1
AC1015
  9
$ACADMAINTVER
 70
     6
  9
$DWGCODEPAGE
  3
ANSI_1252
  9
$INSBASE
 10
0.0
 20
0.0
 30
0.0
  9
$EXTMIN
 10
1.000000E+20
 20
1.000000E+20
 30
1.000000E+20
  9
$EXTMAX
 10
-1.000000E+20
 20
-1.000000E+20
 30
-1.000000E+20
  9
$LIMMIN
 10
0.0
 20
0.0
  9
$LIMMAX
 10
420.0
 20
297.0
  9
$ORTHOMODE
 70
     0
  9
$REGENMODE
 70
     1
  9
$FILLMODE
 70
     1
  9
$QTEXTMODE
 70
     0
  9
$MIRRTEXT
 70
     1
  9
$LTSCALE
 40
1.0
  9
$ATTMODE
 70
     1
  9
$TEXTSIZE
 40
2.5
  9
$TRACEWID
 40
1.0
  9
$TEXTSTYLE
  7
Standard
  9
$CLAYER
  8
0
  9
$CELTYPE
  6
ByLayer
  9
$CECOLOR
 62
   256
  9
$CELTSCALE
 40
1.0
  9
$DISPSILH
 70
     0
  9
$DIMSCALE
 40
1.0
  9
$DIMASZ
 40
2.5
  9
$DIMEXO
 40
0.625
  9
$DIMDLI
 40
3.75
  9
$DIMRND
 40
0.0
  9
$DIMDLE
 40
0.0
  9
$DIMEXE
 40
1.25
  9
$DIMTP
 40
0.0
  9
$DIMTM
 40
0.0
  9
$DIMTXT
 40
2.5
  9
$DIMCEN
 40
2.5
  9
$DIMTSZ
 40
0.0
  9
$DIMTOL
 70
     0
  9
$DIMLIM
 70
     0
  9
$DIMTIH
 70
     0
  9
$DIMTOH
 70
     0
  9
$DIMSE1
 70
     0
  9
$DIMSE2
 70
     0
  9
$DIMTAD
 70
     1
  9
$DIMZIN
 70
     8
  9
$DIMBLK
  1

  9
$DIMASO
 70
     1
  9
$DIMSHO
 70
     1
  9
$DIMPOST
  1

  9
$DIMAPOST
  1

  9
$DIMALT
 70
     0
  9
$DIMALTD
 70
     3
  9
$DIMALTF
 40
0.03937
  9
$DIMLFAC
 40
1.0
  9
$DIMTOFL
 70
     1
  9
$DIMTVP
 40
0.0
  9
$DIMTIX
 70
     0
  9
$DIMSOXD
 70
     0
  9
$DIMSAH
 70
     0
  9
$DIMBLK1
  1

  9
$DIMBLK2
  1

  9
$DIMSTYLE
  2
ISO-25
  9
$DIMCLRD
 70
     0
  9
$DIMCLRE
 70
     0
  9
$DIMCLRT
 70
     0
  9
$DIMTFAC
 40
1.0
  9
$DIMGAP
 40
0.625
  9
$DIMJUST
 70
     0
  9
$DIMSD1
 70
     0
  9
$DIMSD2
 70
     0
  9
$DIMTOLJ
 70
     0
  9
$DIMTZIN
 70
     8
  9
$DIMALTZ
 70
     0
  9
$DIMALTTZ
 70
     0
  9
$DIMUPT
 70
     0
  9
$DIMDEC
 70
     2
  9
$DIMTDEC
 70
     2
  9
$DIMALTU
 70
     2
  9
$DIMALTTD
 70
     3
  9
$DIMTXSTY
  7
Standard
  9
$DIMAUNIT
 70
     0
  9
$DIMADEC
 70
     0
  9
$DIMALTRND
 40
0.0
  9
$DIMAZIN
 70
     0
  9
$DIMDSEP
 70
    44
  9
$DIMATFIT
 70
     3
  9
$DIMFRAC
 70
     0
  9
$DIMLDRBLK
  1

  9
$DIMLUNIT
 70
     2
  9
$DIMLWD
 70
    -2
  9
$DIMLWE
 70
    -2
  9
$DIMTMOVE
 70
     0
  9
$LUNITS
 70
     2
  9
$LUPREC
 70
     4
  9
$SKETCHINC
 40
1.0
  9
$FILLETRAD
 40
10.0
  9
$AUNITS
 70
     0
  9
$AUPREC
 70
     0
  9
$MENU
  1
.
  9
$ELEVATION
 40
0.0
  9
$PELEVATION
 40
0.0
  9
$THICKNESS
 40
0.0
  9
$LIMCHECK
 70
     0
  9
$CHAMFERA
 40
10.0
  9
$CHAMFERB
 40
10.0
  9
$CHAMFERC
 40
20.0
  9
$CHAMFERD
 40
0.0
  9
$SKPOLY
 70
     0
  9
$TDCREATE
 40
2455209.966491609
  9
$TDUCREATE
 40
2455209.424824942
  9
$TDUPDATE
 40
2455209.966491621
  9
$TDUUPDATE
 40
2455209.424824954
  9
$TDINDWG
 40
0.0000000116
  9
$TDUSRTIMER
 40
0.0000000116
  9
$USRTIMER
 70
     1
  9
$ANGBASE
 50
0.0
  9
$ANGDIR
 70
     0
  9
$PDMODE
 70
     3
  9
$PDSIZE
 40
-0.7
  9
$PLINEWID
 40
0.0
  9
$SPLFRAME
 70
     0
  9
$SPLINETYPE
 70
     6
  9
$SPLINESEGS
 70
     8
  9
$HANDSEED
  5
95
  9
$SURFTAB1
 70
     6
  9
$SURFTAB2
 70
     6
  9
$SURFTYPE
 70
     6
  9
$SURFU
 70
     6
  9
$SURFV
 70
     6
  9
$UCSBASE
  2

  9
$UCSNAME
  2

  9
$UCSORG
 10
0.0
 20
0.0
 30
0.0
  9
$UCSXDIR
 10
1.0
 20
0.0
 30
0.0
  9
$UCSYDIR
 10
0.0
 20
1.0
 30
0.0
  9
$UCSORTHOREF
  2

  9
$UCSORTHOVIEW
 70
     0
  9
$UCSORGTOP
 10
0.0
 20
0.0
 30
0.0
  9
$UCSORGBOTTOM
 10
0.0
 20
0.0
 30
0.0
  9
$UCSORGLEFT
 10
0.0
 20
0.0
 30
0.0
  9
$UCSORGRIGHT
 10
0.0
 20
0.0
 30
0.0
  9
$UCSORGFRONT
 10
0.0
 20
0.0
 30
0.0
  9
$UCSORGBACK
 10
0.0
 20
0.0
 30
0.0
  9
$PUCSBASE
  2

  9
$PUCSNAME
  2

  9
$PUCSORG
 10
0.0
 20
0.0
 30
0.0
  9
$PUCSXDIR
 10
1.0
 20
0.0
 30
0.0
  9
$PUCSYDIR
 10
0.0
 20
1.0
 30
0.0
  9
$PUCSORTHOREF
  2

  9
$PUCSORTHOVIEW
 70
     0
  9
$PUCSORGTOP
 10
0.0
 20
0.0
 30
0.0
  9
$PUCSORGBOTTOM
 10
0.0
 20
0.0
 30
0.0
  9
$PUCSORGLEFT
 10
0.0
 20
0.0
 30
0.0
  9
$PUCSORGRIGHT
 10
0.0
 20
0.0
 30
0.0
  9
$PUCSORGFRONT
 10
0.0
 20
0.0
 30
0.0
  9
$PUCSORGBACK
 10
0.0
 20
0.0
 30
0.0
  9
$USERI1
 70
     0
  9
$USERI2
 70
     0
  9
$USERI3
 70
     0
  9
$USERI4
 70
     0
  9
$USERI5
 70
     0
  9
$USERR1
 40
0.0
  9
$USERR2
 40
0.0
  9
$USERR3
 40
0.0
  9
$USERR4
 40
0.0
  9
$USERR5
 40
0.0
  9
$WORLDVIEW
 70
     1
  9
$SHADEDGE
 70
     3
  9
$SHADEDIF
 70
    70
  9
$TILEMODE
 70
     1
  9
$MAXACTVP
 70
    64
  9
$PINSBASE
 10
0.0
 20
0.0
 30
0.0
  9
$PLIMCHECK
 70
     0
  9
$PEXTMIN
 10
1.000000E+20
 20
1.000000E+20
 30
1.000000E+20
  9
$PEXTMAX
 10
-1.000000E+20
 20
-1.000000E+20
 30
-1.000000E+20
  9
$PLIMMIN
 10
0.0
 20
0.0
  9
$PLIMMAX
 10
420.0
 20
297.0
  9
$UNITMODE
 70
     0
  9
$VISRETAIN
 70
     1
  9
$PLINEGEN
 70
     0
  9
$PSLTSCALE
 70
     1
  9
$TREEDEPTH
 70
  3020
  9
$CMLSTYLE
  2
Standard
  9
$CMLJUST
 70
     1
  9
$CMLSCALE
 40
1.0
  9
$PROXYGRAPHICS
 70
     1
  9
$MEASUREMENT
 70
     1
  9
$CELWEIGHT
370
    -1
  9
$ENDCAPS
280
     0
  9
$JOINSTYLE
280
     0
  9
$LWDISPLAY
290
     0
  9
$INSUNITS
 70
     4
  9
$HYPERLINKBASE
  1

  9
$STYLESHEET
  1

  9
$XEDIT
290
     1
  9
$CEPSNTYPE
380
     0
  9
$PSTYLEMODE
290
     1
  9
$FINGERPRINTGUID
  2
{FAEB1C30-E019-11D5-929B-00C0DF256EC4}
  9
$VERSIONGUID
  2
{FAEB1C32-E019-11D5-929B-00C0DF256EC4}
  9
$EXTNAMES
290
     1
  9
$PSVPSCALE
 40
0.0
  9
$OLESTARTUP
290
     0
  0
ENDSEC
  0
SECTION
  2
CLASSES
  0
CLASS
  1
ACDBDICTIONARYWDFLT
  2
AcDbDictionaryWithDefault
  3
ObjectDBX Classes
 90
        0
280
     0
281
     0
  0
CLASS
  1
ACDBPLACEHOLDER
  2
AcDbPlaceHolder
  3
ObjectDBX Classes
 90
        0
280
     0
281
     0
  0
CLASS
  1
LAYOUT
  2
AcDbLayout
  3
ObjectDBX Classes
 90
        0
280
     0
281
     0
  0
ENDSEC
  0
SECTION
  2
TABLES
  0
TABLE
  2
VPORT
  5
8
330
0
100
AcDbSymbolTable
 70
     2
  0
VPORT
  5
29
330
8
100
AcDbSymbolTableRecord
100
AcDbViewportTableRecord
  2
*Active
 70
     0
 10
0.0
 20
0.0
 11
1.0
 21
1.0
 12
50.0
 22
50.0
 13
0.0
 23
0.0
 14
10.0
 24
10.0
 15
10.0
 25
10.0
 16
0.0
 26
0.0
 36
1.0
 17
0.0
 27
0.0
 37
0.0
 40
103.921569
 41
1.0
 42
50.0
 43
0.0
 44
0.0
 50
0.0
 51
0.0
 71
     0
 72
   100
 73
     1
 74
     3
 75
     0
 76
     0
 77
     0
 78
     0
281
     0
 65
     1
110
0.0
120
0.0
130
0.0
111
1.0
121
0.0
131
0.0
112
0.0
122
1.0
132
0.0
 79
     0
146
0.0
  0
ENDTAB
  0
TABLE
  2
LTYPE
  5
5
330
0
100
AcDbSymbolTable
 70
     1
  0
LTYPE
  5
14
330
5
100
AcDbSymbolTableRecord
100
AcDbLinetypeTableRecord
  2
ByBlock
 70
     0
  3

 72
    65
 73
     0
 40
0.0
  0
LTYPE
  5
15
330
5
100
AcDbSymbolTableRecord
100
AcDbLinetypeTableRecord
  2
ByLayer
 70
     0
  3

 72
    65
 73
     0
 40
0.0
  0
LTYPE
  5
16
330
5
100
AcDbSymbolTableRecord
100
AcDbLinetypeTableRecord
  2
Continuous
 70
     0
  3

 72
    65
 73
     0
 40
0.0
  0
ENDTAB
  0
TABLE
  2
LAYER
  5
2
330
0
100
AcDbSymbolTable
 70
     1
  0
LAYER
  5
10
330
2
100
AcDbSymbolTableRecord
100
AcDbLayerTableRecord
  2
0
 70
     0
 62
     7
  6
Continuous
370
    -3
390
F
  0
ENDTAB
  0
TABLE
  2
STYLE
  5
3
330
0
100
AcDbSymbolTable
 70
     1
  0
STYLE
  5
11
330
3
100
AcDbSymbolTableRecord
100
AcDbTextStyleTableRecord
  2
Standard
 70
     0
 40
1.0
 41
1.0
 50
0.0
 71
     0
 42
2.5
  3
RomanS
  4

  0
ENDTAB
  0
TABLE
  2
VIEW
  5
6
330
0
100
AcDbSymbolTable
 70
     0
  0
ENDTAB
  0
TABLE
  2
UCS
  5
7
330
0
100
AcDbSymbolTable
 70
     0
  0
ENDTAB
  0
TABLE
  2
APPID
  5
9
330
0
100
AcDbSymbolTable
 70
     1
  0
APPID
  5
12
330
9
100
AcDbSymbolTableRecord
100
AcDbRegAppTableRecord
  2
ACAD
 70
     0
  0
ENDTAB
  0
TABLE
  2
DIMSTYLE
  5
A
330
0
100
AcDbSymbolTable
 70
     1
100
AcDbDimStyleTable
  0
DIMSTYLE
105
27
330
A
100
AcDbSymbolTableRecord
100
AcDbDimStyleTableRecord
  2
ISO-25
 70
     0
 41
2.5
 42
0.625
 44
1.25
 73
     0
 74
     0
 77
     1
 78
     8
 79
     2
140
2.5
141
2.5
146
0.0
147
0.625
271
     2
272
     0
273
     0
274
     0
278
    44
283
     0
289
     0
340
11
  0
ENDTAB
  0
TABLE
  2
BLOCK_RECORD
  5
1
330
0
100
AcDbSymbolTable
 70
     1
  0
BLOCK_RECORD
  5
1F
330
1
100
AcDbSymbolTableRecord
100
AcDbBlockTableRecord
  2
*Model_Space
340
22
  0
BLOCK_RECORD
  5
1B
330
1
100
AcDbSymbolTableRecord
100
AcDbBlockTableRecord
  2
*Paper_Space
340
1E
  0
BLOCK_RECORD
  5
23
330
1
100
AcDbSymbolTableRecord
100
AcDbBlockTableRecord
  2
*Paper_Space0
340
26
  0
ENDTAB
  0
ENDSEC
  0
SECTION
  2
BLOCKS
  0
BLOCK
  5
20
330
1F
100
AcDbEntity
  8
0
100
AcDbBlockBegin
  2
*Model_Space
 70
     0
 71
     0
 10
0.0
 20
0.0
 30
0.0
  3
*Model_Space
  1

  0
ENDBLK
  5
21
330
1F
100
AcDbEntity
  8
0
100
AcDbBlockEnd
  0
BLOCK
  5
1C
330
1B
100
AcDbEntity
 67
     1
  8
0
100
AcDbBlockBegin
  2
*Paper_Space
 70
     0
 71
     0
 10
0.0
 20
0.0
 30
0.0
  3
*Paper_Space
  1

  0
ENDBLK
  5
1D
330
1B
100
AcDbEntity
 67
     1
  8
0
100
AcDbBlockEnd
  0
BLOCK
  5
24
330
23
100
AcDbEntity
  8
0
100
AcDbBlockBegin
  2
*Paper_Space0
 70
     0
 71
     0
 10
0.0
 20
0.0
 30
0.0
  3
*Paper_Space0
  1

  0
ENDBLK
  5
25
330
23
100
AcDbEntity
  8
0
100
AcDbBlockEnd
  0
ENDSEC
  0
SECTION
  2
ENTITIES
  0
LWPOLYLINE
  5
2A
330
1F
100
AcDbEntity
  8
0
100
AcDbPolyline
 90
        9
 70
   128
 43
0.0
 10
80.080807
 20
547.484464
 42
0.414214
 10
82.480807
 20
545.084464
 10
88.880806
 20
545.084464
 42
0.414214
 10
91.280806
 20
547.484464
 10
91.280806
 20
584.284463
 42
0.414214
 10
88.880806
 20
586.684463
 10
82.480807
 20
586.684463
 42
0.414214
 10
80.080807
 20
584.284463
 10
80.080807
 20
547.484464
  0
LWPOLYLINE
  5
2B
330
1F
100
AcDbEntity
  8
0
100
AcDbPolyline
 90
        9
 70
   128
 43
0.0
 10
195.280805
 20
606.204463
 42
0.312301
 10
221.840805
 20
573.724463
 42
0.505372
 10
228.080806
 20
578.364463
 10
228.080806
 20
590.364462
 42
0.296416
 10
225.200805
 20
594.684463
 42
-0.251246
 10
216.240806
 20
606.844463
 42
0.36643
 10
211.600806
 20
611.004463
 10
200.240805
 20
611.324464
 42
0.443783
 10
195.280805
 20
606.204463
  0
LWPOLYLINE
  5
2C
330
1F
100
AcDbEntity
  8
0
100
AcDbPolyline
 90
        9
 70
   128
 43
0.0
 10
236.080806
 20
578.364463
 42
0.495438
 10
242.160806
 20
573.724463
 42
0.295348
 10
268.400806
 20
603.804463
 42
0.465176
 10
263.760806
 20
609.404464
 10
252.560805
 20
609.724462
 42
0.365072
 10
247.760806
 20
605.884463
 42
-0.236068
 10
238.800806
 20
594.684463
 42
0.288116
 10
236.080806
 20
590.364463
 10
236.080806
 20
578.364463
  0
LWPOLYLINE
  5
2D
330
1F
100
AcDbEntity
  8
0
100
AcDbPolyline
 90
       11
 70
   128
 43
0.0
 10
90.480806
 20
438.364463
 42
0.414214
 10
95.280806
 20
433.564463
 42
0.414214
 10
100.080806
 20
438.364463
 10
100.080806
 20
464.124463
 42
-0.364758
 10
113.360806
 20
479.804464
 42
0.371258
 10
116.080806
 20
483.004463
 10
116.080806
 20
489.724464
 42
0.878974
 10
110.000806
 20
490.524463
 42
-0.257389
 10
107.920807
 20
488.284463
 42
0.321729
 10
90.480806
 20
464.124463
 10
90.480806
 20
438.364463
  0
LWPOLYLINE
  5
2E
330
1F
100
AcDbEntity
  8
0
100
AcDbPolyline
 90
        9
 70
   128
 43
0.0
 10
430.800806
 20
508.764463
 42
0.318497
 10
424.400805
 20
517.884464
 10
423.920805
 20
518.044464
 42
0.370282
 10
414.160806
 20
514.364464
 10
406.800805
 20
501.084463
 42
0.562375
 10
411.120806
 20
494.044463
 10
421.200805
 20
494.044463
 42
0.414214
 10
430.800805
 20
503.644463
 10
430.800806
 20
508.764463
  0
LWPOLYLINE
  5
2F
330
1F
100
AcDbEntity
  8
0
100
AcDbPolyline
 90
        9
 70
   128
 43
0.0
 10
430.800805
 20
409.244464
 42
0.414214
 10
421.200805
 20
418.844464
 10
411.120805
 20
418.844464
 42
0.571905
 10
406.800805
 20
411.644464
 10
414.160806
 20
398.364463
 42
0.36347
 10
423.920805
 20
394.684463
 10
424.400806
 20
395.004463
 42
0.316968
 10
430.800806
 20
403.964464
 10
430.800805
 20
409.244464
  0
LWPOLYLINE
  5
30
330
1F
100
AcDbEntity
  8
0
100
AcDbPolyline
 90
        5
 70
   128
 43
0.0
 10
449.200806
 20
439.644463
 42
1.0
 10
449.200806
 20
447.644464
 10
394.640805
 20
447.644464
 42
1.0
 10
394.640805
 20
439.644463
 10
449.200806
 20
439.644463
  0
LWPOLYLINE
  5
31
330
1F
100
AcDbEntity
  8
0
100
AcDbPolyline
 90
        5
 70
   128
 43
0.0
 10
444.400806
 20
426.844463
 42
1.0
 10
444.400806
 20
434.844463
 10
401.680806
 20
434.844463
 42
1.0
 10
401.680806
 20
426.844463
 10
444.400806
 20
426.844463
  0
LWPOLYLINE
  5
32
330
1F
100
AcDbEntity
  8
0
100
AcDbPolyline
 90
        5
 70
   128
 43
0.0
 10
444.400806
 20
478.044463
 42
1.0
 10
444.400806
 20
486.044464
 10
401.680806
 20
486.044464
 42
1.0
 10
401.680806
 20
478.044463
 10
444.400806
 20
478.044463
  0
LWPOLYLINE
  5
33
330
1F
100
AcDbEntity
  8
0
100
AcDbPolyline
 90
        5
 70
   128
 43
0.0
 10
449.200806
 20
465.244463
 42
1.0
 10
449.200806
 20
473.244463
 10
394.640805
 20
473.244463
 42
1.0
 10
394.640805
 20
465.244463
 10
449.200806
 20
465.244463
  0
LWPOLYLINE
  5
34
330
1F
100
AcDbEntity
  8
0
100
AcDbPolyline
 90
        5
 70
   128
 43
0.0
 10
449.200806
 20
452.444464
 42
1.0
 10
449.200806
 20
460.444463
 10
393.200805
 20
460.444463
 42
1.0
 10
393.200805
 20
452.444464
 10
449.200806
 20
452.444464
  0
LWPOLYLINE
  5
35
330
1F
100
AcDbEntity
  8
0
100
AcDbPolyline
 90
        9
 70
   128
 43
0.0
 10
316.880805
 20
107.484464
 42
0.414214
 10
332.880806
 20
123.484464
 10
332.880806
 20
142.684464
 42
0.414214
 10
316.880805
 20
158.684464
 10
284.880806
 20
158.684464
 42
0.414214
 10
280.080806
 20
153.884464
 10
280.080806
 20
112.284464
 42
0.414214
 10
284.880806
 20
107.484464
 10
316.880805
 20
107.484464
  0
LWPOLYLINE
  5
36
330
1F
100
AcDbEntity
  8
0
100
AcDbPolyline
 90
        9
 70
   128
 43
0.0
 10
286.960806
 20
219.004464
 10
318.960806
 20
219.004464
 42
0.414214
 10
334.960806
 20
235.004464
 10
334.960806
 20
254.204464
 42
0.414214
 10
318.960806
 20
270.204463
 10
286.960806
 20
270.204463
 42
0.414214
 10
282.160806
 20
265.404463
 10
282.160806
 20
223.804464
 42
0.414214
 10
286.960806
 20
219.004464
  0
LWPOLYLINE
  5
37
330
1F
100
AcDbEntity
  8
0
100
AcDbPolyline
 90
        9
 70
   128
 43
0.0
 10
680.970373
 20
60.95868
 42
-0.252153
 10
690.090374
 20
73.118681
 42
0.288355
 10
692.810374
 20
77.440803
 10
692.810374
 20
89.438681
 42
0.495438
 10
686.730373
 20
94.078681
 42
0.312301
 10
660.170373
 20
61.598681
 42
0.443783
 10
665.130373
 20
56.478681
 10
676.490374
 20
56.798681
 42
0.365197
 10
680.970373
 20
60.95868
  0
LWPOLYLINE
  5
38
330
1F
100
AcDbEntity
  8
0
100
AcDbPolyline
 90
        9
 70
   128
 43
0.0
 10
703.690374
 20
73.118681
 42
-0.233691
 10
712.490373
 20
61.918681
 42
0.366964
 10
717.450373
 20
58.07868
 10
728.650374
 20
58.398681
 42
0.453385
 10
733.290374
 20
63.998681
 42
0.293543
 10
707.050374
 20
94.078681
 42
0.505372
 10
700.810374
 20
89.438681
 10
700.810373
 20
77.438681
 42
0.296416
 10
703.690374
 20
73.118681
  0
LWPOLYLINE
  5
39
330
1F
100
AcDbEntity
  8
0
100
AcDbPolyline
 90
        5
 70
   128
 43
0.0
 10
722.250373
 20
208.318681
 10
722.250373
 20
216.318681
 10
675.850374
 20
216.318681
 10
675.850374
 20
208.318681
 10
722.250373
 20
208.318681
  0
LWPOLYLINE
  5
3A
330
1F
100
AcDbEntity
  8
0
100
AcDbPolyline
 90
        5
 70
   128
 43
0.0
 10
585.120578
 20
248.47868
 10
577.120578
 20
248.47868
 10
577.120578
 20
202.078681
 10
585.120578
 20
202.078681
 10
585.120578
 20
248.47868
  0
LWPOLYLINE
  5
3B
330
1F
100
AcDbEntity
  8
0
100
AcDbPolyline
 90
        5
 70
   128
 43
0.0
 10
577.594703
 20
353.758789
 42
-0.414214
 10
568.794703
 20
344.95879
 42
-0.414214
 10
559.994703
 20
353.758789
 42
-0.414214
 10
568.794703
 20
362.558789
 42
-0.414214
 10
577.594703
 20
353.758789
  0
LWPOLYLINE
  5
3C
330
1F
100
AcDbEntity
  8
0
100
AcDbPolyline
 90
        8
 70
   128
 43
0.0
 10
579.034703
 20
364.95879
 10
584.794703
 20
375.03879
 42
-0.490624
 10
589.754703
 20
375.67879
 42
-0.143539
 10
598.394702
 20
360.958789
 42
-0.487984
 10
595.194703
 20
356.95879
 10
583.674702
 20
356.95879
 42
0.077485
 10
581.914702
 20
361.27879
 42
0.077446
 10
579.034703
 20
364.95879
  0
LWPOLYLINE
  5
3D
330
1F
100
AcDbEntity
  8
0
100
AcDbPolyline
 90
        8
 70
   128
 43
0.0
 10
579.034703
 20
342.398789
 42
0.077446
 10
581.914703
 20
346.078788
 42
0.079609
 10
583.674703
 20
350.558789
 10
595.194703
 20
350.558789
 42
-0.487984
 10
598.394703
 20
346.558789
 42
-0.144188
 10
589.754703
 20
331.678789
 42
-0.476309
 10
584.794702
 20
332.47879
 10
579.034703
 20
342.398789
  0
LWPOLYLINE
  5
3E
330
1F
100
AcDbEntity
  8
0
100
AcDbPolyline
 90
        8
 70
   128
 43
0.0
 10
564.154703
 20
368.158789
 10
558.394703
 20
378.238789
 42
-0.482026
 10
560.154702
 20
382.87879
 42
-0.143933
 10
577.274703
 20
382.878789
 42
-0.497069
 10
579.194703
 20
378.238789
 10
573.434703
 20
368.158789
 42
0.077964
 10
568.794703
 20
368.958791
 42
0.077964
 10
564.154703
 20
368.158789
  0
LWPOLYLINE
  5
3F
330
1F
100
AcDbEntity
  8
0
100
AcDbPolyline
 90
        8
 70
   128
 43
0.0
 10
553.914703
 20
356.958789
 10
542.394703
 20
356.95879
 42
-0.487984
 10
539.194704
 20
360.958789
 42
-0.143539
 10
547.834703
 20
375.67879
 42
-0.490624
 10
552.794703
 20
375.03879
 10
558.554703
 20
364.958789
 42
0.079024
 10
555.514703
 20
361.278789
 42
0.076284
 10
553.914703
 20
356.958789
  0
LWPOLYLINE
  5
40
330
1F
100
AcDbEntity
  8
0
100
AcDbPolyline
 90
        8
 70
   128
 43
0.0
 10
564.154703
 20
339.198789
 42
0.077525
 10
568.794703
 20
338.558788
 42
0.077525
 10
573.434703
 20
339.198789
 10
579.194703
 20
329.278789
 42
-0.497069
 10
577.274703
 20
324.63879
 42
-0.143933
 10
560.154702
 20
324.638789
 42
-0.482026
 10
558.394703
 20
329.278789
 10
564.154703
 20
339.198789
  0
LWPOLYLINE
  5
41
330
1F
100
AcDbEntity
  8
0
100
AcDbPolyline
 90
        5
 70
   128
 43
0.0
 10
584.314703
 20
442.238789
 42
-0.414214
 10
575.514703
 20
433.438789
 42
-0.414214
 10
566.714703
 20
442.238789
 42
-0.414214
 10
575.514703
 20
451.038789
 42
-0.414214
 10
584.314703
 20
442.238789
  0
LWPOLYLINE
  5
42
330
1F
100
AcDbEntity
  8
0
100
AcDbPolyline
 90
        8
 70
   128
 43
0.0
 10
585.754703
 20
431.038789
 42
0.079024
 10
588.794703
 20
434.71879
 42
0.076284
 10
590.394703
 20
439.03879
 10
602.074703
 20
439.038789
 42
-0.491774
 10
605.114703
 20
435.038789
 42
-0.144188
 10
596.474703
 20
420.15879
 42
-0.476309
 10
591.514702
 20
420.958789
 10
585.754703
 20
431.038789
  0
LWPOLYLINE
  5
43
330
1F
100
AcDbEntity
  8
0
100
AcDbPolyline
 90
        8
 70
   128
 43
0.0
 10
585.754703
 20
453.438789
 10
591.514704
 20
463.518789
 42
-0.480072
 10
596.474703
 20
464.318788
 42
-0.144188
 10
605.114702
 20
449.438789
 42
-0.491774
 10
602.074703
 20
445.438789
 10
590.394702
 20
445.438788
 42
0.078112
 10
588.794703
 20
449.918788
 42
0.076343
 10
585.754703
 20
453.438789
  0
LWPOLYLINE
  5
44
330
1F
100
AcDbEntity
  8
0
100
AcDbPolyline
 90
        8
 70
   128
 43
0.0
 10
570.874703
 20
427.838789
 42
0.077964
 10
575.514703
 20
427.038788
 42
0.077964
 10
580.154703
 20
427.838789
 10
586.074703
 20
417.758789
 42
-0.474523
 10
584.154703
 20
413.118789
 42
-0.143933
 10
567.034703
 20
413.11879
 42
-0.497069
 10
565.114703
 20
417.758789
 10
570.874703
 20
427.838789
  0
LWPOLYLINE
  5
45
330
1F
100
AcDbEntity
  8
0
100
AcDbPolyline
 90
        8
 70
   128
 43
0.0
 10
570.874703
 20
456.63879
 10
565.114703
 20
466.718789
 42
-0.497069
 10
567.034703
 20
471.358788
 42
-0.143933
 10
584.154703
 20
471.358789
 42
-0.474523
 10
586.074703
 20
466.718789
 10
580.154703
 20
456.63879
 42
0.077964
 10
575.514703
 20
457.43879
 42
0.077964
 10
570.874703
 20
456.63879
  0
LWPOLYLINE
  5
46
330
1F
100
AcDbEntity
  8
0
100
AcDbPolyline
 90
        8
 70
   128
 43
0.0
 10
560.634703
 20
439.038789
 42
0.077485
 10
562.394704
 20
434.71879
 42
0.079671
 10
565.434703
 20
431.038789
 10
559.514703
 20
420.958789
 42
-0.480072
 10
554.554703
 20
420.158789
 42
-0.143596
 10
546.074704
 20
435.038789
 42
-0.491774
 10
549.114703
 20
439.038789
 10
560.634703
 20
439.038789
  0
LWPOLYLINE
  5
47
330
1F
100
AcDbEntity
  8
0
100
AcDbPolyline
 90
        8
 70
   128
 43
0.0
 10
560.634702
 20
445.438789
 10
549.114703
 20
445.438789
 42
-0.491774
 10
546.074704
 20
449.438789
 42
-0.143596
 10
554.554703
 20
464.318789
 42
-0.476309
 10
559.514704
 20
463.518789
 10
565.434702
 20
453.438789
 42
0.077484
 10
562.394703
 20
449.918789
 42
0.079609
 10
560.634702
 20
445.438789
  0
LWPOLYLINE
  5
48
330
1F
100
AcDbEntity
  8
0
100
AcDbPolyline
 90
        5
 70
   128
 43
0.0
 10
695.850373
 20
393.598681
 42
-0.414214
 10
687.050374
 20
384.79868
 42
-0.414214
 10
678.250374
 20
393.598681
 42
-0.414214
 10
687.050374
 20
402.39868
 42
-0.414214
 10
695.850373
 20
393.598681
  0
LWPOLYLINE
  5
49
330
1F
100
AcDbEntity
  8
0
100
AcDbPolyline
 90
        8
 70
   128
 43
0.0
 10
697.290374
 20
404.95868
 10
705.610374
 20
419.19868
 42
-0.468697
 10
710.410374
 20
419.998682
 42
-0.162781
 10
721.610374
 20
400.638681
 42
-0.473309
 10
718.410373
 20
396.79868
 10
701.930374
 20
396.79868
 42
0.078112
 10
700.330374
 20
401.27868
 42
0.078497
 10
697.290374
 20
404.95868
  0
LWPOLYLINE
  5
4A
330
1F
100
AcDbEntity
  8
0
100
AcDbPolyline
 90
        8
 70
   128
 43
0.0
 10
697.290373
 20
382.398681
 42
0.079024
 10
700.330373
 20
386.078681
 42
0.076284
 10
701.930374
 20
390.39868
 10
718.410373
 20
390.39868
 42
-0.473309
 10
721.610374
 20
386.55868
 42
-0.162278
 10
710.410374
 20
367.35868
 42
-0.468697
 10
705.610374
 20
368.15868
 10
697.290373
 20
382.398681
  0
LWPOLYLINE
  5
4B
330
1F
100
AcDbEntity
  8
0
100
AcDbPolyline
 90
        8
 70
   128
 43
0.0
 10
682.410374
 20
408.158681
 42
-0.077525
 10
687.050374
 20
408.798681
 42
-0.080171
 10
691.850374
 20
408.15868
 10
700.010374
 20
422.398681
 42
0.482026
 10
698.250373
 20
427.038681
 42
0.161909
 10
676.010374
 20
427.03868
 42
0.482026
 10
674.250373
 20
422.398681
 10
682.410374
 20
408.158681
  0
LWPOLYLINE
  5
4C
330
1F
100
AcDbEntity
  8
0
100
AcDbPolyline
 90
        8
 70
   128
 43
0.0
 10
682.410373
 20
379.19868
 42
0.077964
 10
687.050374
 20
378.39868
 42
0.080612
 10
691.850374
 20
379.198681
 10
700.010374
 20
364.95868
 42
-0.482026
 10
698.250374
 20
360.31868
 42
-0.162647
 10
676.010374
 20
360.31868
 42
-0.482026
 10
674.250373
 20
364.95868
 10
682.410373
 20
379.19868
  0
LWPOLYLINE
  5
4D
330
1F
100
AcDbEntity
  8
0
100
AcDbPolyline
 90
        8
 70
   128
 43
0.0
 10
672.330374
 20
396.79868
 42
-0.079168
 10
673.930374
 20
401.27868
 42
-0.079024
 10
676.970374
 20
404.95868
 10
668.650374
 20
419.198681
 42
0.468697
 10
663.850374
 20
419.998682
 42
0.163422
 10
652.650374
 20
400.63868
 42
0.476434
 10
655.690374
 20
396.79868
 10
672.330374
 20
396.79868
  0
LWPOLYLINE
  5
4E
330
1F
100
AcDbEntity
  8
0
100
AcDbPolyline
 90
        8
 70
   128
 43
0.0
 10
672.330373
 20
390.39868
 42
0.077045
 10
673.930374
 20
386.07868
 42
0.079671
 10
676.970374
 20
382.398681
 10
668.650374
 20
368.15868
 42
-0.468697
 10
663.850373
 20
367.358679
 42
-0.162278
 10
652.650373
 20
386.558681
 42
-0.476434
 10
655.690374
 20
390.39868
 10
672.330373
 20
390.39868
  0
LWPOLYLINE
  5
4F
330
1F
100
AcDbEntity
  8
0
100
AcDbPolyline
 90
        8
 70
   128
 43
0.0
 10
662.410374
 20
274.558681
 42
0.077964
 10
667.050373
 20
273.758679
 42
0.077964
 10
671.690374
 20
274.558681
 10
679.850374
 20
260.158681
 42
-0.482026
 10
678.090374
 20
255.51868
 42
-0.161909
 10
655.850374
 20
255.51868
 42
-0.482026
 10
654.090373
 20
260.158681
 10
662.410374
 20
274.558681
  0
LWPOLYLINE
  5
50
330
1F
100
AcDbEntity
  8
0
100
AcDbPolyline
 90
        8
 70
   128
 43
0.0
 10
652.170373
 20
285.758681
 42
0.076284
 10
653.770374
 20
281.438681
 42
0.079024
 10
656.810374
 20
277.758681
 10
648.490374
 20
263.35868
 42
-0.468697
 10
643.690374
 20
262.55868
 42
-0.162781
 10
632.490374
 20
281.91868
 42
-0.473309
 10
635.690373
 20
285.75868
 10
652.170373
 20
285.758681
  0
LWPOLYLINE
  5
51
330
1F
100
AcDbEntity
  8
0
100
AcDbPolyline
 90
        8
 70
   128
 43
0.0
 10
652.170374
 20
292.15868
 10
635.690373
 20
292.158681
 42
-0.473309
 10
632.490374
 20
295.998681
 42
-0.162781
 10
643.690374
 20
315.358682
 42
-0.468697
 10
648.490374
 20
314.558681
 10
656.810374
 20
300.31868
 42
0.078497
 10
653.770374
 20
296.63868
 42
0.078112
 10
652.170374
 20
292.15868
  0
LWPOLYLINE
  5
52
330
1F
100
AcDbEntity
  8
0
100
AcDbPolyline
 90
        8
 70
   128
 43
0.0
 10
662.410374
 20
303.518681
 10
654.090373
 20
317.758681
 42
-0.482026
 10
655.850374
 20
322.398681
 42
-0.161909
 10
678.090373
 20
322.398681
 42
-0.482026
 10
679.850374
 20
317.758681
 10
671.690374
 20
303.518681
 42
0.077525
 10
667.050373
 20
304.158682
 42
0.077525
 10
662.410374
 20
303.518681
  0
LWPOLYLINE
  5
53
330
1F
100
AcDbEntity
  8
0
100
AcDbPolyline
 90
        5
 70
   128
 43
0.0
 10
675.850374
 20
288.958681
 42
-0.414214
 10
667.050373
 20
280.158681
 42
-0.414214
 10
658.250374
 20
288.958681
 42
-0.414214
 10
667.050373
 20
297.75868
 42
-0.414214
 10
675.850374
 20
288.958681
  0
LWPOLYLINE
  5
54
330
1F
100
AcDbEntity
  8
0
100
AcDbPolyline
 90
        8
 70
   128
 43
0.0
 10
677.130373
 20
300.31868
 10
685.450374
 20
314.55868
 42
-0.480072
 10
690.410374
 20
315.358681
 42
-0.162278
 10
701.450374
 20
295.99868
 42
-0.476434
 10
698.410374
 20
292.158681
 10
681.930374
 20
292.158681
 42
0.079609
 10
680.170374
 20
296.638681
 42
0.079024
 10
677.130373
 20
300.31868
  0
LWPOLYLINE
  5
55
330
1F
100
AcDbEntity
  8
0
100
AcDbPolyline
 90
        8
 70
   128
 43
0.0
 10
677.130373
 20
277.758681
 42
0.079671
 10
680.170373
 20
281.438681
 42
0.077485
 10
681.930373
 20
285.75868
 10
698.410374
 20
285.75868
 42
-0.476434
 10
701.450374
 20
281.918681
 42
-0.162278
 10
690.410374
 20
262.558681
 42
-0.476309
 10
685.450373
 20
263.358681
 10
677.130373
 20
277.758681
  0
LWPOLYLINE
  5
56
330
1F
100
AcDbEntity
  8
0
100
AcDbPolyline
 90
        5
 70
   128
 43
0.0
 10
784.490374
 20
288.958681
 42
-0.414214
 10
775.690373
 20
280.158681
 42
-0.414214
 10
766.890373
 20
288.958681
 42
-0.414214
 10
775.690373
 20
297.75868
 42
-0.414214
 10
784.490374
 20
288.958681
  0
LWPOLYLINE
  5
57
330
1F
100
AcDbEntity
  8
0
100
AcDbPolyline
 90
        8
 70
   128
 43
0.0
 10
785.930374
 20
300.318681
 10
794.090374
 20
314.55868
 42
-0.480072
 10
799.050373
 20
315.358681
 42
-0.162781
 10
810.250373
 20
295.998681
 42
-0.473309
 10
807.050373
 20
292.158681
 10
790.570374
 20
292.158681
 42
0.079609
 10
788.810374
 20
296.638681
 42
0.076946
 10
785.930374
 20
300.318681
  0
LWPOLYLINE
  5
58
330
1F
100
AcDbEntity
  8
0
100
AcDbPolyline
 90
        8
 70
   128
 43
0.0
 10
785.930374
 20
277.75868
 42
0.077446
 10
788.810373
 20
281.43868
 42
0.077485
 10
790.570373
 20
285.75868
 10
807.050373
 20
285.75868
 42
-0.473309
 10
810.250373
 20
281.91868
 42
-0.162781
 10
799.050373
 20
262.558681
 42
-0.476309
 10
794.090373
 20
263.358681
 10
785.930374
 20
277.75868
  0
LWPOLYLINE
  5
59
330
1F
100
AcDbEntity
  8
0
100
AcDbPolyline
 90
        8
 70
   128
 43
0.0
 10
771.050374
 20
303.518681
 10
762.730374
 20
317.758681
 42
-0.460124
 10
764.490373
 20
322.39868
 42
-0.163014
 10
786.890374
 20
322.39868
 42
-0.460124
 10
788.650373
 20
317.758681
 10
780.330373
 20
303.518681
 42
0.077525
 10
775.690373
 20
304.158682
 42
0.077525
 10
771.050374
 20
303.518681
  0
LWPOLYLINE
  5
5A
330
1F
100
AcDbEntity
  8
0
100
AcDbPolyline
 90
        8
 70
   128
 43
0.0
 10
771.050374
 20
274.558681
 42
0.077964
 10
775.690373
 20
273.758679
 42
0.077964
 10
780.330373
 20
274.558681
 10
788.650373
 20
260.158681
 42
-0.460124
 10
786.890374
 20
255.518681
 42
-0.163014
 10
764.490373
 20
255.518681
 42
-0.460124
 10
762.730374
 20
260.158681
 10
771.050374
 20
274.558681
  0
LWPOLYLINE
  5
5B
330
1F
100
AcDbEntity
  8
0
100
AcDbPolyline
 90
        8
 70
   128
 43
0.0
 10
760.810373
 20
292.158681
 10
744.330374
 20
292.158681
 42
-0.473309
 10
741.130374
 20
295.998681
 42
-0.162781
 10
752.330374
 20
315.358681
 42
-0.476309
 10
757.290374
 20
314.55868
 10
765.450373
 20
300.318681
 42
0.077446
 10
762.570373
 20
296.638682
 42
0.079609
 10
760.810373
 20
292.158681
  0
LWPOLYLINE
  5
5C
330
1F
100
AcDbEntity
  8
0
100
AcDbPolyline
 90
        8
 70
   128
 43
0.0
 10
760.810374
 20
285.75868
 42
0.077485
 10
762.570374
 20
281.43868
 42
0.077446
 10
765.450373
 20
277.75868
 10
757.290373
 20
263.358681
 42
-0.480072
 10
752.330374
 20
262.558681
 42
-0.162781
 10
741.130374
 20
281.91868
 42
-0.473309
 10
744.330374
 20
285.75868
 10
760.810374
 20
285.75868
  0
LWPOLYLINE
  5
5D
330
1F
100
AcDbEntity
  8
0
100
AcDbPolyline
 90
        5
 70
   128
 43
0.0
 10
808.650373
 20
389.59868
 42
-0.414214
 10
799.850374
 20
380.79868
 42
-0.414214
 10
791.050373
 20
389.59868
 42
-0.414214
 10
799.850374
 20
398.398681
 42
-0.414214
 10
808.650373
 20
389.59868
  0
LWPOLYLINE
  5
5E
330
1F
100
AcDbEntity
  8
0
100
AcDbPolyline
 90
        8
 70
   128
 43
0.0
 10
810.090373
 20
400.95868
 42
-0.076946
 10
812.970373
 20
397.278681
 42
-0.079609
 10
814.730374
 20
392.79868
 10
831.210373
 20
392.79868
 42
0.476434
 10
834.250373
 20
396.63868
 42
0.162278
 10
823.210374
 20
415.99868
 42
0.480072
 10
818.250374
 20
415.19868
 10
810.090373
 20
400.95868
  0
LWPOLYLINE
  5
5F
330
1F
100
AcDbEntity
  8
0
100
AcDbPolyline
 90
        8
 70
   128
 43
0.0
 10
810.090373
 20
378.39868
 42
0.077446
 10
812.970372
 20
382.07868
 42
0.077485
 10
814.730373
 20
386.398681
 10
831.210373
 20
386.398681
 42
-0.476434
 10
834.250373
 20
382.558681
 42
-0.162278
 10
823.210373
 20
363.19868
 42
-0.476309
 10
818.250373
 20
363.99868
 10
810.090373
 20
378.39868
  0
LWPOLYLINE
  5
60
330
1F
100
AcDbEntity
  8
0
100
AcDbPolyline
 90
        8
 70
   128
 43
0.0
 10
795.210373
 20
404.158681
 10
786.890374
 20
418.39868
 42
-0.482026
 10
788.650373
 20
423.03868
 42
-0.163014
 10
811.050373
 20
423.03868
 42
-0.460124
 10
812.810374
 20
418.39868
 10
804.490373
 20
404.158681
 42
0.077525
 10
799.850374
 20
404.798681
 42
0.077525
 10
795.210373
 20
404.158681
  0
LWPOLYLINE
  5
61
330
1F
100
AcDbEntity
  8
0
100
AcDbPolyline
 90
        8
 70
   128
 43
0.0
 10
795.210373
 20
375.19868
 42
0.077964
 10
799.850374
 20
374.39868
 42
0.077964
 10
804.490373
 20
375.19868
 10
812.810374
 20
360.798681
 42
-0.460124
 10
811.050373
 20
356.158681
 42
-0.163014
 10
788.650373
 20
356.158681
 42
-0.482026
 10
786.890374
 20
360.79868
 10
795.210373
 20
375.19868
  0
LWPOLYLINE
  5
62
330
1F
100
AcDbEntity
  8
0
100
AcDbPolyline
 90
        8
 70
   128
 43
0.0
 10
784.970373
 20
392.79868
 10
768.490374
 20
392.79868
 42
-0.473309
 10
765.290374
 20
396.63868
 42
-0.162781
 10
776.490373
 20
415.998681
 42
-0.476309
 10
781.450374
 20
415.198681
 10
789.610374
 20
400.958681
 42
0.077446
 10
786.730373
 20
397.278681
 42
0.079609
 10
784.970373
 20
392.79868
  0
LWPOLYLINE
  5
63
330
1F
100
AcDbEntity
  8
0
100
AcDbPolyline
 90
        8
 70
   128
 43
0.0
 10
784.970374
 20
386.398681
 42
0.077485
 10
786.730374
 20
382.07868
 42
0.077446
 10
789.610374
 20
378.39868
 10
781.450373
 20
363.99868
 42
-0.480072
 10
776.490373
 20
363.19868
 42
-0.162781
 10
765.290374
 20
382.55868
 42
-0.473309
 10
768.490374
 20
386.398681
 10
784.970374
 20
386.398681
  0
LWPOLYLINE
  5
64
330
1F
100
AcDbEntity
  8
0
100
AcDbPolyline
 90
        9
 70
   128
 43
0.0
 10
556.010373
 20
120.158681
 42
0.414214
 10
553.610373
 20
122.558681
 10
547.210374
 20
122.558681
 42
0.414214
 10
544.810374
 20
120.158681
 10
544.810374
 20
83.358681
 42
0.414214
 10
547.210374
 20
80.958681
 10
553.610373
 20
80.958681
 42
0.414214
 10
556.010373
 20
83.358681
 10
556.010373
 20
120.158681
  0
LWPOLYLINE
  5
65
330
1F
100
AcDbEntity
  8
0
100
AcDbPolyline
 90
        8
 70
   128
 43
0.0
 10
553.914703
 20
350.55879
 42
0.078112
 10
555.514703
 20
346.07879
 42
0.078497
 10
558.554703
 20
342.39879
 10
552.794703
 20
332.47879
 42
-0.480072
 10
547.834703
 20
331.67879
 42
-0.144188
 10
539.194704
 20
346.558789
 42
-0.487984
 10
542.394703
 20
350.558789
 10
553.914703
 20
350.55879
  0
LWPOLYLINE
  5
66
330
1F
100
AcDbEntity
  8
0
100
AcDbPolyline
 90
        5
 70
   128
 43
0.0
 10
712.650373
 20
288.958681
 42
-0.414214
 10
667.050373
 20
243.358681
 42
-0.414214
 10
621.450373
 20
288.958681
 42
-0.414214
 10
667.050373
 20
334.558681
 42
-0.414214
 10
712.650373
 20
288.958681
  0
LWPOLYLINE
  5
67
330
1F
100
AcDbEntity
  8
0
100
AcDbPolyline
 90
        5
 70
   128
 43
0.0
 10
821.290373
 20
288.958681
 42
-0.414214
 10
775.690373
 20
243.358681
 42
-0.414214
 10
730.090374
 20
288.958681
 42
-0.414214
 10
775.690373
 20
334.558681
 42
-0.414214
 10
821.290373
 20
288.958681
  0
LWPOLYLINE
  5
68
330
1F
100
AcDbEntity
  8
0
100
AcDbPolyline
 90
       39
 70
   128
 43
0.0
 10
798.570373
 20
118.55868
 42
0.414214
 10
801.770374
 20
115.358681
 10
816.170374
 20
115.358681
 42
-0.414214
 10
819.370373
 20
112.158681
 10
819.370373
 20
101.75868
 42
0.414214
 10
822.570373
 20
98.558681
 10
848.170373
 20
98.558681
 42
1.0
 10
848.170373
 20
104.958681
 10
832.170373
 20
104.958681
 10
832.170373
 20
115.358681
 10
848.170373
 20
115.358681
 42
0.414214
 10
851.370373
 20
118.55868
 10
851.370373
 20
120.95868
 42
0.414214
 10
848.170373
 20
124.158681
 10
827.370373
 20
124.158681
 10
827.370373
 20
208.958681
 10
848.170373
 20
208.958681
 42
0.414214
 10
851.370373
 20
212.158681
 10
851.370373
 20
214.558681
 42
0.414214
 10
848.170373
 20
217.758681
 10
832.170373
 20
217.758681
 10
832.170373
 20
228.15868
 10
848.170373
 20
228.15868
 42
1.0
 10
848.170373
 20
234.558681
 10
822.570373
 20
234.558681
 42
0.414214
 10
819.370373
 20
231.358681
 10
819.370373
 20
220.95868
 42
-0.414214
 10
816.170374
 20
217.758681
 10
801.770374
 20
217.758681
 42
0.414214
 10
798.570373
 20
214.558681
 10
798.570373
 20
208.958681
 10
804.170374
 20
208.958681
 42
-1.0
 10
804.170374
 20
204.158681
 10
798.570373
 20
204.158681
 10
798.570373
 20
128.958681
 10
804.170374
 20
128.958681
 42
-1.0
 10
804.170374
 20
124.158681
 10
798.570373
 20
124.158681
 10
798.570373
 20
118.55868
  0
LWPOLYLINE
  5
69
330
1F
100
AcDbEntity
  8
0
100
AcDbPolyline
 90
       47
 70
   128
 43
0.0
 10
462.994918
 20
519.678576
 42
0.414214
 10
466.194918
 20
516.478576
 10
475.794918
 20
516.478576
 42
-0.414214
 10
478.994918
 20
513.278575
 10
478.994918
 20
496.638576
 42
0.414214
 10
483.794918
 20
491.838576
 10
490.994918
 20
491.838576
 10
490.994918
 20
502.238575
 42
-1.0
 10
495.794918
 20
502.238575
 10
495.794918
 20
491.838576
 10
499.794918
 20
491.838576
 42
0.414214
 10
504.594918
 20
496.638576
 10
504.594918
 20
514.238575
 10
562.194918
 20
514.238575
 10
562.194918
 20
496.638576
 42
0.414214
 10
566.994918
 20
491.838576
 10
570.994917
 20
491.838576
 10
570.994917
 20
502.238575
 42
-1.0
 10
575.794917
 20
502.238575
 10
575.794917
 20
491.838576
 10
582.994917
 20
491.838576
 42
0.414214
 10
587.794917
 20
496.638576
 10
587.794917
 20
513.278575
 42
-0.414214
 10
590.994918
 20
516.478576
 10
600.594918
 20
516.478576
 42
0.414214
 10
603.794918
 20
519.678576
 10
603.794918
 20
543.678576
 42
0.414214
 10
600.594918
 20
546.878575
 42
0.414214
 10
597.394917
 20
543.678576
 10
597.394917
 20
527.678575
 10
585.394917
 20
527.678575
 10
585.394917
 20
543.678576
 42
0.414214
 10
582.194918
 20
546.878575
 10
579.794918
 20
546.878575
 42
0.414214
 10
576.594918
 20
543.678576
 10
576.594918
 20
530.238576
 10
490.194918
 20
530.238576
 10
490.194918
 20
543.678576
 42
0.414214
 10
486.994918
 20
546.878575
 10
484.594918
 20
546.878575
 42
0.414214
 10
481.394918
 20
543.678576
 10
481.394918
 20
527.678575
 10
469.394918
 20
527.678575
 10
469.394918
 20
543.678576
 42
0.414214
 10
466.194918
 20
546.878575
 42
0.414214
 10
462.994918
 20
543.678576
 10
462.994918
 20
519.678576
  0
LWPOLYLINE
  5
6A
330
1F
100
AcDbEntity
  8
0
100
AcDbPolyline
 90
       33
 70
   128
 43
0.0
 10
625.450374
 20
131.51868
 10
625.450374
 20
187.518681
 42
-0.414214
 10
630.250374
 20
192.318681
 10
634.250373
 20
192.318681
 10
634.250373
 20
161.118681
 42
1.0
 10
639.050373
 20
161.118681
 10
639.050373
 20
192.318681
 10
644.650374
 20
192.318681
 42
0.414214
 10
649.450374
 20
197.118681
 10
649.450374
 20
222.718681
 42
-0.414214
 10
654.250374
 20
227.518681
 10
743.850373
 20
227.518681
 42
-0.414214
 10
748.650373
 20
222.718681
 10
748.650373
 20
197.118681
 42
0.414214
 10
753.450373
 20
192.318681
 10
759.050374
 20
192.318681
 10
759.050374
 20
161.118681
 42
1.0
 10
763.850374
 20
161.118681
 10
763.850374
 20
192.318681
 10
767.850373
 20
192.318681
 42
-0.414214
 10
772.650373
 20
187.518681
 10
772.650373
 20
131.51868
 42
-0.414214
 10
767.850373
 20
126.71868
 10
741.450373
 20
126.71868
 10
741.450373
 20
167.518681
 42
1.0
 10
736.650373
 20
167.518681
 10
736.650373
 20
126.71868
 10
661.450374
 20
126.71868
 10
661.450374
 20
167.518681
 42
1.0
 10
656.650374
 20
167.518681
 10
656.650374
 20
126.71868
 10
630.250374
 20
126.71868
 42
-0.414214
 10
625.450374
 20
131.51868
  0
LWPOLYLINE
  5
6B
330
1F
100
AcDbEntity
  8
0
100
AcDbPolyline
 90
       17
 70
   128
 43
0.0
 10
222.640806
 20
458.204464
 42
-1.0
 10
222.640806
 20
466.204463
 10
227.440806
 20
466.204463
 42
0.414214
 10
230.640806
 20
469.404463
 10
230.640806
 20
504.604463
 42
-0.414214
 10
240.240806
 20
514.204463
 10
248.240806
 20
514.204463
 10
248.240806
 20
486.204463
 42
1.0
 10
253.040806
 20
486.204463
 10
253.040806
 20
514.204463
 10
261.040806
 20
514.204463
 42
-0.414214
 10
270.640806
 20
504.604463
 10
270.640806
 20
469.404463
 42
0.414214
 10
273.840806
 20
466.204463
 10
278.640806
 20
466.204463
 42
-1.0
 10
278.640806
 20
458.204464
 10
222.640806
 20
458.204464
  0
LWPOLYLINE
  5
6C
330
1F
100
AcDbEntity
  8
0
100
AcDbPolyline
 90
       23
 70
   128
 43
0.0
 10
278.960805
 20
365.564464
 10
278.960805
 20
402.364463
 42
-1.0
 10
288.560805
 20
402.364463
 10
288.560805
 20
370.364464
 42
0.414214
 10
291.760806
 20
367.164463
 10
323.760806
 20
367.164463
 42
0.414214
 10
326.960805
 20
370.364464
 10
326.960805
 20
386.364463
 42
-0.414214
 10
330.160806
 20
389.564464
 10
350.960805
 20
389.564464
 42
-0.414214
 10
355.760805
 20
384.764464
 10
355.760805
 20
381.564463
 10
348.560805
 20
381.564463
 42
1.0
 10
348.560805
 20
376.764463
 10
355.760805
 20
376.764463
 10
355.760805
 20
370.364464
 42
-0.414214
 10
350.960805
 20
365.564464
 10
341.680806
 20
365.564464
 42
0.180454
 10
339.600805
 20
364.764463
 10
333.200805
 20
358.844464
 42
-0.195223
 10
329.840805
 20
357.564463
 10
286.960806
 20
357.564463
 42
-0.414214
 10
278.960805
 20
365.564464
  0
LWPOLYLINE
  5
6D
330
1F
100
AcDbEntity
  8
0
100
AcDbPolyline
 90
       22
 70
   128
 43
0.0
 10
536.810373
 20
77.75868
 10
536.810373
 20
125.75868
 42
-0.414214
 10
541.610373
 20
130.55868
 10
567.210374
 20
130.55868
 10
567.210374
 20
99.35868
 42
1.0
 10
572.010374
 20
99.35868
 10
572.010374
 20
130.55868
 10
575.210373
 20
130.55868
 42
-0.414214
 10
580.010373
 20
125.75868
 10
580.010373
 20
63.35868
 42
0.414214
 10
584.810373
 20
58.55868
 10
641.130373
 20
58.558681
 42
0.394848
 10
645.930374
 20
63.038681
 42
-0.95705
 10
748.010374
 20
58.557329
 10
748.010374
 20
50.558681
 42
-0.414214
 10
743.210374
 20
45.758681
 10
560.810373
 20
45.758681
 42
-0.414214
 10
556.010373
 20
50.558681
 10
556.010373
 20
68.15868
 42
0.414214
 10
551.210373
 20
72.95868
 10
541.610373
 20
72.95868
 42
-0.414214
 10
536.810373
 20
77.75868
  0
LWPOLYLINE
  5
6E
330
1F
100
AcDbEntity
  8
0
100
AcDbPolyline
 90
       22
 70
   128
 43
0.0
 10
72.080806
 20
541.884463
 10
72.080806
 20
589.884463
 42
-0.414214
 10
76.880806
 20
594.684463
 10
86.480806
 20
594.684463
 42
0.414214
 10
91.280806
 20
599.484463
 10
91.280806
 20
617.084463
 42
-0.414214
 10
96.080806
 20
621.884463
 10
278.480805
 20
621.884463
 42
-0.414214
 10
283.280805
 20
617.084463
 10
283.280805
 20
609.084225
 42
-0.958643
 10
181.040805
 20
604.764463
 42
0.385316
 10
176.240806
 20
609.084463
 10
120.080806
 20
609.084463
 42
0.414214
 10
115.280806
 20
604.284463
 10
115.280806
 20
541.884463
 42
-0.414214
 10
110.480806
 20
537.084463
 10
107.280806
 20
537.084463
 10
107.280806
 20
568.284463
 42
1.0
 10
102.480806
 20
568.284463
 10
102.480806
 20
537.084463
 10
76.880806
 20
537.084463
 42
-0.414214
 10
72.080806
 20
541.884463
  0
LWPOLYLINE
  5
6F
330
1F
100
AcDbEntity
  8
0
100
AcDbPolyline
 90
       27
 70
   128
 43
0.0
 10
204.400806
 20
195.644464
 10
238.000806
 20
195.644464
 42
0.414214
 10
241.200806
 20
198.844464
 10
241.200806
 20
203.644464
 10
224.400806
 20
203.644464
 42
-1.0
 10
224.400806
 20
208.444464
 10
241.200806
 20
208.444464
 10
241.200806
 20
214.844464
 42
0.414214
 10
238.000806
 20
218.044464
 10
212.400806
 20
218.044464
 42
-1.0
 10
212.400806
 20
224.444464
 10
220.400806
 20
224.444464
 42
0.414214
 10
223.600806
 20
227.644464
 10
223.600806
 20
243.644464
 42
0.414214
 10
220.400806
 20
246.844464
 10
186.800806
 20
246.844464
 42
0.414214
 10
183.600806
 20
243.644464
 10
183.600806
 20
238.844464
 10
200.400806
 20
238.844464
 42
-1.0
 10
200.400806
 20
234.044464
 10
183.600806
 20
234.044464
 10
183.600806
 20
226.044464
 42
0.414214
 10
186.800806
 20
222.844464
 10
198.000806
 20
222.844464
 42
-0.414214
 10
201.200806
 20
219.644464
 10
201.200806
 20
198.844464
 42
0.414214
 10
204.400806
 20
195.644464
  0
LWPOLYLINE
  5
70
330
1F
100
AcDbEntity
  8
0
100
AcDbPolyline
 90
       38
 70
   128
 43
0.0
 10
402.960806
 20
30.684464
 10
454.160805
 20
30.684464
 10
454.160805
 20
87.484464
 42
-0.414214
 10
456.560805
 20
89.884464
 42
-0.414214
 10
458.960805
 20
87.484464
 10
458.960805
 20
30.684464
 10
510.160806
 20
30.684464
 42
0.414214
 10
514.160805
 20
34.684464
 10
514.160806
 20
90.681741
 42
0.46911
 10
503.760805
 20
99.324464
 10
503.760805
 20
65.084465
 42
-0.414214
 10
501.360805
 20
62.684465
 10
496.560805
 20
62.684465
 42
-0.414214
 10
494.160805
 20
65.084465
 10
494.160805
 20
255.484464
 42
0.414214
 10
490.160805
 20
259.484464
 10
486.160806
 20
259.484464
 42
0.414214
 10
482.160805
 20
255.484464
 10
482.160805
 20
237.084463
 42
-0.414214
 10
475.760805
 20
230.684464
 10
458.960805
 20
230.684464
 10
458.960805
 20
212.284464
 42
-1.0
 10
454.160805
 20
212.284464
 10
454.160805
 20
230.684464
 10
437.360805
 20
230.684464
 42
-0.414214
 10
430.960806
 20
237.084463
 10
430.960806
 20
255.484464
 42
0.414214
 10
426.960805
 20
259.484464
 10
422.960805
 20
259.484464
 42
0.414214
 10
418.960806
 20
255.484464
 10
418.960806
 20
65.084465
 42
-0.414214
 10
416.560806
 20
62.684465
 10
411.760806
 20
62.684465
 42
-0.414214
 10
409.360806
 20
65.084465
 10
409.360806
 20
99.324464
 42
0.468921
 10
398.960805
 20
90.684464
 10
398.960805
 20
34.684464
 42
0.414214
 10
402.960806
 20
30.684464
  0
LWPOLYLINE
  5
71
330
1F
100
AcDbEntity
  8
0
100
AcDbPolyline
 90
       59
 70
   128
 43
0.0
 10
29.360806
 20
289.404463
 10
29.360806
 20
345.404464
 42
-0.414214
 10
34.160806
 20
350.204464
 10
50.160806
 20
350.204464
 10
50.160806
 20
339.804463
 42
1.0
 10
54.960806
 20
339.804463
 10
54.960806
 20
350.204464
 10
142.960806
 20
350.204464
 10
142.960806
 20
339.804463
 42
1.0
 10
147.760806
 20
339.804463
 10
147.760806
 20
350.204464
 10
234.160806
 20
350.204464
 10
234.160806
 20
339.804463
 42
1.0
 10
238.960806
 20
339.804463
 10
238.960806
 20
350.204464
 10
330.160806
 20
350.204464
 10
330.160806
 20
339.804463
 42
1.0
 10
334.960806
 20
339.804463
 10
334.960806
 20
350.204464
 10
366.160806
 20
350.204464
 10
366.160806
 20
298.204464
 42
1.0
 10
370.960806
 20
298.204464
 10
370.960806
 20
350.204464
 10
376.560806
 20
350.204464
 42
-0.414214
 10
381.360806
 20
345.404464
 10
381.360806
 20
251.004463
 42
-0.414214
 10
376.560806
 20
246.204463
 10
358.640805
 20
246.204463
 42
0.485416
 10
354.000806
 20
240.284464
 10
356.880805
 20
228.124464
 42
0.351019
 10
366.160806
 20
220.604464
 10
376.560806
 20
220.604464
 42
-0.414214
 10
381.360806
 20
215.804464
 10
381.360806
 20
211.004464
 10
319.760805
 20
211.004464
 42
1.0
 10
319.760805
 20
206.204464
 10
381.360806
 20
206.204464
 10
381.360806
 20
201.404464
 42
-0.414214
 10
376.560806
 20
196.604464
 10
258.160806
 20
196.604464
 42
-0.414214
 10
253.360806
 20
201.404464
 10
253.360806
 20
215.804464
 42
-0.414214
 10
258.160806
 20
220.604464
 10
261.360806
 20
220.604464
 42
0.414214
 10
266.160806
 20
225.404464
 10
266.160806
 20
265.404463
 42
0.414214
 10
261.360806
 20
270.204463
 10
50.160806
 20
270.204463
 42
-0.414214
 10
45.360806
 20
275.004463
 10
45.360806
 20
279.804463
 10
79.760806
 20
279.804463
 42
0.414214
 10
82.160806
 20
282.204463
 42
0.414214
 10
79.760806
 20
284.604463
 10
45.360806
 20
284.604463
 10
45.360806
 20
296.604463
 42
1.0
 10
40.560806
 20
296.604463
 10
40.560806
 20
284.604463
 10
34.160806
 20
284.604463
 42
-0.414214
 10
29.360806
 20
289.404463
  0
LWPOLYLINE
  5
72
330
1F
100
AcDbEntity
  8
0
100
AcDbPolyline
 90
       46
 70
   128
 43
0.0
 10
180.720806
 20
120.124464
 42
-0.414214
 10
178.320806
 20
122.524464
 10
178.320806
 20
140.124464
 42
-0.414214
 10
180.720806
 20
142.524464
 10
201.520806
 20
142.524464
 42
0.414214
 10
203.920806
 20
144.924464
 10
203.920806
 20
148.124464
 42
0.414214
 10
201.520806
 20
150.524464
 10
192.720806
 20
150.524464
 42
-0.414214
 10
189.520806
 20
153.724464
 10
189.520806
 20
156.124464
 42
-0.217521
 10
190.640806
 20
158.524464
 10
193.840806
 20
161.404464
 42
0.204479
 10
194.960806
 20
163.644464
 10
195.280806
 20
173.084464
 42
-0.300563
 10
197.360806
 20
175.964464
 10
200.080806
 20
176.924464
 42
0.179619
 10
201.840806
 20
178.364464
 42
-0.191621
 10
205.520806
 20
181.244464
 10
207.280806
 20
181.884463
 42
-0.151606
 10
210.160806
 20
181.884463
 10
211.920805
 20
181.244464
 42
-0.188656
 10
215.600805
 20
178.364464
 42
0.179619
 10
217.360806
 20
176.924464
 10
220.080806
 20
175.964464
 42
-0.300563
 10
222.160806
 20
173.084464
 10
222.480806
 20
163.644464
 42
0.204479
 10
223.600806
 20
161.404464
 10
226.800806
 20
158.524464
 42
-0.217521
 10
227.920806
 20
156.124464
 10
227.920806
 20
153.724464
 42
-0.414214
 10
224.720806
 20
150.524464
 10
215.920806
 20
150.524464
 42
0.414214
 10
213.520806
 20
148.124464
 10
213.520806
 20
144.924464
 42
0.414214
 10
215.920806
 20
142.524464
 10
222.000806
 20
142.524463
 42
-0.453597
 10
224.400806
 20
139.804464
 10
223.600806
 20
134.524464
 10
201.360806
 20
134.524464
 42
0.414214
 10
198.960806
 20
132.124464
 42
0.414214
 10
201.360806
 20
129.724464
 10
222.960806
 20
129.724464
 10
221.840806
 20
122.204464
 42
-0.375908
 10
219.440806
 20
120.124464
 10
180.720806
 20
120.124464
  0
LWPOLYLINE
  5
73
330
1F
100
AcDbEntity
  8
0
100
AcDbPolyline
 90
       22
 70
   128
 43
0.0
 10
33.680806
 20
131.644464
 42
0.414214
 10
37.680806
 20
127.644464
 10
157.680806
 20
127.484464
 42
0.414214
 10
161.680806
 20
131.484464
 10
161.680806
 20
136.284464
 10
101.680807
 20
136.284463
 42
-0.967258
 10
101.840806
 20
141.084464
 10
161.840806
 20
140.924464
 42
-0.173811
 10
164.720805
 20
149.084464
 42
0.159535
 10
176.080806
 20
178.684463
 42
0.160004
 10
164.720805
 20
208.284463
 42
-0.171316
 10
161.840805
 20
216.284465
 10
101.840806
 20
216.284464
 42
-0.414214
 10
99.440806
 20
218.684464
 42
-0.414214
 10
101.840806
 20
221.084464
 10
161.840806
 20
221.084464
 10
161.840806
 20
225.884464
 42
0.414214
 10
157.840806
 20
229.884463
 10
37.840807
 20
230.044464
 42
0.414214
 10
33.840806
 20
226.044464
 10
33.840806
 20
178.844464
 10
33.680806
 20
131.644464
  0
LWPOLYLINE
  5
74
330
1F
100
AcDbEntity
  8
0
100
AcDbPolyline
 90
       60
 70
   128
 43
0.0
 10
32.080807
 20
27.484464
 42
-0.414214
 10
27.280807
 20
32.284464
 10
27.280807
 20
88.284464
 42
-0.414214
 10
32.080807
 20
93.084464
 10
38.480806
 20
93.084464
 10
38.480806
 20
81.084464
 42
1.0
 10
43.280806
 20
81.084464
 10
43.280806
 20
93.084464
 10
77.680807
 20
93.084464
 42
1.0
 10
77.680807
 20
97.884464
 10
43.280806
 20
97.884464
 10
43.280806
 20
102.684464
 42
-0.414214
 10
48.080806
 20
107.484464
 10
259.280805
 20
107.484464
 42
0.414214
 10
264.080805
 20
112.284464
 10
264.080805
 20
152.284464
 42
0.414214
 10
259.280805
 20
157.084464
 10
256.080806
 20
157.084464
 42
-0.414214
 10
251.280806
 20
161.884464
 10
251.280806
 20
176.284464
 42
-0.414214
 10
256.080806
 20
181.084464
 10
374.480805
 20
181.084464
 42
-0.414214
 10
379.280805
 20
176.284464
 10
379.280805
 20
171.484464
 10
317.680806
 20
171.484464
 42
1.0
 10
317.680806
 20
166.684464
 10
379.280805
 20
166.684464
 10
379.280805
 20
161.884464
 42
-0.414214
 10
374.480805
 20
157.084464
 10
364.080806
 20
157.084464
 42
0.346428
 10
354.800805
 20
149.724464
 10
351.920805
 20
137.404464
 42
0.485416
 10
356.560806
 20
131.484464
 10
374.480805
 20
131.484464
 42
-0.414214
 10
379.280805
 20
126.684464
 10
379.280805
 20
32.284464
 42
-0.414214
 10
374.480805
 20
27.484464
 10
368.880806
 20
27.484464
 10
368.880806
 20
79.484464
 42
0.414214
 10
366.480806
 20
81.884464
 42
0.414214
 10
364.080806
 20
79.484464
 10
364.080806
 20
27.484464
 10
332.880806
 20
27.484464
 10
332.880806
 20
37.884464
 42
0.414214
 10
330.480806
 20
40.284464
 42
0.414214
 10
328.080806
 20
37.884464
 10
328.080806
 20
27.484464
 10
236.880806
 20
27.484464
 10
236.880806
 20
37.884464
 42
1.0
 10
232.080806
 20
37.884464
 10
232.080806
 20
27.484464
 10
145.680806
 20
27.484464
 10
145.680806
 20
37.884464
 42
1.0
 10
140.880806
 20
37.884464
 10
140.880806
 20
27.484464
 10
52.880806
 20
27.484464
 10
52.880806
 20
37.884464
 42
1.0
 10
48.080806
 20
37.884464
 10
48.080806
 20
27.484464
 10
32.080807
 20
27.484464
  0
LWPOLYLINE
  5
75
330
1F
100
AcDbEntity
  8
0
100
AcDbPolyline
 90
       38
 70
   128
 43
0.0
 10
764.853437
 20
599.892668
 10
765.077343
 20
616.531162
 42
1.0
 10
760.277778
 20
616.595749
 10
760.053871
 20
599.957256
 42
-0.289437
 10
746.612267
 20
611.819198
 42
0.316968
 10
744.394
 20
613.449195
 10
684.429574
 20
616.496342
 42
0.300045
 10
682.170401
 20
615.086615
 42
-0.262719
 10
668.915952
 20
605.184068
 10
669.139857
 20
621.822561
 42
1.0
 10
664.340292
 20
621.88715
 10
664.116387
 20
605.248657
 42
-0.326954
 10
650.224967
 20
619.356854
 42
0.432865
 10
647.211078
 20
621.317587
 10
578.152495
 20
602.565132
 10
578.385012
 20
619.843567
 42
1.0
 10
573.585447
 20
619.908155
 10
573.361541
 20
603.269661
 42
-0.372855
 10
559.18675
 20
620.101919
 42
0.492844
 10
556.17932
 20
622.542608
 10
486.216801
 20
607.962694
 10
484.932611
 20
607.659946
 10
485.156516
 20
624.29844
 42
1.0
 10
480.35695
 20
624.363028
 10
480.133045
 20
607.724534
 42
-0.647639
 10
472.103688
 20
637.333527
 42
-0.647639
 10
499.548754
 20
623.624719
 42
0.493836
 10
502.394046
 20
621.026197
 10
568.024039
 20
634.704328
 42
-0.571557
 10
592.783708
 20
619.649802
 42
0.498336
 10
595.793292
 20
617.3691
 10
654.251925
 20
633.223924
 42
-0.561534
 10
682.500467
 20
627.723317
 42
0.316968
 10
684.718734
 20
626.093321
 10
745.643074
 20
623.033255
 42
0.293939
 10
747.900094
 20
624.282998
 42
-0.562843
 10
776.470081
 20
626.054387
 42
-0.562843
 10
764.853437
 20
599.892668
  0
LWPOLYLINE
  5
76
330
1F
100
AcDbEntity
  8
0
100
AcDbPolyline
 90
       38
 70
   128
 43
0.0
 10
788.294613
 20
563.833512
 42
0.649328
 10
797.054448
 20
593.273784
 42
0.649328
 10
769.311644
 20
580.090415
 42
-0.473309
 10
766.39961
 20
577.729385
 10
701.161453
 20
593.168618
 42
0.56879
 10
676.165627
 20
578.783656
 42
-0.492844
 10
673.093608
 20
576.424779
 10
614.924954
 20
594.00908
 42
0.564466
 10
586.536471
 20
589.110628
 42
-0.281988
 10
584.437283
 20
587.698747
 10
523.452662
 20
586.279219
 42
-0.293939
 10
521.230089
 20
587.589245
 42
0.563551
 10
492.592035
 20
590.297204
 42
0.563551
 10
503.466574
 20
563.666101
 10
503.690479
 20
580.304595
 42
-1.0
 10
508.490044
 20
580.240007
 10
508.266138
 20
563.601514
 42
0.290199
 10
522.182057
 20
575.095303
 42
-0.298754
 10
524.283398
 20
576.66717
 10
584.308107
 20
578.099616
 42
-0.318271
 10
586.688514
 20
576.627452
 42
0.260206
 10
599.511706
 20
566.373977
 10
599.735611
 20
583.012471
 42
-1.0
 10
604.535176
 20
582.947883
 10
604.311271
 20
566.309389
 42
0.327379
 10
618.737286
 20
580.036517
 42
-0.432865
 10
621.802847
 20
581.915438
 10
690.331807
 20
561.311456
 10
690.564324
 20
578.589892
 42
-1.0
 10
695.363889
 20
578.525304
 10
695.139984
 20
561.88681
 42
0.372855
 10
709.762586
 20
578.331538
 42
-0.477618
 10
712.672467
 20
580.532583
 10
782.219469
 20
564.235294
 10
783.495047
 20
563.898099
 10
783.718952
 20
580.536593
 42
-1.0
 10
788.518518
 20
580.472004
 10
788.294613
 20
563.833512
  0
LWPOLYLINE
  5
77
330
1F
100
AcDbEntity
  8
0
100
AcDbPolyline
 90
       28
 70
   128
 43
0.0
 10
406.000806
 20
386.684464
 42
0.370945
 10
417.680805
 20
382.364464
 10
451.600806
 20
394.524463
 42
0.316968
 10
454.800805
 20
399.004464
 10
454.800805
 20
409.244464
 10
447.600805
 20
409.244464
 42
-1.0
 10
447.600805
 20
414.044464
 10
454.800805
 20
414.044464
 10
454.800805
 20
415.484464
 42
-0.414214
 10
458.960805
 20
419.644463
 10
459.600805
 20
419.644463
 42
0.414214
 10
464.400805
 20
424.444463
 10
464.400805
 20
488.444464
 42
0.414214
 10
459.600805
 20
493.244464
 10
458.960805
 20
493.244464
 42
-0.414214
 10
454.800805
 20
497.404463
 10
454.800805
 20
498.844463
 10
447.600805
 20
498.844463
 42
-1.0
 10
447.600805
 20
503.644463
 10
454.800805
 20
503.644463
 10
454.800805
 20
513.884463
 42
0.316968
 10
451.600806
 20
518.364463
 10
417.680805
 20
530.524463
 42
0.367179
 10
406.000806
 20
526.044463
 10
390.160806
 20
497.564464
 42
0.127193
 10
379.600806
 20
456.444463
 42
0.127193
 10
390.160806
 20
415.324463
 10
406.000806
 20
386.684464
  0
LWPOLYLINE
  5
78
330
1F
100
AcDbEntity
  8
0
100
AcDbPolyline
 90
       36
 70
   128
 43
0.0
 10
418.800806
 20
278.844463
 42
0.192138
 10
451.600806
 20
265.084464
 42
0.192138
 10
484.400805
 20
278.844463
 42
0.200758
 10
489.200805
 20
290.204464
 10
489.200805
 20
333.084463
 42
-1.0
 10
494.000805
 20
333.084463
 10
494.000805
 20
314.684464
 10
501.200805
 20
314.684464
 42
0.414214
 10
505.200805
 20
318.684463
 10
505.200805
 20
346.684464
 42
-0.414214
 10
506.800806
 20
348.284464
 10
507.600805
 20
348.284464
 42
0.414214
 10
511.600806
 20
352.284463
 10
511.600806
 20
360.284464
 42
0.414214
 10
507.600805
 20
364.284463
 10
491.760805
 20
364.284463
 42
-0.173811
 10
483.600805
 20
367.164463
 42
0.160004
 10
454.000805
 20
378.524464
 10
454.000806
 20
363.484464
 42
-1.0
 10
449.200806
 20
363.484464
 10
449.200806
 20
378.684464
 42
0.15906
 10
419.760806
 20
367.164463
 42
-0.173811
 10
411.600806
 20
364.284463
 10
395.600805
 20
364.284463
 42
0.414214
 10
391.600806
 20
360.284464
 10
391.600806
 20
352.284463
 42
0.414214
 10
395.600805
 20
348.284464
 10
396.400806
 20
348.284464
 42
-0.414214
 10
398.000805
 20
346.684464
 10
398.000805
 20
318.684463
 42
0.414214
 10
402.000806
 20
314.684464
 10
409.200806
 20
314.684464
 10
409.200806
 20
333.084463
 42
-1.0
 10
414.000806
 20
333.084463
 10
414.000806
 20
290.204464
 42
0.200758
 10
418.800806
 20
278.844463
  0
LWPOLYLINE
  5
79
330
1F
100
AcDbEntity
  8
0
100
AcDbPolyline
 90
        6
 70
   128
 43
0.0
 10
613.130373
 20
111.038681
 42
0.948007
 10
615.530373
 20
66.110476
 42
0.948007
 10
617.930373
 20
111.038681
 10
617.930373
 20
87.038681
 42
-1.0
 10
613.130373
 20
87.038681
 10
613.130373
 20
111.038681
  0
LWPOLYLINE
  5
7A
330
1F
100
AcDbEntity
  8
0
100
AcDbPolyline
 90
        5
 70
   128
 43
0.0
 10
534.714703
 20
442.23879
 42
0.198613
 10
546.714703
 20
413.43879
 42
0.198613
 10
575.514703
 20
401.43879
 42
0.668179
 10
604.36466
 20
471.088745
 42
0.668179
 10
534.714703
 20
442.23879
  0
LWPOLYLINE
  5
7B
330
1F
100
AcDbEntity
  8
0
100
AcDbPolyline
 90
        5
 70
   128
 43
0.0
 10
527.994703
 20
353.758789
 42
0.198613
 10
539.994703
 20
324.95879
 42
0.198613
 10
568.794703
 20
312.95879
 42
0.668179
 10
597.64466
 20
382.608746
 42
0.668179
 10
527.994703
 20
353.758789
  0
LWPOLYLINE
  5
7C
330
1F
100
AcDbEntity
  8
0
100
AcDbPolyline
 90
       29
 70
   128
 43
0.0
 10
212.880807
 20
366.204463
 42
0.463821
 10
218.960806
 20
365.244463
 10
290.320806
 20
425.244463
 42
-0.177756
 10
294.480806
 20
426.684463
 10
338.160805
 20
426.684463
 42
0.308368
 10
342.640806
 20
429.724463
 42
-0.216014
 10
347.440806
 20
434.204464
 42
0.710939
 10
347.440806
 20
441.564463
 42
-0.216014
 10
342.640806
 20
446.044463
 42
0.308368
 10
338.160805
 20
449.084464
 10
262.000806
 20
449.084464
 42
0.414214
 10
257.200806
 20
444.284464
 10
257.200806
 20
440.284463
 10
293.200806
 20
440.284463
 42
-1.0
 10
293.200806
 20
435.484463
 10
257.200806
 20
435.484463
 10
257.200806
 20
431.484463
 42
0.414214
 10
262.000806
 20
426.684463
 10
270.800805
 20
426.684463
 42
-0.69428
 10
272.880806
 20
421.084463
 10
244.560806
 20
397.244464
 42
-0.176788
 10
242.000806
 20
396.284464
 10
208.560806
 20
396.284464
 42
0.437794
 10
204.560806
 20
391.964464
 42
0.0793
 10
208.880806
 20
374.364463
 10
214.800806
 20
382.044463
 42
-0.974709
 10
218.640806
 20
379.004464
 10
211.120806
 20
369.404464
 10
212.880807
 20
366.204463
  0
LWPOLYLINE
  5
7D
330
1F
100
AcDbEntity
  8
0
100
AcDbPolyline
 90
       41
 70
   128
 43
0.0
 10
30.960806
 20
512.604463
 10
30.960806
 20
518.204464
 10
36.560806
 20
518.044463
 42
0.414214
 10
38.960806
 20
520.444463
 42
0.414214
 10
36.560806
 20
522.844463
 10
30.960806
 20
523.004464
 10
31.440806
 20
598.204463
 10
37.040806
 20
598.044463
 42
0.414214
 10
39.440806
 20
600.444463
 42
0.414214
 10
37.040806
 20
602.844463
 10
31.440806
 20
603.004463
 10
31.440807
 20
608.604463
 42
-0.414214
 10
34.800806
 20
611.644463
 10
49.200806
 20
611.644463
 42
0.414214
 10
52.400806
 20
614.844463
 10
52.400806
 20
625.244463
 42
-0.414214
 10
55.600807
 20
628.444463
 10
81.200806
 20
628.284463
 42
-1.0
 10
81.200806
 20
621.884463
 10
65.200807
 20
621.884463
 10
65.200807
 20
611.484463
 10
81.200806
 20
611.484463
 42
-0.399465
 10
84.240806
 20
608.285514
 10
84.240806
 20
605.884463
 42
-0.414214
 10
81.040807
 20
602.684463
 10
60.240806
 20
602.844463
 10
59.760806
 20
518.044463
 10
80.560807
 20
517.884463
 42
-0.414214
 10
83.760806
 20
514.684463
 10
83.760806
 20
512.284463
 42
-0.414214
 10
80.560807
 20
509.084464
 10
64.560806
 20
509.084464
 10
64.560806
 20
498.684463
 10
80.560806
 20
498.684463
 42
-0.975328
 10
80.400806
 20
492.284464
 10
54.800806
 20
492.444463
 42
-0.414214
 10
51.600806
 20
495.644464
 10
51.760807
 20
506.044463
 42
0.414214
 10
48.560806
 20
509.244463
 10
34.160806
 20
509.244463
 42
-0.428923
 10
30.960806
 20
512.604463
  0
LWPOLYLINE
  5
7E
330
1F
100
AcDbEntity
  8
0
100
AcDbPolyline
 90
       30
 70
   128
 43
0.0
 10
33.360806
 20
414.524464
 42
-0.437794
 10
29.360806
 20
418.844464
 42
-0.0793
 10
33.680806
 20
436.444463
 10
39.600806
 20
428.764464
 42
0.974709
 10
43.440806
 20
431.804464
 10
35.920807
 20
441.404464
 10
37.680807
 20
444.604464
 42
-0.463821
 10
43.760806
 20
445.564463
 10
115.120806
 20
385.564463
 42
0.177756
 10
119.280806
 20
384.124463
 10
162.960806
 20
384.124463
 42
-0.308368
 10
167.440806
 20
381.084463
 42
0.217855
 10
172.240807
 20
376.444464
 42
-0.705722
 10
172.240807
 20
369.244463
 42
0.216014
 10
167.440806
 20
364.764463
 42
-0.308368
 10
162.960806
 20
361.724464
 10
86.800807
 20
361.724464
 42
-0.414214
 10
82.000807
 20
366.524464
 10
82.000807
 20
370.524463
 10
118.000806
 20
370.524463
 42
0.414214
 10
120.400806
 20
372.924463
 42
0.414214
 10
118.000806
 20
375.324463
 10
82.000807
 20
375.324463
 10
82.000807
 20
379.324464
 42
-0.414214
 10
86.800807
 20
384.124464
 10
95.600806
 20
384.124463
 42
0.69428
 10
97.680806
 20
389.724464
 10
69.360806
 20
413.564463
 42
0.176788
 10
66.800806
 20
414.524463
 10
33.360806
 20
414.524464
  0
LWPOLYLINE
  5
7F
330
1F
100
AcDbEntity
  8
0
100
AcDbPolyline
 90
        5
 70
   128
 43
0.0
 10
845.450374
 20
389.59868
 42
-0.414214
 10
799.850374
 20
343.998681
 42
-0.414214
 10
754.250374
 20
389.59868
 42
-0.414214
 10
799.850374
 20
435.19868
 42
-0.414214
 10
845.450374
 20
389.59868
  0
LWPOLYLINE
  5
80
330
1F
100
AcDbEntity
  8
0
100
AcDbPolyline
 90
        5
 70
   128
 43
0.0
 10
641.450373
 20
393.59868
 42
0.198645
 10
654.890374
 20
361.438681
 42
0.198645
 10
687.050374
 20
347.998681
 42
0.668179
 10
719.294443
 20
425.842749
 42
0.668179
 10
641.450373
 20
393.59868
  0
LWPOLYLINE
  5
81
330
1F
100
AcDbEntity
  8
0
100
AcDbPolyline
 90
       49
 70
   128
 43
0.0
 10
115.920806
 20
501.244463
 42
-1.0
 10
124.080806
 20
501.244463
 10
124.080806
 20
485.564464
 42
0.334143
 10
128.560806
 20
479.324464
 42
-0.330558
 10
140.080806
 20
464.124463
 10
140.080806
 20
436.924463
 42
0.414214
 10
143.280806
 20
433.724464
 10
162.480806
 20
433.724464
 42
0.414214
 10
165.680806
 20
436.924463
 10
165.680805
 20
491.804464
 42
0.211321
 10
164.880806
 20
493.564463
 10
157.360807
 20
500.124463
 42
-0.485416
 10
157.520806
 20
507.644463
 10
165.680806
 20
513.724463
 10
182.480806
 20
513.724463
 10
182.480806
 20
474.524464
 42
1.0
 10
187.280806
 20
474.524464
 10
187.280806
 20
513.724463
 10
204.080806
 20
513.724463
 10
212.080806
 20
507.644464
 42
-0.477639
 10
212.400806
 20
500.124463
 10
204.880806
 20
493.564463
 42
0.211321
 10
204.080806
 20
491.804464
 10
204.080806
 20
437.724463
 42
0.414214
 10
208.080806
 20
433.724464
 10
209.680806
 20
433.724464
 42
-0.414214
 10
213.680806
 20
429.724463
 10
213.680806
 20
413.564464
 42
-0.414214
 10
209.680806
 20
409.564463
 10
125.680806
 20
409.564463
 42
-0.414214
 10
122.480806
 20
412.764463
 10
122.480806
 20
419.164463
 10
163.280806
 20
419.164463
 42
0.414214
 10
165.680806
 20
421.564463
 42
0.414214
 10
163.280806
 20
423.964463
 10
122.480806
 20
423.964463
 10
122.480806
 20
452.124463
 42
1.0
 10
117.680806
 20
452.124463
 10
117.680806
 20
423.964463
 10
85.680806
 20
423.964464
 42
-0.424007
 10
80.880806
 20
428.924464
 10
80.880806
 20
464.124463
 42
-0.284628
 10
100.400806
 20
495.644464
 42
0.273329
 10
101.680806
 20
497.564464
 42
-0.634699
 10
105.680806
 20
498.844463
 42
0.259689
 10
107.920806
 20
498.364463
 42
-0.041501
 10
113.680806
 20
499.164463
 42
0.394848
 10
115.920806
 20
501.564463
 10
115.920806
 20
501.244463
  0
LWPOLYLINE
  5
82
330
1F
100
AcDbEntity
  8
0
100
AcDbPolyline
 90
       25
 70
   128
 43
0.0
 10
390.885332
 20
549.121708
 10
417.285332
 20
549.121708
 10
417.285332
 20
602.860703
 42
-1.0
 10
422.085332
 20
602.860703
 10
422.085332
 20
549.121708
 10
448.485332
 20
549.121708
 10
448.485332
 20
554.881709
 42
0.414214
 10
444.485332
 20
558.881709
 10
442.885332
 20
558.881709
 42
-0.414214
 10
438.885332
 20
562.881707
 10
438.885333
 20
616.961709
 42
-0.211321
 10
439.685332
 20
618.721708
 10
447.205333
 20
625.281708
 42
0.477639
 10
446.885332
 20
632.801709
 10
438.885332
 20
638.881708
 10
400.485332
 20
638.881708
 10
392.325333
 20
632.801708
 42
0.485416
 10
392.165332
 20
625.281708
 10
399.685333
 20
618.721708
 42
-0.211321
 10
400.485332
 20
616.961709
 10
400.485332
 20
562.881705
 42
-0.414214
 10
396.485332
 20
558.881709
 10
394.885333
 20
558.881709
 42
0.414214
 10
390.885332
 20
554.881708
 10
390.885332
 20
549.121708
  0
LWPOLYLINE
  5
83
330
1F
100
AcDbEntity
  8
0
100
AcDbPolyline
 90
       40
 70
   128
 43
0.0
 10
297.183627
 20
486.757994
 42
0.414214
 10
301.183627
 20
482.757994
 10
309.183628
 20
482.757994
 42
-0.414214
 10
313.183627
 20
478.757996
 10
313.183627
 20
476.962043
 42
0.414214
 10
317.183594
 20
472.962075
 10
352.38366
 20
472.962075
 42
0.414214
 10
356.383627
 20
476.962043
 10
356.383627
 20
478.757995
 42
-0.414214
 10
360.383625
 20
482.757994
 10
368.383627
 20
482.757994
 42
0.414214
 10
372.383628
 20
486.757993
 10
372.383628
 20
573.957994
 10
361.983627
 20
573.957994
 42
-1.0
 10
361.983627
 20
578.757994
 10
372.383628
 20
578.757994
 10
372.383628
 20
605.157995
 42
0.414214
 10
368.383627
 20
609.157994
 10
360.383628
 20
609.157994
 42
-0.414214
 10
356.383627
 20
613.157993
 10
356.383627
 20
649.957995
 42
0.414214
 10
352.383627
 20
653.957994
 10
345.023628
 20
653.957993
 42
0.557538
 10
339.263628
 20
644.677994
 10
343.263627
 20
636.517994
 42
-0.55507
 10
334.783627
 20
622.757994
 42
-0.552656
 10
326.143627
 20
636.517994
 10
330.143627
 20
644.677994
 42
0.557538
 10
324.383627
 20
653.957993
 10
317.183628
 20
653.957994
 42
0.414214
 10
313.183627
 20
649.957994
 10
313.183627
 20
613.157991
 42
-0.414214
 10
309.183629
 20
609.157994
 10
301.183627
 20
609.157994
 42
0.414214
 10
297.183627
 20
605.157994
 10
297.183627
 20
578.757994
 10
307.583628
 20
578.757994
 42
-1.0
 10
307.583628
 20
573.957994
 10
297.183627
 20
573.957994
 10
297.183627
 20
486.757994
  0
LWPOLYLINE
  5
84
330
1F
100
AcDbEntity
  8
0
100
AcDbPolyline
 90
       48
 70
   128
 43
0.0
 10
540.010374
 20
154.878681
 42
-1.0
 10
540.010374
 20
161.278681
 10
556.010373
 20
161.278681
 10
556.010373
 20
173.278681
 10
540.010374
 20
173.278681
 42
-0.414214
 10
536.810373
 20
176.478681
 10
536.810373
 20
178.878681
 42
-0.414214
 10
540.010374
 20
182.078681
 10
553.610373
 20
182.078681
 10
553.610373
 20
268.47868
 10
540.010374
 20
268.47868
 42
-0.414214
 10
536.810373
 20
271.678681
 10
536.810373
 20
274.078681
 42
-0.414214
 10
540.010374
 20
277.278681
 10
556.010373
 20
277.278681
 10
556.010373
 20
289.278681
 10
540.010374
 20
289.278681
 42
-1.0
 10
540.010374
 20
295.678681
 10
564.010374
 20
295.678681
 42
-0.414214
 10
567.210374
 20
292.478681
 10
567.210374
 20
282.87868
 42
0.414214
 10
570.410373
 20
279.678681
 10
587.210373
 20
279.678681
 42
-0.414214
 10
592.010373
 20
274.878683
 10
592.010373
 20
267.678681
 10
581.610374
 20
267.678681
 42
0.414214
 10
579.210374
 20
265.278681
 42
0.414214
 10
581.610374
 20
262.878681
 10
614.410374
 20
262.878681
 42
-0.414214
 10
617.610373
 20
259.678682
 10
617.610373
 20
216.478681
 10
610.410374
 20
216.478681
 42
0.414214
 10
608.010374
 20
214.078681
 42
0.414214
 10
610.410374
 20
211.678681
 10
617.610373
 20
211.678681
 10
617.610373
 20
190.878679
 42
-0.414214
 10
614.410374
 20
187.678681
 10
581.610374
 20
187.678681
 42
0.414214
 10
579.210374
 20
185.278681
 42
0.414214
 10
581.610374
 20
182.878681
 10
592.010373
 20
182.878681
 10
592.010373
 20
175.678679
 42
-0.414214
 10
587.210373
 20
170.878681
 10
570.410373
 20
170.878681
 42
0.414214
 10
567.210374
 20
167.678681
 10
567.210374
 20
158.07868
 42
-0.414214
 10
564.010374
 20
154.878681
 10
540.010374
 20
154.878681
  0
LWPOLYLINE
  5
85
330
1F
100
AcDbEntity
  8
0
100
AcDbPolyline
 90
        5
 70
   128
 43
0.0
 10
701.605664
 20
487.02975
 42
-0.414214
 10
692.199048
 20
495.178097
 42
-0.414214
 10
700.347396
 20
504.584714
 42
-0.414214
 10
709.754012
 20
496.436365
 42
-0.414214
 10
701.605664
 20
487.02975
  0
LWPOLYLINE
  5
86
330
1F
100
AcDbEntity
  8
0
100
AcDbPolyline
 90
        8
 70
   128
 43
0.0
 10
712.879955
 20
486.39415
 10
723.345958
 20
481.369534
 42
-0.490624
 10
724.338923
 20
476.467981
 42
-0.143539
 10
710.274284
 20
466.797721
 42
-0.487984
 10
706.055744
 20
469.703561
 10
705.23215
 20
481.194084
 42
0.077485
 10
709.415269
 20
483.258428
 42
0.077446
 10
712.879955
 20
486.39415
  0
LWPOLYLINE
  5
87
330
1F
100
AcDbEntity
  8
0
100
AcDbPolyline
 90
        8
 70
   128
 43
0.0
 10
690.377682
 20
484.78128
 42
0.077446
 10
694.254163
 20
482.171741
 42
0.079609
 10
698.848527
 20
480.736531
 10
699.67212
 20
469.246009
 42
-0.487984
 10
695.911132
 20
465.768228
 42
-0.144188
 10
680.451512
 20
473.322311
 42
-0.476309
 10
680.894863
 20
478.326814
 10
690.377682
 20
484.78128
  0
LWPOLYLINE
  5
88
330
1F
100
AcDbEntity
  8
0
100
AcDbPolyline
 90
        8
 70
   128
 43
0.0
 10
715.007957
 20
501.46485
 10
724.650367
 20
507.930756
 42
-0.482026
 10
729.404321
 20
506.506985
 42
-0.143933
 10
730.628272
 20
489.430793
 42
-0.497069
 10
726.137411
 20
487.18398
 10
715.671408
 20
492.208597
 42
0.077964
 10
716.137637
 20
496.893917
 42
0.077964
 10
715.007957
 20
501.46485
  0
LWPOLYLINE
  5
89
330
1F
100
AcDbEntity
  8
0
100
AcDbPolyline
 90
        8
 70
   128
 43
0.0
 10
703.104533
 20
510.877931
 10
702.28094
 20
522.368453
 42
-0.487984
 10
706.041928
 20
525.846234
 42
-0.143539
 10
721.341957
 20
518.280713
 42
-0.490624
 10
721.058198
 20
513.287651
 10
711.415787
 20
506.821745
 42
0.079024
 10
707.527866
 20
509.590873
 42
0.076284
 10
703.104533
 20
510.877931
  0
LWPOLYLINE
  5
8A
330
1F
100
AcDbEntity
  8
0
100
AcDbPolyline
 90
        8
 70
   128
 43
0.0
 10
686.122061
 20
499.394428
 42
0.077525
 10
685.815423
 20
494.720545
 42
0.077525
 10
686.785512
 20
490.138174
 10
677.302693
 20
483.683708
 42
-0.497069
 10
672.537301
 20
485.26707
 42
-0.143933
 10
671.313349
 20
502.343262
 42
-0.482026
 10
675.815649
 20
504.430483
 10
686.122061
 20
499.394428
  0
LWPOLYLINE
  5
8B
330
1F
100
AcDbEntity
  8
0
100
AcDbPolyline
 90
        5
 70
   128
 43
0.0
 10
790.339685
 20
486.652601
 42
-0.414214
 10
780.93307
 20
494.800949
 42
-0.414214
 10
789.081417
 20
504.207566
 42
-0.414214
 10
798.488033
 20
496.059217
 42
-0.414214
 10
790.339685
 20
486.652601
  0
LWPOLYLINE
  5
8C
330
1F
100
AcDbEntity
  8
0
100
AcDbPolyline
 90
        8
 70
   128
 43
0.0
 10
779.271294
 20
484.41557
 42
0.079024
 10
783.159215
 20
481.646442
 42
0.076284
 10
787.582549
 20
480.359383
 10
788.41758
 20
468.709271
 42
-0.491774
 10
784.645153
 20
465.39108
 42
-0.144188
 10
769.185535
 20
472.945163
 42
-0.476309
 10
769.628884
 20
477.949666
 10
779.271294
 20
484.41557
  0
LWPOLYLINE
  5
8D
330
1F
100
AcDbEntity
  8
0
100
AcDbPolyline
 90
        8
 70
   128
 43
0.0
 10
801.613975
 20
486.017002
 10
812.079978
 20
480.992385
 42
-0.480072
 10
813.232533
 20
476.102272
 42
-0.144188
 10
799.008305
 20
466.420573
 42
-0.491774
 10
794.801204
 20
469.166823
 10
793.966171
 20
480.816936
 42
0.078112
 10
798.320319
 20
482.733128
 42
0.076343
 10
801.613975
 20
486.017002
  0
LWPOLYLINE
  5
8E
330
1F
100
AcDbEntity
  8
0
100
AcDbPolyline
 90
        8
 70
   128
 43
0.0
 10
775.015674
 20
499.028718
 42
0.077964
 10
774.549445
 20
494.343397
 42
0.077964
 10
775.679124
 20
489.772465
 10
766.048153
 20
483.146968
 42
-0.474523
 10
761.28276
 20
484.73033
 42
-0.143933
 10
760.05881
 20
501.806523
 42
-0.497069
 10
764.54967
 20
504.053335
 10
775.015674
 20
499.028718
  0
LWPOLYLINE
  5
8F
330
1F
100
AcDbEntity
  8
0
100
AcDbPolyline
 90
        8
 70
   128
 43
0.0
 10
803.741979
 20
501.087702
 10
813.384388
 20
507.553608
 42
-0.497069
 10
818.14978
 20
505.970246
 42
-0.143933
 10
819.373733
 20
488.894053
 42
-0.474523
 10
814.882871
 20
486.647241
 10
804.40543
 20
491.831449
 42
0.077964
 10
804.871658
 20
496.516769
 42
0.077964
 10
803.741979
 20
501.087702
  0
LWPOLYLINE
  5
90
330
1F
100
AcDbEntity
  8
0
100
AcDbPolyline
 90
        8
 70
   128
 43
0.0
 10
785.454931
 20
510.043231
 42
0.077485
 10
781.271813
 20
507.978887
 42
0.079671
 10
777.818566
 20
504.683574
 10
767.341124
 20
509.867782
 42
-0.480072
 10
766.188568
 20
514.757895
 42
-0.143596
 10
780.424236
 20
524.280004
 42
-0.491774
 10
784.631337
 20
521.533753
 10
785.454931
 20
510.043231
  0
LWPOLYLINE
  5
91
330
1F
100
AcDbEntity
  8
0
100
AcDbPolyline
 90
        8
 70
   128
 43
0.0
 10
791.838555
 20
510.500784
 10
791.014961
 20
521.991305
 42
-0.491774
 10
794.787388
 20
525.309496
 42
-0.143596
 10
810.235569
 20
517.915004
 42
-0.476309
 10
809.792218
 20
512.910501
 10
800.161247
 20
506.285007
 42
0.077484
 10
796.432918
 20
509.065574
 42
0.079609
 10
791.838555
 20
510.500784
  0
LWPOLYLINE
  5
92
330
1F
100
AcDbEntity
  8
0
100
AcDbPolyline
 90
        8
 70
   128
 43
0.0
 10
696.720911
 20
510.420379
 42
0.078112
 10
692.366763
 20
508.504188
 42
0.078497
 10
688.913516
 20
505.208874
 10
678.607103
 20
510.24493
 42
-0.480072
 10
677.454548
 20
515.135044
 42
-0.144188
 10
691.678776
 20
524.816742
 42
-0.487984
 10
695.897316
 20
521.910901
 10
696.720911
 20
510.420379
  0
LWPOLYLINE
  5
93
330
1F
100
AcDbEntity
  8
0
100
AcDbPolyline
 90
        5
 70
   128
 43
0.0
 10
786.793658
 20
536.125682
 42
0.198613
 10
758.925263
 20
522.097404
 42
0.198613
 10
749.014954
 20
492.513189
 42
0.668179
 10
820.54924
 20
468.716505
 42
0.668179
 10
786.793658
 20
536.125682
  0
LWPOLYLINE
  5
94
330
1F
100
AcDbEntity
  8
0
100
AcDbPolyline
 90
        5
 70
   128
 43
0.0
 10
698.059636
 20
536.50283
 42
0.198613
 10
670.191242
 20
522.474552
 42
0.198613
 10
660.280933
 20
492.890337
 42
0.668179
 10
731.815219
 20
469.093654
 42
0.668179
 10
698.059636
 20
536.50283
  0
ENDSEC
  0
SECTION
  2
OBJECTS
  0
DICTIONARY
  5
C
330
0
100
AcDbDictionary
281
     1
  3
ACAD_GROUP
350
D
  3
ACAD_LAYOUT
350
1A
  3
ACAD_MLINESTYLE
350
17
  3
ACAD_PLOTSETTINGS
350
19
  3
ACAD_PLOTSTYLENAME
350
E
  0
DICTIONARY
  5
D
102
{ACAD_REACTORS
330
C
102
}
330
C
100
AcDbDictionary
281
     1
  0
DICTIONARY
  5
1A
102
{ACAD_REACTORS
330
C
102
}
330
C
100
AcDbDictionary
281
     1
  3
Layout1
350
1E
  3
Layout2
350
26
  3
Model
350
22
  0
DICTIONARY
  5
17
102
{ACAD_REACTORS
330
C
102
}
330
C
100
AcDbDictionary
281
     1
  3
Standard
350
18
  0
DICTIONARY
  5
19
102
{ACAD_REACTORS
330
C
102
}
330
C
100
AcDbDictionary
281
     1
  0
ACDBDICTIONARYWDFLT
  5
E
102
{ACAD_REACTORS
330
C
102
}
330
C
100
AcDbDictionary
281
     1
  3
Normal
350
F
100
AcDbDictionaryWithDefault
340
F
  0
LAYOUT
  5
1E
102
{ACAD_REACTORS
330
1A
102
}
330
1A
100
AcDbPlotSettings
  1

  2

  4

  6

 40
0.0
 41
0.0
 42
0.0
 43
0.0
 44
0.0
 45
0.0
 46
0.0
 47
0.0
 48
0.0
 49
0.0
140
0.0
141
0.0
142
1.0
143
1.0
 70
   688
 72
     0
 73
     0
 74
     5
  7

 75
    16
147
1.0
148
0.0
149
0.0
100
AcDbLayout
  1
Layout1
 70
     1
 71
     1
 10
0.0
 20
0.0
 11
420.0
 21
297.0
 12
0.0
 22
0.0
 32
0.0
 14
1.000000E+20
 24
1.000000E+20
 34
1.000000E+20
 15
-1.000000E+20
 25
-1.000000E+20
 35
-1.000000E+20
146
0.0
 13
0.0
 23
0.0
 33
0.0
 16
1.0
 26
0.0
 36
0.0
 17
0.0
 27
1.0
 37
0.0
 76
     0
330
1B
  0
LAYOUT
  5
26
102
{ACAD_REACTORS
330
1A
102
}
330
1A
100
AcDbPlotSettings
  1

  2

  4

  6

 40
0.0
 41
0.0
 42
0.0
 43
0.0
 44
0.0
 45
0.0
 46
0.0
 47
0.0
 48
0.0
 49
0.0
140
0.0
141
0.0
142
1.0
143
1.0
 70
   688
 72
     0
 73
     0
 74
     5
  7

 75
    16
147
1.0
148
0.0
149
0.0
100
AcDbLayout
  1
Layout2
 70
     1
 71
     2
 10
0.0
 20
0.0
 11
0.0
 21
0.0
 12
0.0
 22
0.0
 32
0.0
 14
0.0
 24
0.0
 34
0.0
 15
0.0
 25
0.0
 35
0.0
146
0.0
 13
0.0
 23
0.0
 33
0.0
 16
1.0
 26
0.0
 36
0.0
 17
0.0
 27
1.0
 37
0.0
 76
     0
330
23
  0
LAYOUT
  5
22
102
{ACAD_REACTORS
330
1A
102
}
330
1A
100
AcDbPlotSettings
  1

  2

  4

  6

 40
0.0
 41
0.0
 42
0.0
 43
0.0
 44
0.0
 45
0.0
 46
0.0
 47
0.0
 48
0.0
 49
0.0
140
0.0
141
0.0
142
1.0
143
1.0
 70
  1712
 72
     0
 73
     0
 74
     0
  7

 75
     0
147
1.0
148
0.0
149
0.0
100
AcDbLayout
  1
Model
 70
     1
 71
     0
 10
0.0
 20
0.0
 11
0.0
 21
0.0
 12
0.0
 22
0.0
 32
0.0
 14
0.0
 24
0.0
 34
0.0
 15
0.0
 25
0.0
 35
0.0
146
0.0
 13
0.0
 23
0.0
 33
0.0
 16
1.0
 26
0.0
 36
0.0
 17
0.0
 27
1.0
 37
0.0
 76
     0
330
1F
  0
MLINESTYLE
  5
18
102
{ACAD_REACTORS
330
17
102
}
330
17
100
AcDbMlineStyle
  2
Standard
 70
     0
  3

 62
   256
 51
90.0
 52
90.0
 71
     2
 49
1.0
 62
   256
  6
BYLAYER
 49
-1.0
 62
   256
  6
BYLAYER
  0
ACDBPLACEHOLDER
  5
F
102
{ACAD_REACTORS
330
E
102
}
330
E
  0
ENDSEC
  0
EOF
