999
DXF created by Inkscape
  0
SECTION
  2
HEADER
  9
$ACADVER
  1
AC1014
  9
$HANDSEED
  5
FFFF
  9
$MEASUREMENT
 70
     1
  0
ENDSEC
  0
SECTION
  2
TABLES
  0
TABLE
  2
VPORT
  5
8
330
0
100
AcDbSymbolTable
 70
     4
  0
VPORT
  5
2E
330
8
100
AcDbSymbolTableRecord
100
AcDbViewportTableRecord
  2
*ACTIVE
 70
     0
 10
0.0
 20
0.0
 11
1.0
 21
1.0
 12
210.0
 22
148.5
 13
0.0
 23
0.0
 14
10.0
 24
10.0
 15
10.0
 25
10.0
 16
0.0
 26
0.0
 36
1.0
 17
0.0
 27
0.0
 37
0.0
 40
341.0
 41
1.24
 42
50.0
 43
0.0
 44
0.0
 50
0.0
 51
0.0
 71
     0
 72
   100
 73
     1
 74
     3
 75
     0
 76
     0
 77
     0
 78
     0
  0
ENDTAB
  0
TABLE
  2
LTYPE
  5
5
330
0
100
AcDbSymbolTable
 70
     1
  0
LTYPE
  5
14
330
5
100
AcDbSymbolTableRecord
100
AcDbLinetypeTableRecord
  2
BYBLOCK
 70
     0
  3

 72
    65
 73
     0
 40
0.0
  0
LTYPE
  5
15
330
5
100
AcDbSymbolTableRecord
100
AcDbLinetypeTableRecord
  2
BYLAYER
 70
     0
  3

 72
    65
 73
     0
 40
0.0
  0
LTYPE
  5
16
330
5
100
AcDbSymbolTableRecord
100
AcDbLinetypeTableRecord
  2
CONTINUOUS
 70
     0
  3
Solid line
 72
    65
 73
     0
 40
0.0
  0
ENDTAB
  0
TABLE
  2
LAYER
  5
2
100
AcDbSymbolTable
 70
2
  0
LAYER
  5
50
100
AcDbSymbolTableRecord
100
AcDbLayerTableRecord
  2
0
 70
0
  6
CONTINUOUS
  0
LAYER
  5
51
100
AcDbSymbolTableRecord
100
AcDbLayerTableRecord
  2
Layer_1
 70
0
  6
CONTINUOUS
  0
ENDTAB
  0
TABLE
  2
STYLE
  5
3
330
0
100
AcDbSymbolTable
 70
     1
  0
STYLE
  5
11
330
3
100
AcDbSymbolTableRecord
100
AcDbTextStyleTableRecord
  2
STANDARD
 70
     0
 40
0.0
 41
1.0
 50
0.0
 71
     0
 42
2.5
  3
txt
  4

  0
ENDTAB
  0
TABLE
  2
VIEW
  5
6
330
0
100
AcDbSymbolTable
 70
     0
  0
ENDTAB
  0
TABLE
  2
UCS
  5
7
330
0
100
AcDbSymbolTable
 70
     0
  0
ENDTAB
  0
TABLE
  2
APPID
  5
9
330
0
100
AcDbSymbolTable
 70
     2
  0
APPID
  5
12
330
9
100
AcDbSymbolTableRecord
100
AcDbRegAppTableRecord
  2
ACAD
 70
     0
  0
ENDTAB
  0
TABLE
  2
DIMSTYLE
  5
A
330
0
100
AcDbSymbolTable
 70
     1
  0
DIMSTYLE
105
27
330
A
100
AcDbSymbolTableRecord
100
AcDbDimStyleTableRecord
  2
ISO-25
 70
     0
  3

  4

  5

  6

  7

 40
1.0
 41
2.5
 42
0.625
 43
3.75
 44
1.25
 45
0.0
 46
0.0
 47
0.0
 48
0.0
140
2.5
141
2.5
142
0.0
143
0.03937007874016
144
1.0
145
0.0
146
1.0
147
0.625
 71
     0
 72
     0
 73
     0
 74
     0
 75
     0
 76
     0
 77
     1
 78
     8
170
     0
171
     3
172
     1
173
     0
174
     0
175
     0
176
     0
177
     0
178
     0
270
     2
271
     2
272
     2
273
     2
274
     3
340
11
275
     0
280
     0
281
     0
282
     0
283
     0
284
     8
285
     0
286
     0
287
     3
288
     0
  0
ENDTAB
  0
TABLE
  2
BLOCK_RECORD
  5
1
330
0
100
AcDbSymbolTable
 70
     1
  0
BLOCK_RECORD
  5
1F
330
1
100
AcDbSymbolTableRecord
100
AcDbBlockTableRecord
  2
*MODEL_SPACE
  0
BLOCK_RECORD
  5
1B
330
1
100
AcDbSymbolTableRecord
100
AcDbBlockTableRecord
  2
*PAPER_SPACE
  0
ENDTAB
  0
ENDSEC
  0
SECTION
  2
BLOCKS
  0
BLOCK
  5
20
330
1F
100
AcDbEntity
  8
0
100
AcDbBlockBegin
  2
*MODEL_SPACE
 70
     0
 10
0.0
 20
0.0
 30
0.0
  3
*MODEL_SPACE
  1

  0
ENDBLK
  5
21
330
1F
100
AcDbEntity
  8
0
100
AcDbBlockEnd
  0
BLOCK
  5
1C
330
1B
100
AcDbEntity
 67
     1
  8
0
100
AcDbBlockBegin
  2
*PAPER_SPACE
  1

  0
ENDBLK
  5
1D
330
1B
100
AcDbEntity
 67
     1
  8
0
100
AcDbBlockEnd
  0
ENDSEC
  0
SECTION
  2
ENTITIES
  0
LWPOLYLINE
  5
100
100
AcDbEntity
  8
Layer_1
 62
5
100
AcDbPolyline
 90
6
 70
0
 10
196.000014
 20
42.000007
 30
0.0
 10
196.000014
 20
40.000007
 30
0.0
 10
201.000013
 20
40.000007
 30
0.0
 10
201.000013
 20
50.000008
 30
0.0
 10
196.000014
 20
50.000008
 30
0.0
 10
196.000014
 20
48.000006
 30
0.0
  0
LWPOLYLINE
  5
101
100
AcDbEntity
  8
Layer_1
 62
5
100
AcDbPolyline
 90
8
 70
0
 10
196.000014
 20
42.000007
 30
0.0
 10
181.000013
 20
40.000007
 30
0.0
 10
181.000013
 20
41.000007
 30
0.0
 10
178.000014
 20
41.000007
 30
0.0
 10
178.000014
 20
49.000007
 30
0.0
 10
181.000013
 20
49.000007
 30
0.0
 10
181.000013
 20
50.000008
 30
0.0
 10
196.000014
 20
48.000006
 30
0.0
  0
LWPOLYLINE
  5
102
100
AcDbEntity
  8
Layer_1
 62
5
100
AcDbPolyline
 90
12
 70
0
 10
204.000013
 20
50.000008
 30
0.0
 10
204.000013
 20
60.000008
 30
0.0
 10
181.000013
 20
60.000008
 30
0.0
 10
181.000013
 20
59.000010
 30
0.0
 10
178.000014
 20
59.000010
 30
0.0
 10
178.000014
 20
51.000009
 30
0.0
 10
181.000013
 20
51.000009
 30
0.0
 10
181.000013
 20
50.000008
 30
0.0
 10
201.000013
 20
55.000009
 30
0.0
 10
197.000012
 20
53.000008
 30
0.0
 10
197.000012
 20
50.000008
 30
0.0
 10
204.000013
 20
50.000008
 30
0.0
  0
LWPOLYLINE
  5
103
100
AcDbEntity
  8
Layer_1
 62
5
100
AcDbPolyline
 90
9
 70
0
 10
210.000012
 20
70.000008
 30
0.0
 10
200.000012
 20
60.000008
 30
0.0
 10
181.000013
 20
60.000008
 30
0.0
 10
181.000013
 20
61.000009
 30
0.0
 10
178.000011
 20
61.000009
 30
0.0
 10
178.000011
 20
69.000007
 30
0.0
 10
181.000013
 20
69.000007
 30
0.0
 10
181.000013
 20
70.000008
 30
0.0
 10
210.000012
 20
70.000008
 30
0.0
  0
LWPOLYLINE
  5
104
100
AcDbEntity
  8
Layer_1
 62
5
100
AcDbPolyline
 90
11
 70
0
 10
181.000011
 20
70.000010
 30
0.0
 10
181.000011
 20
71.000008
 30
0.0
 10
178.000011
 20
71.000008
 30
0.0
 10
178.000011
 20
79.000009
 30
0.0
 10
181.000011
 20
79.000009
 30
0.0
 10
181.000011
 20
80.000010
 30
0.0
 10
210.000012
 20
78.000009
 30
0.0
 10
215.000013
 20
80.000010
 30
0.0
 10
215.000013
 20
70.000010
 30
0.0
 10
210.000012
 20
72.000009
 30
0.0
 10
181.000011
 20
70.000010
 30
0.0
  0
LWPOLYLINE
  5
105
100
AcDbEntity
  8
Layer_1
 62
5
100
AcDbPolyline
 90
11
 70
0
 10
181.000011
 20
80.000007
 30
0.0
 10
181.000011
 20
81.000008
 30
0.0
 10
178.000011
 20
81.000008
 30
0.0
 10
178.000011
 20
89.000009
 30
0.0
 10
181.000011
 20
89.000009
 30
0.0
 10
181.000011
 20
90.000007
 30
0.0
 10
208.000013
 20
88.000008
 30
0.0
 10
218.000013
 20
88.000008
 30
0.0
 10
218.000013
 20
82.000009
 30
0.0
 10
208.000013
 20
82.000009
 30
0.0
 10
181.000011
 20
80.000007
 30
0.0
  0
LWPOLYLINE
  5
106
100
AcDbEntity
  8
Layer_1
 62
5
100
AcDbPolyline
 90
6
 70
0
 10
196.000012
 20
112.000009
 30
0.0
 10
196.000012
 20
110.000009
 30
0.0
 10
201.000010
 20
110.000009
 30
0.0
 10
201.000010
 20
120.000009
 30
0.0
 10
196.000012
 20
120.000009
 30
0.0
 10
196.000012
 20
118.000008
 30
0.0
  0
LWPOLYLINE
  5
107
100
AcDbEntity
  8
Layer_1
 62
5
100
AcDbPolyline
 90
8
 70
0
 10
196.000012
 20
112.000009
 30
0.0
 10
181.000011
 20
110.000009
 30
0.0
 10
181.000011
 20
111.000009
 30
0.0
 10
178.000011
 20
111.000009
 30
0.0
 10
178.000011
 20
119.000008
 30
0.0
 10
181.000011
 20
119.000008
 30
0.0
 10
181.000011
 20
120.000009
 30
0.0
 10
196.000012
 20
118.000008
 30
0.0
  0
LWPOLYLINE
  5
108
100
AcDbEntity
  8
Layer_1
 62
5
100
AcDbPolyline
 90
12
 70
0
 10
204.000010
 20
100.000007
 30
0.0
 10
204.000010
 20
110.000007
 30
0.0
 10
181.000011
 20
110.000007
 30
0.0
 10
181.000011
 20
109.000009
 30
0.0
 10
178.000011
 20
109.000009
 30
0.0
 10
178.000011
 20
101.000008
 30
0.0
 10
181.000011
 20
101.000008
 30
0.0
 10
181.000011
 20
100.000007
 30
0.0
 10
201.000010
 20
105.000008
 30
0.0
 10
197.000010
 20
103.000007
 30
0.0
 10
197.000010
 20
100.000007
 30
0.0
 10
204.000010
 20
100.000007
 30
0.0
  0
LWPOLYLINE
  5
109
100
AcDbEntity
  8
Layer_1
 62
5
100
AcDbPolyline
 90
9
 70
0
 10
210.000009
 20
100.000004
 30
0.0
 10
200.000009
 20
90.000007
 30
0.0
 10
181.000011
 20
90.000007
 30
0.0
 10
181.000011
 20
91.000008
 30
0.0
 10
178.000008
 20
91.000008
 30
0.0
 10
178.000008
 20
99.000003
 30
0.0
 10
181.000011
 20
99.000003
 30
0.0
 10
181.000011
 20
100.000004
 30
0.0
 10
210.000009
 20
100.000004
 30
0.0
  0
LWPOLYLINE
  5
10a
100
AcDbEntity
  8
Layer_1
 62
5
100
AcDbPolyline
 90
11
 70
0
 10
194.999999
 20
138.000015
 30
0.0
 10
194.999999
 20
139.000016
 30
0.0
 10
197.999993
 20
139.000016
 30
0.0
 10
197.999993
 20
147.000016
 30
0.0
 10
194.999999
 20
147.000016
 30
0.0
 10
194.999999
 20
148.000014
 30
0.0
 10
184.999991
 20
145.000015
 30
0.0
 10
180.999991
 20
145.000015
 30
0.0
 10
180.999991
 20
141.000014
 30
0.0
 10
184.999991
 20
141.000014
 30
0.0
 10
194.999999
 20
138.000015
 30
0.0
  0
LWPOLYLINE
  5
10b
100
AcDbEntity
  8
Layer_1
 62
5
100
AcDbPolyline
 90
11
 70
0
 10
184.997959
 20
155.004728
 30
0.0
 10
184.998524
 20
154.004727
 30
0.0
 10
181.998527
 20
154.002751
 30
0.0
 10
182.003917
 20
146.002753
 30
0.0
 10
185.003917
 20
146.004729
 30
0.0
 10
185.004481
 20
145.004734
 30
0.0
 10
195.002455
 20
148.011473
 30
0.0
 10
199.002447
 20
148.014295
 30
0.0
 10
198.999625
 20
152.014293
 30
0.0
 10
194.999633
 20
152.011470
 30
0.0
 10
184.997959
 20
155.004728
 30
0.0
  0
LWPOLYLINE
  5
10c
100
AcDbEntity
  8
Layer_1
 62
5
100
AcDbPolyline
 90
11
 70
0
 10
194.999999
 20
152.000012
 30
0.0
 10
194.999999
 20
153.000013
 30
0.0
 10
197.999993
 20
153.000013
 30
0.0
 10
197.999993
 20
161.000014
 30
0.0
 10
194.999999
 20
161.000014
 30
0.0
 10
194.999999
 20
162.000012
 30
0.0
 10
184.999991
 20
159.000012
 30
0.0
 10
180.999991
 20
159.000012
 30
0.0
 10
180.999991
 20
155.000012
 30
0.0
 10
184.999991
 20
155.000012
 30
0.0
 10
194.999999
 20
152.000012
 30
0.0
  0
LWPOLYLINE
  5
10d
100
AcDbEntity
  8
Layer_1
 62
5
100
AcDbPolyline
 90
11
 70
0
 10
184.995278
 20
169.002019
 30
0.0
 10
184.995843
 20
168.002018
 30
0.0
 10
181.995846
 20
168.000042
 30
0.0
 10
182.001236
 20
160.000044
 30
0.0
 10
185.001236
 20
160.002020
 30
0.0
 10
185.001800
 20
159.002024
 30
0.0
 10
194.999774
 20
162.008764
 30
0.0
 10
198.999766
 20
162.011586
 30
0.0
 10
198.996943
 20
166.011583
 30
0.0
 10
194.996951
 20
166.008761
 30
0.0
 10
184.995278
 20
169.002019
 30
0.0
  0
LWPOLYLINE
  5
10e
100
AcDbEntity
  8
Layer_1
 62
5
100
AcDbPolyline
 90
11
 70
0
 10
184.995278
 20
183.004728
 30
0.0
 10
184.995843
 20
182.004727
 30
0.0
 10
181.995846
 20
182.002752
 30
0.0
 10
182.001236
 20
174.002754
 30
0.0
 10
185.001236
 20
174.004729
 30
0.0
 10
185.001800
 20
173.004734
 30
0.0
 10
194.999774
 20
176.011473
 30
0.0
 10
198.999766
 20
176.014295
 30
0.0
 10
198.996943
 20
180.014293
 30
0.0
 10
194.996951
 20
180.011471
 30
0.0
 10
184.995278
 20
183.004728
 30
0.0
  0
LWPOLYLINE
  5
10f
100
AcDbEntity
  8
Layer_1
 62
5
100
AcDbPolyline
 90
11
 70
0
 10
194.999999
 20
165.999998
 30
0.0
 10
194.999999
 20
166.999999
 30
0.0
 10
197.999993
 20
166.999999
 30
0.0
 10
197.999993
 20
175.000000
 30
0.0
 10
194.999999
 20
175.000000
 30
0.0
 10
194.999999
 20
175.999998
 30
0.0
 10
184.999991
 20
172.999998
 30
0.0
 10
180.999991
 20
172.999998
 30
0.0
 10
180.999991
 20
169.000001
 30
0.0
 10
184.999991
 20
169.000001
 30
0.0
 10
194.999999
 20
165.999998
 30
0.0
  0
LWPOLYLINE
  5
110
100
AcDbEntity
  8
Layer_1
 62
5
100
AcDbPolyline
 90
11
 70
0
 10
194.999999
 20
179.999998
 30
0.0
 10
194.999999
 20
180.999999
 30
0.0
 10
197.999993
 20
180.999999
 30
0.0
 10
197.999993
 20
189.000000
 30
0.0
 10
194.999999
 20
189.000000
 30
0.0
 10
194.999999
 20
189.999998
 30
0.0
 10
184.999991
 20
186.999999
 30
0.0
 10
180.999991
 20
186.999999
 30
0.0
 10
180.999991
 20
182.999998
 30
0.0
 10
184.999991
 20
182.999998
 30
0.0
 10
194.999999
 20
179.999998
 30
0.0
  0
LWPOLYLINE
  5
111
100
AcDbEntity
  8
Layer_1
 62
5
100
AcDbPolyline
 90
11
 70
0
 10
184.997959
 20
197.004728
 30
0.0
 10
184.998524
 20
196.004728
 30
0.0
 10
181.998527
 20
196.002752
 30
0.0
 10
182.003917
 20
188.002754
 30
0.0
 10
185.003917
 20
188.004729
 30
0.0
 10
185.004481
 20
187.004734
 30
0.0
 10
195.002455
 20
190.011473
 30
0.0
 10
199.002447
 20
190.014296
 30
0.0
 10
198.999625
 20
194.014293
 30
0.0
 10
194.999633
 20
194.011471
 30
0.0
 10
184.997959
 20
197.004728
 30
0.0
  0
LWPOLYLINE
  5
112
100
AcDbEntity
  8
Layer_1
 62
5
100
AcDbPolyline
 90
5
 70
0
 10
16.006639
 20
191.471510
 30
0.0
 10
23.971468
 20
191.471510
 30
0.0
 10
23.971468
 20
188.506642
 30
0.0
 10
16.006639
 20
188.506642
 30
0.0
 10
16.006639
 20
191.471510
 30
0.0
  0
LWPOLYLINE
  5
113
100
AcDbEntity
  8
Layer_1
 62
5
100
AcDbPolyline
 90
5
 70
0
 10
36.006639
 20
171.471508
 30
0.0
 10
43.971469
 20
171.471508
 30
0.0
 10
43.971469
 20
168.506639
 30
0.0
 10
36.006639
 20
168.506639
 30
0.0
 10
36.006639
 20
171.471508
 30
0.0
  0
LWPOLYLINE
  5
114
100
AcDbEntity
  8
Layer_1
 62
5
100
AcDbPolyline
 90
5
 70
0
 10
56.006642
 20
191.471510
 30
0.0
 10
63.971471
 20
191.471510
 30
0.0
 10
63.971471
 20
188.506642
 30
0.0
 10
56.006642
 20
188.506642
 30
0.0
 10
56.006642
 20
191.471510
 30
0.0
  0
LWPOLYLINE
  5
115
100
AcDbEntity
  8
Layer_1
 62
5
100
AcDbPolyline
 90
5
 70
0
 10
76.006644
 20
171.471508
 30
0.0
 10
83.971473
 20
171.471508
 30
0.0
 10
83.971473
 20
168.506639
 30
0.0
 10
76.006644
 20
168.506639
 30
0.0
 10
76.006644
 20
171.471508
 30
0.0
  0
LWPOLYLINE
  5
116
100
AcDbEntity
  8
Layer_1
 62
5
100
AcDbPolyline
 90
5
 70
0
 10
16.006638
 20
151.471506
 30
0.0
 10
23.971467
 20
151.471506
 30
0.0
 10
23.971467
 20
148.506637
 30
0.0
 10
16.006638
 20
148.506637
 30
0.0
 10
16.006638
 20
151.471506
 30
0.0
  0
LWPOLYLINE
  5
117
100
AcDbEntity
  8
Layer_1
 62
5
100
AcDbPolyline
 90
5
 70
0
 10
36.006639
 20
131.471503
 30
0.0
 10
43.971469
 20
131.471503
 30
0.0
 10
43.971469
 20
128.506635
 30
0.0
 10
36.006639
 20
128.506635
 30
0.0
 10
36.006639
 20
131.471503
 30
0.0
  0
LWPOLYLINE
  5
118
100
AcDbEntity
  8
Layer_1
 62
5
100
AcDbPolyline
 90
5
 70
0
 10
56.006639
 20
151.471506
 30
0.0
 10
63.971468
 20
151.471506
 30
0.0
 10
63.971468
 20
148.506637
 30
0.0
 10
56.006639
 20
148.506637
 30
0.0
 10
56.006639
 20
151.471506
 30
0.0
  0
LWPOLYLINE
  5
119
100
AcDbEntity
  8
Layer_1
 62
5
100
AcDbPolyline
 90
5
 70
0
 10
76.006644
 20
131.471503
 30
0.0
 10
83.971473
 20
131.471503
 30
0.0
 10
83.971473
 20
128.506635
 30
0.0
 10
76.006644
 20
128.506635
 30
0.0
 10
76.006644
 20
131.471503
 30
0.0
  0
LWPOLYLINE
  5
11a
100
AcDbEntity
  8
Layer_1
 62
5
100
AcDbPolyline
 90
5
 70
0
 10
96.006638
 20
191.471510
 30
0.0
 10
103.971467
 20
191.471510
 30
0.0
 10
103.971467
 20
188.506642
 30
0.0
 10
96.006638
 20
188.506642
 30
0.0
 10
96.006638
 20
191.471510
 30
0.0
  0
LWPOLYLINE
  5
11b
100
AcDbEntity
  8
Layer_1
 62
5
100
AcDbPolyline
 90
5
 70
0
 10
116.006640
 20
171.471508
 30
0.0
 10
123.971469
 20
171.471508
 30
0.0
 10
123.971469
 20
168.506639
 30
0.0
 10
116.006640
 20
168.506639
 30
0.0
 10
116.006640
 20
171.471508
 30
0.0
  0
LWPOLYLINE
  5
11c
100
AcDbEntity
  8
Layer_1
 62
5
100
AcDbPolyline
 90
5
 70
0
 10
136.006634
 20
191.471510
 30
0.0
 10
143.971463
 20
191.471510
 30
0.0
 10
143.971463
 20
188.506642
 30
0.0
 10
136.006634
 20
188.506642
 30
0.0
 10
136.006634
 20
191.471510
 30
0.0
  0
LWPOLYLINE
  5
11d
100
AcDbEntity
  8
Layer_1
 62
5
100
AcDbPolyline
 90
5
 70
0
 10
156.006636
 20
171.471517
 30
0.0
 10
163.971466
 20
171.471517
 30
0.0
 10
163.971466
 20
168.506648
 30
0.0
 10
156.006636
 20
168.506648
 30
0.0
 10
156.006636
 20
171.471517
 30
0.0
  0
LWPOLYLINE
  5
11e
100
AcDbEntity
  8
Layer_1
 62
5
100
AcDbPolyline
 90
5
 70
0
 10
96.006638
 20
151.471506
 30
0.0
 10
103.971467
 20
151.471506
 30
0.0
 10
103.971467
 20
148.506637
 30
0.0
 10
96.006638
 20
148.506637
 30
0.0
 10
96.006638
 20
151.471506
 30
0.0
  0
LWPOLYLINE
  5
11f
100
AcDbEntity
  8
Layer_1
 62
5
100
AcDbPolyline
 90
5
 70
0
 10
116.006640
 20
131.471520
 30
0.0
 10
123.971469
 20
131.471520
 30
0.0
 10
123.971469
 20
128.506652
 30
0.0
 10
116.006640
 20
128.506652
 30
0.0
 10
116.006640
 20
131.471520
 30
0.0
  0
LWPOLYLINE
  5
120
100
AcDbEntity
  8
Layer_1
 62
5
100
AcDbPolyline
 90
5
 70
0
 10
136.006634
 20
151.471506
 30
0.0
 10
143.971463
 20
151.471506
 30
0.0
 10
143.971463
 20
148.506637
 30
0.0
 10
136.006634
 20
148.506637
 30
0.0
 10
136.006634
 20
151.471506
 30
0.0
  0
LWPOLYLINE
  5
121
100
AcDbEntity
  8
Layer_1
 62
5
100
AcDbPolyline
 90
5
 70
0
 10
156.006636
 20
131.471520
 30
0.0
 10
163.971466
 20
131.471520
 30
0.0
 10
163.971466
 20
128.506652
 30
0.0
 10
156.006636
 20
128.506652
 30
0.0
 10
156.006636
 20
131.471520
 30
0.0
  0
LWPOLYLINE
  5
122
100
AcDbEntity
  8
Layer_1
 62
5
100
AcDbPolyline
 90
5
 70
0
 10
16.006638
 20
111.471501
 30
0.0
 10
23.971467
 20
111.471501
 30
0.0
 10
23.971467
 20
108.506632
 30
0.0
 10
16.006638
 20
108.506632
 30
0.0
 10
16.006638
 20
111.471501
 30
0.0
  0
LWPOLYLINE
  5
123
100
AcDbEntity
  8
Layer_1
 62
5
100
AcDbPolyline
 90
5
 70
0
 10
36.006636
 20
91.471516
 30
0.0
 10
43.971466
 20
91.471516
 30
0.0
 10
43.971466
 20
88.506647
 30
0.0
 10
36.006636
 20
88.506647
 30
0.0
 10
36.006636
 20
91.471516
 30
0.0
  0
LWPOLYLINE
  5
124
100
AcDbEntity
  8
Layer_1
 62
5
100
AcDbPolyline
 90
5
 70
0
 10
56.006639
 20
111.471518
 30
0.0
 10
63.971468
 20
111.471518
 30
0.0
 10
63.971468
 20
108.506649
 30
0.0
 10
56.006639
 20
108.506649
 30
0.0
 10
56.006639
 20
111.471518
 30
0.0
  0
LWPOLYLINE
  5
125
100
AcDbEntity
  8
Layer_1
 62
5
100
AcDbPolyline
 90
5
 70
0
 10
76.006635
 20
91.471516
 30
0.0
 10
83.971465
 20
91.471516
 30
0.0
 10
83.971465
 20
88.506647
 30
0.0
 10
76.006635
 20
88.506647
 30
0.0
 10
76.006635
 20
91.471516
 30
0.0
  0
LWPOLYLINE
  5
126
100
AcDbEntity
  8
Layer_1
 62
5
100
AcDbPolyline
 90
5
 70
0
 10
16.006638
 20
71.471513
 30
0.0
 10
23.971467
 20
71.471513
 30
0.0
 10
23.971467
 20
68.506645
 30
0.0
 10
16.006638
 20
68.506645
 30
0.0
 10
16.006638
 20
71.471513
 30
0.0
  0
LWPOLYLINE
  5
127
100
AcDbEntity
  8
Layer_1
 62
5
100
AcDbPolyline
 90
5
 70
0
 10
36.006636
 20
51.471511
 30
0.0
 10
43.971466
 20
51.471511
 30
0.0
 10
43.971466
 20
48.506642
 30
0.0
 10
36.006636
 20
48.506642
 30
0.0
 10
36.006636
 20
51.471511
 30
0.0
  0
LWPOLYLINE
  5
128
100
AcDbEntity
  8
Layer_1
 62
5
100
AcDbPolyline
 90
5
 70
0
 10
56.006639
 20
71.471513
 30
0.0
 10
63.971468
 20
71.471513
 30
0.0
 10
63.971468
 20
68.506645
 30
0.0
 10
56.006639
 20
68.506645
 30
0.0
 10
56.006639
 20
71.471513
 30
0.0
  0
LWPOLYLINE
  5
129
100
AcDbEntity
  8
Layer_1
 62
5
100
AcDbPolyline
 90
5
 70
0
 10
76.006635
 20
51.471511
 30
0.0
 10
83.971465
 20
51.471511
 30
0.0
 10
83.971465
 20
48.506642
 30
0.0
 10
76.006635
 20
48.506642
 30
0.0
 10
76.006635
 20
51.471511
 30
0.0
  0
LWPOLYLINE
  5
12a
100
AcDbEntity
  8
Layer_1
 62
5
100
AcDbPolyline
 90
5
 70
0
 10
96.006638
 20
111.471501
 30
0.0
 10
103.971467
 20
111.471501
 30
0.0
 10
103.971467
 20
108.506632
 30
0.0
 10
96.006638
 20
108.506632
 30
0.0
 10
96.006638
 20
111.471501
 30
0.0
  0
LWPOLYLINE
  5
12b
100
AcDbEntity
  8
Layer_1
 62
5
100
AcDbPolyline
 90
5
 70
0
 10
116.006640
 20
91.471516
 30
0.0
 10
123.971469
 20
91.471516
 30
0.0
 10
123.971469
 20
88.506647
 30
0.0
 10
116.006640
 20
88.506647
 30
0.0
 10
116.006640
 20
91.471516
 30
0.0
  0
LWPOLYLINE
  5
12c
100
AcDbEntity
  8
Layer_1
 62
5
100
AcDbPolyline
 90
5
 70
0
 10
136.006634
 20
111.471518
 30
0.0
 10
143.971463
 20
111.471518
 30
0.0
 10
143.971463
 20
108.506649
 30
0.0
 10
136.006634
 20
108.506649
 30
0.0
 10
136.006634
 20
111.471518
 30
0.0
  0
LWPOLYLINE
  5
12d
100
AcDbEntity
  8
Layer_1
 62
5
100
AcDbPolyline
 90
5
 70
0
 10
156.006636
 20
91.471516
 30
0.0
 10
163.971466
 20
91.471516
 30
0.0
 10
163.971466
 20
88.506647
 30
0.0
 10
156.006636
 20
88.506647
 30
0.0
 10
156.006636
 20
91.471516
 30
0.0
  0
LWPOLYLINE
  5
12e
100
AcDbEntity
  8
Layer_1
 62
5
100
AcDbPolyline
 90
5
 70
0
 10
116.106643
 20
51.471511
 30
0.0
 10
124.071472
 20
51.471511
 30
0.0
 10
124.071472
 20
48.506642
 30
0.0
 10
116.106643
 20
48.506642
 30
0.0
 10
116.106643
 20
51.471511
 30
0.0
  0
LWPOLYLINE
  5
12f
100
AcDbEntity
  8
Layer_1
 62
5
100
AcDbPolyline
 90
5
 70
0
 10
136.006634
 20
71.471513
 30
0.0
 10
143.971463
 20
71.471513
 30
0.0
 10
143.971463
 20
68.506645
 30
0.0
 10
136.006634
 20
68.506645
 30
0.0
 10
136.006634
 20
71.471513
 30
0.0
  0
LWPOLYLINE
  5
130
100
AcDbEntity
  8
Layer_1
 62
5
100
AcDbPolyline
 90
5
 70
0
 10
156.006636
 20
51.471511
 30
0.0
 10
163.971466
 20
51.471511
 30
0.0
 10
163.971466
 20
48.506642
 30
0.0
 10
156.006636
 20
48.506642
 30
0.0
 10
156.006636
 20
51.471511
 30
0.0
  0
LWPOLYLINE
  5
131
100
AcDbEntity
  8
Layer_1
 62
5
100
AcDbPolyline
 90
5
 70
0
 10
16.017639
 20
91.491514
 30
0.0
 10
23.982468
 20
91.491514
 30
0.0
 10
23.982468
 20
88.526645
 30
0.0
 10
16.017639
 20
88.526645
 30
0.0
 10
16.017639
 20
91.491514
 30
0.0
  0
LWPOLYLINE
  5
132
100
AcDbEntity
  8
Layer_1
 62
5
100
AcDbPolyline
 90
5
 70
0
 10
5.000000
 20
204.999996
 30
0.0
 10
174.999993
 20
204.999996
 30
0.0
 10
174.999993
 20
35.000003
 30
0.0
 10
5.000000
 20
35.000003
 30
0.0
 10
5.000000
 20
204.999996
 30
0.0
  0
LWPOLYLINE
  5
133
100
AcDbEntity
  8
Layer_1
 62
5
100
AcDbPolyline
 90
5
 70
0
 10
36.070639
 20
191.487512
 30
0.0
 10
44.035468
 20
191.487512
 30
0.0
 10
44.035468
 20
188.522644
 30
0.0
 10
36.070639
 20
188.522644
 30
0.0
 10
36.070639
 20
191.487512
 30
0.0
  0
LWPOLYLINE
  5
134
100
AcDbEntity
  8
Layer_1
 62
5
100
AcDbPolyline
 90
5
 70
0
 10
76.070638
 20
191.487521
 30
0.0
 10
84.035467
 20
191.487521
 30
0.0
 10
84.035467
 20
188.522652
 30
0.0
 10
76.070638
 20
188.522652
 30
0.0
 10
76.070638
 20
191.487521
 30
0.0
  0
LWPOLYLINE
  5
135
100
AcDbEntity
  8
Layer_1
 62
5
100
AcDbPolyline
 90
5
 70
0
 10
116.070606
 20
191.487512
 30
0.0
 10
124.035435
 20
191.487512
 30
0.0
 10
124.035435
 20
188.522644
 30
0.0
 10
116.070606
 20
188.522644
 30
0.0
 10
116.070606
 20
191.487512
 30
0.0
  0
LWPOLYLINE
  5
136
100
AcDbEntity
  8
Layer_1
 62
5
100
AcDbPolyline
 90
5
 70
0
 10
155.970636
 20
191.487512
 30
0.0
 10
163.935465
 20
191.487512
 30
0.0
 10
163.935465
 20
188.522644
 30
0.0
 10
155.970636
 20
188.522644
 30
0.0
 10
155.970636
 20
191.487512
 30
0.0
  0
LWPOLYLINE
  5
137
100
AcDbEntity
  8
Layer_1
 62
5
100
AcDbPolyline
 90
5
 70
0
 10
16.064640
 20
171.464506
 30
0.0
 10
24.029469
 20
171.464506
 30
0.0
 10
24.029469
 20
168.499637
 30
0.0
 10
16.064640
 20
168.499637
 30
0.0
 10
16.064640
 20
171.464506
 30
0.0
  0
LWPOLYLINE
  5
138
100
AcDbEntity
  8
Layer_1
 62
5
100
AcDbPolyline
 90
5
 70
0
 10
56.035646
 20
171.464506
 30
0.0
 10
64.000475
 20
171.464506
 30
0.0
 10
64.000475
 20
168.499637
 30
0.0
 10
56.035646
 20
168.499637
 30
0.0
 10
56.035646
 20
171.464506
 30
0.0
  0
LWPOLYLINE
  5
139
100
AcDbEntity
  8
Layer_1
 62
5
100
AcDbPolyline
 90
5
 70
0
 10
96.035636
 20
171.464506
 30
0.0
 10
104.000465
 20
171.464506
 30
0.0
 10
104.000465
 20
168.499637
 30
0.0
 10
96.035636
 20
168.499637
 30
0.0
 10
96.035636
 20
171.464506
 30
0.0
  0
LWPOLYLINE
  5
13a
100
AcDbEntity
  8
Layer_1
 62
5
100
AcDbPolyline
 90
5
 70
0
 10
136.035649
 20
171.464506
 30
0.0
 10
144.000479
 20
171.464506
 30
0.0
 10
144.000479
 20
168.499637
 30
0.0
 10
136.035649
 20
168.499637
 30
0.0
 10
136.035649
 20
171.464506
 30
0.0
  0
LWPOLYLINE
  5
13b
100
AcDbEntity
  8
Layer_1
 62
5
100
AcDbPolyline
 90
5
 70
0
 10
36.026638
 20
151.487508
 30
0.0
 10
43.991467
 20
151.487508
 30
0.0
 10
43.991467
 20
148.522639
 30
0.0
 10
36.026638
 20
148.522639
 30
0.0
 10
36.026638
 20
151.487508
 30
0.0
  0
LWPOLYLINE
  5
13c
100
AcDbEntity
  8
Layer_1
 62
5
100
AcDbPolyline
 90
5
 70
0
 10
76.026634
 20
151.487508
 30
0.0
 10
83.991463
 20
151.487508
 30
0.0
 10
83.991463
 20
148.522639
 30
0.0
 10
76.026634
 20
148.522639
 30
0.0
 10
76.026634
 20
151.487508
 30
0.0
  0
LWPOLYLINE
  5
13d
100
AcDbEntity
  8
Layer_1
 62
5
100
AcDbPolyline
 90
5
 70
0
 10
116.026638
 20
151.487508
 30
0.0
 10
123.991468
 20
151.487508
 30
0.0
 10
123.991468
 20
148.522639
 30
0.0
 10
116.026638
 20
148.522639
 30
0.0
 10
116.026638
 20
151.487508
 30
0.0
  0
LWPOLYLINE
  5
13e
100
AcDbEntity
  8
Layer_1
 62
5
100
AcDbPolyline
 90
5
 70
0
 10
16.057640
 20
131.487505
 30
0.0
 10
24.022469
 20
131.487505
 30
0.0
 10
24.022469
 20
128.522637
 30
0.0
 10
16.057640
 20
128.522637
 30
0.0
 10
16.057640
 20
131.487505
 30
0.0
  0
LWPOLYLINE
  5
13f
100
AcDbEntity
  8
Layer_1
 62
5
100
AcDbPolyline
 90
5
 70
0
 10
56.028638
 20
131.487505
 30
0.0
 10
63.993467
 20
131.487505
 30
0.0
 10
63.993467
 20
128.522637
 30
0.0
 10
56.028638
 20
128.522637
 30
0.0
 10
56.028638
 20
131.487505
 30
0.0
  0
LWPOLYLINE
  5
140
100
AcDbEntity
  8
Layer_1
 62
5
100
AcDbPolyline
 90
5
 70
0
 10
96.028634
 20
131.487505
 30
0.0
 10
103.993463
 20
131.487505
 30
0.0
 10
103.993463
 20
128.522637
 30
0.0
 10
96.028634
 20
128.522637
 30
0.0
 10
96.028634
 20
131.487505
 30
0.0
  0
LWPOLYLINE
  5
141
100
AcDbEntity
  8
Layer_1
 62
5
100
AcDbPolyline
 90
5
 70
0
 10
136.028639
 20
131.487505
 30
0.0
 10
143.993468
 20
131.487505
 30
0.0
 10
143.993468
 20
128.522637
 30
0.0
 10
136.028639
 20
128.522637
 30
0.0
 10
136.028639
 20
131.487505
 30
0.0
  0
LWPOLYLINE
  5
142
100
AcDbEntity
  8
Layer_1
 62
5
100
AcDbPolyline
 90
5
 70
0
 10
36.021639
 20
111.469503
 30
0.0
 10
43.986469
 20
111.469503
 30
0.0
 10
43.986469
 20
108.504634
 30
0.0
 10
36.021639
 20
108.504634
 30
0.0
 10
36.021639
 20
111.469503
 30
0.0
  0
LWPOLYLINE
  5
143
100
AcDbEntity
  8
Layer_1
 62
5
100
AcDbPolyline
 90
5
 70
0
 10
76.021638
 20
111.469726
 30
0.0
 10
83.986468
 20
111.469726
 30
0.0
 10
83.986468
 20
108.504857
 30
0.0
 10
76.021638
 20
108.504857
 30
0.0
 10
76.021638
 20
111.469726
 30
0.0
  0
LWPOLYLINE
  5
144
100
AcDbEntity
  8
Layer_1
 62
5
100
AcDbPolyline
 90
5
 70
0
 10
116.021635
 20
111.469726
 30
0.0
 10
123.986464
 20
111.469726
 30
0.0
 10
123.986464
 20
108.504857
 30
0.0
 10
116.021635
 20
108.504857
 30
0.0
 10
116.021635
 20
111.469726
 30
0.0
  0
LWPOLYLINE
  5
145
100
AcDbEntity
  8
Layer_1
 62
5
100
AcDbPolyline
 90
5
 70
0
 10
156.021639
 20
111.469503
 30
0.0
 10
163.986469
 20
111.469503
 30
0.0
 10
163.986469
 20
108.504634
 30
0.0
 10
156.021639
 20
108.504634
 30
0.0
 10
156.021639
 20
111.469503
 30
0.0
  0
LWPOLYLINE
  5
146
100
AcDbEntity
  8
Layer_1
 62
5
100
AcDbPolyline
 90
5
 70
0
 10
55.988641
 20
91.491514
 30
0.0
 10
63.953471
 20
91.491514
 30
0.0
 10
63.953471
 20
88.526645
 30
0.0
 10
55.988641
 20
88.526645
 30
0.0
 10
55.988641
 20
91.491514
 30
0.0
  0
LWPOLYLINE
  5
147
100
AcDbEntity
  8
Layer_1
 62
5
100
AcDbPolyline
 90
5
 70
0
 10
95.988638
 20
91.491514
 30
0.0
 10
103.953467
 20
91.491514
 30
0.0
 10
103.953467
 20
88.526645
 30
0.0
 10
95.988638
 20
88.526645
 30
0.0
 10
95.988638
 20
91.491514
 30
0.0
  0
LWPOLYLINE
  5
148
100
AcDbEntity
  8
Layer_1
 62
5
100
AcDbPolyline
 90
5
 70
0
 10
135.888631
 20
91.491514
 30
0.0
 10
143.853460
 20
91.491514
 30
0.0
 10
143.853460
 20
88.526645
 30
0.0
 10
135.888631
 20
88.526645
 30
0.0
 10
135.888631
 20
91.491514
 30
0.0
  0
LWPOLYLINE
  5
149
100
AcDbEntity
  8
Layer_1
 62
5
100
AcDbPolyline
 90
5
 70
0
 10
36.074638
 20
71.496507
 30
0.0
 10
44.039467
 20
71.496507
 30
0.0
 10
44.039467
 20
68.531638
 30
0.0
 10
36.074638
 20
68.531638
 30
0.0
 10
36.074638
 20
71.496507
 30
0.0
  0
LWPOLYLINE
  5
14a
100
AcDbEntity
  8
Layer_1
 62
5
100
AcDbPolyline
 90
5
 70
0
 10
76.074634
 20
71.496507
 30
0.0
 10
84.039463
 20
71.496507
 30
0.0
 10
84.039463
 20
68.531638
 30
0.0
 10
76.074634
 20
68.531638
 30
0.0
 10
76.074634
 20
71.496507
 30
0.0
  0
LWPOLYLINE
  5
14b
100
AcDbEntity
  8
Layer_1
 62
5
100
AcDbPolyline
 90
5
 70
0
 10
116.074585
 20
71.496507
 30
0.0
 10
124.039414
 20
71.496507
 30
0.0
 10
124.039414
 20
68.531638
 30
0.0
 10
116.074585
 20
68.531638
 30
0.0
 10
116.074585
 20
71.496507
 30
0.0
  0
LWPOLYLINE
  5
14c
100
AcDbEntity
  8
Layer_1
 62
5
100
AcDbPolyline
 90
5
 70
0
 10
155.974683
 20
71.496507
 30
0.0
 10
163.939512
 20
71.496507
 30
0.0
 10
163.939512
 20
68.531638
 30
0.0
 10
155.974683
 20
68.531638
 30
0.0
 10
155.974683
 20
71.496507
 30
0.0
  0
LWPOLYLINE
  5
14d
100
AcDbEntity
  8
Layer_1
 62
5
100
AcDbPolyline
 90
5
 70
0
 10
16.043640
 20
51.529511
 30
0.0
 10
24.008469
 20
51.529511
 30
0.0
 10
24.008469
 20
48.564642
 30
0.0
 10
16.043640
 20
48.564642
 30
0.0
 10
16.043640
 20
51.529511
 30
0.0
  0
LWPOLYLINE
  5
14e
100
AcDbEntity
  8
Layer_1
 62
5
100
AcDbPolyline
 90
5
 70
0
 10
56.043647
 20
51.529511
 30
0.0
 10
64.008476
 20
51.529511
 30
0.0
 10
64.008476
 20
48.564642
 30
0.0
 10
56.043647
 20
48.564642
 30
0.0
 10
56.043647
 20
51.529511
 30
0.0
  0
LWPOLYLINE
  5
14f
100
AcDbEntity
  8
Layer_1
 62
5
100
AcDbPolyline
 90
5
 70
0
 10
96.043620
 20
51.529511
 30
0.0
 10
104.008449
 20
51.529511
 30
0.0
 10
104.008449
 20
48.564642
 30
0.0
 10
96.043620
 20
48.564642
 30
0.0
 10
96.043620
 20
51.529511
 30
0.0
  0
LWPOLYLINE
  5
150
100
AcDbEntity
  8
Layer_1
 62
5
100
AcDbPolyline
 90
5
 70
0
 10
136.043642
 20
51.529511
 30
0.0
 10
144.008471
 20
51.529511
 30
0.0
 10
144.008471
 20
48.564642
 30
0.0
 10
136.043642
 20
48.564642
 30
0.0
 10
136.043642
 20
51.529511
 30
0.0
  0
LWPOLYLINE
  5
151
100
AcDbEntity
  8
Layer_1
 62
5
100
AcDbPolyline
 90
5
 70
0
 10
156.035643
 20
151.499497
 30
0.0
 10
164.000472
 20
151.499497
 30
0.0
 10
164.000472
 20
148.534628
 30
0.0
 10
156.035643
 20
148.534628
 30
0.0
 10
156.035643
 20
151.499497
 30
0.0
  0
LWPOLYLINE
  5
152
100
AcDbEntity
  8
Layer_1
 62
5
100
AcDbPolyline
 90
5
 70
0
 10
10.000000
 20
199.999998
 30
0.0
 10
170.000001
 20
199.999998
 30
0.0
 10
170.000001
 20
39.999999
 30
0.0
 10
10.000000
 20
39.999999
 30
0.0
 10
10.000000
 20
199.999998
 30
0.0
  0
LWPOLYLINE
  5
153
100
AcDbEntity
  8
Layer_1
 62
5
100
AcDbPolyline
 90
15
 70
0
 10
29.999999
 20
199.999998
 30
0.0
 10
29.999999
 20
39.999999
 30
0.0
 10
50.000002
 20
39.999999
 30
0.0
 10
50.000002
 20
199.999998
 30
0.0
 10
70.000001
 20
199.999998
 30
0.0
 10
70.000001
 20
39.999999
 30
0.0
 10
90.000001
 20
39.999999
 30
0.0
 10
90.000001
 20
199.999998
 30
0.0
 10
110.000000
 20
199.999998
 30
0.0
 10
110.000000
 20
39.999999
 30
0.0
 10
130.000000
 20
39.999999
 30
0.0
 10
130.000000
 20
199.999998
 30
0.0
 10
149.999999
 20
199.999998
 30
0.0
 10
149.999999
 20
39.999999
 30
0.0
 10
149.999999
 20
39.999999
 30
0.0
  0
LWPOLYLINE
  5
154
100
AcDbEntity
  8
Layer_1
 62
5
100
AcDbPolyline
 90
15
 70
0
 10
10.000000
 20
59.999999
 30
0.0
 10
170.000001
 20
59.999999
 30
0.0
 10
170.000001
 20
79.999998
 30
0.0
 10
10.000000
 20
79.999998
 30
0.0
 10
10.000000
 20
99.999998
 30
0.0
 10
170.000001
 20
99.999998
 30
0.0
 10
170.000001
 20
120.000000
 30
0.0
 10
10.000000
 20
120.000000
 30
0.0
 10
10.000000
 20
139.999999
 30
0.0
 10
170.000001
 20
139.999999
 30
0.0
 10
170.000001
 20
159.999999
 30
0.0
 10
10.000000
 20
159.999999
 30
0.0
 10
10.000000
 20
179.999998
 30
0.0
 10
170.000001
 20
179.999998
 30
0.0
 10
170.000001
 20
179.999998
 30
0.0
  0
LWPOLYLINE
  5
155
100
AcDbEntity
  8
Layer_1
 62
5
100
AcDbPolyline
 90
5
 70
0
 10
96.035170
 20
71.564446
 30
0.0
 10
104.000000
 20
71.564446
 30
0.0
 10
104.000000
 20
68.599577
 30
0.0
 10
96.035170
 20
68.599577
 30
0.0
 10
96.035170
 20
71.564446
 30
0.0
  0
LWPOLYLINE
  5
156
100
AcDbEntity
  8
Layer_1
 62
5
100
AcDbPolyline
 90
6
 70
0
 10
238.171126
 20
41.748749
 30
0.0
 10
238.171126
 20
39.748749
 30
0.0
 10
243.171125
 20
39.748749
 30
0.0
 10
243.171125
 20
49.748750
 30
0.0
 10
238.171126
 20
49.748750
 30
0.0
 10
238.171126
 20
47.748748
 30
0.0
  0
LWPOLYLINE
  5
157
100
AcDbEntity
  8
Layer_1
 62
5
100
AcDbPolyline
 90
8
 70
0
 10
238.171126
 20
41.748749
 30
0.0
 10
223.171125
 20
39.748749
 30
0.0
 10
223.171125
 20
40.748749
 30
0.0
 10
220.171126
 20
40.748749
 30
0.0
 10
220.171126
 20
48.748749
 30
0.0
 10
223.171125
 20
48.748749
 30
0.0
 10
223.171125
 20
49.748750
 30
0.0
 10
238.171126
 20
47.748748
 30
0.0
  0
LWPOLYLINE
  5
158
100
AcDbEntity
  8
Layer_1
 62
5
100
AcDbPolyline
 90
12
 70
0
 10
246.171125
 20
49.748750
 30
0.0
 10
246.171125
 20
59.748749
 30
0.0
 10
223.171125
 20
59.748749
 30
0.0
 10
223.171125
 20
58.748751
 30
0.0
 10
220.171126
 20
58.748751
 30
0.0
 10
220.171126
 20
50.748750
 30
0.0
 10
223.171125
 20
50.748750
 30
0.0
 10
223.171125
 20
49.748750
 30
0.0
 10
243.171125
 20
54.748751
 30
0.0
 10
239.171124
 20
52.748749
 30
0.0
 10
239.171124
 20
49.748750
 30
0.0
 10
246.171125
 20
49.748750
 30
0.0
  0
LWPOLYLINE
  5
159
100
AcDbEntity
  8
Layer_1
 62
5
100
AcDbPolyline
 90
9
 70
0
 10
252.171124
 20
69.748749
 30
0.0
 10
242.171124
 20
59.748749
 30
0.0
 10
223.171125
 20
59.748749
 30
0.0
 10
223.171125
 20
60.748750
 30
0.0
 10
220.171123
 20
60.748750
 30
0.0
 10
220.171123
 20
68.748748
 30
0.0
 10
223.171125
 20
68.748748
 30
0.0
 10
223.171125
 20
69.748749
 30
0.0
 10
252.171124
 20
69.748749
 30
0.0
  0
LWPOLYLINE
  5
15a
100
AcDbEntity
  8
Layer_1
 62
5
100
AcDbPolyline
 90
11
 70
0
 10
223.171123
 20
69.748752
 30
0.0
 10
223.171123
 20
70.748750
 30
0.0
 10
220.171123
 20
70.748750
 30
0.0
 10
220.171123
 20
78.748751
 30
0.0
 10
223.171123
 20
78.748751
 30
0.0
 10
223.171123
 20
79.748752
 30
0.0
 10
252.171124
 20
77.748750
 30
0.0
 10
257.171125
 20
79.748752
 30
0.0
 10
257.171125
 20
69.748752
 30
0.0
 10
252.171124
 20
71.748751
 30
0.0
 10
223.171123
 20
69.748752
 30
0.0
  0
LWPOLYLINE
  5
15b
100
AcDbEntity
  8
Layer_1
 62
5
100
AcDbPolyline
 90
11
 70
0
 10
223.171123
 20
79.748749
 30
0.0
 10
223.171123
 20
80.748750
 30
0.0
 10
220.171123
 20
80.748750
 30
0.0
 10
220.171123
 20
88.748751
 30
0.0
 10
223.171123
 20
88.748751
 30
0.0
 10
223.171123
 20
89.748749
 30
0.0
 10
250.171125
 20
87.748750
 30
0.0
 10
260.171125
 20
87.748750
 30
0.0
 10
260.171125
 20
81.748751
 30
0.0
 10
250.171125
 20
81.748751
 30
0.0
 10
223.171123
 20
79.748749
 30
0.0
  0
LWPOLYLINE
  5
15c
100
AcDbEntity
  8
Layer_1
 62
5
100
AcDbPolyline
 90
6
 70
0
 10
238.171124
 20
111.748750
 30
0.0
 10
238.171124
 20
109.748750
 30
0.0
 10
243.171122
 20
109.748750
 30
0.0
 10
243.171122
 20
119.748751
 30
0.0
 10
238.171124
 20
119.748751
 30
0.0
 10
238.171124
 20
117.748749
 30
0.0
  0
LWPOLYLINE
  5
15d
100
AcDbEntity
  8
Layer_1
 62
5
100
AcDbPolyline
 90
8
 70
0
 10
238.171124
 20
111.748750
 30
0.0
 10
223.171123
 20
109.748750
 30
0.0
 10
223.171123
 20
110.748750
 30
0.0
 10
220.171123
 20
110.748750
 30
0.0
 10
220.171123
 20
118.748750
 30
0.0
 10
223.171123
 20
118.748750
 30
0.0
 10
223.171123
 20
119.748751
 30
0.0
 10
238.171124
 20
117.748749
 30
0.0
  0
LWPOLYLINE
  5
15e
100
AcDbEntity
  8
Layer_1
 62
5
100
AcDbPolyline
 90
12
 70
0
 10
246.171122
 20
99.748748
 30
0.0
 10
246.171122
 20
109.748748
 30
0.0
 10
223.171123
 20
109.748748
 30
0.0
 10
223.171123
 20
108.748750
 30
0.0
 10
220.171123
 20
108.748750
 30
0.0
 10
220.171123
 20
100.748749
 30
0.0
 10
223.171123
 20
100.748749
 30
0.0
 10
223.171123
 20
99.748748
 30
0.0
 10
243.171122
 20
104.748750
 30
0.0
 10
239.171122
 20
102.748748
 30
0.0
 10
239.171122
 20
99.748748
 30
0.0
 10
246.171122
 20
99.748748
 30
0.0
  0
LWPOLYLINE
  5
15f
100
AcDbEntity
  8
Layer_1
 62
5
100
AcDbPolyline
 90
9
 70
0
 10
252.171121
 20
99.748746
 30
0.0
 10
242.171121
 20
89.748749
 30
0.0
 10
223.171123
 20
89.748749
 30
0.0
 10
223.171123
 20
90.748749
 30
0.0
 10
220.171120
 20
90.748749
 30
0.0
 10
220.171120
 20
98.748745
 30
0.0
 10
223.171123
 20
98.748745
 30
0.0
 10
223.171123
 20
99.748746
 30
0.0
 10
252.171121
 20
99.748746
 30
0.0
  0
LWPOLYLINE
  5
160
100
AcDbEntity
  8
Layer_1
 62
5
100
AcDbPolyline
 90
11
 70
0
 10
218.262211
 20
136.619869
 30
0.0
 10
218.262211
 20
137.619870
 30
0.0
 10
221.262205
 20
137.619870
 30
0.0
 10
221.262205
 20
145.619871
 30
0.0
 10
218.262211
 20
145.619871
 30
0.0
 10
218.262211
 20
146.619869
 30
0.0
 10
208.262203
 20
143.619869
 30
0.0
 10
204.262203
 20
143.619869
 30
0.0
 10
204.262203
 20
139.619869
 30
0.0
 10
208.262203
 20
139.619869
 30
0.0
 10
218.262211
 20
136.619869
 30
0.0
  0
LWPOLYLINE
  5
161
100
AcDbEntity
  8
Layer_1
 62
5
100
AcDbPolyline
 90
11
 70
0
 10
208.260171
 20
153.624582
 30
0.0
 10
208.260736
 20
152.624581
 30
0.0
 10
205.260739
 20
152.622606
 30
0.0
 10
205.266129
 20
144.622607
 30
0.0
 10
208.266129
 20
144.624583
 30
0.0
 10
208.266693
 20
143.624588
 30
0.0
 10
218.264667
 20
146.631327
 30
0.0
 10
222.264659
 20
146.634149
 30
0.0
 10
222.261836
 20
150.634147
 30
0.0
 10
218.261844
 20
150.631325
 30
0.0
 10
208.260171
 20
153.624582
 30
0.0
  0
LWPOLYLINE
  5
162
100
AcDbEntity
  8
Layer_1
 62
5
100
AcDbPolyline
 90
11
 70
0
 10
218.262211
 20
150.619866
 30
0.0
 10
218.262211
 20
151.619867
 30
0.0
 10
221.262205
 20
151.619867
 30
0.0
 10
221.262205
 20
159.619868
 30
0.0
 10
218.262211
 20
159.619868
 30
0.0
 10
218.262211
 20
160.619866
 30
0.0
 10
208.262203
 20
157.619867
 30
0.0
 10
204.262203
 20
157.619867
 30
0.0
 10
204.262203
 20
153.619866
 30
0.0
 10
208.262203
 20
153.619866
 30
0.0
 10
218.262211
 20
150.619866
 30
0.0
  0
LWPOLYLINE
  5
163
100
AcDbEntity
  8
Layer_1
 62
5
100
AcDbPolyline
 90
11
 70
0
 10
208.257490
 20
167.621873
 30
0.0
 10
208.258054
 20
166.621872
 30
0.0
 10
205.258058
 20
166.619896
 30
0.0
 10
205.263448
 20
158.619898
 30
0.0
 10
208.263448
 20
158.621874
 30
0.0
 10
208.264012
 20
157.621879
 30
0.0
 10
218.261986
 20
160.628618
 30
0.0
 10
222.261978
 20
160.631440
 30
0.0
 10
222.259155
 20
164.631438
 30
0.0
 10
218.259163
 20
164.628616
 30
0.0
 10
208.257490
 20
167.621873
 30
0.0
  0
LWPOLYLINE
  5
164
100
AcDbEntity
  8
Layer_1
 62
5
100
AcDbPolyline
 90
11
 70
0
 10
208.257490
 20
181.624582
 30
0.0
 10
208.258054
 20
180.624582
 30
0.0
 10
205.258058
 20
180.622606
 30
0.0
 10
205.263448
 20
172.622608
 30
0.0
 10
208.263448
 20
172.624583
 30
0.0
 10
208.264012
 20
171.624588
 30
0.0
 10
218.261986
 20
174.631327
 30
0.0
 10
222.261978
 20
174.634150
 30
0.0
 10
222.259155
 20
178.634147
 30
0.0
 10
218.259163
 20
178.631325
 30
0.0
 10
208.257490
 20
181.624582
 30
0.0
  0
LWPOLYLINE
  5
165
100
AcDbEntity
  8
Layer_1
 62
5
100
AcDbPolyline
 90
11
 70
0
 10
218.262211
 20
164.619853
 30
0.0
 10
218.262211
 20
165.619853
 30
0.0
 10
221.262205
 20
165.619853
 30
0.0
 10
221.262205
 20
173.619854
 30
0.0
 10
218.262211
 20
173.619854
 30
0.0
 10
218.262211
 20
174.619852
 30
0.0
 10
208.262203
 20
171.619853
 30
0.0
 10
204.262203
 20
171.619853
 30
0.0
 10
204.262203
 20
167.619855
 30
0.0
 10
208.262203
 20
167.619855
 30
0.0
 10
218.262211
 20
164.619853
 30
0.0
  0
LWPOLYLINE
  5
166
100
AcDbEntity
  8
Layer_1
 62
5
100
AcDbPolyline
 90
11
 70
0
 10
218.262211
 20
178.619853
 30
0.0
 10
218.262211
 20
179.619854
 30
0.0
 10
221.262205
 20
179.619854
 30
0.0
 10
221.262205
 20
187.619854
 30
0.0
 10
218.262211
 20
187.619854
 30
0.0
 10
218.262211
 20
188.619852
 30
0.0
 10
208.262203
 20
185.619853
 30
0.0
 10
204.262203
 20
185.619853
 30
0.0
 10
204.262203
 20
181.619852
 30
0.0
 10
208.262203
 20
181.619852
 30
0.0
 10
218.262211
 20
178.619853
 30
0.0
  0
LWPOLYLINE
  5
167
100
AcDbEntity
  8
Layer_1
 62
5
100
AcDbPolyline
 90
11
 70
0
 10
208.260171
 20
195.624583
 30
0.0
 10
208.260736
 20
194.624582
 30
0.0
 10
205.260739
 20
194.622606
 30
0.0
 10
205.266129
 20
186.622608
 30
0.0
 10
208.266129
 20
186.624584
 30
0.0
 10
208.266693
 20
185.624589
 30
0.0
 10
218.264667
 20
188.631328
 30
0.0
 10
222.264659
 20
188.634150
 30
0.0
 10
222.261836
 20
192.634148
 30
0.0
 10
218.261844
 20
192.631325
 30
0.0
 10
208.260171
 20
195.624583
 30
0.0
  0
ENDSEC
  0
SECTION
  2
OBJECTS
  0
DICTIONARY
  5
C
330
0
100
AcDbDictionary
  3
ACAD_GROUP
350
D
  3
ACAD_MLINESTYLE
350
17
  0
DICTIONARY
  5
D
330
C
100
AcDbDictionary
  0
DICTIONARY
  5
1A
330
C
100
AcDbDictionary
  0
DICTIONARY
  5
17
330
C
100
AcDbDictionary
  3
STANDARD
350
18
  0
DICTIONARY
  5
19
330
C
100
AcDbDictionary
  0
ENDSEC
  0
EOF
