  0
SECTION
  2
HEADER
  9
$ACADVER
  1
AC1009
  9
$INSBASE
 10
0.0
 20
0.0
 30
0.0
  9
$EXTMIN
 10
0.0
 20
0.0
 30
0.0
  9
$EXTMAX
 10
0.0
 20
0.0
 30
0.0
  0
ENDSEC
  0
SECTION
  2
TABLES
  0
TABLE
  2
VPORT
 70
0
  0
ENDTAB
  0
TABLE
  2
LTYPE
 70
1
  0
LTYPE
  2
CONTINUOUS
 70
0
  3
Solid line
 72
65
 73
0
 40
0.0
  0
ENDTAB
  0
TABLE
  2
LAYER
 70
1
  0
LAYER
  2
0
 70
64
 62
7
  6
continuous
  0
ENDTAB
  0
TABLE
  2
STYLE
 70
1
  0
STYLE
  2
STANDARD
 70
0
 40
0
 41
1.0
 50
0.0
 71
0
 42
1
 3
ARIAL.TTF
 4

  0
ENDTAB
  0
TABLE
  2
VIEW
 70
0
  0
ENDTAB
  0
ENDSEC
  0
SECTION
  2
BLOCKS
  0
ENDSEC
  0
SECTION
  2
ENTITIES
  0
POLYLINE
  8
0
 62
0
 70
0
 66
1
 10
0.0
 20
0.0
 30
0.0
  0
VERTEX
  8
0
 10
-4.0
 20
43.0
  0
VERTEX
  8
0
 10
-4.0
 20
68.0
  0
SEQEND
  8
0
  0
POLYLINE
  8
0
 62
0
 70
0
 66
1
 10
0.0
 20
0.0
 30
0.0
  0
VERTEX
  8
0
 10
-4.0
 20
68.0
  0
VERTEX
  8
0
 10
-2.22044604925e-15
 20
68.0
  0
SEQEND
  8
0
  0
POLYLINE
  8
0
 62
0
 70
0
 66
1
 10
0.0
 20
0.0
 30
0.0
  0
VERTEX
  8
0
 10
-4.0
 20
43.0
  0
VERTEX
  8
0
 10
-4.0
 20
18.0
  0
SEQEND
  8
0
  0
POLYLINE
  8
0
 62
0
 70
1
 66
1
 10
0.0
 20
0.0
 30
0.0
  0
VERTEX
  8
0
 10
14.0
 20
4.0
  0
VERTEX
  8
0
 10
92.0
 20
4.0
  0
VERTEX
  8
0
 10
92.0
 20
82.0
  0
VERTEX
  8
0
 10
14.0
 20
82.0
  0
SEQEND
  8
0
  0
POLYLINE
  8
0
 62
0
 70
0
 66
1
 10
0.0
 20
0.0
 30
0.0
  0
VERTEX
  8
0
 10
-4.0
 20
18.0
  0
VERTEX
  8
0
 10
-4.4408920985e-16
 20
18.0
  0
SEQEND
  8
0
  0
POLYLINE
  8
0
 62
0
 70
0
 66
1
 10
0.0
 20
0.0
 30
0.0
  0
VERTEX
  8
0
 10
154.0
 20
43.0
  0
VERTEX
  8
0
 10
154.0
 20
68.0
  0
SEQEND
  8
0
  0
POLYLINE
  8
0
 62
0
 70
0
 66
1
 10
0.0
 20
0.0
 30
0.0
  0
VERTEX
  8
0
 10
154.0
 20
68.0
  0
VERTEX
  8
0
 10
150.0
 20
68.0
  0
SEQEND
  8
0
  0
POLYLINE
  8
0
 62
0
 70
0
 66
1
 10
0.0
 20
0.0
 30
0.0
  0
VERTEX
  8
0
 10
154.0
 20
43.0
  0
VERTEX
  8
0
 10
154.0
 20
18.0
  0
SEQEND
  8
0
  0
POLYLINE
  8
0
 62
0
 70
0
 66
1
 10
0.0
 20
0.0
 30
0.0
  0
VERTEX
  8
0
 10
154.0
 20
18.0
  0
VERTEX
  8
0
 10
150.0
 20
18.0
  0
SEQEND
  8
0
  0
POLYLINE
  8
0
 62
0
 70
0
 66
1
 10
0.0
 20
0.0
 30
0.0
  0
VERTEX
  8
0
 10
-2.63299061816e-15
 20
86.0
  0
VERTEX
  8
0
 10
-2.63299061816e-15
 20
90.0
  0
SEQEND
  8
0
  0
POLYLINE
  8
0
 62
0
 70
0
 66
1
 10
0.0
 20
0.0
 30
0.0
  0
VERTEX
  8
0
 10
-2.877919978e-15
 20
90.0
  0
VERTEX
  8
0
 10
50.0
 20
90.0
  0
SEQEND
  8
0
  0
POLYLINE
  8
0
 62
0
 70
0
 66
1
 10
0.0
 20
0.0
 30
0.0
  0
VERTEX
  8
0
 10
50.0
 20
90.0
  0
VERTEX
  8
0
 10
50.0
 20
86.0
  0
SEQEND
  8
0
  0
POLYLINE
  8
0
 62
0
 70
0
 66
1
 10
0.0
 20
0.0
 30
0.0
  0
VERTEX
  8
0
 10
150.0
 20
86.0
  0
VERTEX
  8
0
 10
150.0
 20
90.0
  0
SEQEND
  8
0
  0
POLYLINE
  8
0
 62
0
 70
0
 66
1
 10
0.0
 20
0.0
 30
0.0
  0
VERTEX
  8
0
 10
150.0
 20
90.0
  0
VERTEX
  8
0
 10
100.0
 20
90.0
  0
SEQEND
  8
0
  0
POLYLINE
  8
0
 62
0
 70
0
 66
1
 10
0.0
 20
0.0
 30
0.0
  0
VERTEX
  8
0
 10
100.0
 20
90.0
  0
VERTEX
  8
0
 10
100.0
 20
86.0
  0
SEQEND
  8
0
  0
POLYLINE
  8
0
 62
0
 70
0
 66
1
 10
0.0
 20
0.0
 30
0.0
  0
VERTEX
  8
0
 10
50.0
 20
86.0
  0
VERTEX
  8
0
 10
75.0
 20
86.0
  0
SEQEND
  8
0
  0
POLYLINE
  8
0
 62
0
 70
0
 66
1
 10
0.0
 20
0.0
 30
0.0
  0
VERTEX
  8
0
 10
0.0
 20
0.0
  0
VERTEX
  8
0
 10
0.0
 20
-4.0
  0
SEQEND
  8
0
  0
POLYLINE
  8
0
 62
0
 70
0
 66
1
 10
0.0
 20
0.0
 30
0.0
  0
VERTEX
  8
0
 10
-2.44929359829e-16
 20
-4.0
  0
VERTEX
  8
0
 10
50.0
 20
-4.0
  0
SEQEND
  8
0
  0
POLYLINE
  8
0
 62
0
 70
0
 66
1
 10
0.0
 20
0.0
 30
0.0
  0
VERTEX
  8
0
 10
50.0
 20
-4.0
  0
VERTEX
  8
0
 10
50.0
 20
1.7763568394e-15
  0
SEQEND
  8
0
  0
POLYLINE
  8
0
 62
0
 70
0
 66
1
 10
0.0
 20
0.0
 30
0.0
  0
VERTEX
  8
0
 10
150.0
 20
4.59242549682e-15
  0
VERTEX
  8
0
 10
150.0
 20
-4.0
  0
SEQEND
  8
0
  0
POLYLINE
  8
0
 62
0
 70
0
 66
1
 10
0.0
 20
0.0
 30
0.0
  0
VERTEX
  8
0
 10
150.0
 20
-4.0
  0
VERTEX
  8
0
 10
100.0
 20
-4.0
  0
SEQEND
  8
0
  0
POLYLINE
  8
0
 62
0
 70
0
 66
1
 10
0.0
 20
0.0
 30
0.0
  0
VERTEX
  8
0
 10
100.0
 20
-4.0
  0
VERTEX
  8
0
 10
100.0
 20
2.6645352591e-15
  0
SEQEND
  8
0
  0
POLYLINE
  8
0
 62
0
 70
0
 66
1
 10
0.0
 20
0.0
 30
0.0
  0
VERTEX
  8
0
 10
-2.63299061817e-15
 20
86.0
  0
VERTEX
  8
0
 10
-1.94335306785e-15
 20
68.0
  0
SEQEND
  8
0
  0
POLYLINE
  8
0
 62
0
 70
0
 66
1
 10
0.0
 20
0.0
 30
0.0
  0
VERTEX
  8
0
 10
-6.58092909383e-16
 20
18.0
  0
VERTEX
  8
0
 10
0.0
 20
0.0
  0
SEQEND
  8
0
  0
POLYLINE
  8
0
 62
0
 70
0
 66
1
 10
0.0
 20
0.0
 30
0.0
  0
VERTEX
  8
0
 10
50.0
 20
1.28526015847e-15
  0
VERTEX
  8
0
 10
100.0
 20
5.23505557604e-15
  0
SEQEND
  8
0
  0
POLYLINE
  8
0
 62
0
 70
0
 66
1
 10
0.0
 20
0.0
 30
0.0
  0
VERTEX
  8
0
 10
150.0
 20
18.0
  0
VERTEX
  8
0
 10
150.0
 20
3.5527136788e-15
  0
SEQEND
  8
0
  0
POLYLINE
  8
0
 62
0
 70
0
 66
1
 10
0.0
 20
0.0
 30
0.0
  0
VERTEX
  8
0
 10
75.0
 20
86.0
  0
VERTEX
  8
0
 10
100.0
 20
86.0
  0
SEQEND
  8
0
  0
POLYLINE
  8
0
 62
0
 70
0
 66
1
 10
0.0
 20
0.0
 30
0.0
  0
VERTEX
  8
0
 10
150.0
 20
86.0
  0
VERTEX
  8
0
 10
150.0
 20
68.0
  0
SEQEND
  8
0
  0
CIRCLE
  8
0
 62
0
 10
6.0
 20
80.0
 30
0.0
 40
1.5
  0
CIRCLE
  8
0
 62
0
 10
6.0
 20
16.0
 30
0.0
 40
1.5
  0
CIRCLE
  8
0
 62
0
 10
144.0
 20
80.0
 30
0.0
 40
1.5
  0
CIRCLE
  8
0
 62
0
 10
120.0
 20
6.0
 30
0.0
 40
1.5
  0
POLYLINE
  8
0
 62
0
 70
0
 66
1
 10
0.0
 20
0.0
 30
0.0
  0
VERTEX
  8
0
 10
135.0
 20
23.5
  0
VERTEX
  8
0
 10
135.0
 20
34.5
  0
SEQEND
  8
0
  0
POLYLINE
  8
0
 62
0
 70
1
 66
1
 10
0.0
 20
0.0
 30
0.0
  0
VERTEX
  8
0
 10
135.0
 20
34.5
  0
VERTEX
  8
0
 10
105.0
 20
34.5
  0
VERTEX
  8
0
 10
105.0
 20
12.5
  0
VERTEX
  8
0
 10
135.0
 20
12.5
  0
SEQEND
  8
0
  0
CIRCLE
  8
0
 62
0
 10
128.0
 20
63.0
 30
0.0
 40
4.0
  0
ENDSEC
  0
EOF
