  0
SECTION
  2
HEADER
  9
$ACADVER
  1
AC1027
  9
$ACADMAINTVER
 70
   105
  9
$DWGCODEPAGE
  3
ANSI_1252
  9
$REQUIREDVERSIONS
160
                 0
  9
$LASTSAVEDBY
  1
karenchoo
  9
$INSBASE
 10
0.0
 20
0.0
 30
0.0
  9
$EXTMIN
 10
0.0636112496891883
 20
6.558390859124984
 30
0.0
  9
$EXTMAX
 10
10.19703912212654
 20
24.01516283371607
 30
0.0
  9
$LIMMIN
 10
0.0
 20
0.0
  9
$LIMMAX
 10
12.0
 20
9.0
  9
$ORTHOMODE
 70
     0
  9
$REGENMODE
 70
     1
  9
$FILLMODE
 70
     1
  9
$QTEXTMODE
 70
     0
  9
$MIRRTEXT
 70
     1
  9
$LTSCALE
 40
1.0
  9
$ATTMODE
 70
     1
  9
$TEXTSIZE
 40
0.2
  9
$TRACEWID
 40
0.05
  9
$TEXTSTYLE
  7
Standard
  9
$CLAYER
  8
0
  9
$CELTYPE
  6
ByBlock
  9
$CECOLOR
 62
   256
  9
$CELTSCALE
 40
1.0
  9
$DISPSILH
 70
     0
  9
$DIMSCALE
 40
1.0
  9
$DIMASZ
 40
0.18
  9
$DIMEXO
 40
0.0625
  9
$DIMDLI
 40
0.38
  9
$DIMRND
 40
0.0
  9
$DIMDLE
 40
0.0
  9
$DIMEXE
 40
0.18
  9
$DIMTP
 40
0.0
  9
$DIMTM
 40
0.0
  9
$DIMTXT
 40
0.18
  9
$DIMCEN
 40
0.09
  9
$DIMTSZ
 40
0.0
  9
$DIMTOL
 70
     0
  9
$DIMLIM
 70
     0
  9
$DIMTIH
 70
     1
  9
$DIMTOH
 70
     1
  9
$DIMSE1
 70
     0
  9
$DIMSE2
 70
     0
  9
$DIMTAD
 70
     0
  9
$DIMZIN
 70
     0
  9
$DIMBLK
  1

  9
$DIMASO
 70
     1
  9
$DIMSHO
 70
     1
  9
$DIMPOST
  1

  9
$DIMAPOST
  1

  9
$DIMALT
 70
     0
  9
$DIMALTD
 70
     2
  9
$DIMALTF
 40
25.4
  9
$DIMLFAC
 40
1.0
  9
$DIMTOFL
 70
     0
  9
$DIMTVP
 40
0.0
  9
$DIMTIX
 70
     0
  9
$DIMSOXD
 70
     0
  9
$DIMSAH
 70
     0
  9
$DIMBLK1
  1

  9
$DIMBLK2
  1

  9
$DIMSTYLE
  2
Standard
  9
$DIMCLRD
 70
     0
  9
$DIMCLRE
 70
     0
  9
$DIMCLRT
 70
     0
  9
$DIMTFAC
 40
1.0
  9
$DIMGAP
 40
0.09
  9
$DIMJUST
 70
     0
  9
$DIMSD1
 70
     0
  9
$DIMSD2
 70
     0
  9
$DIMTOLJ
 70
     1
  9
$DIMTZIN
 70
     0
  9
$DIMALTZ
 70
     0
  9
$DIMALTTZ
 70
     0
  9
$DIMUPT
 70
     0
  9
$DIMDEC
 70
     4
  9
$DIMTDEC
 70
     4
  9
$DIMALTU
 70
     2
  9
$DIMALTTD
 70
     2
  9
$DIMTXSTY
  7
Standard
  9
$DIMAUNIT
 70
     0
  9
$DIMADEC
 70
     0
  9
$DIMALTRND
 40
0.0
  9
$DIMAZIN
 70
     0
  9
$DIMDSEP
 70
    46
  9
$DIMATFIT
 70
     3
  9
$DIMFRAC
 70
     0
  9
$DIMLDRBLK
  1

  9
$DIMLUNIT
 70
     2
  9
$DIMLWD
 70
    -2
  9
$DIMLWE
 70
    -2
  9
$DIMTMOVE
 70
     2
  9
$DIMFXL
 40
1.0
  9
$DIMFXLON
 70
     0
  9
$DIMJOGANG
 40
0.7853981633974483
  9
$DIMTFILL
 70
     0
  9
$DIMTFILLCLR
 70
     0
  9
$DIMARCSYM
 70
     0
  9
$DIMLTYPE
  6

  9
$DIMLTEX1
  6

  9
$DIMLTEX2
  6

  9
$DIMTXTDIRECTION
 70
     0
  9
$LUNITS
 70
     2
  9
$LUPREC
 70
     4
  9
$SKETCHINC
 40
0.1
  9
$FILLETRAD
 40
0.5
  9
$AUNITS
 70
     0
  9
$AUPREC
 70
     0
  9
$MENU
  1
.
  9
$ELEVATION
 40
0.0
  9
$PELEVATION
 40
0.0
  9
$THICKNESS
 40
0.0
  9
$LIMCHECK
 70
     0
  9
$CHAMFERA
 40
0.0
  9
$CHAMFERB
 40
0.0
  9
$CHAMFERC
 40
0.0
  9
$CHAMFERD
 40
0.0
  9
$SKPOLY
 70
     0
  9
$TDCREATE
 40
2458568.638895174
  9
$TDUCREATE
 40
2458568.847228507
  9
$TDUPDATE
 40
2458569.860620243
  9
$TDUUPDATE
 40
2458570.068953576
  9
$TDINDWG
 40
0.0000000463
  9
$TDUSRTIMER
 40
0.0001478356
  9
$USRTIMER
 70
     1
  9
$ANGBASE
 50
0.0
  9
$ANGDIR
 70
     0
  9
$PDMODE
 70
     0
  9
$PDSIZE
 40
0.0
  9
$PLINEWID
 40
0.0
  9
$SPLFRAME
 70
     0
  9
$SPLINETYPE
 70
     6
  9
$SPLINESEGS
 70
     8
  9
$HANDSEED
  5
689
  9
$SURFTAB1
 70
     6
  9
$SURFTAB2
 70
     6
  9
$SURFTYPE
 70
     6
  9
$SURFU
 70
     6
  9
$SURFV
 70
     6
  9
$UCSBASE
  2

  9
$UCSNAME
  2

  9
$UCSORG
 10
0.0
 20
0.0
 30
0.0
  9
$UCSXDIR
 10
1.0
 20
0.0
 30
0.0
  9
$UCSYDIR
 10
0.0
 20
1.0
 30
0.0
  9
$UCSORTHOREF
  2

  9
$UCSORTHOVIEW
 70
     0
  9
$UCSORGTOP
 10
0.0
 20
0.0
 30
0.0
  9
$UCSORGBOTTOM
 10
0.0
 20
0.0
 30
0.0
  9
$UCSORGLEFT
 10
0.0
 20
0.0
 30
0.0
  9
$UCSORGRIGHT
 10
0.0
 20
0.0
 30
0.0
  9
$UCSORGFRONT
 10
0.0
 20
0.0
 30
0.0
  9
$UCSORGBACK
 10
0.0
 20
0.0
 30
0.0
  9
$PUCSBASE
  2

  9
$PUCSNAME
  2

  9
$PUCSORG
 10
0.0
 20
0.0
 30
0.0
  9
$PUCSXDIR
 10
1.0
 20
0.0
 30
0.0
  9
$PUCSYDIR
 10
0.0
 20
1.0
 30
0.0
  9
$PUCSORTHOREF
  2

  9
$PUCSORTHOVIEW
 70
     0
  9
$PUCSORGTOP
 10
0.0
 20
0.0
 30
0.0
  9
$PUCSORGBOTTOM
 10
0.0
 20
0.0
 30
0.0
  9
$PUCSORGLEFT
 10
0.0
 20
0.0
 30
0.0
  9
$PUCSORGRIGHT
 10
0.0
 20
0.0
 30
0.0
  9
$PUCSORGFRONT
 10
0.0
 20
0.0
 30
0.0
  9
$PUCSORGBACK
 10
0.0
 20
0.0
 30
0.0
  9
$USERI1
 70
     0
  9
$USERI2
 70
     0
  9
$USERI3
 70
     0
  9
$USERI4
 70
     0
  9
$USERI5
 70
     0
  9
$USERR1
 40
0.0
  9
$USERR2
 40
0.0
  9
$USERR3
 40
0.0
  9
$USERR4
 40
0.0
  9
$USERR5
 40
0.0
  9
$WORLDVIEW
 70
     1
  9
$SHADEDGE
 70
     3
  9
$SHADEDIF
 70
    70
  9
$TILEMODE
 70
     1
  9
$MAXACTVP
 70
    64
  9
$PINSBASE
 10
0.0
 20
0.0
 30
0.0
  9
$PLIMCHECK
 70
     0
  9
$PEXTMIN
 10
1.000000000000000E+20
 20
1.000000000000000E+20
 30
1.000000000000000E+20
  9
$PEXTMAX
 10
-1.000000000000000E+20
 20
-1.000000000000000E+20
 30
-1.000000000000000E+20
  9
$PLIMMIN
 10
0.0
 20
0.0
  9
$PLIMMAX
 10
0.0
 20
0.0
  9
$UNITMODE
 70
     0
  9
$VISRETAIN
 70
     1
  9
$PLINEGEN
 70
     0
  9
$PSLTSCALE
 70
     1
  9
$TREEDEPTH
 70
  3020
  9
$CMLSTYLE
  2
Standard
  9
$CMLJUST
 70
     0
  9
$CMLSCALE
 40
1.0
  9
$PROXYGRAPHICS
 70
     1
  9
$MEASUREMENT
 70
     0
  9
$CELWEIGHT
370
    -1
  9
$ENDCAPS
280
     0
  9
$JOINSTYLE
280
     0
  9
$LWDISPLAY
290
     0
  9
$INSUNITS
 70
     1
  9
$HYPERLINKBASE
  1

  9
$STYLESHEET
  1

  9
$XEDIT
290
     1
  9
$CEPSNTYPE
380
     0
  9
$PSTYLEMODE
290
     1
  9
$FINGERPRINTGUID
  2
{64A0A804-3114-4F42-A5C6-401A8BDD5DF3}
  9
$VERSIONGUID
  2
{FAEB1C32-E019-11D5-929B-00C0DF256EC4}
  9
$EXTNAMES
290
     1
  9
$PSVPSCALE
 40
0.0
  9
$OLESTARTUP
290
     0
  9
$SORTENTS
280
   127
  9
$INDEXCTL
280
     0
  9
$HIDETEXT
280
     1
  9
$XCLIPFRAME
280
     2
  9
$HALOGAP
280
     0
  9
$OBSCOLOR
 70
   257
  9
$OBSLTYPE
280
     0
  9
$INTERSECTIONDISPLAY
280
     0
  9
$INTERSECTIONCOLOR
 70
   257
  9
$DIMASSOC
280
     2
  9
$PROJECTNAME
  1

  9
$CAMERADISPLAY
290
     0
  9
$LENSLENGTH
 40
50.0
  9
$CAMERAHEIGHT
 40
0.0
  9
$STEPSPERSEC
 40
2.0
  9
$STEPSIZE
 40
6.0
  9
$3DDWFPREC
 40
2.0
  9
$PSOLWIDTH
 40
0.25
  9
$PSOLHEIGHT
 40
4.0
  9
$LOFTANG1
 40
1.570796326794897
  9
$LOFTANG2
 40
1.570796326794897
  9
$LOFTMAG1
 40
0.0
  9
$LOFTMAG2
 40
0.0
  9
$LOFTPARAM
 70
     7
  9
$LOFTNORMALS
280
     1
  9
$LATITUDE
 40
37.795
  9
$LONGITUDE
 40
-122.394
  9
$NORTHDIRECTION
 40
0.0
  9
$TIMEZONE
 70
 -8000
  9
$LIGHTGLYPHDISPLAY
280
     1
  9
$TILEMODELIGHTSYNCH
280
     1
  9
$SOLIDHIST
280
     0
  9
$SHOWHIST
280
     1
  9
$DWFFRAME
280
     2
  9
$DGNFRAME
280
     2
  9
$REALWORLDSCALE
290
     1
  9
$INTERFERECOLOR
 62
   256
  9
$CSHADOW
280
     0
  9
$SHADOWPLANELOCATION
 40
0.0
  0
ENDSEC
  0
SECTION
  2
CLASSES
  0
CLASS
  1
ACDBDICTIONARYWDFLT
  2
AcDbDictionaryWithDefault
  3
ObjectDBX Classes
 90
        0
 91
        7
280
     0
281
     0
  0
CLASS
  1
SCALE
  2
AcDbScale
  3
ObjectDBX Classes
 90
     1153
 91
        7
280
     0
281
     0
  0
CLASS
  1
VISUALSTYLE
  2
AcDbVisualStyle
  3
ObjectDBX Classes
 90
     4095
 91
        7
280
     0
281
     0
  0
CLASS
  1
MATERIAL
  2
AcDbMaterial
  3
ObjectDBX Classes
 90
     1153
 91
        7
280
     0
281
     0
  0
CLASS
  1
TABLESTYLE
  2
AcDbTableStyle
  3
ObjectDBX Classes
 90
     4095
 91
        7
280
     0
281
     0
  0
CLASS
  1
MLEADERSTYLE
  2
AcDbMLeaderStyle
  3
ACDB_MLEADERSTYLE_CLASS
 90
     4095
 91
        7
280
     0
281
     0
  0
CLASS
  1
DICTIONARYVAR
  2
AcDbDictionaryVar
  3
ObjectDBX Classes
 90
        0
 91
        7
280
     0
281
     0
  0
CLASS
  1
SUN
  2
AcDbSun
  3
SCENEOE
 90
     1153
 91
        7
280
     0
281
     0
  0
CLASS
  1
CELLSTYLEMAP
  2
AcDbCellStyleMap
  3
ObjectDBX Classes
 90
     1152
 91
        6
280
     0
281
     0
  0
ENDSEC
  0
SECTION
  2
TABLES
  0
TABLE
  2
VPORT
  5
8
330
0
100
AcDbSymbolTable
 70
     1
  0
VPORT
  5
21
330
8
100
AcDbSymbolTableRecord
100
AcDbViewportTableRecord
  2
*Active
 70
     0
 10
0.0
 20
0.0
 11
1.0
 21
1.0
 12
-6.218227806005565
 22
12.28237065105741
 13
0.0
 23
0.0
 14
0.5
 24
0.5
 15
0.5
 25
0.5
 16
0.0
 26
0.0
 36
1.0
 17
0.0
 27
0.0
 37
0.0
 40
38.53981892398608
 41
1.757575757575757
 42
50.0
 43
0.0
 44
0.0
 50
0.0
 51
0.0
 71
    16
 72
   100
 73
     1
 74
     2
 75
     0
 76
     0
 77
     0
 78
     0
281
     0
 65
     1
110
0.0
120
0.0
130
0.0
111
1.0
121
0.0
131
0.0
112
0.0
122
1.0
132
0.0
 79
     0
146
0.0
348
64F
 60
     3
 61
     5
292
     1
282
     1
141
0.0
142
0.0
 63
   250
361
682
  0
ENDTAB
  0
TABLE
  2
LTYPE
  5
5
330
0
100
AcDbSymbolTable
 70
     1
  0
LTYPE
  5
14
330
5
100
AcDbSymbolTableRecord
100
AcDbLinetypeTableRecord
  2
ByBlock
 70
     0
  3

 72
    65
 73
     0
 40
0.0
  0
LTYPE
  5
15
330
5
100
AcDbSymbolTableRecord
100
AcDbLinetypeTableRecord
  2
ByLayer
 70
     0
  3

 72
    65
 73
     0
 40
0.0
  0
LTYPE
  5
16
330
5
100
AcDbSymbolTableRecord
100
AcDbLinetypeTableRecord
  2
Continuous
 70
     0
  3
Solid line
 72
    65
 73
     0
 40
0.0
  0
ENDTAB
  0
TABLE
  2
LAYER
  5
2
330
0
100
AcDbSymbolTable
 70
     1
  0
LAYER
  5
10
330
2
100
AcDbSymbolTableRecord
100
AcDbLayerTableRecord
  2
0
 70
     0
 62
     7
  6
Continuous
370
    -3
390
F
347
666
348
0
  0
ENDTAB
  0
TABLE
  2
STYLE
  5
3
330
0
100
AcDbSymbolTable
 70
     1
  0
STYLE
  5
11
330
3
100
AcDbSymbolTableRecord
100
AcDbTextStyleTableRecord
  2
Standard
 70
     0
 40
0.0
 41
1.0
 50
0.0
 71
     0
 42
0.2
  3
txt
  4

  0
ENDTAB
  0
TABLE
  2
VIEW
  5
6
330
0
100
AcDbSymbolTable
 70
     0
  0
ENDTAB
  0
TABLE
  2
UCS
  5
7
330
0
100
AcDbSymbolTable
 70
     0
  0
ENDTAB
  0
TABLE
  2
APPID
  5
9
330
0
100
AcDbSymbolTable
 70
     1
  0
APPID
  5
12
330
9
100
AcDbSymbolTableRecord
100
AcDbRegAppTableRecord
  2
ACAD
 70
     0
  0
ENDTAB
  0
TABLE
  2
DIMSTYLE
  5
A
330
0
100
AcDbSymbolTable
 70
     1
100
AcDbDimStyleTable
  0
DIMSTYLE
105
20
330
A
100
AcDbSymbolTableRecord
100
AcDbDimStyleTableRecord
  2
Standard
 70
     0
178
     0
340
11
  0
ENDTAB
  0
TABLE
  2
BLOCK_RECORD
  5
1
330
0
100
AcDbSymbolTable
 70
     0
  0
BLOCK_RECORD
  5
1D
330
1
100
AcDbSymbolTableRecord
100
AcDbBlockTableRecord
  2
*Model_Space
340
1E
 70
     0
280
     1
281
     0
  0
BLOCK_RECORD
  5
1B
330
1
100
AcDbSymbolTableRecord
100
AcDbBlockTableRecord
  2
*Paper_Space
340
1C
 70
     0
280
     1
281
     0
  0
ENDTAB
  0
ENDSEC
  0
SECTION
  2
BLOCKS
  0
BLOCK
  5
646
330
1D
100
AcDbEntity
  8
0
100
AcDbBlockBegin
  2
*Model_Space
 70
     0
 10
0.0
 20
0.0
 30
0.0
  3
*Model_Space
  1

  0
ENDBLK
  5
647
330
1D
100
AcDbEntity
  8
0
100
AcDbBlockEnd
  0
BLOCK
  5
648
330
1B
100
AcDbEntity
 67
     1
  8
0
100
AcDbBlockBegin
  2
*Paper_Space
 70
     0
 10
0.0
 20
0.0
 30
0.0
  3
*Paper_Space
  1

  0
ENDBLK
  5
649
330
1B
100
AcDbEntity
 67
     1
  8
0
100
AcDbBlockEnd
  0
ENDSEC
  0
SECTION
  2
ENTITIES
  0
LWPOLYLINE
  5
22
330
1D
100
AcDbEntity
  8
0
100
AcDbPolyline
 90
       52
 70
     0
 43
0.0
 10
6.480765197054422
 20
11.06848390336781
 42
-0.0036272015439848
 10
6.485673225070075
 20
11.07977379280473
 42
-0.025438
 10
6.537674267470072
 20
11.18260249504473
 42
-0.018951
 10
6.604898017870056
 20
11.29055313832471
 42
0.014618
 10
7.577242915870062
 20
12.82225228936471
 42
0.011605
 10
8.539376938750058
 20
14.52954430456472
 42
0.011799
 10
9.36000570619007
 20
16.15967033776473
 42
0.02769
 10
9.874938325870076
 20
17.42165479312473
 42
0.01067
 10
10.05207860899007
 20
17.97330551056473
 42
0.030054
 10
10.14411645667007
 20
18.36766578688473
 42
0.031267
 10
10.18628686243007
 20
18.76147242136472
 42
0.012356
 10
10.19688664195007
 20
19.30632230320473
 42
0.028817
 10
10.14061117699007
 20
20.20014028744473
 42
0.043809
 10
9.979965835390075
 20
20.96108210608473
 42
0.047322
 10
9.701526554830071
 20
21.63808663072473
 42
0.042322
 10
9.29182059091007
 20
22.27818780232473
 42
0.054943
 10
8.800644528910073
 20
22.79112666568473
 42
0.043221
 10
8.169955353550074
 20
23.23277533816473
 42
0.040577
 10
7.429502233630071
 20
23.58445107328473
 42
0.035886
 10
6.611124566350072
 20
23.82916059664473
 42
0.018078
 10
6.191233810030074
 20
23.90672334184473
 42
0.010888
 10
5.688689335390073
 20
23.96973515776472
 42
0.010803
 10
5.203453973950072
 20
24.00929835352473
 42
0.027043
 10
4.848204566350071
 20
24.01131445432473
 42
0.017488
 10
4.237215066190071
 20
23.96025689272473
 42
0.024631
 10
3.698261408350073
 20
23.86907408248473
 42
0.026216
 10
3.198053928430071
 20
23.73103039480473
 42
0.024652
 10
2.704408121710074
 20
23.53900414264473
 42
0.017452
 10
2.308166915950074
 20
23.34506081056473
 42
0.026476
 10
1.979821749070072
 20
23.14689178048473
 42
0.027527
 10
1.683698426830073
 20
22.92131091616473
 42
0.021158
 10
1.385776034110072
 20
22.64468459704473
 42
0.032337
 10
1.05623798635007
 20
22.26551746264472
 42
0.022584
 10
0.7336075264300717
 20
21.79962197080473
 42
0.022751
 10
0.4698945325900725
 20
21.33366823888473
 42
0.05468
 10
0.330274454590068
 20
20.96304230320473
 42
0.007097
 10
0.1843970725900714
 20
20.35864234312473
 42
0.021499
 10
0.1087967334700712
 20
19.94234853832473
 42
0.024015
 10
0.0736248227500722
 20
19.54656492712473
 42
0.010759
 10
0.0636468654700701
 20
19.02409291456474
 42
0.01207
 10
0.0770478186700725
 20
18.51970034752473
 42
0.031864
 10
0.1182723222700712
 20
18.16094642488473
 42
0.032828
 10
0.2039444994700697
 20
17.81645664904474
 42
0.013501
 10
0.3628674045100704
 20
17.36196474328474
 42
0.024725
 10
0.8471397018700713
 20
16.25630133544473
 42
0.010754
 10
1.593347799790064
 20
14.83607654368474
 42
0.009811
 10
2.521868375710062
 20
13.23266129728477
 42
0.007887
 10
3.581035851790071
 20
11.54437559872473
 42
-0.007585
 10
3.716665613470072
 20
11.32847482192473
 42
-0.023119
 10
3.799580456350072
 20
11.17651978384473
 42
-0.033792
 10
3.845394116830074
 20
11.06369264896473
 42
-0.0063667601632933
 10
3.847065702453087
 20
11.05839085912499
 42
-0.0119909949564408
  0
LWPOLYLINE
  5
7C
330
1D
100
AcDbEntity
  8
0
100
AcDbPolyline
 90
       22
 70
     1
 43
0.0
 10
5.304182592430073
 20
23.78662120960473
 42
-0.02129
 10
5.386676925790073
 20
23.72677636264473
 42
-0.015232
 10
5.473833778990073
 20
23.65327062736473
 42
-0.015423
 10
5.552710685470071
 20
23.57801004328473
 42
-0.031613
 10
5.608697668750072
 20
23.51350322872473
 10
5.718788751790073
 20
23.36916634144473
 10
5.581137112030071
 20
23.40864432232473
 42
0.055172
 10
5.377226102830073
 20
23.44345111744473
 42
0.026973
 10
5.113163243710073
 20
23.44474501576473
 42
0.02649
 10
4.837171830670074
 20
23.41649564584473
 42
0.036167
 10
4.593694014910072
 20
23.36018747128473
 42
-0.006902
 10
4.483298902510073
 20
23.32775224960473
 42
-0.010825
 10
4.387459901950074
 20
23.30324838376473
 42
-0.005144
 10
4.306640130190071
 20
23.28531311536473
 42
-0.253608
 10
4.291411644910072
 20
23.28983519632473
 42
-0.378025
 10
4.290543438670072
 20
23.30369569816473
 42
-0.004083
 10
4.354349035870072
 20
23.38448968456473
 42
-0.010154
 10
4.433262390190071
 20
23.47876644064473
 42
-0.006132
 10
4.530357014590073
 20
23.58737276272473
 42
-0.028686
 10
4.758401464030073
 20
23.80924546288473
 42
-0.116096
 10
4.928973786910072
 20
23.89873519024474
 42
-0.1505
 10
5.096466564670073
 20
23.89089954184473
 42
-0.059951
  0
LWPOLYLINE
  5
94
330
1D
100
AcDbEntity
  8
0
100
AcDbPolyline
 90
       22
 70
     1
 43
0.0
 10
4.580384860990072
 20
23.80598677960473
 42
0.055188
 10
4.531058231950073
 20
23.76261244816473
 42
0.010562
 10
4.452457615390072
 20
23.67265684264473
 42
0.011141
 10
4.364860202110073
 20
23.56315780336473
 42
0.01005
 10
4.279083863950073
 20
23.44609218400473
 42
-0.003996
 10
4.140657091630073
 20
23.25229120240473
 42
-0.079822
 10
4.089280462750073
 20
23.20113411016473
 42
-0.289569
 10
4.047353042590072
 20
23.19860570056473
 42
-0.083127
 10
3.993970932910074
 20
23.24084237512473
 42
0.040418
 10
3.912179940910072
 20
23.31771966304473
 42
0.048082
 10
3.823465091230073
 20
23.37553362616473
 42
0.044929
 10
3.720363837310072
 20
23.41811528080473
 42
0.029103
 10
3.595044566350071
 20
23.44927249168473
 10
3.446364566350073
 20
23.47717220872473
 10
3.658764566350072
 20
23.57529557128473
 42
-0.021854
 10
3.876804041230072
 20
23.66468368648473
 42
-0.009727
 10
4.171086237790073
 20
23.76414011392473
 42
-0.007565
 10
4.457768889790072
 20
23.85010476592473
 42
-0.062341
 10
4.592156621230072
 20
23.87064613984473
 42
-0.013437
 10
4.642319129230072
 20
23.87066041312473
 42
-0.459921
 10
4.648944607390074
 20
23.86250170432473
 42
-0.192358
 10
4.640429363950073
 20
23.84892450160473
 42
-0.004887
  0
LWPOLYLINE
  5
AC
330
1D
100
AcDbEntity
  8
0
100
AcDbPolyline
 90
       16
 70
     1
 43
0.0
 10
5.850309338110073
 20
23.79139277560473
 42
-0.011482
 10
5.987886467950071
 20
23.75236729168473
 42
-0.008013
 10
6.141251077390072
 20
23.70232742344473
 42
-0.008088
 10
6.286834497790073
 20
23.64958276864473
 42
-0.016588
 10
6.398724566350071
 20
23.60267987848473
 10
6.632364566350073
 20
23.49549646648473
 10
6.441204566350073
 20
23.49211641784473
 42
0.031472
 10
6.355547766910074
 20
23.48519723296473
 42
0.01925
 10
6.255804981790071
 20
23.46683873632473
 42
0.019267
 10
6.158033820910075
 20
23.44092950464473
 42
0.032212
 10
6.078494481310074
 20
23.41081118464473
 10
5.906944396270071
 20
23.33288595760473
 10
5.653691550190073
 20
23.60290413040473
 42
-0.00768
 10
5.468041928350073
 20
23.80703854192473
 42
-0.402069
 10
5.470080161230073
 20
23.85562525432473
 42
-0.255064
 10
5.528616411790073
 20
23.87149926568473
 42
-0.004694
  0
LWPOLYLINE
  5
BE
330
1D
100
AcDbEntity
  8
0
100
AcDbPolyline
 90
       20
 70
     1
 43
0.0
 10
6.709535518510073
 20
23.69956796512473
 42
-0.007451
 10
6.949834895710076
 20
23.63438512384473
 42
-0.027351
 10
7.098655249630074
 20
23.58266572384473
 42
-0.211031
 10
7.125999880510074
 20
23.55422077600473
 42
-0.515105
 10
7.112375397550072
 20
23.53437403504473
 42
0.069015
 10
7.082227384030075
 20
23.52964189048473
 42
0.052551
 10
7.051384610110073
 20
23.51665592440473
 42
0.053401
 10
7.024503775870074
 20
23.49785971384473
 42
0.07968
 10
7.006175397550072
 20
23.47587091888473
 42
-0.273988
 10
6.971592047230072
 20
23.45697284128473
 42
-0.07121
 10
6.906595693150074
 20
23.46859328776473
 42
-0.034181
 10
6.801079068910074
 20
23.51164999624473
 42
-0.006907
 10
6.620445612910075
 20
23.60331091888473
 42
-0.005199
 10
6.488744571550074
 20
23.67420201016473
 42
-0.010255
 10
6.385916506510073
 20
23.73372095056473
 42
-0.00921
 10
6.313474767790073
 20
23.77950517240473
 42
-0.744368
 10
6.316007935150075
 20
23.78796230320473
 42
-0.052646
 10
6.348043972270072
 20
23.78457974824473
 42
-0.002641
 10
6.451126619950073
 20
23.76199644568473
 42
-0.004219
 10
6.573467872990072
 20
23.73342970768473
 42
-0.003038
  0
LWPOLYLINE
  5
D4
330
1D
100
AcDbEntity
  8
0
100
AcDbPolyline
 90
       20
 70
     1
 43
0.0
 10
3.512684129950072
 20
23.61659823808473
 42
0.007779
 10
3.418811231230073
 20
23.56293661000473
 42
0.008068
 10
3.327800082670072
 20
23.50701198736473
 42
0.007834
 10
3.250633505950071
 20
23.45614511848473
 42
0.034287
 10
3.207731339710072
 20
23.42236349320473
 42
-0.055411
 10
3.161950303870072
 20
23.38934327944473
 42
-0.115717
 10
3.119997693070073
 20
23.37710971912473
 42
-0.081875
 10
3.067727242510071
 20
23.38288580968473
 42
-0.018385
 10
2.982139473070073
 20
23.41032173008473
 42
-0.023759
 10
2.926209540430072
 20
23.43360569776473
 42
-0.045513
 10
2.884366570510073
 20
23.45828870176473
 42
-0.071268
 10
2.861250398830073
 20
23.48053458568473
 42
-0.380447
 10
2.862292263310072
 20
23.49659296024473
 42
-0.119825
 10
2.920848606910072
 20
23.53172668144473
 42
-0.00246
 10
3.250402797070072
 20
23.63258290984473
 42
-0.003935
 10
3.569311541710072
 20
23.72573751424473
 42
-0.063315
 10
3.680004566350071
 20
23.74245173752473
 42
-0.645122
 10
3.684847116430072
 20
23.73238372264473
 42
-0.05715
 10
3.657138686830073
 20
23.70609752344473
 42
-0.02486
 10
3.597131608750073
 20
23.66546782480473
 42
-0.01043
  0
LWPOLYLINE
  5
EA
330
1D
100
AcDbEntity
  8
0
100
AcDbPolyline
 90
       26
 70
     1
 43
0.0
 10
7.682351562190075
 20
23.34622234120473
 42
-0.035974
 10
7.915465914670076
 20
23.23011634504473
 42
-0.007706
 10
8.30115300691007
 20
22.99395426496473
 42
-0.005678
 10
8.683815480670072
 20
22.74532303048473
 42
-0.072759
 10
8.810509659310071
 20
22.63129931896474
 42
-0.11584
 10
8.824713696910072
 20
22.60277901160473
 42
-0.337738
 10
8.816293056430073
 20
22.58392264936473
 42
-0.103352
 10
8.779641907150072
 20
22.57284934528473
 42
-0.011895
 10
8.693268809950073
 20
22.56734465944473
 42
0.052539
 10
8.562375440830072
 20
22.54825278808473
 42
0.032019
 10
8.413615323550072
 20
22.49997116704473
 42
0.028773
 10
8.254090731790072
 20
22.42576837744473
 42
0.02265
 10
8.090426633950075
 20
22.32806280568473
 10
7.976728659070073
 20
22.25300234488473
 10
7.820849148670071
 20
22.50010230280473
 42
0.022206
 10
7.740222151150075
 20
22.61615532640473
 42
0.009563
 10
7.623076754350075
 20
22.76380064104473
 42
0.009441
 10
7.492176503470072
 20
22.91648663248473
 42
0.012326
 10
7.366476101950072
 20
23.05080724552473
 42
-0.011354
 10
7.252306599070074
 20
23.17233207544473
 42
-0.018974
 10
7.162638922990073
 20
23.28019355320473
 42
-0.014093
 10
7.097659263550073
 20
23.36979878368473
 42
-0.296458
 10
7.096940629390073
 20
23.40126724552473
 42
-0.235868
 10
7.164160981390074
 20
23.44284696688473
 42
-0.046142
 10
7.310731891870073
 20
23.44262224768473
 42
-0.041504
 10
7.492586902750071
 20
23.41014764704473
 42
-0.032639
  0
LWPOLYLINE
  5
106
330
1D
100
AcDbEntity
  8
0
100
AcDbPolyline
 90
       24
 70
     1
 43
0.0
 10
2.918889216910072
 20
23.31879593632473
 42
-0.106448
 10
2.957746692430072
 20
23.28583396264473
 42
-0.261756
 10
2.962908097390073
 20
23.25003220096473
 42
-0.079952
 10
2.931234159790072
 20
23.19577564048473
 42
-0.005955
 10
2.820516539230072
 20
23.06429591992472
 42
0.022451
 10
2.685562931710072
 20
22.89286516120473
 42
0.009667
 10
2.520605360350073
 20
22.65312418360473
 42
0.008203
 10
2.369907900190072
 20
22.41641997376473
 42
0.050459
 10
2.307163793230071
 20
22.28642854000473
 42
-0.318283
 10
2.290807336510072
 20
22.27510247992473
 42
-0.107107
 10
2.260904135230073
 20
22.28191656928473
 42
-0.05625
 10
2.218613978350072
 20
22.30783493416473
 42
-0.022529
 10
2.166935019310073
 20
22.35200882416473
 42
0.046503
 10
2.050686375310071
 20
22.44211272736473
 42
0.031798
 10
1.904213381230072
 20
22.52267524024473
 42
0.032146
 10
1.757266947550072
 20
22.58051919424473
 42
0.077842
 10
1.642328938990072
 20
22.59852230320473
 42
-0.134083
 10
1.584126071470072
 20
22.61441606776473
 42
-0.418531
 10
1.575273834190073
 20
22.64983873792473
 42
-0.073363
 10
1.634315851630071
 20
22.72074754336473
 42
-0.006451
 10
1.810811458270072
 20
22.87464230320473
 42
-0.030115
 10
2.144669127310073
 20
23.12528764192473
 42
-0.05068
 10
2.454763441870071
 20
23.28771187600473
 42
-0.06505
 10
2.720471848750072
 20
23.35592842648473
 42
-0.154407
  0
LWPOLYLINE
  5
120
330
1D
100
AcDbEntity
  8
0
100
AcDbPolyline
 90
       30
 70
     1
 43
0.0
 10
3.751105891150073
 20
23.29309243528473
 42
-0.030784
 10
3.812151605230073
 20
23.25937631416473
 42
-0.024674
 10
3.873468766510073
 20
23.21601642592473
 42
-0.025313
 10
3.926307599470072
 20
23.17009631056473
 42
-0.056231
 10
3.960306255070072
 20
23.12910200608473
 42
-0.074383
 10
3.988916407630072
 20
23.06697279712473
 42
-0.114769
 10
3.992124667150073
 20
23.00818111432473
 42
-0.058674
 10
3.968240796910074
 20
22.92850456432473
 42
-0.008326
 10
3.897614058670073
 20
22.77249442792473
 42
0.013525
 10
3.844727393230073
 20
22.65236230480473
 42
0.008218
 10
3.788424656110073
 20
22.50772521136473
 42
0.008233
 10
3.737262466270073
 20
22.36231498192473
 42
0.014377
 10
3.700357966270071
 20
22.24003201144473
 10
3.627333189550073
 20
21.97025665432473
 10
3.437493170590073
 20
22.10384945752473
 42
0.026993
 10
3.312800309710073
 20
22.18189375600473
 42
0.072681
 10
3.215181652030072
 20
22.21865560816473
 42
0.047285
 10
3.089260906750072
 20
22.23390996376473
 42
0.00661
 10
2.826628858990072
 20
22.23728155888473
 42
-0.00397
 10
2.665189438750071
 20
22.23850183936473
 42
-0.006614
 10
2.529280456030073
 20
22.24240719568473
 42
-0.001752
 10
2.412495077230072
 20
22.24771970200473
 42
-0.399945
 10
2.405604566350073
 20
22.25495612752473
 42
-0.151364
 10
2.433141546670072
 20
22.34383461016473
 42
-0.005511
 10
2.638871634430072
 20
22.63699044952473
 42
-0.010689
 10
2.850269531230072
 20
22.91837576056473
 42
-0.033631
 10
3.008210298670071
 20
23.09382453256473
 42
-0.035584
 10
3.212374616110072
 20
23.26561199584473
 42
-0.091829
 10
3.385544421070072
 20
23.34824133064473
 42
-0.110411
 10
3.556705134430072
 20
23.35545694096473
 42
-0.066414
  0
LWPOLYLINE
  5
140
330
1D
100
AcDbEntity
  8
0
100
AcDbPolyline
 90
       32
 70
     1
 43
0.0
 10
5.705547735790072
 20
23.25646469248473
 42
-0.061168
 10
5.786410412350072
 20
23.21038430008473
 42
-0.067697
 10
5.850639790030073
 20
23.14743505720473
 42
-0.04482
 10
5.913509170510071
 20
23.04950039080473
 42
-0.012077
 10
5.995048765870073
 20
22.88365961776473
 42
-0.020486
 10
6.097417961950072
 20
22.63591991104473
 42
-0.010078
 10
6.208172200270074
 20
22.31333418256473
 42
-0.003198
 10
6.312143402110072
 20
21.98212369720473
 42
-0.277612
 10
6.300029720350074
 20
21.93342742888473
 42
-0.271364
 10
6.289170175630074
 20
21.93059163400473
 42
-0.004824
 10
6.229002480670074
 20
21.94816573744473
 42
-0.01062
 10
6.157893764350074
 20
21.97134176344473
 42
-0.006704
 10
6.075885232270071
 20
22.00125061456473
 42
0.045042
 10
5.529224597950073
 20
22.15436803288473
 42
0.044887
 10
4.963342868110074
 20
22.20735316696473
 42
0.046393
 10
4.415954806270071
 20
22.15846680064473
 42
0.056629
 10
3.924264566350073
 20
22.00909747768473
 42
-0.006875
 10
3.846870764110073
 20
21.97689334720473
 42
-0.011995
 10
3.781757420110071
 20
21.95263875400473
 42
-0.006205
 10
3.728518552990073
 20
21.93498551032473
 42
-0.507514
 10
3.722484566350073
 20
21.93939901240473
 42
-0.072477
 10
3.724411841470072
 20
21.95262499048473
 42
-0.000573
 10
3.755135543950071
 20
22.05537663400473
 42
-0.002078
 10
3.791032758190072
 20
22.17315222160473
 42
-0.001332
 10
3.833636927230072
 20
22.30958940064473
 42
-0.013679
 10
3.956481865630072
 20
22.66511246440473
 42
-0.04143
 10
4.066114886830071
 20
22.89626950840473
 42
-0.061491
 10
4.182698570590072
 20
23.05010577328473
 42
-0.082115
 10
4.323473594830073
 20
23.15396049496473
 42
-0.057675
 10
4.649061087550073
 20
23.27522139664473
 42
-0.041842
 10
5.031419871790074
 20
23.33601078640473
 42
-0.042685
 10
5.405811064750072
 20
23.33178517336473
 42
-0.074934
  0
LWPOLYLINE
  5
162
330
1D
100
AcDbEntity
  8
0
100
AcDbPolyline
 90
       34
 70
     1
 43
0.0
 10
6.844764566350075
 20
23.31594858688473
 42
-0.061065
 10
6.942536406910074
 20
23.27571208312473
 42
-0.036154
 10
7.047858132910072
 20
23.20600393240473
 42
-0.02622
 10
7.172566966270075
 20
23.09894897992473
 42
-0.010299
 10
7.333284566350073
 20
22.93919231992473
 42
-0.009615
 10
7.461975177550073
 20
22.80065582176473
 42
-0.009623
 10
7.585206089230072
 20
22.65731343376473
 42
-0.009494
 10
7.687894734910074
 20
22.52819292496473
 42
-0.03726
 10
7.74349404571007
 20
22.44303195208473
 10
7.835103525070073
 20
22.27688799928473
 10
7.467374045710073
 20
22.27374571120473
 42
0.021884
 10
7.208121791710072
 20
22.26017279896473
 42
0.047521
 10
7.012559291950073
 20
22.22235153808473
 42
0.047487
 10
6.827568449950071
 20
22.14826798984473
 42
0.021824
 10
6.601943576350071
 20
22.01924658688473
 42
-0.008165
 10
6.536456705710071
 20
21.97938688072473
 42
-0.013353
 10
6.479555382910072
 20
21.94802504368473
 42
-0.006972
 10
6.431855058190073
 20
21.92420829184474
 42
-0.350395
 10
6.422293532350074
 20
21.92639579944473
 42
-0.101213
 10
6.416402236030072
 20
21.93799088536473
 42
-0.001122
 10
6.393118863070075
 20
22.02341136856473
 42
-0.003438
 10
6.367082913550073
 20
22.12248250240473
 42
-0.002226
 10
6.338259596350074
 20
22.23744230320473
 42
0.015481
 10
6.299829299710072
 20
22.37513931160473
 42
0.007971
 10
6.243678810910072
 20
22.54510867336473
 42
0.007915
 10
6.180293255950073
 20
22.71830269192473
 42
0.011853
 10
6.119003621710072
 20
22.86724785208473
 42
-0.010506
 10
6.064914517390073
 20
22.99769420416473
 42
-0.015524
 10
6.023483136190072
 20
23.11444296520473
 42
-0.010677
 10
5.994630082990072
 20
23.21162297440473
 42
-0.208138
 10
5.998997876590074
 20
23.24192472304473
 42
-0.19621
 10
6.102314589070073
 20
23.31721083760473
 42
-0.038751
 10
6.333055074190073
 20
23.35557622480473
 42
-0.039528
 10
6.600390677470073
 20
23.35779138688473
 42
-0.049466
  0
LWPOLYLINE
  5
186
330
1D
100
AcDbEntity
  8
0
100
AcDbPolyline
 90
       32
 70
     1
 43
0.0
 10
1.882080748990072
 20
22.41035812024473
 42
-0.044608
 10
2.083876296670072
 20
22.29349886872473
 42
-0.161878
 10
2.170742416750073
 20
22.17578942248473
 42
-0.133491
 10
2.178677680750072
 20
22.01519407984473
 42
-0.02669
 10
2.101619682910072
 20
21.73612295176473
 42
0.019547
 10
2.011234689550072
 20
21.42610964656473
 42
0.013036
 10
1.931030537950073
 20
21.06495190816473
 42
0.012652
 10
1.866831363550071
 20
20.68446827608473
 42
0.014159
 10
1.824727481470072
 20
20.31522230320473
 42
-0.003466
 10
1.813814369470072
 20
20.19713219368473
 42
-0.005749
 10
1.802775219310072
 20
20.09771140696473
 42
-0.00133
 10
1.791988187950073
 20
20.01168345976473
 42
-0.377373
 10
1.786941861310073
 20
20.00724230320473
 42
-0.198261
 10
1.779191895070072
 20
20.01044108968473
 42
-0.00058
 10
1.699809179230073
 20
20.08961034352473
 42
-0.003225
 10
1.610401863070072
 20
20.18014490896473
 42
-0.001995
 10
1.506435206590073
 20
20.28764424472473
 42
0.021235
 10
1.255548369070071
 20
20.52783801664473
 42
0.049694
 10
1.044659127790073
 20
20.67898555240473
 42
0.064294
 10
0.845453543230072
 20
20.76183565576473
 42
0.06653
 10
0.6340660115500727
 20
20.79008799928473
 42
-0.02349
 10
0.4737349369900707
 20
20.79762454600473
 42
-0.340874
 10
0.4347855347500715
 20
20.83398156376473
 42
-0.133383
 10
0.4424428096300712
 20
20.90847232528473
 42
-0.003597
 10
0.5639204017900719
 20
21.21723718576473
 42
-0.023852
 10
0.6894654114700716
 20
21.49118471608473
 42
-0.019402
 10
0.8488370752300716
 20
21.77199357352473
 42
-0.019464
 10
1.028788982110072
 20
22.03848123352473
 42
-0.024597
 10
1.216226842030073
 20
22.26930230320473
 42
-0.029801
 10
1.389271543390072
 20
22.44048315208473
 42
-0.128613
 10
1.517530472830073
 20
22.50476180656473
 42
-0.130691
 10
1.659703428910072
 20
22.49748277360473
 42
-0.031182
  0
LWPOLYLINE
  5
1A8
330
1D
100
AcDbEntity
  8
0
100
AcDbPolyline
 90
       30
 70
     1
 43
0.0
 10
8.965229083390074
 20
22.42994649784473
 42
-0.123989
 10
9.085153181950073
 20
22.34612215816473
 42
-0.017754
 10
9.274686707710075
 20
22.11103851784473
 42
-0.020683
 10
9.467710942510074
 20
21.82990383880473
 42
-0.024634
 10
9.625033540990072
 20
21.54934094056473
 42
-0.014575
 10
9.726202464670072
 20
21.33027740032473
 42
-0.010444
 10
9.826927217470072
 20
21.07999241944473
 42
-0.003402
 10
9.917678855710072
 20
20.83512283144474
 42
-0.520265
 10
9.903127459150074
 20
20.81436230320473
 42
-0.048144
 10
9.890803119070075
 20
20.81555174320473
 42
-0.000944
 10
9.828506708830073
 20
20.82781172608473
 42
-0.002254
 10
9.755809113070072
 20
20.84260241248473
 42
-0.001509
 10
9.672776600590073
 20
20.86014762952473
 42
0.087561
 10
9.364179366190072
 20
20.87144267920473
 42
0.088015
 10
9.070962355630073
 20
20.77632923704473
 42
0.077849
 10
8.800593128110073
 20
20.57307360928473
 42
0.051446
 10
8.559392367790071
 20
20.26735588168473
 10
8.437764566350074
 20
20.07556874944473
 10
8.43759371179007
 20
20.30690552632473
 42
0.035669
 10
8.408748304990072
 20
20.70658650760473
 42
0.017209
 10
8.317936600030073
 20
21.21203827096473
 42
0.01685
 10
8.196207058990073
 20
21.69710299024473
 42
0.048943
 10
8.068949935390073
 20
22.01815141000473
 42
-0.087756
 10
8.040452652190073
 20
22.11023454136473
 42
-0.214181
 10
8.060771940670074
 20
22.17664395016473
 42
-0.087166
 10
8.143179105070072
 20
22.24301015680473
 42
-0.008356
 10
8.371765259470074
 20
22.36416927640473
 42
-0.037091
 10
8.532957616030073
 20
22.43166162784473
 42
-0.053048
 10
8.684237944270073
 20
22.46491671352473
 42
-0.05829
 10
8.827618946590071
 20
22.46404748776473
 42
-0.060276
  0
LWPOLYLINE
  5
1C8
330
1D
100
AcDbEntity
  8
0
100
AcDbPolyline
 90
       38
 70
     1
 43
0.0
 10
3.233964566350073
 20
22.09343323408473
 42
-0.024149
 10
3.305734568830073
 20
22.05600614512473
 42
-0.018184
 10
3.380893498270072
 20
22.00832412928473
 42
-0.018491
 10
3.448402841710073
 20
21.95819845144473
 42
-0.039802
 10
3.495537120430073
 20
21.91382617984473
 42
-0.043652
 10
3.545086132270073
 20
21.84847996048473
 42
-0.105225
 10
3.565891986670072
 20
21.79180522600473
 42
-0.069998
 10
3.566068321150073
 20
21.71804223184473
 42
-0.011915
 10
3.543458128750073
 20
21.57900230320472
 42
0.029558
 10
3.526177179790071
 20
21.44250633184473
 42
0.005015
 10
3.511270777870072
 20
21.18037469848473
 42
0.005462
 10
3.500199215470073
 20
20.87167835824473
 42
0.004838
 10
3.495294432190071
 20
20.55006249064473
 42
-0.001307
 10
3.490955440030072
 20
20.02011595216473
 42
-0.02805
 10
3.480496821550072
 20
19.86398691424473
 42
-0.219047
 10
3.451649842990073
 20
19.81738244608474
 42
-0.316
 10
3.404893423870072
 20
19.81863959920473
 42
0.029208
 10
3.353541390910072
 20
19.85232946768473
 42
0.005229
 10
3.253582042750072
 20
19.90847439160473
 42
0.005631
 10
3.134892540430073
 20
19.97178892000473
 42
0.005059
 10
3.010513012030072
 20
20.03476067728473
 42
0.01178
 10
2.826386680510073
 20
20.12031909304473
 42
0.046144
 10
2.707500920590073
 20
20.15961203104473
 42
0.053296
 10
2.592078724990072
 20
20.17358731384473
 42
0.0194
 10
2.427149955070071
 20
20.16949721200473
 42
0.015407
 10
2.274641402590073
 20
20.15505736792473
 42
0.052892
 10
2.177932071790072
 20
20.13232194448473
 42
0.067337
 10
2.100905466670072
 20
20.09309276896473
 42
0.037065
 10
2.018512235710073
 20
20.02651594648474
 10
1.884826018990072
 20
19.90104230320473
 10
1.914120269470072
 20
20.24088230320473
 42
-0.021258
 10
1.979017730110073
 20
20.74314827896473
 42
-0.014233
 10
2.093834373310073
 20
21.31109946448473
 42
-0.010822
 10
2.225719947790072
 20
21.82851627208473
 42
-0.0997
 10
2.330039613070071
 20
22.03390210192473
 42
-0.171687
 10
2.463113565550072
 20
22.11770991688473
 42
-0.039072
 10
2.730890026270072
 20
22.15650252544473
 42
-0.040738
 10
3.017923648030072
 20
22.15200499792473
 42
-0.084022
  0
LWPOLYLINE
  5
1F0
330
1D
100
AcDbEntity
  8
0
100
AcDbPolyline
 90
       46
 70
     1
 43
0.0
 10
7.794102976030073
 20
22.14740258728473
 42
-0.062867
 10
7.867498305790074
 20
22.12283848480473
 42
-0.107069
 10
7.918315473070074
 20
22.08324754960473
 42
-0.069242
 10
7.961586408190074
 20
22.01382129616473
 42
-0.014757
 10
8.015746836430072
 20
21.88190258728473
 42
-0.0101
 10
8.055957045070071
 20
21.76818052624473
 42
-0.004942
 10
8.102827055710074
 20
21.62175098920473
 42
-0.0049
 10
8.148571431310074
 20
21.46851331000473
 42
-0.007084
 10
8.18574342787007
 20
21.33215030104473
 42
-0.024119
 10
8.248304403550073
 20
21.02933735584473
 42
-0.008544
 10
8.309384101630073
 20
20.59088628040473
 42
-0.002702
 10
8.363001932830073
 20
20.13044152480473
 42
-0.227802
 10
8.340192169390074
 20
20.06542987792473
 42
-0.289121
 10
8.323874157070072
 20
20.06173794112473
 42
-0.027458
 10
8.284353143950074
 20
20.07822816736473
 42
-0.028388
 10
8.235826243390074
 20
20.10517832896473
 42
-0.018233
 10
8.182664944750071
 20
20.14156164184472
 42
0.0448
 10
8.097698275390073
 20
20.19331655512473
 42
0.061862
 10
8.013413537470074
 20
20.22256267576473
 42
0.042568
 10
7.902973948510072
 20
20.23647840160473
 42
0.010887
 10
7.722665549470074
 20
20.23981201960473
 42
0.014057
 10
7.540697371870072
 20
20.23409663296473
 42
0.038991
 10
7.413976006030072
 20
20.21656781320473
 42
0.043874
 10
7.300126674910072
 20
20.18096439064473
 42
0.022025
 10
7.163364566350074
 20
20.11744196512473
 42
0.011967
 10
7.062269727790072
 20
20.06184541552473
 42
0.008502
 10
6.951561920110073
 20
19.99492025704473
 42
0.008589
 10
6.848022654910071
 20
19.92739209496473
 42
0.018006
 10
6.770424566350072
 20
19.87068265432473
 10
6.611124566350073
 20
19.74522315688473
 10
6.610979412190072
 20
20.05677270880473
 42
0.015078
 10
6.601163133790074
 20
20.37725393560473
 42
0.005768
 10
6.568923235150074
 20
20.82232802536473
 42
0.005668
 10
6.526939486510073
 20
21.26208234472473
 42
0.017476
 10
6.484829614750073
 20
21.55776230320473
 42
-0.013106
 10
6.465948784030071
 20
21.68251642024473
 42
-0.078165
 10
6.468049420030074
 20
21.74810124976473
 42
-0.122415
 10
6.490019948590073
 20
21.79579928056473
 42
-0.052596
 10
6.539665092670074
 20
21.84594713296473
 42
-0.034196
 10
6.646337810110072
 20
21.92161565248473
 42
-0.014403
 10
6.798990369790074
 20
22.00897929832473
 42
-0.0144
 10
6.956382720430074
 20
22.08739143112473
 42
-0.034289
 10
7.078404566350073
 20
22.13399810824473
 42
-0.054671
 10
7.209427287070075
 20
22.15879835704473
 42
-0.014778
 10
7.420778455870074
 20
22.16901067648473
 42
-0.01547
 10
7.637172213070075
 20
22.16636837800473
 42
-0.038581
  0
LWPOLYLINE
  5
220
330
1D
100
AcDbEntity
  8
0
100
AcDbPolyline
 90
       30
 70
     1
 43
0.0
 10
5.643407694430072
 20
22.02312632776473
 42
-0.010261
 10
5.746524538510072
 20
21.99390136216473
 42
-0.005563
 10
5.872138918030073
 20
21.95396544688473
 42
-0.005539
 10
5.999128502590072
 20
21.91046524720473
 42
-0.008717
 10
6.107069078110071
 20
21.87001689568473
 10
6.346413589870072
 20
21.77553767992473
 10
6.393841108030073
 20
21.48835308424473
 42
-0.021072
 10
6.437840192830072
 20
21.12810114688473
 42
-0.004241
 10
6.483606445630073
 20
20.48380940824473
 42
-0.000866
 10
6.526697945230072
 20
19.77477946648473
 42
-0.214284
 10
6.504599254510072
 20
19.71663696304473
 42
-0.252215
 10
6.488208601390071
 20
19.71172308904473
 42
-0.036782
 10
6.453591267070074
 20
19.72154200120473
 42
-0.034251
 10
6.411014200270072
 20
19.74047355304473
 42
-0.023025
 10
6.365147397310073
 20
19.76752719592473
 42
0.065524
 10
5.745790993870073
 20
20.06525303368473
 42
0.07867
 10
5.108235521230073
 20
20.16828066976473
 42
0.079347
 10
4.474411916590073
 20
20.06913506848473
 42
0.068121
 10
3.865891481470073
 20
19.77551437048473
 10
3.648218396590072
 20
19.63115475640473
 10
3.621631481470072
 20
19.82512752712473
 42
-0.029975
 10
3.597555346750072
 20
20.14012382128473
 42
-0.007323
 10
3.596665985470071
 20
20.66090708392473
 42
-0.007298
 10
3.610996613470072
 20
21.18124647304473
 42
-0.030394
 10
3.643213615390072
 20
21.49323131752472
 10
3.691382664430072
 20
21.78490604920473
 10
3.929953615390072
 20
21.89149185256473
 42
-0.042879
 10
4.340023293070072
 20
22.03399619512473
 42
-0.043046
 10
4.767856619950073
 20
22.10423088544473
 42
-0.042644
 10
5.205171355390072
 20
22.10048631592473
 42
-0.040486
  0
LWPOLYLINE
  5
240
330
1D
100
AcDbEntity
  8
0
100
AcDbPolyline
 90
       32
 70
     1
 43
0.0
 10
9.815444618590071
 20
20.71211999488473
 42
-0.043929
 10
9.892506184750072
 20
20.67164942632473
 42
-0.093254
 10
9.941289664510073
 20
20.62552829560473
 42
-0.075974
 10
9.975772804510076
 20
20.55861057112473
 42
-0.02199
 10
10.00799919451007
 20
20.44661999488473
 42
-0.044833
 10
10.05776438707007
 20
20.10961710664473
 42
-0.00852
 10
10.08257483107007
 20
19.48913562040473
 42
-0.009011
 10
10.08563598235007
 20
18.86500263832473
 42
-0.036534
 10
10.05294392659007
 20
18.48647389336473
 42
-0.043413
 10
9.864417856510073
 20
17.73550111120473
 42
-0.034853
 10
9.537989259790075
 20
16.96858061488473
 42
-0.031086
 10
9.067159078750073
 20
16.17275430520473
 42
-0.021603
 10
8.443535092030071
 20
15.33444230320473
 42
-0.004803
 10
8.15307953635007
 20
14.98422915448473
 42
-0.002102
 10
7.76160386443007
 20
14.52526155592473
 42
-0.000169
 10
7.333597176670075
 20
14.02805651992473
 42
-0.2183
 10
7.310706361390073
 20
14.01756230320473
 42
-0.501535
 10
7.308508318750074
 20
14.02050803632473
 42
-0.000145
 10
7.358828172670074
 20
14.18975477080473
 42
-0.001855
 10
7.415909015950072
 20
14.37896770000473
 42
-0.001106
 10
7.485174864910072
 20
14.60374947304473
 42
0.013629
 10
7.867838698030072
 20
15.96589216792473
 42
0.013963
 10
8.17233075019007
 20
17.33597887768473
 42
0.014772
 10
8.37464395915007
 20
18.57994743760473
 42
0.032897
 10
8.437798083070074
 20
19.53672010216473
 42
-0.081792
 10
8.492154726430075
 20
19.86649331920473
 42
-0.054617
 10
8.654004843310073
 20
20.21414827984473
 42
-0.055363
 10
8.883149354830074
 20
20.51218842712473
 42
-0.094862
 10
9.138320172910074
 20
20.69265786784473
 42
-0.053984
 10
9.300706684750075
 20
20.74621044976473
 42
-0.04552
 10
9.48049644547007
 20
20.76783697528473
 42
-0.046129
 10
9.658486838350074
 20
20.75652671776473
 42
-0.060104
  0
LWPOLYLINE
  5
262
330
1D
100
AcDbEntity
  8
0
100
AcDbPolyline
 90
       30
 70
     1
 43
0.0
 10
0.9315341231500707
 20
20.61818732680473
 42
-0.029007
 10
1.094522236750072
 20
20.52354027256473
 42
-0.029422
 10
1.244652418990073
 20
20.41107583192473
 42
-0.026658
 10
1.392722108830072
 20
20.27172694624473
 42
-0.01709
 10
1.549874362510072
 20
20.09550219208473
 10
1.754772649390073
 20
19.84929189280473
 10
1.782523261630073
 20
19.36540709800473
 42
0.026721
 10
1.881698301550073
 20
18.47331732760473
 42
0.015587
 10
2.090637880750072
 20
17.41721605792473
 42
0.013057
 10
2.411520968350072
 20
16.17404387056473
 42
0.007662
 10
2.856831034510072
 20
14.70348860488473
 42
-0.001665
 10
2.961829827550073
 20
14.37117058096473
 42
-0.002746
 10
3.048085934830072
 20
14.08954763680473
 42
-0.000329
 10
3.123189342910073
 20
13.83884112688473
 42
-0.297747
 10
3.119850882190073
 20
13.82758707040473
 42
-0.407429
 10
3.075012732430072
 20
13.83073734472473
 42
-0.000465
 10
2.390201573230072
 20
14.60224963168473
 42
-0.003679
 10
1.781146187470072
 20
15.29997628264473
 42
-0.015979
 10
1.436596344910072
 20
15.72750451816473
 42
-0.031773
 10
0.8308230489100712
 20
16.64637856576473
 42
-0.045782
 10
0.4270234192300721
 20
17.53191210040473
 42
-0.049239
 10
0.2107081650700726
 20
18.42384609664473
 42
-0.046149
 10
0.1663583229100718
 20
19.36078986184473
 42
-0.013789
 10
0.2016704601100727
 20
19.84693263856473
 42
-0.024933
 10
0.2612745304300725
 20
20.24145833200473
 42
-0.025554
 10
0.3364253461900724
 20
20.53467589480473
 42
-0.207333
 10
0.4248747808300717
 20
20.63740056352473
 42
-0.072595
 10
0.537855735790072
 20
20.67310899664473
 42
-0.049813
 10
0.6722362031500717
 20
20.68140287680473
 42
-0.048636
 10
0.8095701774700719
 20
20.66273550808473
 42
-0.059022
  0
LWPOLYLINE
  5
282
330
1D
100
AcDbEntity
  8
0
100
AcDbPolyline
 90
       47
 70
     0
 43
0.0
 10
6.035527788836404
 20
14.81566518374131
 42
0.0515680049930175
 10
6.031010464750073
 20
14.79569267680473
 42
0.019935
 10
6.024010992670071
 20
14.70786230320473
 42
-0.013159
 10
6.017370858910079
 20
14.60736681496474
 42
-0.001295
 10
5.994400818430068
 20
14.36601248944476
 42
-0.001636
 10
5.965330395070066
 20
14.07844570120478
 42
-0.001296
 10
5.932087118830043
 20
13.76781613864474
 42
0.00048
 10
5.899276416430064
 20
13.46589021832473
 42
0.000746
 10
5.87163030499006
 20
13.20554720536483
 42
0.000204
 10
5.847957093070072
 20
12.97850927704473
 42
0.025877
 10
5.846484566350074
 20
12.95007613864473
 42
-0.395722
 10
5.832445775950097
 20
12.93511570216473
 42
-0.002703
 10
5.640589316350071
 20
12.92394923944473
 42
-0.008236
 10
5.414325925870092
 20
12.91574150872473
 42
-0.004947
 10
5.145564566350083
 20
12.91308230320473
 42
-0.003237
 10
4.87679917123008
 20
12.91482241144473
 42
-0.005395
 10
4.650539816350062
 20
12.92019472960472
 42
-0.001169
 10
4.454120919790071
 20
12.92743952368473
 42
-0.402777
 10
4.444644566350074
 20
12.93729492616473
 42
0.029373
 10
4.442163989231278
 20
12.97948415056436
 42
0.000013
 10
4.27712417658987
 20
14.3778077411247
 42
0.000231
 10
4.118614729390004
 20
15.71519279464474
 42
0.000344
 10
3.978607488670073
 20
16.88496230320473
 10
3.924637753150074
 20
17.33327107504473
 10
3.863844285310072
 20
17.83826715544473
 10
3.805614018190072
 20
18.32197502104473
 10
3.760276600990073
 20
18.69858910744473
 10
3.664681478110073
 20
19.49269595416473
 10
3.767923043470073
 20
19.57859544184473
 42
-0.044531
 10
3.957376324510072
 20
19.70959203736473
 42
-0.020616
 10
4.223846652670072
 20
19.84653952864473
 42
-0.020622
 10
4.506551859790072
 20
19.96349661160473
 42
-0.036383
 10
4.749345237790072
 20
20.03286492232473
 42
-0.042877
 10
5.057838863470073
 20
20.07001856752473
 42
-0.047227
 10
5.358098378350073
 20
20.05191248704473
 42
-0.044315
 10
5.665349888830073
 20
19.97568497320473
 42
-0.030968
 10
5.99516456635007
 20
19.83869508688473
 42
-0.009508
 10
6.338939956030071
 20
19.66207305976473
 42
-0.126888
 10
6.442443283150073
 20
19.56641111584473
 42
-0.146566
 10
6.479758734670073
 20
19.43725624072474
 42
-0.01401
 10
6.467224033630073
 20
19.10596695496474
 42
-0.003186
 10
6.45439401163007
 20
18.92859660016474
 42
-0.0035
 10
6.439663222030073
 20
18.75689027368474
 42
-0.003267
 10
6.425087739310073
 20
18.61031740912473
 42
-0.017631
 10
6.413845577230072
 20
18.53106230320473
 42
0.020954
 10
6.404795680510074
 20
18.46406437648473
 42
0.0036868824951287
 10
6.404648242923725
 20
18.46233373689616
 42
0.0832354346594832
  0
LWPOLYLINE
  5
2F0
330
1D
100
AcDbEntity
  8
0
100
AcDbPolyline
 90
       54
 70
     1
 43
0.0
 10
3.030839224750073
 20
19.92401858824473
 42
-0.011265
 10
3.134886168430072
 20
19.86498804040473
 42
-0.008981
 10
3.244445062030072
 20
19.79682531208474
 42
-0.009098
 10
3.343660925230073
 20
19.73000486680473
 42
-0.022526
 10
3.413115427870072
 20
19.67655041368473
 42
-0.063471
 10
3.495796928110073
 20
19.58654880232473
 42
-0.083865
 10
3.544038745390072
 20
19.48640521840473
 42
-0.033484
 10
3.580501028590074
 20
19.31914612312473
 42
-0.002818
 10
3.643092589870072
 20
18.88152230320473
 42
-0.002363
 10
3.679626239470073
 20
18.60573003640473
 42
-0.002625
 10
3.712242468430072
 20
18.33910580320473
 42
-0.002428
 10
3.737761776190072
 20
18.11142876328473
 42
-0.013672
 10
3.747470580190073
 20
17.98944230320473
 42
0.012021
 10
3.756840266350072
 20
17.86658937856473
 42
0.002055
 10
3.781228798990073
 20
17.63353955320473
 42
0.00224
 10
3.812226412510071
 20
17.36004702616473
 42
0.001996
 10
3.846844723870073
 20
17.07612230320473
 42
-0.000475
 10
3.883703600350073
 20
16.78129062784473
 42
-0.000424
 10
3.921432679630073
 20
16.47503030320473
 42
-0.000425
 10
3.954871321390073
 20
16.19974809376473
 42
-0.001321
 10
3.976761987550072
 20
16.01412230320473
 42
0.000744
 10
4.001414448430071
 20
15.80298306712473
 42
0.000121
 10
4.050042791230072
 20
15.39266088832473
 42
0.000133
 10
4.107535223230072
 20
14.90964145360473
 42
0.000117
 10
4.167790681870073
 20
14.40555746128473
 42
-0.001082
 10
4.225038683950073
 20
13.91866283104473
 42
-0.001568
 10
4.273314230350073
 20
13.48842934168473
 42
-0.000789
 10
4.312568681470072
 20
13.12305329680473
 42
-0.026368
 10
4.317204566350072
 20
13.03520635600473
 10
4.317204566350072
 20
12.91234009264473
 10
4.072944566350073
 20
12.93985158496473
 42
-0.001547
 10
3.978900898030072
 20
12.95073861424473
 42
-0.002485
 10
3.898790584750073
 20
12.96066793192473
 42
-0.000448
 10
3.828165928030073
 20
12.96984254992473
 42
-0.143499
 10
3.823083280990073
 20
12.97208269024473
 42
-0.047918
 10
3.818989186030072
 20
12.97626408160473
 42
-0.000067
 10
3.749188301470072
 20
13.06276538344473
 42
-0.000567
 10
3.671074760590073
 20
13.15981960936473
 42
-0.00035
 10
3.579391493470073
 20
13.27416230320473
 42
-0.022802
 10
3.434851211950073
 20
13.47258659560473
 42
-0.039158
 10
3.335792907070073
 20
13.65148559320473
 42
-0.023247
 10
3.236839825150072
 20
13.89856660504473
 42
-0.003568
 10
3.066634019710072
 20
14.39988230320473
 42
-0.008292
 10
2.595770534350072
 20
15.90293323960473
 42
-0.012604
 10
2.241550629550073
 20
17.22490234360473
 42
-0.014547
 10
2.006097583150072
 20
18.34327326112473
 42
-0.03249
 10
1.907761268350072
 20
19.20631316848473
 42
-0.004345
 10
1.895608122670073
 20
19.51147971808473
 42
-0.03666
 10
1.901405665630072
 20
19.64886424360473
 42
-0.074915
 10
1.926683517070073
 20
19.74200431984473
 42
-0.051098
 10
1.980971130430071
 20
19.83755624056473
 42
-0.113927
 10
2.169405358750071
 20
20.00454843400473
 42
-0.104401
 10
2.418081749470072
 20
20.07881583568473
 42
-0.087658
 10
2.712256514110073
 20
20.05146793384473
 42
-0.056552
  0
LWPOLYLINE
  5
328
330
1D
100
AcDbEntity
  8
0
100
AcDbPolyline
 90
       30
 70
     1
 43
0.0
 10
9.015894172270073
 20
15.66840481288473
 42
-0.010466
 10
8.545332040030072
 20
14.75373322672473
 42
-0.006565
 10
7.958831580190074
 20
13.70326382800473
 42
-0.006241
 10
7.302071196910072
 20
12.59464631848473
 42
-0.006209
 10
6.616724874670071
 20
11.50082510272473
 42
-0.008308
 10
6.493944208510073
 20
11.31695369368473
 42
-0.031589
 10
6.408400873150073
 20
11.20865157088473
 42
-0.052943
 10
6.341174276590073
 20
11.14808537104473
 42
-0.157635
 10
6.282955988830071
 20
11.12912510272473
 42
-0.175434
 10
6.231515470030073
 20
11.14762233904473
 42
-0.294419
 10
6.218191193230073
 20
11.18985425584473
 42
-0.033021
 10
6.254709847390071
 20
11.29541624872473
 42
-0.000747
 10
6.463031852350073
 20
11.78736230320473
 42
0.005143
 10
6.558222395710072
 20
12.01777305856473
 42
0.002077
 10
6.683570892910073
 20
12.33404685376473
 42
0.002055
 10
6.815690277310074
 20
12.67561787128473
 42
0.002606
 10
6.934776925150072
 20
12.99223566952473
 10
7.207821628030072
 20
13.72982903584473
 10
7.730480340190074
 20
14.33035566952473
 42
0.004141
 10
8.198580713950072
 20
14.87727653632473
 42
0.005963
 10
8.602993924750074
 20
15.36958367080473
 42
0.006633
 10
8.927983086670073
 20
15.78617194696473
 42
0.019156
 10
9.13793364739007
 20
16.08597280528473
 42
-0.005693
 10
9.203791665790074
 20
16.18562039272473
 42
-0.009663
 10
9.261436133710074
 20
16.26727396192473
 42
-0.003799
 10
9.311307611230074
 20
16.33402771360473
 42
-0.45468
 10
9.320811109390073
 20
16.33467574600473
 42
-0.312631
 10
9.323066797390076
 20
16.32223670992473
 42
-0.000644
 10
9.236896457230072
 20
16.13330393632473
 42
-0.003891
 10
9.137074234510074
 20
15.91959440536473
 42
-0.002365
  0
LWPOLYLINE
  5
348
330
1D
100
AcDbEntity
  8
0
100
AcDbPolyline
 90
       28
 70
     1
 43
0.0
 10
1.365235594750072
 20
15.64702722016473
 42
0.010454
 10
1.595743799230072
 20
15.35373795112473
 42
0.006856
 10
1.872846998830072
 20
15.02523628792473
 42
0.00515
 10
2.233038742030072
 20
14.61846632920473
 42
0.002102
 10
2.730662078590071
 20
14.07265176904473
 42
-0.006332
 10
2.963102188510072
 20
13.81332853096473
 42
-0.013381
 10
3.135262116430072
 20
13.60531204216473
 42
-0.016068
 10
3.255806975230072
 20
13.44083551432473
 42
-0.062736
 10
3.313344351070073
 20
13.32896175808473
 42
0.000811
 10
3.486108217150074
 20
12.85763626024473
 42
0.000368
 10
3.713599322110073
 20
12.24150668008473
 42
0.000289
 10
3.933341140510072
 20
11.64876548344473
 42
0.002259
 10
4.037106484270073
 20
11.37318230320473
 42
-0.004789
 10
4.100841479710073
 20
11.20128069616473
 42
-0.056432
 10
4.117259277550072
 20
11.13201454984473
 42
-0.236617
 10
4.105800594910073
 20
11.10009936832473
 42
-0.192685
 10
4.071677387950071
 20
11.08644230320473
 42
-0.255174
 10
3.956210503390072
 20
11.14947493432473
 42
-0.001518
 10
3.281763826990073
 20
12.20544498328473
 42
-0.006238
 10
2.571787728190073
 20
13.35600346408473
 42
-0.005544
 10
1.861721784190073
 20
14.56980230320473
 42
-0.003648
 10
1.621114384510072
 20
14.99901385120473
 42
-0.002751
 10
1.362764448190072
 20
15.47402699536473
 42
-0.000255
 10
1.102253426830071
 20
15.95995184968473
 42
-0.566736
 10
1.109254555630072
 20
15.97164230320473
 42
-0.229038
 10
1.116730440910072
 20
15.96802818976473
 42
-0.000612
 10
1.189257139630072
 20
15.87628659760473
 42
-0.003486
 10
1.270725198670072
 20
15.77148032392473
 42
-0.002146
  0
LWPOLYLINE
  5
366
330
1D
100
AcDbEntity
  8
0
100
AcDbPolyline
 90
       34
 70
     1
 43
0.0
 10
6.882302698030076
 20
13.13610230320473
 42
-0.002954
 10
6.701325281470073
 20
12.66119264032473
 42
-0.002549
 10
6.505740734590074
 20
12.16445101864473
 42
-0.002499
 10
6.325564703230071
 20
11.72005762840473
 42
-0.008797
 10
6.203243160910073
 20
11.43690230320473
 10
6.063718195630072
 20
11.12892230320473
 10
5.888006132590074
 20
11.12892230320473
 42
-0.0116
 10
5.777873121790073
 20
11.13147768760473
 42
-0.152296
 10
5.739979942270072
 20
11.14525254976473
 42
-0.247909
 10
5.726092168270073
 20
11.17522987864473
 42
-0.034209
 10
5.734635448510073
 20
11.24574230320473
 42
0.004214
 10
5.745102987790072
 20
11.30309128024473
 42
0.001716
 10
5.758418046430073
 20
11.38128005320473
 42
0.001698
 10
5.772157182910071
 20
11.46542609392473
 42
0.002165
 10
5.784224603950072
 20
11.54310230320473
 42
-0.017896
 10
5.802835601710074
 20
11.64223341880473
 42
-0.100003
 10
5.824796020030073
 20
11.69131485328473
 42
-0.16535
 10
5.858479431550073
 20
11.71551494464473
 42
-0.073952
 10
5.913129144430073
 20
11.72364230320473
 42
0.064603
 10
5.962887242830072
 20
11.73009824368473
 42
0.119466
 10
5.998538582830072
 20
11.74938335656473
 42
0.106473
 10
6.023980109710076
 20
11.78464715152473
 42
0.044586
 10
6.042707842510072
 20
11.84046230320473
 42
-0.052964
 10
6.122795471470074
 20
12.06654659800473
 42
-0.01065
 10
6.315491123470074
 20
12.44818411432473
 42
-0.011895
 10
6.533015740750072
 20
12.83464727368473
 42
-0.027194
 10
6.719247678430073
 20
13.11229294288473
 42
-0.003525
 10
6.810171870430073
 20
13.23134076400473
 42
-0.005629
 10
6.889708448830074
 20
13.33161841480473
 42
-0.001582
 10
6.959783116990074
 20
13.41739623976473
 42
-0.224316
 10
6.971311551790075
 20
13.42284230320473
 42
-0.501023
 10
6.976234983790073
 20
13.41625526944473
 42
-0.00348
 10
6.952724512750073
 20
13.33861240696473
 42
-0.00904
 10
6.922153993150071
 20
13.24607295544473
 42
-0.005259
  0
LWPOLYLINE
  5
38A
330
1D
100
AcDbEntity
  8
0
100
AcDbPolyline
 90
       30
 70
     1
 43
0.0
 10
4.006551087550074
 20
12.41404425520473
 42
-0.008815
 10
4.080493219870074
 20
12.25273465384473
 42
-0.009506
 10
4.146786955630072
 20
12.09289770664473
 42
-0.009098
 10
4.198486644910073
 20
11.95384244272473
 42
-0.04425
 10
4.219216927390073
 20
11.87242425520473
 42
0.025669
 10
4.236983422750072
 20
11.78996063488473
 42
0.128836
 10
4.260235657870072
 20
11.74932995920473
 42
0.156489
 10
4.297913251390073
 20
11.72950883368473
 42
0.043484
 10
4.365242734510073
 20
11.72364230320473
 42
-0.035939
 10
4.421800351630072
 20
11.71957182712473
 42
-0.098541
 10
4.459374378910072
 20
11.70627456760473
 42
-0.14023
 10
4.481281102510073
 20
11.68302012352473
 42
-0.109239
 10
4.490225733790073
 20
11.64930230320473
 42
0.015727
 10
4.493308592350072
 20
11.60722930408473
 42
0.003029
 10
4.501746309790072
 20
11.53128755320473
 42
0.003222
 10
4.512702538990072
 20
11.44277707480473
 42
0.002967
 10
4.525089919390072
 20
11.35194230320473
 10
4.556852937550073
 20
11.12892230320473
 10
4.399093644670073
 20
11.12892230320473
 42
-0.028192
 10
4.325180313790073
 20
11.13309315952473
 42
-0.066669
 10
4.271790260350072
 20
11.14649177632473
 42
-0.093166
 10
4.235186391310073
 20
11.16968687584473
 42
-0.112844
 10
4.212439880590074
 20
11.20326230320473
 42
-0.003924
 10
4.078712458270074
 20
11.55547944592473
 42
-0.000568
 10
3.812665443310073
 20
12.27563753344473
 42
-0.000192
 10
3.526800573790073
 20
13.05307212712473
 42
-0.017688
 10
3.489159767950072
 20
13.16796230320473
 42
-0.79201
 10
3.520342636750072
 20
13.18550017120473
 42
-0.035508
 10
3.653772784030073
 20
13.01792302816473
 42
-0.017656
 10
3.846695066830072
 20
12.71436757504473
 42
-0.020853
  0
LWPOLYLINE
  5
3AA
330
1D
100
AcDbEntity
  8
0
100
AcDbPolyline
 90
       20
 70
     1
 43
0.0
 10
6.151975280830072
 20
12.36228760024473
 42
-0.006599
 10
6.056078082670073
 20
12.16734203752473
 42
-0.010391
 10
5.968107779950073
 20
12.00286576456473
 42
-0.004734
 10
5.890147974190074
 20
11.86714318408473
 42
-0.257363
 10
5.865551119630073
 20
11.85252760024473
 42
-0.404229
 10
5.846793948190072
 20
11.86951535224473
 42
-0.021843
 10
5.844786470830072
 20
11.95721480248473
 42
-0.019426
 10
5.852664259390073
 20
12.08914837936473
 42
-0.006043
 10
5.874575740750073
 20
12.28650230320473
 42
0.000974
 10
5.895256236670073
 20
12.45698953864473
 42
0.001378
 10
5.912954509150074
 20
12.60886250536473
 42
0.000781
 10
5.927344481710071
 20
12.73716204568473
 42
0.019645
 10
5.929849187470072
 20
12.77245795552473
 42
-0.266667
 10
5.947862491630071
 20
12.80165705080473
 42
-0.067287
 10
6.002105628430074
 20
12.82222654648473
 42
-0.028241
 10
6.106223428750075
 20
12.84027260272473
 42
-0.004023
 10
6.321895280830072
 20
12.86346128776473
 42
-0.466244
 10
6.344978955310073
 20
12.84092055016473
 42
-0.062988
 10
6.329509693390073
 20
12.76502607952473
 42
-0.024986
 10
6.273615613870073
 20
12.62379278104473
 42
-0.00429
  0
LWPOLYLINE
  5
3C0
330
1D
100
AcDbEntity
  8
0
100
AcDbPolyline
 90
       18
 70
     1
 43
0.0
 10
4.359684566350072
 20
12.79514784040473
 42
0.029302
 10
4.363986346030074
 20
12.72180573808473
 42
0.000717
 10
4.404008368270073
 20
12.38595711640473
 42
0.001336
 10
4.443491404270071
 20
12.06582422560473
 42
0.011893
 10
4.464591984910072
 20
11.92542230320473
 42
-0.09009
 10
4.463966636830072
 20
11.83262907616473
 42
-0.440607
 10
4.424393883070072
 20
11.80813022296473
 42
-0.196018
 10
4.364646994990073
 20
11.85477109648473
 42
-0.051603
 10
4.314433510990073
 20
11.96790230320473
 42
0.015995
 10
4.284108653230073
 20
12.05186257888473
 42
0.004281
 10
4.230495579790072
 20
12.18335555320473
 42
0.004334
 10
4.166965592830072
 20
12.33180323008473
 42
0.004464
 10
4.101483734830072
 20
12.47766230320473
 10
3.940373789470072
 20
12.82812230320473
 10
4.150029156670072
 20
12.82812230320473
 42
-0.014782
 10
4.230403313230071
 20
12.82574563216473
 42
-0.024225
 10
4.298098294270072
 20
12.81843605608473
 42
-0.021144
 10
4.349522798110073
 20
12.80810373064473
 42
-0.345386
  0
LWPOLYLINE
  5
3D4
330
1D
100
AcDbEntity
  8
0
100
AcDbPolyline
 90
       20
 70
     1
 43
0.0
 10
5.777449001470071
 20
12.39270230320473
 42
0.001513
 10
5.756485843630072
 20
12.22051170472473
 42
0.001994
 10
5.738470118110072
 20
12.06334955320473
 42
0.001441
 10
5.724275935870074
 20
11.93152752880473
 42
0.019278
 10
5.721072943870073
 20
11.88294230320473
 42
-0.27018
 10
5.696062291630072
 20
11.84260635376473
 42
-0.089859
 10
5.627220435550073
 20
11.82064839928473
 42
-0.02938
 10
5.485802051710072
 20
11.81062171744473
 42
-0.00301
 10
5.150343396430072
 20
11.80860230320473
 10
4.581642226510072
 20
11.80860230320473
 10
4.530976627870072
 20
12.24402230320473
 42
0.002518
 10
4.510061429950073
 20
12.41621035288473
 42
0.003294
 10
4.489114626910072
 20
12.57337505320473
 42
0.002434
 10
4.470062984110072
 20
12.70480494472473
 42
0.030684
 10
4.459615155550073
 20
12.75378230320473
 42
-0.352281
 10
4.477105530910073
 20
12.79448077696473
 42
-0.094763
 10
4.549258278190074
 20
12.81668426584473
 42
-0.025279
 10
4.712486828590073
 20
12.82632994456473
 42
-0.002119
 10
5.135357981710072
 20
12.82812230320473
 10
5.831796681550071
 20
12.82812230320473
  0
LWPOLYLINE
  5
3EA
330
1D
100
AcDbEntity
  8
0
100
AcDbPolyline
 90
       18
 70
     1
 43
0.0
 10
5.676526589230074
 20
11.61275127928473
 42
-0.018417
 10
5.674802580910071
 20
11.56541789680473
 42
-0.005142
 10
5.668618002670073
 20
11.49154037656473
 42
-0.00518
 10
5.659889084830072
 20
11.40804309040473
 42
-0.005423
 10
5.649550514830072
 20
11.32601127928473
 10
5.622536463310073
 20
11.12892230320473
 10
5.145348682990074
 20
11.12892230320473
 10
4.668160945150072
 20
11.12892230320473
 10
4.641830269390073
 20
11.28822230320473
 42
-0.010469
 10
4.631708219950072
 20
11.35858698232473
 42
-0.007268
 10
4.623096886750073
 20
11.43845995984473
 42
-0.007333
 10
4.617066383470072
 20
11.51542280248473
 42
-0.014974
 10
4.615032058750072
 20
11.57597175544473
 10
4.614564566350073
 20
11.70442120768473
 10
5.145526589230072
 20
11.70341175544473
 42
-0.002687
 10
5.483873417230074
 20
11.70095042176473
 42
-0.039134
 10
5.602852293310073
 20
11.69010816640473
 42
-0.154929
 10
5.655736324990073
 20
11.66280971128473
 42
-0.199183
  0
LWPOLYLINE
  5
60A
330
1D
100
AcDbEntity
  8
0
100
AcDbPolyline
 90
       10
 70
     0
 43
0.0
 10
6.187335976622592
 20
15.27385446599779
 42
0.0002509752793309
 10
6.219717414670083
 20
15.55642065112472
 42
0.002245
 10
6.264362450350063
 20
15.96397750936464
 42
0.001383
 10
6.313419883630115
 20
16.44397338760476
 42
-0.000237
 10
6.362336410750106
 20
16.93369153600472
 42
-0.000329
 10
6.40664351803008
 20
17.37224469088473
 42
-0.0002
 10
6.444346047310075
 20
17.74151581192473
 42
-0.004224
 10
6.456546515710072
 20
17.85138230320473
 42
0.01859
 10
6.462845747470071
 20
17.92815487792473
 42
0.0003280079350841
 10
6.462855041057836
 20
17.92836578543128
 42
0.0734002169522301
  0
LWPOLYLINE
  5
674
330
1D
100
AcDbEntity
  8
0
  6
ByBlock
100
AcDbPolyline
 90
        6
 70
     0
 43
0.0
 10
6.476327115282317
 20
11.05839085912499
 10
7.66530509740564
 20
11.05839085912499
 10
7.66530509740564
 20
6.558390859124986
 10
2.66530509740564
 20
6.558390859124986
 10
2.66530509740564
 20
11.05839085912499
 10
3.847065702453087
 20
11.05839085912499
  0
LINE
  5
679
330
1D
100
AcDbEntity
  8
0
  6
ByBlock
100
AcDbLine
 10
6.141880928350072
 20
14.77408934536473
 30
0.0
 11
6.187335976622637
 21
15.27385446599792
 31
0.0
  0
LINE
  5
67A
330
1D
100
AcDbEntity
  8
0
  6
ByBlock
100
AcDbLine
 10
6.035527788836404
 20
14.81566518374131
 30
0.0
 11
6.140369091442049
 21
15.66864280964916
 31
0.0
  0
LWPOLYLINE
  5
67D
330
1D
100
AcDbEntity
  8
0
100
AcDbPolyline
 90
        8
 70
     0
 43
0.0
 10
6.359723164367543
 20
17.95948842277569
 42
0.0665338425714077
 10
6.356244566350073
 20
17.93346266896473
 42
-0.023895
 10
6.353463995470167
 20
17.87531379352498
 42
-0.000309
 10
6.318378276670103
 20
17.51165648944484
 42
-0.000896
 10
6.276741249790154
 20
17.09071766656491
 42
-0.000588
 10
6.227338114270049
 20
16.60596266896473
 42
0.002979
 10
6.157415184670072
 20
15.88572752272473
 42
0.0062292582726084
 10
6.140369091442049
 20
15.66864280964917
 42
0.0062292582726087
  0
LWPOLYLINE
  5
67E
330
1D
100
AcDbEntity
  8
0
100
AcDbPolyline
 90
       47
 70
     0
 43
0.0
 10
6.499668992326917
 20
18.47729850378775
 42
0.0128040344016623
 10
6.508415785150074
 20
18.51841991536473
 42
0.020458
 10
6.533136978670069
 20
18.69003431512471
 42
0.00418
 10
6.561863186590072
 20
18.99539427616473
 42
-0.005977
 10
6.584784332590072
 20
19.23000124840473
 42
-0.008698
 10
6.611059402030075
 20
19.43620698472473
 42
-0.004979
 10
6.637788412750071
 20
19.60829295496473
 42
-0.132943
 10
6.656890139470074
 20
19.65012114184473
 42
-0.06694
 10
6.766033323790072
 20
19.75066093672473
 42
-0.015083
 10
6.977568515950072
 20
19.88941726888473
 42
-0.016374
 10
7.205001338350074
 20
20.01892413328473
 42
-0.038095
 10
7.384862040670075
 20
20.09682782296473
 42
-0.015985
 10
7.559051238190074
 20
20.15082895120473
 42
-0.050945
 10
7.679007833950075
 20
20.17103137720473
 42
-0.058219
 10
7.791737944510071
 20
20.16524759776473
 42
-0.025839
 10
7.937305349950075
 20
20.13281288584473
 42
-0.034913
 10
8.007436176670073
 20
20.10794993656473
 42
-0.020253
 10
8.087926388590073
 20
20.06896982128473
 42
-0.020177
 10
8.165835515710071
 20
20.02312837888473
 42
-0.031839
 10
8.22821246803007
 20
19.97708719552473
 10
8.361138760030071
 20
19.86523710064473
 10
8.332212981070072
 20
19.39461970192474
 42
-0.019869
 10
8.21302960627008
 20
18.21999557896474
 42
-0.015703
 10
7.994094950350072
 20
16.96160446432474
 42
-0.014926
 10
7.68211690267008
 20
15.64993582576476
 42
-0.013525
 10
7.283140197310072
 20
14.31492230320474
 42
-0.008643
 10
7.173759549790073
 20
14.00045552224473
 42
-0.031694
 10
7.088716161550073
 20
13.80763774024473
 42
-0.034652
 10
6.983836312510073
 20
13.63581743992473
 42
-0.011833
 10
6.809097083950098
 20
13.4016023032047
 42
0.000235
 10
6.693531688270025
 20
13.25397355576474
 42
0.000371
 10
6.59454347539014
 20
13.12720507960468
 42
0.000082
 10
6.507681773230071
 20
13.01575858720473
 42
0.016242
 10
6.499380459070071
 20
13.00435903672473
 42
-0.215269
 10
6.47479643347011
 20
12.98929316488474
 42
-0.001577
 10
6.231359950750071
 20
12.95930211496474
 42
-0.001515
 10
5.987249098030073
 20
12.93075946312473
 42
-0.22855
 10
5.961368200510075
 20
12.93979865488473
 42
-0.222996
 10
5.957426226430163
 20
12.95071329616473
 42
-0.000238
 10
5.981285968030079
 20
13.20734941936473
 42
-0.002145
 10
6.009426844030088
 20
13.49514602440473
 42
-0.001308
 10
6.04500554323007
 20
13.83477766000456
 42
0.000418
 10
6.081522030910025
 20
14.17747652152459
 42
0.000637
 10
6.112613780109916
 20
14.47522861192457
 42
0.000223
 10
6.139009152910071
 20
14.73228537208473
 42
0.016647
 10
6.141880928350072
 20
14.77408934536473
 42
-0.0228299239428198
 10
6.14231708088933
 20
14.77946542372337
 42
-0.0608257463071287
  0
LINE
  5
67F
330
1D
100
AcDbEntity
  8
0
  6
ByBlock
100
AcDbLine
 10
6.359723164367543
 20
17.95948842277569
 30
0.0
 11
6.404648242923725
 21
18.46233373689616
 31
0.0
  0
LINE
  5
680
330
1D
100
AcDbEntity
  8
0
  6
ByBlock
100
AcDbLine
 10
6.462845747470071
 20
17.92815487792473
 30
0.0
 11
6.499668992326917
 21
18.47729850378775
 31
0.0
  0
LINE
  5
681
330
1D
100
AcDbEntity
  8
0
  6
ByBlock
100
AcDbLine
 10
6.480765197054422
 20
11.06848390336781
 30
0.0
 11
6.476327115282317
 21
11.05839085912499
 31
0.0
  0
ENDSEC
  0
SECTION
  2
OBJECTS
  0
DICTIONARY
  5
C
330
0
100
AcDbDictionary
281
     1
  3
ACAD_DETAILVIEWSTYLE
350
671
  3
ACAD_GROUP
350
D
  3
ACAD_LAYOUT
350
1A
  3
ACAD_MATERIAL
350
663
  3
ACAD_MLEADERSTYLE
350
669
  3
ACAD_MLINESTYLE
350
17
  3
ACAD_PLOTSETTINGS
350
19
  3
ACAD_PLOTSTYLENAME
350
E
  3
ACAD_SCALELIST
350
624
  3
ACAD_SECTIONVIEWSTYLE
350
672
  3
ACAD_TABLESTYLE
350
667
  3
ACAD_VISUALSTYLE
350
64A
  3
AcDbVariableDictionary
350
66C
  3
ACDB_RECOMPOSE_DATA
350
688
  3
APPDATA
350
66B
  0
SUN
  5
682
330
21
100
AcDbSun
 90
        1
290
     0
 63
     7
421
 16777215
 40
1.0
291
     1
 91
  2455826
 92
 54000000
292
     0
 70
     2
 71
   256
280
     1
  0
DICTIONARY
  5
671
102
{ACAD_REACTORS
330
C
102
}
330
C
100
AcDbDictionary
281
     1
  0
DICTIONARY
  5
D
102
{ACAD_REACTORS
330
C
102
}
330
C
100
AcDbDictionary
281
     1
  0
DICTIONARY
  5
1A
102
{ACAD_REACTORS
330
C
102
}
330
C
100
AcDbDictionary
281
     1
  3
Model
350
1E
  3
Sheet 1
350
1C
  0
DICTIONARY
  5
663
102
{ACAD_REACTORS
330
C
102
}
330
C
100
AcDbDictionary
281
     1
  3
ByBlock
350
665
  3
ByLayer
350
664
  3
Global
350
666
  0
DICTIONARY
  5
669
102
{ACAD_REACTORS
330
C
102
}
330
C
100
AcDbDictionary
281
     1
  3
Standard
350
66A
  0
DICTIONARY
  5
17
102
{ACAD_REACTORS
330
C
102
}
330
C
100
AcDbDictionary
281
     1
  3
Standard
350
18
  0
DICTIONARY
  5
19
102
{ACAD_REACTORS
330
C
102
}
330
C
100
AcDbDictionary
281
     1
  0
ACDBDICTIONARYWDFLT
  5
E
102
{ACAD_REACTORS
330
C
102
}
330
C
100
AcDbDictionary
281
     1
  3
Normal
350
F
100
AcDbDictionaryWithDefault
340
F
  0
DICTIONARY
  5
624
102
{ACAD_REACTORS
330
C
102
}
330
C
100
AcDbDictionary
281
     1
  3
A0
350
625
  3
A1
350
626
  3
A2
350
627
  3
A3
350
628
  3
A4
350
629
  3
A5
350
62A
  3
A6
350
62B
  3
A7
350
62C
  3
A8
350
62D
  3
A9
350
62E
  3
B0
350
62F
  3
B1
350
630
  3
B2
350
631
  3
B3
350
632
  3
B4
350
633
  3
B5
350
634
  3
B6
350
635
  3
B7
350
636
  3
B8
350
637
  3
B9
350
638
  3
C0
350
639
  3
C1
350
63A
  3
C2
350
63B
  3
C3
350
63C
  3
C4
350
63D
  3
C5
350
63E
  3
C6
350
63F
  3
C7
350
640
  3
C8
350
641
  3
C9
350
642
  3
D0
350
643
  3
D1
350
644
  3
D2
350
645
  0
DICTIONARY
  5
672
102
{ACAD_REACTORS
330
C
102
}
330
C
100
AcDbDictionary
281
     1
  0
DICTIONARY
  5
667
102
{ACAD_REACTORS
330
C
102
}
330
C
100
AcDbDictionary
281
     1
  3
Standard
350
668
  0
DICTIONARY
  5
64A
102
{ACAD_REACTORS
330
C
102
}
330
C
100
AcDbDictionary
281
     1
  3
2dWireframe
350
64F
  3
Basic
350
652
  3
Brighten
350
656
  3
ColorChange
350
65A
  3
Conceptual
350
654
  3
Dim
350
655
  3
EdgeColorOff
350
65D
  3
Facepattern
350
659
  3
Flat
350
64B
  3
FlatWithEdges
350
64C
  3
Gouraud
350
64D
  3
GouraudWithEdges
350
64E
  3
Hidden
350
651
  3
JitterOff
350
65B
  3
Linepattern
350
658
  3
OverhangOff
350
65C
  3
Realistic
350
653
  3
Shaded
350
662
  3
Shaded with edges
350
661
  3
Shades of Gray
350
65E
  3
Sketchy
350
65F
  3
Thicken
350
657
  3
Wireframe
350
650
  3
X-Ray
350
660
  0
DICTIONARY
  5
66C
102
{ACAD_REACTORS
330
C
102
}
330
C
100
AcDbDictionary
281
     1
  3
CANNOSCALE
350
66D
  3
CMLEADERSTYLE
350
66F
  3
CTABLESTYLE
350
66E
  3
MSLTSCALE
350
670
  0
XRECORD
  5
688
102
{ACAD_REACTORS
330
C
102
}
330
C
100
AcDbXrecord
280
     1
 90
        1
330
668
  0
DICTIONARY
  5
66B
102
{ACAD_REACTORS
330
C
102
}
330
C
100
AcDbDictionary
281
     1
  0
LAYOUT
  5
1E
102
{ACAD_REACTORS
330
1A
102
}
330
1A
100
AcDbPlotSettings
  1

  2
none_device
  4
na-letter
  6

 40
6.35
 41
6.35
 42
6.35
 43
14.11111111111111
 44
215.9
 45
279.4
 46
0.0
 47
0.0
 48
0.0
 49
0.0
140
0.0
141
0.0
142
1.0
143
1.0
 70
  1712
 72
     1
 73
     0
 74
     0
  7

 75
     0
 76
     0
 77
     2
 78
   300
147
1.0
148
0.0
149
0.0
100
AcDbLayout
  1
Model
 70
     1
 71
     0
 10
0.0
 20
0.0
 11
12.0
 21
9.0
 12
0.0
 22
0.0
 32
0.0
 14
0.0636112496891883
 24
6.558390859124984
 34
0.0
 15
10.19703912212654
 25
24.01516283371607
 35
0.0
146
0.0
 13
0.0
 23
0.0
 33
0.0
 16
1.0
 26
0.0
 36
0.0
 17
0.0
 27
1.0
 37
0.0
 76
     0
330
1D
331
21
  0
LAYOUT
  5
1C
102
{ACAD_REACTORS
330
1A
102
}
330
1A
100
AcDbPlotSettings
  1

  2
none_device
  4

  6

 40
0.0
 41
0.0
 42
0.0
 43
0.0
 44
0.0
 45
0.0
 46
0.0
 47
0.0
 48
0.0
 49
0.0
140
0.0
141
0.0
142
1.0
143
1.0
 70
   688
 72
     0
 73
     0
 74
     5
  7

 75
    16
 76
     0
 77
     2
 78
   300
147
1.0
148
0.0
149
0.0
100
AcDbLayout
  1
Sheet 1
 70
     1
 71
     1
 10
0.0
 20
0.0
 11
0.0
 21
0.0
 12
0.0
 22
0.0
 32
0.0
 14
1.000000000000000E+20
 24
1.000000000000000E+20
 34
1.000000000000000E+20
 15
-1.000000000000000E+20
 25
-1.000000000000000E+20
 35
-1.000000000000000E+20
146
0.0
 13
0.0
 23
0.0
 33
0.0
 16
1.0
 26
0.0
 36
0.0
 17
0.0
 27
1.0
 37
0.0
 76
     0
330
1B
  0
MATERIAL
  5
665
102
{ACAD_REACTORS
330
663
102
}
330
663
100
AcDbMaterial
  1
ByBlock
 72
     1
 94
      127
  0
MATERIAL
  5
664
102
{ACAD_REACTORS
330
663
102
}
330
663
100
AcDbMaterial
  1
ByLayer
 72
     1
 94
      127
  0
MATERIAL
  5
666
102
{ACAD_REACTORS
330
663
102
}
330
663
100
AcDbMaterial
  1
Global
 72
     1
 94
      127
  0
MLEADERSTYLE
  5
66A
102
{ACAD_REACTORS
330
669
102
}
330
669
100
AcDbMLeaderStyle
179
     2
170
     2
171
     1
172
     0
 90
        2
 40
0.0
 41
0.0
173
     1
 91
-1056964608
340
14
 92
       -2
290
     1
 42
0.09
291
     1
 43
0.36
  3
Standard
341
0
 44
0.18
300

342
11
174
     1
178
     1
175
     1
176
     0
 93
-1056964608
 45
0.18
292
     0
297
     0
 46
0.18
343
0
 94
-1056964608
 47
1.0
 49
1.0
140
1.0
293
     1
141
0.0
294
     1
177
     0
142
1.0
295
     0
296
     0
143
0.125
271
     0
272
     9
273
     9
298
     0
  0
MLINESTYLE
  5
18
102
{ACAD_REACTORS
330
17
102
}
330
17
100
AcDbMlineStyle
  2
Standard
 70
     0
  3

 62
   256
 51
90.0
 52
90.0
 71
     2
 49
0.5
 62
   256
  6
BYLAYER
 49
-0.5
 62
   256
  6
BYLAYER
  0
ACDBPLACEHOLDER
  5
F
102
{ACAD_REACTORS
330
E
102
}
330
E
  0
SCALE
  5
625
102
{ACAD_REACTORS
330
624
102
}
330
624
100
AcDbScale
 70
     0
300
1:1
140
1.0
141
1.0
290
     1
  0
SCALE
  5
626
102
{ACAD_REACTORS
330
624
102
}
330
624
100
AcDbScale
 70
     0
300
1:2
140
1.0
141
2.0
290
     0
  0
SCALE
  5
627
102
{ACAD_REACTORS
330
624
102
}
330
624
100
AcDbScale
 70
     0
300
1:4
140
1.0
141
4.0
290
     0
  0
SCALE
  5
628
102
{ACAD_REACTORS
330
624
102
}
330
624
100
AcDbScale
 70
     0
300
1:5
140
1.0
141
5.0
290
     0
  0
SCALE
  5
629
102
{ACAD_REACTORS
330
624
102
}
330
624
100
AcDbScale
 70
     0
300
1:8
140
1.0
141
8.0
290
     0
  0
SCALE
  5
62A
102
{ACAD_REACTORS
330
624
102
}
330
624
100
AcDbScale
 70
     0
300
1:10
140
1.0
141
10.0
290
     0
  0
SCALE
  5
62B
102
{ACAD_REACTORS
330
624
102
}
330
624
100
AcDbScale
 70
     0
300
1:16
140
1.0
141
16.0
290
     0
  0
SCALE
  5
62C
102
{ACAD_REACTORS
330
624
102
}
330
624
100
AcDbScale
 70
     0
300
1:20
140
1.0
141
20.0
290
     0
  0
SCALE
  5
62D
102
{ACAD_REACTORS
330
624
102
}
330
624
100
AcDbScale
 70
     0
300
1:30
140
1.0
141
30.0
290
     0
  0
SCALE
  5
62E
102
{ACAD_REACTORS
330
624
102
}
330
624
100
AcDbScale
 70
     0
300
1:40
140
1.0
141
40.0
290
     0
  0
SCALE
  5
62F
102
{ACAD_REACTORS
330
624
102
}
330
624
100
AcDbScale
 70
     0
300
1:50
140
1.0
141
50.0
290
     0
  0
SCALE
  5
630
102
{ACAD_REACTORS
330
624
102
}
330
624
100
AcDbScale
 70
     0
300
1:100
140
1.0
141
100.0
290
     0
  0
SCALE
  5
631
102
{ACAD_REACTORS
330
624
102
}
330
624
100
AcDbScale
 70
     0
300
2:1
140
2.0
141
1.0
290
     0
  0
SCALE
  5
632
102
{ACAD_REACTORS
330
624
102
}
330
624
100
AcDbScale
 70
     0
300
4:1
140
4.0
141
1.0
290
     0
  0
SCALE
  5
633
102
{ACAD_REACTORS
330
624
102
}
330
624
100
AcDbScale
 70
     0
300
8:1
140
8.0
141
1.0
290
     0
  0
SCALE
  5
634
102
{ACAD_REACTORS
330
624
102
}
330
624
100
AcDbScale
 70
     0
300
10:1
140
10.0
141
1.0
290
     0
  0
SCALE
  5
635
102
{ACAD_REACTORS
330
624
102
}
330
624
100
AcDbScale
 70
     0
300
100:1
140
100.0
141
1.0
290
     0
  0
SCALE
  5
636
102
{ACAD_REACTORS
330
624
102
}
330
624
100
AcDbScale
 70
     0
300
1/128" = 1'-0"
140
0.0078125
141
12.0
290
     0
  0
SCALE
  5
637
102
{ACAD_REACTORS
330
624
102
}
330
624
100
AcDbScale
 70
     0
300
1/64" = 1'-0"
140
0.015625
141
12.0
290
     0
  0
SCALE
  5
638
102
{ACAD_REACTORS
330
624
102
}
330
624
100
AcDbScale
 70
     0
300
1/32" = 1'-0"
140
0.03125
141
12.0
290
     0
  0
SCALE
  5
639
102
{ACAD_REACTORS
330
624
102
}
330
624
100
AcDbScale
 70
     0
300
1/16" = 1'-0"
140
0.0625
141
12.0
290
     0
  0
SCALE
  5
63A
102
{ACAD_REACTORS
330
624
102
}
330
624
100
AcDbScale
 70
     0
300
3/32" = 1'-0"
140
0.09375
141
12.0
290
     0
  0
SCALE
  5
63B
102
{ACAD_REACTORS
330
624
102
}
330
624
100
AcDbScale
 70
     0
300
1/8" = 1'-0"
140
0.125
141
12.0
290
     0
  0
SCALE
  5
63C
102
{ACAD_REACTORS
330
624
102
}
330
624
100
AcDbScale
 70
     0
300
3/16" = 1'-0"
140
0.1875
141
12.0
290
     0
  0
SCALE
  5
63D
102
{ACAD_REACTORS
330
624
102
}
330
624
100
AcDbScale
 70
     0
300
1/4" = 1'-0"
140
0.25
141
12.0
290
     0
  0
SCALE
  5
63E
102
{ACAD_REACTORS
330
624
102
}
330
624
100
AcDbScale
 70
     0
300
3/8" = 1'-0"
140
0.375
141
12.0
290
     0
  0
SCALE
  5
63F
102
{ACAD_REACTORS
330
624
102
}
330
624
100
AcDbScale
 70
     0
300
1/2" = 1'-0"
140
0.5
141
12.0
290
     0
  0
SCALE
  5
640
102
{ACAD_REACTORS
330
624
102
}
330
624
100
AcDbScale
 70
     0
300
3/4" = 1'-0"
140
0.75
141
12.0
290
     0
  0
SCALE
  5
641
102
{ACAD_REACTORS
330
624
102
}
330
624
100
AcDbScale
 70
     0
300
1" = 1'-0"
140
1.0
141
12.0
290
     0
  0
SCALE
  5
642
102
{ACAD_REACTORS
330
624
102
}
330
624
100
AcDbScale
 70
     0
300
1-1/2" = 1'-0"
140
1.5
141
12.0
290
     0
  0
SCALE
  5
643
102
{ACAD_REACTORS
330
624
102
}
330
624
100
AcDbScale
 70
     0
300
3" = 1'-0"
140
3.0
141
12.0
290
     0
  0
SCALE
  5
644
102
{ACAD_REACTORS
330
624
102
}
330
624
100
AcDbScale
 70
     0
300
6" = 1'-0"
140
6.0
141
12.0
290
     0
  0
SCALE
  5
645
102
{ACAD_REACTORS
330
624
102
}
330
624
100
AcDbScale
 70
     0
300
1'-0" = 1'-0"
140
12.0
141
12.0
290
     0
  0
TABLESTYLE
  5
668
102
{ACAD_REACTORS
330
667
102
}
102
{ACAD_XDICTIONARY
360
686
102
}
330
667
100
AcDbTableStyle
  3
Standard
 70
     0
 71
     0
 40
0.06
 41
0.06
280
     0
281
     0
  7
Standard
140
0.18
170
     2
 62
     0
 63
   257
283
     0
 90
        4
 91
        0
  1

274
    -2
284
     1
 64
     0
275
    -2
285
     1
 65
     0
276
    -2
286
     1
 66
     0
277
    -2
287
     1
 67
     0
278
    -2
288
     1
 68
     0
279
    -2
289
     1
 69
     0
  7
Standard
140
0.25
170
     5
 62
     0
 63
   257
283
     0
 90
        4
 91
        0
  1

274
    -2
284
     1
 64
     0
275
    -2
285
     1
 65
     0
276
    -2
286
     1
 66
     0
277
    -2
287
     1
 67
     0
278
    -2
288
     1
 68
     0
279
    -2
289
     1
 69
     0
  7
Standard
140
0.18
170
     5
 62
     0
 63
   257
283
     0
 90
        4
 91
        0
  1

274
    -2
284
     1
 64
     0
275
    -2
285
     1
 65
     0
276
    -2
286
     1
 66
     0
277
    -2
287
     1
 67
     0
278
    -2
288
     1
 68
     0
279
    -2
289
     1
 69
     0
  0
VISUALSTYLE
  5
64F
102
{ACAD_REACTORS
330
64A
102
}
330
64A
100
AcDbVisualStyle
  2
2dWireframe
 70
     4
177
     3
291
     0
 70
    58
 90
        0
176
     1
 90
        2
176
     1
 90
        0
176
     1
 90
        0
176
     1
 40
0.6
176
     1
 40
30.0
176
     1
 62
     7
420
 16777215
176
     1
 90
        1
176
     1
 90
        4
176
     1
 62
     7
176
     1
 62
   257
176
     1
 90
        1
176
     1
 90
        1
176
     1
 40
1.0
176
     1
 90
        0
176
     1
 62
   257
176
     1
 40
1.0
176
     1
 90
        1
176
     1
 90
        6
176
     1
 90
        2
176
     1
 62
     7
176
     1
 90
        5
176
     1
 90
        0
176
     1
 90
        0
176
     1
290
     0
176
     1
 90
        1
176
     1
 40
0.0
176
     1
 90
        0
176
     1
290
     1
176
     1
290
     1
176
     1
290
     0
176
     1
290
     0
176
     1
290
     0
176
     1
290
     0
176
     1
290
     0
176
     1
290
     0
176
     1
290
     0
176
     1
 90
       50
176
     1
 40
0.0
176
     1
 40
1.0
176
     1
 90
        0
176
     1
 62
   178
420
        0
176
     1
 90
       50
176
     1
 90
        3
176
     1
 62
     5
420
      255
176
     1
290
     0
176
     1
 90
       50
176
     1
 90
       50
176
     1
 90
       50
176
     1
290
     0
176
     1
 90
       50
176
     1
 62
   256
176
     0
 40
1.0
176
     0
 90
        2
176
     1
  1
strokes_ogs.tif
176
     1
290
     0
176
     1
 40
1.0
176
     1
 40
1.0
176
     1
  0
VISUALSTYLE
  5
652
102
{ACAD_REACTORS
330
64A
102
}
330
64A
100
AcDbVisualStyle
  2
Basic
 70
     7
177
     3
291
     1
 70
    58
 90
        1
176
     1
 90
        0
176
     1
 90
        1
176
     1
 90
        0
176
     1
 40
0.6
176
     1
 40
30.0
176
     1
 62
     7
420
 16777215
176
     1
 90
        0
176
     1
 90
        4
176
     1
 62
     7
176
     1
 62
   257
176
     1
 90
        1
176
     1
 90
        1
176
     1
 40
1.0
176
     1
 90
        8
176
     1
 62
     7
176
     1
 40
1.0
176
     1
 90
        1
176
     1
 90
        6
176
     1
 90
        2
176
     1
 62
     7
176
     1
 90
        5
176
     1
 90
        0
176
     1
 90
        0
176
     1
290
     0
176
     1
 90
        1
176
     1
 40
0.0
176
     1
 90
        0
176
     1
290
     0
176
     1
290
     1
176
     1
290
     1
176
     1
290
     0
176
     1
290
     0
176
     1
290
     0
176
     1
290
     0
176
     1
290
     0
176
     1
290
     0
176
     1
 90
       50
176
     1
 40
0.0
176
     1
 40
1.0
176
     1
 90
        0
176
     1
 62
   178
420
        0
176
     1
 90
       50
176
     1
 90
        3
176
     1
 62
     5
420
      255
176
     1
290
     0
176
     1
 90
       50
176
     1
 90
       50
176
     1
 90
       50
176
     1
290
     0
176
     1
 90
       50
176
     1
 62
   256
176
     0
 40
1.0
176
     0
 90
        2
176
     1
  1
strokes_ogs.tif
176
     1
290
     0
176
     1
 40
1.0
176
     1
 40
1.0
176
     1
  0
VISUALSTYLE
  5
656
102
{ACAD_REACTORS
330
64A
102
}
330
64A
100
AcDbVisualStyle
  2
Brighten
 70
    12
177
     3
291
     1
 70
    58
 90
        2
176
     1
 90
        2
176
     1
 90
        0
176
     1
 90
        0
176
     1
 40
0.6
176
     1
 40
30.0
176
     1
 62
     7
420
 16777215
176
     1
 90
        1
176
     1
 90
        4
176
     1
 62
     7
176
     1
 62
   257
176
     1
 90
        1
176
     1
 90
        1
176
     1
 40
1.0
176
     1
 90
        8
176
     1
 62
     7
176
     1
 40
1.0
176
     1
 90
        1
176
     1
 90
        6
176
     1
 90
        2
176
     1
 62
     7
176
     1
 90
        5
176
     1
 90
        0
176
     1
 90
        0
176
     1
290
     0
176
     1
 90
        1
176
     1
 40
50.0
176
     1
 90
        0
176
     1
290
     0
176
     1
290
     1
176
     1
290
     1
176
     1
290
     0
176
     1
290
     0
176
     1
290
     0
176
     1
290
     0
176
     1
290
     0
176
     1
290
     0
176
     1
 90
       50
176
     1
 40
0.0
176
     1
 40
1.0
176
     1
 90
        0
176
     1
 62
   178
420
        0
176
     1
 90
       50
176
     1
 90
        3
176
     1
 62
     5
420
      255
176
     1
290
     0
176
     1
 90
       50
176
     1
 90
       50
176
     1
 90
       50
176
     1
290
     0
176
     1
 90
       50
176
     1
 62
   256
176
     0
 40
1.0
176
     0
 90
        2
176
     1
  1
strokes_ogs.tif
176
     1
290
     0
176
     1
 40
1.0
176
     1
 40
1.0
176
     1
  0
VISUALSTYLE
  5
65A
102
{ACAD_REACTORS
330
64A
102
}
330
64A
100
AcDbVisualStyle
  2
ColorChange
 70
    16
177
     3
291
     1
 70
    58
 90
        2
176
     1
 90
        2
176
     1
 90
        3
176
     1
 90
        0
176
     1
 40
0.6
176
     1
 40
30.0
176
     1
 62
     8
420
  8421504
176
     1
 90
        1
176
     1
 90
        4
176
     1
 62
     7
176
     1
 62
   257
176
     1
 90
        1
176
     1
 90
        1
176
     1
 40
1.0
176
     1
 90
        8
176
     1
 62
     8
420
  8421504
176
     1
 40
1.0
176
     1
 90
        1
176
     1
 90
        6
176
     1
 90
        2
176
     1
 62
     7
176
     1
 90
        5
176
     1
 90
        0
176
     1
 90
        0
176
     1
290
     0
176
     1
 90
        1
176
     1
 40
0.0
176
     1
 90
        0
176
     1
290
     0
176
     1
290
     1
176
     1
290
     1
176
     1
290
     0
176
     1
290
     0
176
     1
290
     0
176
     1
290
     0
176
     1
290
     0
176
     1
290
     0
176
     1
 90
       50
176
     1
 40
0.0
176
     1
 40
1.0
176
     1
 90
        0
176
     1
 62
   178
420
        0
176
     1
 90
       50
176
     1
 90
        3
176
     1
 62
     5
420
      255
176
     1
290
     0
176
     1
 90
       50
176
     1
 90
       50
176
     1
 90
       50
176
     1
290
     0
176
     1
 90
       50
176
     1
 62
   256
176
     0
 40
1.0
176
     0
 90
        2
176
     1
  1
strokes_ogs.tif
176
     1
290
     0
176
     1
 40
1.0
176
     1
 40
1.0
176
     1
  0
VISUALSTYLE
  5
654
102
{ACAD_REACTORS
330
64A
102
}
330
64A
100
AcDbVisualStyle
  2
Conceptual
 70
     9
177
     3
291
     0
 70
    58
 90
        3
176
     1
 90
        2
176
     1
 90
        0
176
     1
 90
        0
176
     1
 40
0.6
176
     1
 40
30.0
176
     1
 62
     7
420
 16777215
176
     1
 90
        2
176
     1
 90
        2
176
     1
 62
     7
176
     1
 62
   257
176
     1
 90
        1
176
     1
 90
        1
176
     1
 40
179.0
176
     1
 90
        8
176
     1
 62
     7
176
     1
 40
1.0
176
     1
 90
        1
176
     1
 90
        6
176
     1
 90
        2
176
     1
 62
     7
176
     1
 90
        3
176
     1
 90
        0
176
     1
 90
        0
176
     1
290
     0
176
     1
 90
        1
176
     1
 40
0.0
176
     1
 90
        0
176
     1
290
     0
176
     1
290
     1
176
     1
290
     1
176
     1
290
     0
176
     1
290
     0
176
     1
290
     0
176
     1
290
     0
176
     1
290
     0
176
     1
290
     0
176
     1
 90
       50
176
     1
 40
0.0
176
     1
 40
1.0
176
     1
 90
        0
176
     1
 62
   178
420
        0
176
     1
 90
       50
176
     1
 90
        3
176
     1
 62
     5
420
      255
176
     1
290
     0
176
     1
 90
       50
176
     1
 90
       50
176
     1
 90
       50
176
     1
290
     0
176
     1
 90
       50
176
     1
 62
   256
176
     0
 40
1.0
176
     0
 90
        2
176
     1
  1
strokes_ogs.tif
176
     1
290
     0
176
     1
 40
1.0
176
     1
 40
1.0
176
     1
  0
VISUALSTYLE
  5
655
102
{ACAD_REACTORS
330
64A
102
}
330
64A
100
AcDbVisualStyle
  2
Dim
 70
    11
177
     3
291
     1
 70
    58
 90
        2
176
     1
 90
        2
176
     1
 90
        0
176
     1
 90
        0
176
     1
 40
0.6
176
     1
 40
30.0
176
     1
 62
     7
420
 16777215
176
     1
 90
        1
176
     1
 90
        4
176
     1
 62
     7
176
     1
 62
   257
176
     1
 90
        1
176
     1
 90
        1
176
     1
 40
1.0
176
     1
 90
        8
176
     1
 62
     7
176
     1
 40
1.0
176
     1
 90
        1
176
     1
 90
        6
176
     1
 90
        2
176
     1
 62
     7
176
     1
 90
        5
176
     1
 90
        0
176
     1
 90
        0
176
     1
290
     0
176
     1
 90
        1
176
     1
 40
-50.0
176
     1
 90
        0
176
     1
290
     0
176
     1
290
     1
176
     1
290
     1
176
     1
290
     0
176
     1
290
     0
176
     1
290
     0
176
     1
290
     0
176
     1
290
     0
176
     1
290
     0
176
     1
 90
       50
176
     1
 40
0.0
176
     1
 40
1.0
176
     1
 90
        0
176
     1
 62
   178
420
        0
176
     1
 90
       50
176
     1
 90
        3
176
     1
 62
     5
420
      255
176
     1
290
     0
176
     1
 90
       50
176
     1
 90
       50
176
     1
 90
       50
176
     1
290
     0
176
     1
 90
       50
176
     1
 62
   256
176
     0
 40
1.0
176
     0
 90
        2
176
     1
  1
strokes_ogs.tif
176
     1
290
     0
176
     1
 40
1.0
176
     1
 40
1.0
176
     1
  0
VISUALSTYLE
  5
65D
102
{ACAD_REACTORS
330
64A
102
}
330
64A
100
AcDbVisualStyle
  2
EdgeColorOff
 70
    22
177
     3
291
     1
 70
    58
 90
        2
176
     0
 90
        2
176
     0
 90
        0
176
     0
 90
        0
176
     0
 40
0.6
176
     0
 40
30.0
176
     0
 62
     7
420
 16777215
176
     0
 90
        1
176
     0
 90
        4
176
     0
 62
     7
176
     0
 62
   257
176
     0
 90
        1
176
     0
 90
        1
176
     0
 40
1.0
176
     0
 90
        8
176
     2
 62
     7
176
     0
 40
1.0
176
     0
 90
        1
176
     0
 90
        6
176
     0
 90
        2
176
     0
 62
     7
176
     0
 90
        5
176
     0
 90
        0
176
     0
 90
        0
176
     0
290
     0
176
     0
 90
        1
176
     0
 40
0.0
176
     0
 90
        0
176
     0
290
     0
176
     0
290
     1
176
     0
290
     1
176
     0
290
     0
176
     0
290
     0
176
     0
290
     0
176
     0
290
     0
176
     0
290
     0
176
     0
290
     0
176
     0
 90
       50
176
     0
 40
0.0
176
     0
 40
1.0
176
     0
 90
        0
176
     0
 62
   178
420
        0
176
     0
 90
       50
176
     0
 90
        3
176
     0
 62
     5
420
      255
176
     0
290
     0
176
     0
 90
       50
176
     0
 90
       50
176
     0
 90
       50
176
     0
290
     0
176
     0
 90
       50
176
     0
 62
   256
176
     0
 40
1.0
176
     0
 90
        2
176
     0
  1
strokes_ogs.tif
176
     0
290
     0
176
     0
 40
1.0
176
     0
 40
1.0
176
     0
  0
VISUALSTYLE
  5
659
102
{ACAD_REACTORS
330
64A
102
}
330
64A
100
AcDbVisualStyle
  2
Facepattern
 70
    15
177
     3
291
     1
 70
    58
 90
        2
176
     1
 90
        2
176
     1
 90
        0
176
     1
 90
        0
176
     1
 40
0.6
176
     1
 40
30.0
176
     1
 62
     7
420
 16777215
176
     1
 90
        1
176
     1
 90
        4
176
     1
 62
     7
176
     1
 62
   257
176
     1
 90
        1
176
     1
 90
        1
176
     1
 40
1.0
176
     1
 90
        8
176
     1
 62
     7
176
     1
 40
1.0
176
     1
 90
        1
176
     1
 90
        6
176
     1
 90
        2
176
     1
 62
     7
176
     1
 90
        5
176
     1
 90
        0
176
     1
 90
        0
176
     1
290
     0
176
     1
 90
        1
176
     1
 40
0.0
176
     1
 90
        0
176
     1
290
     0
176
     1
290
     1
176
     1
290
     1
176
     1
290
     0
176
     1
290
     0
176
     1
290
     0
176
     1
290
     0
176
     1
290
     0
176
     1
290
     0
176
     1
 90
       50
176
     1
 40
0.0
176
     1
 40
1.0
176
     1
 90
        0
176
     1
 62
   178
420
        0
176
     1
 90
       50
176
     1
 90
        3
176
     1
 62
     5
420
      255
176
     1
290
     0
176
     1
 90
       50
176
     1
 90
       50
176
     1
 90
       50
176
     1
290
     0
176
     1
 90
       50
176
     1
 62
   256
176
     0
 40
1.0
176
     0
 90
        2
176
     1
  1
strokes_ogs.tif
176
     1
290
     0
176
     1
 40
1.0
176
     1
 40
1.0
176
     1
  0
VISUALSTYLE
  5
64B
102
{ACAD_REACTORS
330
64A
102
}
330
64A
100
AcDbVisualStyle
  2
Flat
 70
     0
177
     3
291
     1
 70
    58
 90
        2
176
     1
 90
        1
176
     1
 90
        1
176
     1
 90
        2
176
     1
 40
0.6
176
     1
 40
30.0
176
     1
 62
     7
420
 16777215
176
     1
 90
        0
176
     1
 90
        0
176
     1
 62
     7
176
     1
 62
   257
176
     1
 90
        1
176
     1
 90
        1
176
     1
 40
1.0
176
     1
 90
        8
176
     1
 62
     7
176
     1
 40
1.0
176
     1
 90
        1
176
     1
 90
        6
176
     1
 90
        2
176
     1
 62
     7
176
     1
 90
        5
176
     1
 90
        0
176
     1
 90
        0
176
     1
290
     0
176
     1
 90
       13
176
     1
 40
0.0
176
     1
 90
        0
176
     1
290
     0
176
     1
290
     1
176
     1
290
     1
176
     1
290
     0
176
     1
290
     0
176
     1
290
     0
176
     1
290
     0
176
     1
290
     0
176
     1
290
     0
176
     1
 90
       50
176
     1
 40
0.0
176
     1
 40
1.0
176
     1
 90
        0
176
     1
 62
   178
420
        0
176
     1
 90
       50
176
     1
 90
        3
176
     1
 62
     5
420
      255
176
     1
290
     0
176
     1
 90
       50
176
     1
 90
       50
176
     1
 90
       50
176
     1
290
     0
176
     1
 90
       50
176
     1
 62
   256
176
     0
 40
1.0
176
     0
 90
        2
176
     1
  1
strokes_ogs.tif
176
     1
290
     0
176
     1
 40
1.0
176
     1
 40
1.0
176
     1
  0
VISUALSTYLE
  5
64C
102
{ACAD_REACTORS
330
64A
102
}
330
64A
100
AcDbVisualStyle
  2
FlatWithEdges
 70
     1
177
     3
291
     1
 70
    58
 90
        2
176
     1
 90
        1
176
     1
 90
        1
176
     1
 90
        2
176
     1
 40
0.6
176
     1
 40
30.0
176
     1
 62
     7
420
 16777215
176
     1
 90
        1
176
     1
 90
        0
176
     1
 62
     7
176
     1
 62
   257
176
     1
 90
        1
176
     1
 90
        1
176
     1
 40
1.0
176
     1
 90
        0
176
     1
 62
   257
176
     1
 40
1.0
176
     1
 90
        1
176
     1
 90
        6
176
     1
 90
        2
176
     1
 62
     7
176
     1
 90
        5
176
     1
 90
        0
176
     1
 90
        0
176
     1
290
     0
176
     1
 90
       13
176
     1
 40
0.0
176
     1
 90
        0
176
     1
290
     0
176
     1
290
     1
176
     1
290
     1
176
     1
290
     0
176
     1
290
     0
176
     1
290
     0
176
     1
290
     0
176
     1
290
     0
176
     1
290
     0
176
     1
 90
       50
176
     1
 40
0.0
176
     1
 40
1.0
176
     1
 90
        0
176
     1
 62
   178
420
        0
176
     1
 90
       50
176
     1
 90
        3
176
     1
 62
     5
420
      255
176
     1
290
     0
176
     1
 90
       50
176
     1
 90
       50
176
     1
 90
       50
176
     1
290
     0
176
     1
 90
       50
176
     1
 62
   256
176
     0
 40
1.0
176
     0
 90
        2
176
     1
  1
strokes_ogs.tif
176
     1
290
     0
176
     1
 40
1.0
176
     1
 40
1.0
176
     1
  0
VISUALSTYLE
  5
64D
102
{ACAD_REACTORS
330
64A
102
}
330
64A
100
AcDbVisualStyle
  2
Gouraud
 70
     2
177
     3
291
     1
 70
    58
 90
        2
176
     1
 90
        2
176
     1
 90
        1
176
     1
 90
        2
176
     1
 40
0.6
176
     1
 40
30.0
176
     1
 62
     7
420
 16777215
176
     1
 90
        0
176
     1
 90
        0
176
     1
 62
     7
176
     1
 62
   257
176
     1
 90
        1
176
     1
 90
        1
176
     1
 40
1.0
176
     1
 90
        0
176
     1
 62
     7
176
     1
 40
1.0
176
     1
 90
        1
176
     1
 90
        6
176
     1
 90
        2
176
     1
 62
     7
176
     1
 90
        5
176
     1
 90
        0
176
     1
 90
        0
176
     1
290
     0
176
     1
 90
       13
176
     1
 40
0.0
176
     1
 90
        0
176
     1
290
     0
176
     1
290
     1
176
     1
290
     1
176
     1
290
     0
176
     1
290
     0
176
     1
290
     0
176
     1
290
     0
176
     1
290
     0
176
     1
290
     0
176
     1
 90
       50
176
     1
 40
0.0
176
     1
 40
1.0
176
     1
 90
        0
176
     1
 62
   178
420
        0
176
     1
 90
       50
176
     1
 90
        3
176
     1
 62
     5
420
      255
176
     1
290
     0
176
     1
 90
       50
176
     1
 90
       50
176
     1
 90
       50
176
     1
290
     0
176
     1
 90
       50
176
     1
 62
   256
176
     0
 40
1.0
176
     0
 90
        2
176
     1
  1
strokes_ogs.tif
176
     1
290
     0
176
     1
 40
1.0
176
     1
 40
1.0
176
     1
  0
VISUALSTYLE
  5
64E
102
{ACAD_REACTORS
330
64A
102
}
330
64A
100
AcDbVisualStyle
  2
GouraudWithEdges
 70
     3
177
     3
291
     1
 70
    58
 90
        2
176
     1
 90
        2
176
     1
 90
        1
176
     1
 90
        2
176
     1
 40
0.6
176
     1
 40
30.0
176
     1
 62
     7
420
 16777215
176
     1
 90
        1
176
     1
 90
        0
176
     1
 62
     7
176
     1
 62
   257
176
     1
 90
        1
176
     1
 90
        1
176
     1
 40
1.0
176
     1
 90
        0
176
     1
 62
   257
176
     1
 40
1.0
176
     1
 90
        1
176
     1
 90
        6
176
     1
 90
        2
176
     1
 62
     7
176
     1
 90
        5
176
     1
 90
        0
176
     1
 90
        0
176
     1
290
     0
176
     1
 90
       13
176
     1
 40
0.0
176
     1
 90
        0
176
     1
290
     0
176
     1
290
     1
176
     1
290
     1
176
     1
290
     0
176
     1
290
     0
176
     1
290
     0
176
     1
290
     0
176
     1
290
     0
176
     1
290
     0
176
     1
 90
       50
176
     1
 40
0.0
176
     1
 40
1.0
176
     1
 90
        0
176
     1
 62
   178
420
        0
176
     1
 90
       50
176
     1
 90
        3
176
     1
 62
     5
420
      255
176
     1
290
     0
176
     1
 90
       50
176
     1
 90
       50
176
     1
 90
       50
176
     1
290
     0
176
     1
 90
       50
176
     1
 62
   256
176
     0
 40
1.0
176
     0
 90
        2
176
     1
  1
strokes_ogs.tif
176
     1
290
     0
176
     1
 40
1.0
176
     1
 40
1.0
176
     1
  0
VISUALSTYLE
  5
651
102
{ACAD_REACTORS
330
64A
102
}
330
64A
100
AcDbVisualStyle
  2
Hidden
 70
     6
177
     3
291
     0
 70
    58
 90
        1
176
     1
 90
        2
176
     1
 90
        2
176
     1
 90
        0
176
     1
 40
0.6
176
     1
 40
30.0
176
     1
 62
     7
420
 16777215
176
     1
 90
        2
176
     1
 90
        2
176
     1
 62
     7
176
     1
 62
   257
176
     1
 90
        2
176
     1
 90
        1
176
     1
 40
40.0
176
     1
 90
        0
176
     1
 62
   257
176
     1
 40
1.0
176
     1
 90
        1
176
     1
 90
        6
176
     1
 90
        2
176
     1
 62
     7
176
     1
 90
        3
176
     1
 90
        0
176
     1
 90
        0
176
     1
290
     0
176
     1
 90
        1
176
     1
 40
0.0
176
     1
 90
        0
176
     1
290
     0
176
     1
290
     1
176
     1
290
     1
176
     1
290
     0
176
     1
290
     0
176
     1
290
     0
176
     1
290
     0
176
     1
290
     0
176
     1
290
     0
176
     1
 90
       50
176
     1
 40
0.0
176
     1
 40
1.0
176
     1
 90
        0
176
     1
 62
   178
420
        0
176
     1
 90
       50
176
     1
 90
        3
176
     1
 62
     5
420
      255
176
     1
290
     0
176
     1
 90
       50
176
     1
 90
       50
176
     1
 90
       50
176
     1
290
     0
176
     1
 90
       50
176
     1
 62
   256
176
     0
 40
1.0
176
     0
 90
        2
176
     1
  1
strokes_ogs.tif
176
     1
290
     0
176
     1
 40
1.0
176
     1
 40
1.0
176
     1
  0
VISUALSTYLE
  5
65B
102
{ACAD_REACTORS
330
64A
102
}
330
64A
100
AcDbVisualStyle
  2
JitterOff
 70
    20
177
     3
291
     1
 70
    58
 90
        2
176
     0
 90
        2
176
     0
 90
        0
176
     0
 90
        0
176
     0
 40
0.6
176
     0
 40
30.0
176
     0
 62
     7
420
 16777215
176
     0
 90
        1
176
     0
 90
        4
176
     0
 62
     7
176
     0
 62
   257
176
     0
 90
        1
176
     0
 90
        1
176
     0
 40
1.0
176
     0
 90
       10
176
     2
 62
     7
176
     0
 40
1.0
176
     0
 90
        1
176
     0
 90
        6
176
     0
 90
        2
176
     0
 62
     7
176
     0
 90
        5
176
     0
 90
        0
176
     0
 90
        0
176
     0
290
     0
176
     0
 90
        1
176
     0
 40
0.0
176
     0
 90
        0
176
     0
290
     0
176
     0
290
     1
176
     0
290
     1
176
     0
290
     0
176
     0
290
     0
176
     0
290
     0
176
     0
290
     0
176
     0
290
     0
176
     0
290
     0
176
     0
 90
       50
176
     0
 40
0.0
176
     0
 40
1.0
176
     0
 90
        0
176
     0
 62
   178
420
        0
176
     0
 90
       50
176
     0
 90
        3
176
     0
 62
     5
420
      255
176
     0
290
     0
176
     0
 90
       50
176
     0
 90
       50
176
     0
 90
       50
176
     0
290
     0
176
     0
 90
       50
176
     0
 62
   256
176
     0
 40
1.0
176
     0
 90
        2
176
     0
  1
strokes_ogs.tif
176
     0
290
     0
176
     0
 40
1.0
176
     0
 40
1.0
176
     0
  0
VISUALSTYLE
  5
658
102
{ACAD_REACTORS
330
64A
102
}
330
64A
100
AcDbVisualStyle
  2
Linepattern
 70
    14
177
     3
291
     1
 70
    58
 90
        2
176
     1
 90
        2
176
     1
 90
        0
176
     1
 90
        0
176
     1
 40
0.6
176
     1
 40
30.0
176
     1
 62
     7
420
 16777215
176
     1
 90
        1
176
     1
 90
        4
176
     1
 62
     7
176
     1
 62
   257
176
     1
 90
        7
176
     1
 90
        7
176
     1
 40
1.0
176
     1
 90
        8
176
     1
 62
     7
176
     1
 40
1.0
176
     1
 90
        1
176
     1
 90
        6
176
     1
 90
        2
176
     1
 62
     7
176
     1
 90
        5
176
     1
 90
        0
176
     1
 90
        0
176
     1
290
     0
176
     1
 90
        1
176
     1
 40
0.0
176
     1
 90
        0
176
     1
290
     0
176
     1
290
     1
176
     1
290
     1
176
     1
290
     0
176
     1
290
     0
176
     1
290
     0
176
     1
290
     0
176
     1
290
     0
176
     1
290
     0
176
     1
 90
       50
176
     1
 40
0.0
176
     1
 40
1.0
176
     1
 90
        0
176
     1
 62
   178
420
        0
176
     1
 90
       50
176
     1
 90
        3
176
     1
 62
     5
420
      255
176
     1
290
     0
176
     1
 90
       50
176
     1
 90
       50
176
     1
 90
       50
176
     1
290
     0
176
     1
 90
       50
176
     1
 62
   256
176
     0
 40
1.0
176
     0
 90
        2
176
     1
  1
strokes_ogs.tif
176
     1
290
     0
176
     1
 40
1.0
176
     1
 40
1.0
176
     1
  0
VISUALSTYLE
  5
65C
102
{ACAD_REACTORS
330
64A
102
}
330
64A
100
AcDbVisualStyle
  2
OverhangOff
 70
    21
177
     3
291
     1
 70
    58
 90
        2
176
     0
 90
        2
176
     0
 90
        0
176
     0
 90
        0
176
     0
 40
0.6
176
     0
 40
30.0
176
     0
 62
     7
420
 16777215
176
     0
 90
        1
176
     0
 90
        4
176
     0
 62
     7
176
     0
 62
   257
176
     0
 90
        1
176
     0
 90
        1
176
     0
 40
1.0
176
     0
 90
        9
176
     2
 62
     7
176
     0
 40
1.0
176
     0
 90
        1
176
     0
 90
        6
176
     0
 90
        2
176
     0
 62
     7
176
     0
 90
        5
176
     0
 90
        0
176
     0
 90
        0
176
     0
290
     0
176
     0
 90
        1
176
     0
 40
0.0
176
     0
 90
        0
176
     0
290
     0
176
     0
290
     1
176
     0
290
     1
176
     0
290
     0
176
     0
290
     0
176
     0
290
     0
176
     0
290
     0
176
     0
290
     0
176
     0
290
     0
176
     0
 90
       50
176
     0
 40
0.0
176
     0
 40
1.0
176
     0
 90
        0
176
     0
 62
   178
420
        0
176
     0
 90
       50
176
     0
 90
        3
176
     0
 62
     5
420
      255
176
     0
290
     0
176
     0
 90
       50
176
     0
 90
       50
176
     0
 90
       50
176
     0
290
     0
176
     0
 90
       50
176
     0
 62
   256
176
     0
 40
1.0
176
     0
 90
        2
176
     0
  1
strokes_ogs.tif
176
     0
290
     0
176
     0
 40
1.0
176
     0
 40
1.0
176
     0
  0
VISUALSTYLE
  5
653
102
{ACAD_REACTORS
330
64A
102
}
330
64A
100
AcDbVisualStyle
  2
Realistic
 70
     8
177
     3
291
     0
 70
    58
 90
        2
176
     1
 90
        3
176
     1
 90
        0
176
     1
 90
        2
176
     1
 40
0.6
176
     1
 40
30.0
176
     1
 62
     7
420
 16777215
176
     1
 90
        0
176
     1
 90
        0
176
     1
 62
     7
176
     1
 62
   257
176
     1
 90
        1
176
     1
 90
        1
176
     1
 40
1.0
176
     1
 90
        8
176
     1
 62
   257
176
     1
 40
1.0
176
     1
 90
        1
176
     1
 90
        6
176
     1
 90
        2
176
     1
 62
     7
176
     1
 90
        3
176
     1
 90
        0
176
     1
 90
        0
176
     1
290
     0
176
     1
 90
       13
176
     1
 40
0.0
176
     1
 90
        0
176
     1
290
     0
176
     1
290
     1
176
     1
290
     1
176
     1
290
     0
176
     1
290
     0
176
     1
290
     0
176
     1
290
     0
176
     1
290
     0
176
     1
290
     0
176
     1
 90
       50
176
     1
 40
0.0
176
     1
 40
1.0
176
     1
 90
        0
176
     1
 62
   178
420
        0
176
     1
 90
       50
176
     1
 90
        3
176
     1
 62
     5
420
      255
176
     1
290
     0
176
     1
 90
       50
176
     1
 90
       50
176
     1
 90
       50
176
     1
290
     0
176
     1
 90
       50
176
     1
 62
   256
176
     0
 40
1.0
176
     0
 90
        2
176
     1
  1
strokes_ogs.tif
176
     1
290
     0
176
     1
 40
1.0
176
     1
 40
1.0
176
     1
  0
VISUALSTYLE
  5
662
102
{ACAD_REACTORS
330
64A
102
}
330
64A
100
AcDbVisualStyle
  2
Shaded
 70
    27
177
     3
291
     0
 70
    58
 90
        2
176
     1
 90
        2
176
     1
 90
        1
176
     1
 90
        2
176
     1
 40
0.6
176
     1
 40
30.0
176
     1
 62
     7
420
 16777215
176
     1
 90
        0
176
     1
 90
        4
176
     1
 62
     7
176
     1
 62
   257
176
     1
 90
        1
176
     1
 90
        1
176
     1
 40
1.0
176
     1
 90
        8
176
     1
 62
   257
176
     1
 40
1.0
176
     1
 90
        1
176
     1
 90
        6
176
     1
 90
        2
176
     1
 62
     8
420
  7895160
176
     1
 90
        3
176
     1
 90
        0
176
     1
 90
        0
176
     1
290
     0
176
     1
 90
        5
176
     1
 40
0.0
176
     1
 90
        0
176
     1
290
     0
176
     1
290
     1
176
     1
290
     1
176
     1
290
     0
176
     1
290
     0
176
     1
290
     0
176
     1
290
     0
176
     1
290
     0
176
     1
290
     0
176
     1
 90
       50
176
     1
 40
0.0
176
     1
 40
1.0
176
     1
 90
        0
176
     1
 62
   178
420
        0
176
     1
 90
       50
176
     1
 90
        3
176
     1
 62
     5
420
      255
176
     1
290
     0
176
     1
 90
       50
176
     1
 90
       50
176
     1
 90
       50
176
     1
290
     0
176
     1
 90
       50
176
     1
 62
   256
176
     0
 40
1.0
176
     0
 90
        2
176
     1
  1
strokes_ogs.tif
176
     1
290
     0
176
     1
 40
1.0
176
     1
 40
1.0
176
     1
  0
VISUALSTYLE
  5
661
102
{ACAD_REACTORS
330
64A
102
}
330
64A
100
AcDbVisualStyle
  2
Shaded with edges
 70
    26
177
     3
291
     0
 70
    58
 90
        2
176
     1
 90
        2
176
     1
 90
        1
176
     1
 90
        2
176
     1
 40
0.6
176
     1
 40
30.0
176
     1
 62
     7
420
 16777215
176
     1
 90
        1
176
     1
 90
       10
176
     1
 62
     7
176
     1
 62
   257
176
     1
 90
        2
176
     1
 90
        1
176
     1
 40
1.0
176
     1
 90
        8
176
     1
 62
   257
176
     1
 40
1.0
176
     1
 90
        1
176
     1
 90
        6
176
     1
 90
        2
176
     1
 62
     7
176
     1
 90
        3
176
     1
 90
        0
176
     1
 90
        0
176
     1
290
     0
176
     1
 90
        5
176
     1
 40
0.0
176
     1
 90
        0
176
     1
290
     0
176
     1
290
     1
176
     1
290
     1
176
     1
290
     0
176
     1
290
     0
176
     1
290
     0
176
     1
290
     0
176
     1
290
     0
176
     1
290
     0
176
     1
 90
       50
176
     1
 40
0.0
176
     1
 40
1.0
176
     1
 90
        0
176
     1
 62
   178
420
        0
176
     1
 90
       50
176
     1
 90
        3
176
     1
 62
     5
420
      255
176
     1
290
     0
176
     1
 90
       50
176
     1
 90
       50
176
     1
 90
       50
176
     1
290
     0
176
     1
 90
       50
176
     1
 62
   256
176
     0
 40
1.0
176
     0
 90
        2
176
     1
  1
strokes_ogs.tif
176
     1
290
     0
176
     1
 40
1.0
176
     1
 40
1.0
176
     1
  0
VISUALSTYLE
  5
65E
102
{ACAD_REACTORS
330
64A
102
}
330
64A
100
AcDbVisualStyle
  2
Shades of Gray
 70
    23
177
     3
291
     0
 70
    58
 90
        2
176
     1
 90
        2
176
     1
 90
        3
176
     1
 90
        0
176
     1
 40
0.6
176
     1
 40
30.0
176
     1
 62
     7
420
 16777215
176
     1
 90
        2
176
     1
 90
        2
176
     1
 62
     7
176
     1
 62
     7
176
     1
 90
        1
176
     1
 90
        1
176
     1
 40
40.0
176
     1
 90
        8
176
     1
 62
     7
176
     1
 40
1.0
176
     1
 90
        1
176
     1
 90
        6
176
     1
 90
        2
176
     1
 62
     7
176
     1
 90
        3
176
     1
 90
        0
176
     1
 90
        0
176
     1
290
     0
176
     1
 90
        1
176
     1
 40
0.0
176
     1
 90
        0
176
     1
290
     0
176
     1
290
     1
176
     1
290
     1
176
     1
290
     0
176
     1
290
     0
176
     1
290
     0
176
     1
290
     0
176
     1
290
     0
176
     1
290
     0
176
     1
 90
       50
176
     1
 40
0.0
176
     1
 40
1.0
176
     1
 90
        0
176
     1
 62
   178
420
        0
176
     1
 90
       50
176
     1
 90
        3
176
     1
 62
     5
420
      255
176
     1
290
     0
176
     1
 90
       50
176
     1
 90
       50
176
     1
 90
       50
176
     1
290
     0
176
     1
 90
       50
176
     1
 62
   256
176
     0
 40
1.0
176
     0
 90
        2
176
     1
  1
strokes_ogs.tif
176
     1
290
     0
176
     1
 40
1.0
176
     1
 40
1.0
176
     1
  0
VISUALSTYLE
  5
65F
102
{ACAD_REACTORS
330
64A
102
}
330
64A
100
AcDbVisualStyle
  2
Sketchy
 70
    24
177
     3
291
     0
 70
    58
 90
        1
176
     1
 90
        2
176
     1
 90
        2
176
     1
 90
        0
176
     1
 40
0.6
176
     1
 40
30.0
176
     1
 62
     7
420
 16777215
176
     1
 90
        2
176
     1
 90
        2
176
     1
 62
     7
176
     1
 62
     7
176
     1
 90
        1
176
     1
 90
        1
176
     1
 40
40.0
176
     1
 90
       11
176
     1
 62
     7
176
     1
 40
1.0
176
     1
 90
        1
176
     1
 90
        6
176
     1
 90
        2
176
     1
 62
     7
176
     1
 90
        6
176
     1
 90
        0
176
     1
 90
        0
176
     1
290
     0
176
     1
 90
        1
176
     1
 40
0.0
176
     1
 90
        0
176
     1
290
     0
176
     1
290
     1
176
     1
290
     1
176
     1
290
     0
176
     1
290
     0
176
     1
290
     0
176
     1
290
     0
176
     1
290
     0
176
     1
290
     0
176
     1
 90
       50
176
     1
 40
0.0
176
     1
 40
1.0
176
     1
 90
        0
176
     1
 62
   178
420
        0
176
     1
 90
       50
176
     1
 90
        3
176
     1
 62
     5
420
      255
176
     1
290
     0
176
     1
 90
       50
176
     1
 90
       50
176
     1
 90
       50
176
     1
290
     0
176
     1
 90
       50
176
     1
 62
   256
176
     0
 40
1.0
176
     0
 90
        2
176
     1
  1
strokes_ogs.tif
176
     1
290
     0
176
     1
 40
1.0
176
     1
 40
1.0
176
     1
  0
VISUALSTYLE
  5
657
102
{ACAD_REACTORS
330
64A
102
}
330
64A
100
AcDbVisualStyle
  2
Thicken
 70
    13
177
     3
291
     1
 70
    58
 90
        2
176
     1
 90
        2
176
     1
 90
        0
176
     1
 90
        0
176
     1
 40
0.6
176
     1
 40
30.0
176
     1
 62
     7
420
 16777215
176
     1
 90
        1
176
     1
 90
        4
176
     1
 62
     7
176
     1
 62
   257
176
     1
 90
        1
176
     1
 90
        1
176
     1
 40
1.0
176
     1
 90
       12
176
     1
 62
     7
176
     1
 40
1.0
176
     1
 90
        1
176
     1
 90
        6
176
     1
 90
        2
176
     1
 62
     7
176
     1
 90
        5
176
     1
 90
        0
176
     1
 90
        0
176
     1
290
     0
176
     1
 90
        1
176
     1
 40
0.0
176
     1
 90
        0
176
     1
290
     0
176
     1
290
     1
176
     1
290
     1
176
     1
290
     0
176
     1
290
     0
176
     1
290
     0
176
     1
290
     0
176
     1
290
     0
176
     1
290
     0
176
     1
 90
       50
176
     1
 40
0.0
176
     1
 40
1.0
176
     1
 90
        0
176
     1
 62
   178
420
        0
176
     1
 90
       50
176
     1
 90
        3
176
     1
 62
     5
420
      255
176
     1
290
     0
176
     1
 90
       50
176
     1
 90
       50
176
     1
 90
       50
176
     1
290
     0
176
     1
 90
       50
176
     1
 62
   256
176
     0
 40
1.0
176
     0
 90
        2
176
     1
  1
strokes_ogs.tif
176
     1
290
     0
176
     1
 40
1.0
176
     1
 40
1.0
176
     1
  0
VISUALSTYLE
  5
650
102
{ACAD_REACTORS
330
64A
102
}
330
64A
100
AcDbVisualStyle
  2
Wireframe
 70
     5
177
     3
291
     0
 70
    58
 90
        0
176
     1
 90
        2
176
     1
 90
        0
176
     1
 90
        0
176
     1
 40
0.6
176
     1
 40
30.0
176
     1
 62
     7
420
 16777215
176
     1
 90
        1
176
     1
 90
        4
176
     1
 62
     7
176
     1
 62
   257
176
     1
 90
        1
176
     1
 90
        1
176
     1
 40
1.0
176
     1
 90
        0
176
     1
 62
   257
176
     1
 40
1.0
176
     1
 90
        1
176
     1
 90
        6
176
     1
 90
        2
176
     1
 62
     7
176
     1
 90
        3
176
     1
 90
        0
176
     1
 90
        0
176
     1
290
     0
176
     1
 90
        1
176
     1
 40
0.0
176
     1
 90
        0
176
     1
290
     0
176
     1
290
     1
176
     1
290
     1
176
     1
290
     0
176
     1
290
     0
176
     1
290
     0
176
     1
290
     0
176
     1
290
     0
176
     1
290
     0
176
     1
 90
       50
176
     1
 40
0.0
176
     1
 40
1.0
176
     1
 90
        0
176
     1
 62
   178
420
        0
176
     1
 90
       50
176
     1
 90
        3
176
     1
 62
     5
420
      255
176
     1
290
     0
176
     1
 90
       50
176
     1
 90
       50
176
     1
 90
       50
176
     1
290
     0
176
     1
 90
       50
176
     1
 62
   256
176
     0
 40
1.0
176
     0
 90
        2
176
     1
  1
strokes_ogs.tif
176
     1
290
     0
176
     1
 40
1.0
176
     1
 40
1.0
176
     1
  0
VISUALSTYLE
  5
660
102
{ACAD_REACTORS
330
64A
102
}
330
64A
100
AcDbVisualStyle
  2
X-Ray
 70
    25
177
     3
291
     0
 70
    58
 90
        2
176
     1
 90
        2
176
     1
 90
        1
176
     1
 90
        1
176
     1
 40
0.5
176
     1
 40
30.0
176
     1
 62
     7
420
 16777215
176
     1
 90
        1
176
     1
 90
        0
176
     1
 62
     7
176
     1
 62
   257
176
     1
 90
        1
176
     1
 90
        1
176
     1
 40
1.0
176
     1
 90
        8
176
     1
 62
     7
176
     1
 40
1.0
176
     1
 90
        1
176
     1
 90
        6
176
     1
 90
        2
176
     1
 62
     7
176
     1
 90
        3
176
     1
 90
        0
176
     1
 90
        0
176
     1
290
     0
176
     1
 90
       13
176
     1
 40
0.0
176
     1
 90
        0
176
     1
290
     0
176
     1
290
     1
176
     1
290
     1
176
     1
290
     0
176
     1
290
     0
176
     1
290
     0
176
     1
290
     0
176
     1
290
     0
176
     1
290
     0
176
     1
 90
       50
176
     1
 40
0.0
176
     1
 40
1.0
176
     1
 90
        0
176
     1
 62
   178
420
        0
176
     1
 90
       50
176
     1
 90
        3
176
     1
 62
     5
420
      255
176
     1
290
     0
176
     1
 90
       50
176
     1
 90
       50
176
     1
 90
       50
176
     1
290
     0
176
     1
 90
       50
176
     1
 62
   256
176
     0
 40
1.0
176
     0
 90
        2
176
     1
  1
strokes_ogs.tif
176
     1
290
     0
176
     1
 40
1.0
176
     1
 40
1.0
176
     1
  0
DICTIONARYVAR
  5
66D
102
{ACAD_REACTORS
330
66C
102
}
330
66C
100
DictionaryVariables
280
     0
  1
1:1
  0
DICTIONARYVAR
  5
66F
102
{ACAD_REACTORS
330
66C
102
}
330
66C
100
DictionaryVariables
280
     0
  1
Standard
  0
DICTIONARYVAR
  5
66E
102
{ACAD_REACTORS
330
66C
102
}
330
66C
100
DictionaryVariables
280
     0
  1
Standard
  0
DICTIONARYVAR
  5
670
102
{ACAD_REACTORS
330
66C
102
}
330
66C
100
DictionaryVariables
280
     0
  1
0
  0
DICTIONARY
  5
686
330
668
100
AcDbDictionary
280
     1
281
     1
  3
ACAD_ROUNDTRIP_2008_TABLESTYLE_CELLSTYLEMAP
360
687
  0
CELLSTYLEMAP
  5
687
102
{ACAD_REACTORS
330
686
102
}
330
686
100
AcDbCellStyleMap
 90
        3
300
CELLSTYLE
  1
TABLEFORMAT_BEGIN
 90
        5
170
     1
 91
        0
 92
    32768
 62
   257
 93
        1
300
CONTENTFORMAT
  1
CONTENTFORMAT_BEGIN
 90
        0
 91
        0
 92
        4
 93
        0
300

 40
0.0
140
1.0
 94
        5
 62
     0
340
11
144
0.25
309
CONTENTFORMAT_END
171
     1
301
MARGIN
  1
CELLMARGIN_BEGIN
 40
0.06
 40
0.06
 40
0.06
 40
0.06
 40
0.06
 40
0.06
309
CELLMARGIN_END
 94
        6
 95
        1
302
GRIDFORMAT
  1
GRIDFORMAT_BEGIN
 90
        0
 91
        1
 62
     0
 92
       -2
340
14
 93
        0
 40
0.045
309
GRIDFORMAT_END
 95
        2
302
GRIDFORMAT
  1
GRIDFORMAT_BEGIN
 90
        0
 91
        1
 62
     0
 92
       -2
340
14
 93
        0
 40
0.045
309
GRIDFORMAT_END
 95
        4
302
GRIDFORMAT
  1
GRIDFORMAT_BEGIN
 90
        0
 91
        1
 62
     0
 92
       -2
340
14
 93
        0
 40
0.045
309
GRIDFORMAT_END
 95
        8
302
GRIDFORMAT
  1
GRIDFORMAT_BEGIN
 90
        0
 91
        1
 62
     0
 92
       -2
340
14
 93
        0
 40
0.045
309
GRIDFORMAT_END
 95
       16
302
GRIDFORMAT
  1
GRIDFORMAT_BEGIN
 90
        0
 91
        1
 62
     0
 92
       -2
340
14
 93
        0
 40
0.045
309
GRIDFORMAT_END
 95
       32
302
GRIDFORMAT
  1
GRIDFORMAT_BEGIN
 90
        0
 91
        1
 62
     0
 92
       -2
340
14
 93
        0
 40
0.045
309
GRIDFORMAT_END
309
TABLEFORMAT_END
  1
CELLSTYLE_BEGIN
 90
        1
 91
        1
300
_TITLE
309
CELLSTYLE_END
300
CELLSTYLE
  1
TABLEFORMAT_BEGIN
 90
        5
170
     1
 91
        0
 92
        0
 62
   257
 93
        1
300
CONTENTFORMAT
  1
CONTENTFORMAT_BEGIN
 90
        0
 91
        0
 92
        4
 93
        0
300

 40
0.0
140
1.0
 94
        5
 62
     0
340
11
144
0.18
309
CONTENTFORMAT_END
171
     1
301
MARGIN
  1
CELLMARGIN_BEGIN
 40
0.06
 40
0.06
 40
0.06
 40
0.06
 40
0.06
 40
0.06
309
CELLMARGIN_END
 94
        6
 95
        1
302
GRIDFORMAT
  1
GRIDFORMAT_BEGIN
 90
        0
 91
        1
 62
     0
 92
       -2
340
14
 93
        0
 40
0.045
309
GRIDFORMAT_END
 95
        2
302
GRIDFORMAT
  1
GRIDFORMAT_BEGIN
 90
        0
 91
        1
 62
     0
 92
       -2
340
14
 93
        0
 40
0.045
309
GRIDFORMAT_END
 95
        4
302
GRIDFORMAT
  1
GRIDFORMAT_BEGIN
 90
        0
 91
        1
 62
     0
 92
       -2
340
14
 93
        0
 40
0.045
309
GRIDFORMAT_END
 95
        8
302
GRIDFORMAT
  1
GRIDFORMAT_BEGIN
 90
        0
 91
        1
 62
     0
 92
       -2
340
14
 93
        0
 40
0.045
309
GRIDFORMAT_END
 95
       16
302
GRIDFORMAT
  1
GRIDFORMAT_BEGIN
 90
        0
 91
        1
 62
     0
 92
       -2
340
14
 93
        0
 40
0.045
309
GRIDFORMAT_END
 95
       32
302
GRIDFORMAT
  1
GRIDFORMAT_BEGIN
 90
        0
 91
        1
 62
     0
 92
       -2
340
14
 93
        0
 40
0.045
309
GRIDFORMAT_END
309
TABLEFORMAT_END
  1
CELLSTYLE_BEGIN
 90
        2
 91
        1
300
_HEADER
309
CELLSTYLE_END
300
CELLSTYLE
  1
TABLEFORMAT_BEGIN
 90
        5
170
     1
 91
        0
 92
        0
 62
   257
 93
        1
300
CONTENTFORMAT
  1
CONTENTFORMAT_BEGIN
 90
        0
 91
        0
 92
        4
 93
        0
300

 40
0.0
140
1.0
 94
        2
 62
     0
340
11
144
0.18
309
CONTENTFORMAT_END
171
     1
301
MARGIN
  1
CELLMARGIN_BEGIN
 40
0.06
 40
0.06
 40
0.06
 40
0.06
 40
0.06
 40
0.06
309
CELLMARGIN_END
 94
        6
 95
        1
302
GRIDFORMAT
  1
GRIDFORMAT_BEGIN
 90
        0
 91
        1
 62
     0
 92
       -2
340
14
 93
        0
 40
0.045
309
GRIDFORMAT_END
 95
        2
302
GRIDFORMAT
  1
GRIDFORMAT_BEGIN
 90
        0
 91
        1
 62
     0
 92
       -2
340
14
 93
        0
 40
0.045
309
GRIDFORMAT_END
 95
        4
302
GRIDFORMAT
  1
GRIDFORMAT_BEGIN
 90
        0
 91
        1
 62
     0
 92
       -2
340
14
 93
        0
 40
0.045
309
GRIDFORMAT_END
 95
        8
302
GRIDFORMAT
  1
GRIDFORMAT_BEGIN
 90
        0
 91
        1
 62
     0
 92
       -2
340
14
 93
        0
 40
0.045
309
GRIDFORMAT_END
 95
       16
302
GRIDFORMAT
  1
GRIDFORMAT_BEGIN
 90
        0
 91
        1
 62
     0
 92
       -2
340
14
 93
        0
 40
0.045
309
GRIDFORMAT_END
 95
       32
302
GRIDFORMAT
  1
GRIDFORMAT_BEGIN
 90
        0
 91
        1
 62
     0
 92
       -2
340
14
 93
        0
 40
0.045
309
GRIDFORMAT_END
309
TABLEFORMAT_END
  1
CELLSTYLE_BEGIN
 90
        3
 91
        2
300
_DATA
309
CELLSTYLE_END
  0
ENDSEC
  0
EOF
