  0
SECTION
  2
HEADER
  9
$ACADVER
  1
AC1014
  9
$HANDSEED
  5
FFFF
  9
$MEASUREMENT
 70
     1
  0
ENDSEC
  0
SECTION
  2
TABLES
  0
TABLE
  2
VPORT
  5
8
330
0
100
AcDbSymbolTable
 70
     4
  0
VPORT
  5
2E
330
8
100
AcDbSymbolTableRecord
100
AcDbViewportTableRecord
  2
*ACTIVE
 70
     0
 10
0.0
 20
0.0
 11
1.0
 21
1.0
 12
210.0
 22
148.5
 13
0.0
 23
0.0
 14
10.0
 24
10.0
 15
10.0
 25
10.0
 16
0.0
 26
0.0
 36
1.0
 17
0.0
 27
0.0
 37
0.0
 40
341.0
 41
1.24
 42
50.0
 43
0.0
 44
0.0
 50
0.0
 51
0.0
 71
     0
 72
   100
 73
     1
 74
     3
 75
     0
 76
     0
 77
     0
 78
     0
  0
ENDTAB
  0
TABLE
  2
LTYPE
  5
5
330
0
100
AcDbSymbolTable
 70
     1
  0
LTYPE
  5
14
330
5
100
AcDbSymbolTableRecord
100
AcDbLinetypeTableRecord
  2
BYBLOCK
 70
     0
  3

 72
    65
 73
     0
 40
0.0
  0
LTYPE
  5
15
330
5
100
AcDbSymbolTableRecord
100
AcDbLinetypeTableRecord
  2
BYLAYER
 70
     0
  3

 72
    65
 73
     0
 40
0.0
  0
LTYPE
  5
16
330
5
100
AcDbSymbolTableRecord
100
AcDbLinetypeTableRecord
  2
CONTINUOUS
 70
     0
  3
Solid line
 72
    65
 73
     0
 40
0.0
  0
ENDTAB
  0
TABLE
  2
LAYER
  5
2
100
AcDbSymbolTable
 70
1
  0
LAYER
  5
50
100
AcDbSymbolTableRecord
100
AcDbLayerTableRecord
  2
0
 70
0
  6
CONTINUOUS
  0
ENDTAB
  0
TABLE
  2
STYLE
  5
3
330
0
100
AcDbSymbolTable
 70
     1
  0
STYLE
  5
11
330
3
100
AcDbSymbolTableRecord
100
AcDbTextStyleTableRecord
  2
STANDARD
 70
     0
 40
0.0
 41
1.0
 50
0.0
 71
     0
 42
2.5
  3
txt
  4

  0
ENDTAB
  0
TABLE
  2
VIEW
  5
6
330
0
100
AcDbSymbolTable
 70
     0
  0
ENDTAB
  0
TABLE
  2
UCS
  5
7
330
0
100
AcDbSymbolTable
 70
     0
  0
ENDTAB
  0
TABLE
  2
APPID
  5
9
330
0
100
AcDbSymbolTable
 70
     2
  0
APPID
  5
12
330
9
100
AcDbSymbolTableRecord
100
AcDbRegAppTableRecord
  2
ACAD
 70
     0
  0
ENDTAB
  0
TABLE
  2
DIMSTYLE
  5
A
330
0
100
AcDbSymbolTable
 70
     1
  0
DIMSTYLE
105
27
330
A
100
AcDbSymbolTableRecord
100
AcDbDimStyleTableRecord
  2
ISO-25
 70
     0
  3

  4

  5

  6

  7

 40
1.0
 41
2.5
 42
0.625
 43
3.75
 44
1.25
 45
0.0
 46
0.0
 47
0.0
 48
0.0
140
2.5
141
2.5
142
0.0
143
0.03937007874016
144
1.0
145
0.0
146
1.0
147
0.625
 71
     0
 72
     0
 73
     0
 74
     0
 75
     0
 76
     0
 77
     1
 78
     8
170
     0
171
     3
172
     1
173
     0
174
     0
175
     0
176
     0
177
     0
178
     0
270
     2
271
     2
272
     2
273
     2
274
     3
340
11
275
     0
280
     0
281
     0
282
     0
283
     0
284
     8
285
     0
286
     0
287
     3
288
     0
  0
ENDTAB
  0
TABLE
  2
BLOCK_RECORD
  5
1
330
0
100
AcDbSymbolTable
 70
     1
  0
BLOCK_RECORD
  5
1F
330
1
100
AcDbSymbolTableRecord
100
AcDbBlockTableRecord
  2
*MODEL_SPACE
  0
BLOCK_RECORD
  5
1B
330
1
100
AcDbSymbolTableRecord
100
AcDbBlockTableRecord
  2
*PAPER_SPACE
  0
ENDTAB
  0
ENDSEC
  0
SECTION
  2
BLOCKS
  0
BLOCK
  5
20
330
1F
100
AcDbEntity
  8
0
100
AcDbBlockBegin
  2
*MODEL_SPACE
 70
     0
 10
0.0
 20
0.0
 30
0.0
  3
*MODEL_SPACE
  1

  0
ENDBLK
  5
21
330
1F
100
AcDbEntity
  8
0
100
AcDbBlockEnd
  0
BLOCK
  5
1C
330
1B
100
AcDbEntity
 67
     1
  8
0
100
AcDbBlockBegin
  2
*PAPER_SPACE
  1

  0
ENDBLK
  5
1D
330
1B
100
AcDbEntity
 67
     1
  8
0
100
AcDbBlockEnd
  0
ENDSEC
  0
SECTION
  2
ENTITIES
  0
SPLINE
  5
100
100
AcDbEntity
  8
0
 62
1
100
AcDbSpline
 70
8
 71
3
 72
8
 73
4
 74
0
 40
0
 40
0
 40
0
 40
0
 40
1
 40
1
 40
1
 40
1
 10
240.537533
 20
300.857199
 30
0.0
 10
240.537533
 20
295.334351
 30
0.0
 10
245.014686
 20
290.857199
 30
0.0
 10
250.537533
 20
290.857199
 30
0.0
  0
SPLINE
  5
101
100
AcDbEntity
  8
0
 62
1
100
AcDbSpline
 70
8
 71
3
 72
8
 73
4
 74
0
 40
0
 40
0
 40
0
 40
0
 40
1
 40
1
 40
1
 40
1
 10
300.537533
 20
290.857199
 30
0.0
 10
314.828157
 20
290.857199
 30
0.0
 10
328.033238
 20
298.481156
 30
0.0
 10
335.178549
 20
310.857199
 30
0.0
  0
SPLINE
  5
102
100
AcDbEntity
  8
0
 62
1
100
AcDbSpline
 70
8
 71
3
 72
8
 73
4
 74
0
 40
0
 40
0
 40
0
 40
0
 40
1
 40
1
 40
1
 40
1
 10
335.178549
 20
310.857199
 30
0.0
 10
342.323861
 20
323.233242
 30
0.0
 10
342.323861
 20
338.481155
 30
0.0
 10
335.178549
 20
350.857198
 30
0.0
  0
SPLINE
  5
103
100
AcDbEntity
  8
0
 62
1
100
AcDbSpline
 70
8
 71
3
 72
8
 73
4
 74
0
 40
0
 40
0
 40
0
 40
0
 40
1
 40
1
 40
1
 40
1
 10
335.178549
 20
350.857198
 30
0.0
 10
328.033238
 20
363.233241
 30
0.0
 10
314.828157
 20
370.857198
 30
0.0
 10
300.537533
 20
370.857198
 30
0.0
  0
LWPOLYLINE
  5
104
100
AcDbEntity
  8
0
 62
1
100
AcDbPolyline
 90
2
 70
0
 10
250.537533
 20
290.857199
 30
0.0
 10
300.537533
 20
290.857199
 30
0.0
  0
SPLINE
  5
105
100
AcDbEntity
  8
0
 62
1
100
AcDbSpline
 70
8
 71
3
 72
8
 73
4
 74
0
 40
0
 40
0
 40
0
 40
0
 40
1
 40
1
 40
1
 40
1
 10
250.537533
 20
370.857199
 30
0.0
 10
245.014686
 20
370.857198
 30
0.0
 10
240.537533
 20
366.380046
 30
0.0
 10
240.537533
 20
360.857199
 30
0.0
  0
LWPOLYLINE
  5
106
100
AcDbEntity
  8
0
 62
1
100
AcDbPolyline
 90
2
 70
0
 10
300.537533
 20
370.857199
 30
0.0
 10
250.537533
 20
370.857199
 30
0.0
  0
SPLINE
  5
107
100
AcDbEntity
  8
0
 62
1
100
AcDbSpline
 70
8
 71
3
 72
8
 73
4
 74
0
 40
0
 40
0
 40
0
 40
0
 40
1
 40
1
 40
1
 40
1
 10
230.537533
 20
340.857199
 30
0.0
 10
233.189698
 20
340.857199
 30
0.0
 10
235.733237
 20
341.910767
 30
0.0
 10
237.608601
 20
343.786131
 30
0.0
  0
SPLINE
  5
108
100
AcDbEntity
  8
0
 62
1
100
AcDbSpline
 70
8
 71
3
 72
8
 73
4
 74
0
 40
0
 40
0
 40
0
 40
0
 40
1
 40
1
 40
1
 40
1
 10
237.608601
 20
343.786131
 30
0.0
 10
239.483965
 20
345.661495
 30
0.0
 10
240.537533
 20
348.205034
 30
0.0
 10
240.537533
 20
350.857199
 30
0.0
  0
LWPOLYLINE
  5
109
100
AcDbEntity
  8
0
 62
1
100
AcDbPolyline
 90
2
 70
0
 10
240.537533
 20
360.857199
 30
0.0
 10
240.537533
 20
350.857199
 30
0.0
  0
SPLINE
  5
10a
100
AcDbEntity
  8
0
 62
1
100
AcDbSpline
 70
8
 71
3
 72
8
 73
4
 74
0
 40
0
 40
0
 40
0
 40
0
 40
1
 40
1
 40
1
 40
1
 10
150.537533
 20
340.857199
 30
0.0
 10
147.885369
 20
340.857199
 30
0.0
 10
145.341829
 20
339.803630
 30
0.0
 10
143.466466
 20
337.928267
 30
0.0
  0
SPLINE
  5
10b
100
AcDbEntity
  8
0
 62
1
100
AcDbSpline
 70
8
 71
3
 72
8
 73
4
 74
0
 40
0
 40
0
 40
0
 40
0
 40
1
 40
1
 40
1
 40
1
 10
143.466466
 20
337.928267
 30
0.0
 10
141.591102
 20
336.052903
 30
0.0
 10
140.537533
 20
333.509364
 30
0.0
 10
140.537533
 20
330.857199
 30
0.0
  0
SPLINE
  5
10c
100
AcDbEntity
  8
0
 62
1
100
AcDbSpline
 70
8
 71
3
 72
8
 73
4
 74
0
 40
0
 40
0
 40
0
 40
0
 40
1
 40
1
 40
1
 40
1
 10
140.537533
 20
330.857199
 30
0.0
 10
140.537533
 20
328.205034
 30
0.0
 10
141.591102
 20
325.661495
 30
0.0
 10
143.466466
 20
323.786131
 30
0.0
  0
SPLINE
  5
10d
100
AcDbEntity
  8
0
 62
1
100
AcDbSpline
 70
8
 71
3
 72
8
 73
4
 74
0
 40
0
 40
0
 40
0
 40
0
 40
1
 40
1
 40
1
 40
1
 10
143.466466
 20
323.786131
 30
0.0
 10
145.341829
 20
321.910767
 30
0.0
 10
147.885369
 20
320.857199
 30
0.0
 10
150.537533
 20
320.857199
 30
0.0
  0
LWPOLYLINE
  5
10e
100
AcDbEntity
  8
0
 62
1
100
AcDbPolyline
 90
2
 70
0
 10
230.537533
 20
340.857199
 30
0.0
 10
150.537533
 20
340.857199
 30
0.0
  0
SPLINE
  5
10f
100
AcDbEntity
  8
0
 62
1
100
AcDbSpline
 70
8
 71
3
 72
8
 73
4
 74
0
 40
0
 40
0
 40
0
 40
0
 40
1
 40
1
 40
1
 40
1
 10
240.537533
 20
310.857199
 30
0.0
 10
240.537533
 20
313.509364
 30
0.0
 10
239.483965
 20
316.052903
 30
0.0
 10
237.608601
 20
317.928266
 30
0.0
  0
SPLINE
  5
110
100
AcDbEntity
  8
0
 62
1
100
AcDbSpline
 70
8
 71
3
 72
8
 73
4
 74
0
 40
0
 40
0
 40
0
 40
0
 40
1
 40
1
 40
1
 40
1
 10
237.608601
 20
317.928266
 30
0.0
 10
235.733237
 20
319.803630
 30
0.0
 10
233.189698
 20
320.857199
 30
0.0
 10
230.537533
 20
320.857199
 30
0.0
  0
LWPOLYLINE
  5
111
100
AcDbEntity
  8
0
 62
1
100
AcDbPolyline
 90
2
 70
0
 10
150.537533
 20
320.857199
 30
0.0
 10
230.537533
 20
320.857199
 30
0.0
  0
LWPOLYLINE
  5
112
100
AcDbEntity
  8
0
 62
1
100
AcDbPolyline
 90
2
 70
0
 10
240.537533
 20
310.857199
 30
0.0
 10
240.537533
 20
300.857199
 30
0.0
  0
LWPOLYLINE
  5
113
100
AcDbEntity
  8
0
 62
1
100
AcDbPolyline
 90
2
 70
0
 10
553.537533
 20
375.857199
 30
0.0
 10
570.537533
 20
375.857199
 30
0.0
  0
LWPOLYLINE
  5
114
100
AcDbEntity
  8
0
 62
1
100
AcDbPolyline
 90
2
 70
0
 10
553.537533
 20
365.857199
 30
0.0
 10
553.537533
 20
375.857199
 30
0.0
  0
LWPOLYLINE
  5
115
100
AcDbEntity
  8
0
 62
1
100
AcDbPolyline
 90
2
 70
0
 10
547.537533
 20
365.857199
 30
0.0
 10
553.537533
 20
365.857199
 30
0.0
  0
LWPOLYLINE
  5
116
100
AcDbEntity
  8
0
 62
1
100
AcDbPolyline
 90
2
 70
0
 10
547.537533
 20
375.857199
 30
0.0
 10
547.537533
 20
365.857199
 30
0.0
  0
SPLINE
  5
117
100
AcDbEntity
  8
0
 62
1
100
AcDbSpline
 70
8
 71
3
 72
8
 73
4
 74
0
 40
0
 40
0
 40
0
 40
0
 40
1
 40
1
 40
1
 40
1
 10
530.537533
 20
375.857199
 30
0.0
 10
527.885369
 20
375.857199
 30
0.0
 10
525.341829
 20
374.803630
 30
0.0
 10
523.466466
 20
372.928267
 30
0.0
  0
SPLINE
  5
118
100
AcDbEntity
  8
0
 62
1
100
AcDbSpline
 70
8
 71
3
 72
8
 73
4
 74
0
 40
0
 40
0
 40
0
 40
0
 40
1
 40
1
 40
1
 40
1
 10
523.466466
 20
372.928267
 30
0.0
 10
521.591102
 20
371.052903
 30
0.0
 10
520.537533
 20
368.509364
 30
0.0
 10
520.537533
 20
365.857199
 30
0.0
  0
LWPOLYLINE
  5
119
100
AcDbEntity
  8
0
 62
1
100
AcDbPolyline
 90
2
 70
0
 10
530.537533
 20
375.857199
 30
0.0
 10
547.537533
 20
375.857199
 30
0.0
  0
LWPOLYLINE
  5
11a
100
AcDbEntity
  8
0
 62
1
100
AcDbPolyline
 90
2
 70
0
 10
520.537533
 20
355.857199
 30
0.0
 10
520.537533
 20
365.857199
 30
0.0
  0
LWPOLYLINE
  5
11b
100
AcDbEntity
  8
0
 62
1
100
AcDbPolyline
 90
2
 70
0
 10
580.537533
 20
355.857199
 30
0.0
 10
520.537533
 20
355.857199
 30
0.0
  0
SPLINE
  5
11c
100
AcDbEntity
  8
0
 62
1
100
AcDbSpline
 70
8
 71
3
 72
8
 73
4
 74
0
 40
0
 40
0
 40
0
 40
0
 40
1
 40
1
 40
1
 40
1
 10
580.537533
 20
365.857199
 30
0.0
 10
580.537533
 20
368.509364
 30
0.0
 10
579.483965
 20
371.052903
 30
0.0
 10
577.608601
 20
372.928267
 30
0.0
  0
SPLINE
  5
11d
100
AcDbEntity
  8
0
 62
1
100
AcDbSpline
 70
8
 71
3
 72
8
 73
4
 74
0
 40
0
 40
0
 40
0
 40
0
 40
1
 40
1
 40
1
 40
1
 10
577.608601
 20
372.928267
 30
0.0
 10
575.733237
 20
374.803630
 30
0.0
 10
573.189698
 20
375.857199
 30
0.0
 10
570.537533
 20
375.857199
 30
0.0
  0
LWPOLYLINE
  5
11e
100
AcDbEntity
  8
0
 62
1
100
AcDbPolyline
 90
2
 70
0
 10
580.537533
 20
365.857199
 30
0.0
 10
580.537533
 20
355.857199
 30
0.0
  0
LWPOLYLINE
  5
11f
100
AcDbEntity
  8
0
 62
1
100
AcDbPolyline
 90
2
 70
0
 10
173.537533
 20
375.857199
 30
0.0
 10
190.537533
 20
375.857199
 30
0.0
  0
LWPOLYLINE
  5
120
100
AcDbEntity
  8
0
 62
1
100
AcDbPolyline
 90
2
 70
0
 10
173.537533
 20
365.857199
 30
0.0
 10
173.537533
 20
375.857199
 30
0.0
  0
LWPOLYLINE
  5
121
100
AcDbEntity
  8
0
 62
1
100
AcDbPolyline
 90
2
 70
0
 10
167.537533
 20
365.857199
 30
0.0
 10
173.537533
 20
365.857199
 30
0.0
  0
LWPOLYLINE
  5
122
100
AcDbEntity
  8
0
 62
1
100
AcDbPolyline
 90
2
 70
0
 10
167.537533
 20
375.857199
 30
0.0
 10
167.537533
 20
365.857199
 30
0.0
  0
SPLINE
  5
123
100
AcDbEntity
  8
0
 62
1
100
AcDbSpline
 70
8
 71
3
 72
8
 73
4
 74
0
 40
0
 40
0
 40
0
 40
0
 40
1
 40
1
 40
1
 40
1
 10
150.537533
 20
375.857199
 30
0.0
 10
147.885369
 20
375.857199
 30
0.0
 10
145.341829
 20
374.803630
 30
0.0
 10
143.466466
 20
372.928267
 30
0.0
  0
SPLINE
  5
124
100
AcDbEntity
  8
0
 62
1
100
AcDbSpline
 70
8
 71
3
 72
8
 73
4
 74
0
 40
0
 40
0
 40
0
 40
0
 40
1
 40
1
 40
1
 40
1
 10
143.466466
 20
372.928267
 30
0.0
 10
141.591102
 20
371.052903
 30
0.0
 10
140.537533
 20
368.509364
 30
0.0
 10
140.537533
 20
365.857199
 30
0.0
  0
LWPOLYLINE
  5
125
100
AcDbEntity
  8
0
 62
1
100
AcDbPolyline
 90
2
 70
0
 10
150.537533
 20
375.857199
 30
0.0
 10
167.537533
 20
375.857199
 30
0.0
  0
LWPOLYLINE
  5
126
100
AcDbEntity
  8
0
 62
1
100
AcDbPolyline
 90
2
 70
0
 10
140.537533
 20
355.857199
 30
0.0
 10
140.537533
 20
365.857199
 30
0.0
  0
LWPOLYLINE
  5
127
100
AcDbEntity
  8
0
 62
1
100
AcDbPolyline
 90
2
 70
0
 10
200.537533
 20
355.857199
 30
0.0
 10
140.537533
 20
355.857199
 30
0.0
  0
SPLINE
  5
128
100
AcDbEntity
  8
0
 62
1
100
AcDbSpline
 70
8
 71
3
 72
8
 73
4
 74
0
 40
0
 40
0
 40
0
 40
0
 40
1
 40
1
 40
1
 40
1
 10
200.537533
 20
365.857199
 30
0.0
 10
200.537533
 20
368.509364
 30
0.0
 10
199.483965
 20
371.052903
 30
0.0
 10
197.608601
 20
372.928267
 30
0.0
  0
SPLINE
  5
129
100
AcDbEntity
  8
0
 62
1
100
AcDbSpline
 70
8
 71
3
 72
8
 73
4
 74
0
 40
0
 40
0
 40
0
 40
0
 40
1
 40
1
 40
1
 40
1
 10
197.608601
 20
372.928267
 30
0.0
 10
195.733237
 20
374.803630
 30
0.0
 10
193.189698
 20
375.857199
 30
0.0
 10
190.537533
 20
375.857199
 30
0.0
  0
SPLINE
  5
12a
100
AcDbEntity
  8
0
 62
1
100
AcDbSpline
 70
8
 71
3
 72
8
 73
4
 74
0
 40
0
 40
0
 40
0
 40
0
 40
1
 40
1
 40
1
 40
1
 10
380.537533
 20
360.857199
 30
0.0
 10
380.537533
 20
368.002510
 30
0.0
 10
376.725555
 20
374.605051
 30
0.0
 10
370.537533
 20
378.177707
 30
0.0
  0
SPLINE
  5
12b
100
AcDbEntity
  8
0
 62
1
100
AcDbSpline
 70
8
 71
3
 72
8
 73
4
 74
0
 40
0
 40
0
 40
0
 40
0
 40
1
 40
1
 40
1
 40
1
 10
370.537533
 20
378.177707
 30
0.0
 10
364.349512
 20
381.750363
 30
0.0
 10
356.725555
 20
381.750363
 30
0.0
 10
350.537533
 20
378.177707
 30
0.0
  0
SPLINE
  5
12c
100
AcDbEntity
  8
0
 62
1
100
AcDbSpline
 70
8
 71
3
 72
8
 73
4
 74
0
 40
0
 40
0
 40
0
 40
0
 40
1
 40
1
 40
1
 40
1
 10
350.537533
 20
378.177707
 30
0.0
 10
344.349512
 20
374.605051
 30
0.0
 10
340.537533
 20
368.002510
 30
0.0
 10
340.537533
 20
360.857199
 30
0.0
  0
SPLINE
  5
12d
100
AcDbEntity
  8
0
 62
1
100
AcDbSpline
 70
8
 71
3
 72
8
 73
4
 74
0
 40
0
 40
0
 40
0
 40
0
 40
1
 40
1
 40
1
 40
1
 10
340.537533
 20
360.857199
 30
0.0
 10
340.537533
 20
353.711887
 30
0.0
 10
344.349512
 20
347.109346
 30
0.0
 10
350.537533
 20
343.536690
 30
0.0
  0
SPLINE
  5
12e
100
AcDbEntity
  8
0
 62
1
100
AcDbSpline
 70
8
 71
3
 72
8
 73
4
 74
0
 40
0
 40
0
 40
0
 40
0
 40
1
 40
1
 40
1
 40
1
 10
350.537533
 20
343.536690
 30
0.0
 10
356.725555
 20
339.964034
 30
0.0
 10
364.349512
 20
339.964034
 30
0.0
 10
370.537533
 20
343.536690
 30
0.0
  0
SPLINE
  5
12f
100
AcDbEntity
  8
0
 62
1
100
AcDbSpline
 70
8
 71
3
 72
8
 73
4
 74
0
 40
0
 40
0
 40
0
 40
0
 40
1
 40
1
 40
1
 40
1
 10
370.537533
 20
343.536690
 30
0.0
 10
376.725555
 20
347.109346
 30
0.0
 10
380.537533
 20
353.711887
 30
0.0
 10
380.537533
 20
360.857199
 30
0.0
  0
LWPOLYLINE
  5
130
100
AcDbEntity
  8
0
 62
1
100
AcDbPolyline
 90
2
 70
0
 10
200.537533
 20
365.857199
 30
0.0
 10
200.537533
 20
355.857199
 30
0.0
  0
SPLINE
  5
131
100
AcDbEntity
  8
0
 62
1
100
AcDbSpline
 70
8
 71
3
 72
8
 73
4
 74
0
 40
0
 40
0
 40
0
 40
0
 40
1
 40
1
 40
1
 40
1
 10
570.537533
 20
320.857199
 30
0.0
 10
573.189698
 20
320.857199
 30
0.0
 10
575.733237
 20
321.910767
 30
0.0
 10
577.608601
 20
323.786131
 30
0.0
  0
SPLINE
  5
132
100
AcDbEntity
  8
0
 62
1
100
AcDbSpline
 70
8
 71
3
 72
8
 73
4
 74
0
 40
0
 40
0
 40
0
 40
0
 40
1
 40
1
 40
1
 40
1
 10
577.608601
 20
323.786131
 30
0.0
 10
579.483965
 20
325.661495
 30
0.0
 10
580.537533
 20
328.205034
 30
0.0
 10
580.537533
 20
330.857199
 30
0.0
  0
SPLINE
  5
133
100
AcDbEntity
  8
0
 62
1
100
AcDbSpline
 70
8
 71
3
 72
8
 73
4
 74
0
 40
0
 40
0
 40
0
 40
0
 40
1
 40
1
 40
1
 40
1
 10
580.537533
 20
330.857199
 30
0.0
 10
580.537533
 20
333.509364
 30
0.0
 10
579.483965
 20
336.052903
 30
0.0
 10
577.608601
 20
337.928267
 30
0.0
  0
SPLINE
  5
134
100
AcDbEntity
  8
0
 62
1
100
AcDbSpline
 70
8
 71
3
 72
8
 73
4
 74
0
 40
0
 40
0
 40
0
 40
0
 40
1
 40
1
 40
1
 40
1
 10
577.608601
 20
337.928267
 30
0.0
 10
575.733237
 20
339.803630
 30
0.0
 10
573.189698
 20
340.857199
 30
0.0
 10
570.537533
 20
340.857199
 30
0.0
  0
LWPOLYLINE
  5
135
100
AcDbEntity
  8
0
 62
1
100
AcDbPolyline
 90
2
 70
0
 10
380.537533
 20
360.857199
 30
0.0
 10
380.537533
 20
360.857199
 30
0.0
  0
LWPOLYLINE
  5
136
100
AcDbEntity
  8
0
 62
1
100
AcDbPolyline
 90
2
 70
0
 10
570.537533
 20
340.857199
 30
0.0
 10
490.537533
 20
340.857199
 30
0.0
  0
SPLINE
  5
137
100
AcDbEntity
  8
0
 62
1
100
AcDbSpline
 70
8
 71
3
 72
8
 73
4
 74
0
 40
0
 40
0
 40
0
 40
0
 40
1
 40
1
 40
1
 40
1
 10
480.537533
 20
360.857199
 30
0.0
 10
480.537533
 20
366.380046
 30
0.0
 10
476.060381
 20
370.857198
 30
0.0
 10
470.537534
 20
370.857199
 30
0.0
  0
LWPOLYLINE
  5
138
100
AcDbEntity
  8
0
 62
1
100
AcDbPolyline
 90
2
 70
0
 10
480.537533
 20
350.857199
 30
0.0
 10
480.537533
 20
360.857199
 30
0.0
  0
SPLINE
  5
139
100
AcDbEntity
  8
0
 62
1
100
AcDbSpline
 70
8
 71
3
 72
8
 73
4
 74
0
 40
0
 40
0
 40
0
 40
0
 40
1
 40
1
 40
1
 40
1
 10
420.537533
 20
370.857198
 30
0.0
 10
406.246910
 20
370.857198
 30
0.0
 10
393.041829
 20
363.233241
 30
0.0
 10
385.896517
 20
350.857198
 30
0.0
  0
SPLINE
  5
13a
100
AcDbEntity
  8
0
 62
1
100
AcDbSpline
 70
8
 71
3
 72
8
 73
4
 74
0
 40
0
 40
0
 40
0
 40
0
 40
1
 40
1
 40
1
 40
1
 10
385.896517
 20
350.857198
 30
0.0
 10
378.751206
 20
338.481155
 30
0.0
 10
378.751206
 20
323.233242
 30
0.0
 10
385.896517
 20
310.857199
 30
0.0
  0
SPLINE
  5
13b
100
AcDbEntity
  8
0
 62
1
100
AcDbSpline
 70
8
 71
3
 72
8
 73
4
 74
0
 40
0
 40
0
 40
0
 40
0
 40
1
 40
1
 40
1
 40
1
 10
385.896517
 20
310.857199
 30
0.0
 10
393.041829
 20
298.481156
 30
0.0
 10
406.246910
 20
290.857199
 30
0.0
 10
420.537533
 20
290.857199
 30
0.0
  0
LWPOLYLINE
  5
13c
100
AcDbEntity
  8
0
 62
1
100
AcDbPolyline
 90
2
 70
0
 10
470.537534
 20
370.857199
 30
0.0
 10
420.537533
 20
370.857199
 30
0.0
  0
SPLINE
  5
13d
100
AcDbEntity
  8
0
 62
1
100
AcDbSpline
 70
8
 71
3
 72
8
 73
4
 74
0
 40
0
 40
0
 40
0
 40
0
 40
1
 40
1
 40
1
 40
1
 10
470.537534
 20
290.857199
 30
0.0
 10
476.060381
 20
290.857199
 30
0.0
 10
480.537533
 20
295.334351
 30
0.0
 10
480.537533
 20
300.857199
 30
0.0
  0
LWPOLYLINE
  5
13e
100
AcDbEntity
  8
0
 62
1
100
AcDbPolyline
 90
2
 70
0
 10
420.537533
 20
290.857199
 30
0.0
 10
470.537534
 20
290.857199
 30
0.0
  0
SPLINE
  5
13f
100
AcDbEntity
  8
0
 62
1
100
AcDbSpline
 70
8
 71
3
 72
8
 73
4
 74
0
 40
0
 40
0
 40
0
 40
0
 40
1
 40
1
 40
1
 40
1
 10
490.537533
 20
320.857199
 30
0.0
 10
487.885368
 20
320.857199
 30
0.0
 10
485.341829
 20
319.803630
 30
0.0
 10
483.466465
 20
317.928266
 30
0.0
  0
SPLINE
  5
140
100
AcDbEntity
  8
0
 62
1
100
AcDbSpline
 70
8
 71
3
 72
8
 73
4
 74
0
 40
0
 40
0
 40
0
 40
0
 40
1
 40
1
 40
1
 40
1
 10
483.466465
 20
317.928266
 30
0.0
 10
481.591102
 20
316.052903
 30
0.0
 10
480.537533
 20
313.509364
 30
0.0
 10
480.537533
 20
310.857199
 30
0.0
  0
LWPOLYLINE
  5
141
100
AcDbEntity
  8
0
 62
1
100
AcDbPolyline
 90
2
 70
0
 10
480.537533
 20
300.857199
 30
0.0
 10
480.537533
 20
310.857199
 30
0.0
  0
SPLINE
  5
142
100
AcDbEntity
  8
0
 62
1
100
AcDbSpline
 70
8
 71
3
 72
8
 73
4
 74
0
 40
0
 40
0
 40
0
 40
0
 40
1
 40
1
 40
1
 40
1
 10
480.537533
 20
350.857199
 30
0.0
 10
480.537533
 20
348.205034
 30
0.0
 10
481.591102
 20
345.661495
 30
0.0
 10
483.466465
 20
343.786131
 30
0.0
  0
SPLINE
  5
143
100
AcDbEntity
  8
0
 62
1
100
AcDbSpline
 70
8
 71
3
 72
8
 73
4
 74
0
 40
0
 40
0
 40
0
 40
0
 40
1
 40
1
 40
1
 40
1
 10
483.466465
 20
343.786131
 30
0.0
 10
485.341829
 20
341.910767
 30
0.0
 10
487.885368
 20
340.857199
 30
0.0
 10
490.537533
 20
340.857199
 30
0.0
  0
SPLINE
  5
144
100
AcDbEntity
  8
0
 62
5
100
AcDbSpline
 70
8
 71
3
 72
8
 73
4
 74
0
 40
0
 40
0
 40
0
 40
0
 40
1
 40
1
 40
1
 40
1
 10
110.537533
 20
390.857199
 30
0.0
 10
97.276709
 20
390.857199
 30
0.0
 10
84.559013
 20
385.589357
 30
0.0
 10
75.182194
 20
376.212538
 30
0.0
  0
SPLINE
  5
145
100
AcDbEntity
  8
0
 62
5
100
AcDbSpline
 70
8
 71
3
 72
8
 73
4
 74
0
 40
0
 40
0
 40
0
 40
0
 40
1
 40
1
 40
1
 40
1
 10
75.182194
 20
376.212538
 30
0.0
 10
65.805375
 20
366.835719
 30
0.0
 10
60.537533
 20
354.118023
 30
0.0
 10
60.537533
 20
340.857199
 30
0.0
  0
SPLINE
  5
146
100
AcDbEntity
  8
0
 62
5
100
AcDbSpline
 70
8
 71
3
 72
8
 73
4
 74
0
 40
0
 40
0
 40
0
 40
0
 40
1
 40
1
 40
1
 40
1
 10
660.537533
 20
340.857199
 30
0.0
 10
660.537533
 20
368.471436
 30
0.0
 10
638.151771
 20
390.857199
 30
0.0
 10
610.537533
 20
390.857199
 30
0.0
  0
LWPOLYLINE
  5
147
100
AcDbEntity
  8
0
 62
1
100
AcDbPolyline
 90
2
 70
0
 10
490.537533
 20
320.857199
 30
0.0
 10
570.537533
 20
320.857199
 30
0.0
  0
LWPOLYLINE
  5
148
100
AcDbEntity
  8
0
 62
5
100
AcDbPolyline
 90
2
 70
0
 10
620.537534
 20
280.857199
 30
0.0
 10
620.537534
 20
270.857199
 30
0.0
  0
LWPOLYLINE
  5
149
100
AcDbEntity
  8
0
 62
5
100
AcDbPolyline
 90
2
 70
0
 10
614.537533
 20
280.857199
 30
0.0
 10
620.537534
 20
280.857199
 30
0.0
  0
LWPOLYLINE
  5
14a
100
AcDbEntity
  8
0
 62
5
100
AcDbPolyline
 90
2
 70
0
 10
614.537533
 20
270.857199
 30
0.0
 10
614.537533
 20
280.857199
 30
0.0
  0
LWPOLYLINE
  5
14b
100
AcDbEntity
  8
0
 62
5
100
AcDbPolyline
 90
2
 70
0
 10
106.537533
 20
270.857199
 30
0.0
 10
614.537533
 20
270.857199
 30
0.0
  0
LWPOLYLINE
  5
14c
100
AcDbEntity
  8
0
 62
5
100
AcDbPolyline
 90
2
 70
0
 10
106.537533
 20
280.857199
 30
0.0
 10
106.537533
 20
270.857199
 30
0.0
  0
LWPOLYLINE
  5
14d
100
AcDbEntity
  8
0
 62
5
100
AcDbPolyline
 90
2
 70
0
 10
100.537533
 20
280.857199
 30
0.0
 10
106.537533
 20
280.857199
 30
0.0
  0
LWPOLYLINE
  5
14e
100
AcDbEntity
  8
0
 62
5
100
AcDbPolyline
 90
2
 70
0
 10
100.537533
 20
270.857199
 30
0.0
 10
100.537533
 20
280.857199
 30
0.0
  0
LWPOLYLINE
  5
14f
100
AcDbEntity
  8
0
 62
5
100
AcDbPolyline
 90
2
 70
0
 10
610.537533
 20
390.857199
 30
0.0
 10
110.537533
 20
390.857199
 30
0.0
  0
LWPOLYLINE
  5
150
100
AcDbEntity
  8
0
 62
5
100
AcDbPolyline
 90
2
 70
0
 10
660.537533
 20
270.857199
 30
0.0
 10
660.537533
 20
340.857199
 30
0.0
  0
LWPOLYLINE
  5
151
100
AcDbEntity
  8
0
 62
5
100
AcDbPolyline
 90
2
 70
0
 10
60.537533
 20
340.857199
 30
0.0
 10
60.537533
 20
270.857199
 30
0.0
  0
LWPOLYLINE
  5
152
100
AcDbEntity
  8
0
 62
5
100
AcDbPolyline
 90
2
 70
0
 10
620.537534
 20
270.857199
 30
0.0
 10
660.537533
 20
270.857199
 30
0.0
  0
LWPOLYLINE
  5
153
100
AcDbEntity
  8
0
 62
5
100
AcDbPolyline
 90
2
 70
0
 10
60.537533
 20
270.857199
 30
0.0
 10
100.537533
 20
270.857199
 30
0.0
  0
LWPOLYLINE
  5
154
100
AcDbEntity
  8
0
 62
1
100
AcDbPolyline
 90
2
 70
0
 10
39.655788
 20
358.494515
 30
0.0
 10
33.655788
 20
358.494515
 30
0.0
  0
LWPOLYLINE
  5
155
100
AcDbEntity
  8
0
 62
1
100
AcDbPolyline
 90
2
 70
0
 10
39.655788
 20
338.494515
 30
0.0
 10
39.655788
 20
358.494515
 30
0.0
  0
LWPOLYLINE
  5
156
100
AcDbEntity
  8
0
 62
1
100
AcDbPolyline
 90
2
 70
0
 10
33.655788
 20
338.494515
 30
0.0
 10
39.655788
 20
338.494515
 30
0.0
  0
LWPOLYLINE
  5
157
100
AcDbEntity
  8
0
 62
1
100
AcDbPolyline
 90
2
 70
0
 10
33.655788
 20
318.494515
 30
0.0
 10
33.655788
 20
338.494515
 30
0.0
  0
LWPOLYLINE
  5
158
100
AcDbEntity
  8
0
 62
1
100
AcDbPolyline
 90
2
 70
0
 10
39.655788
 20
318.494515
 30
0.0
 10
33.655788
 20
318.494515
 30
0.0
  0
LWPOLYLINE
  5
159
100
AcDbEntity
  8
0
 62
1
100
AcDbPolyline
 90
2
 70
0
 10
39.655788
 20
298.494515
 30
0.0
 10
39.655788
 20
318.494515
 30
0.0
  0
LWPOLYLINE
  5
15a
100
AcDbEntity
  8
0
 62
1
100
AcDbPolyline
 90
2
 70
0
 10
46.655788
 20
298.494515
 30
0.0
 10
39.655788
 20
298.494515
 30
0.0
  0
LWPOLYLINE
  5
15b
100
AcDbEntity
  8
0
 62
1
100
AcDbPolyline
 90
2
 70
0
 10
46.655788
 20
318.494515
 30
0.0
 10
46.655788
 20
298.494515
 30
0.0
  0
LWPOLYLINE
  5
15c
100
AcDbEntity
  8
0
 62
1
100
AcDbPolyline
 90
2
 70
0
 10
52.655788
 20
318.494515
 30
0.0
 10
46.655788
 20
318.494515
 30
0.0
  0
LWPOLYLINE
  5
15d
100
AcDbEntity
  8
0
 62
1
100
AcDbPolyline
 90
2
 70
0
 10
52.655788
 20
338.494515
 30
0.0
 10
52.655788
 20
318.494515
 30
0.0
  0
LWPOLYLINE
  5
15e
100
AcDbEntity
  8
0
 62
1
100
AcDbPolyline
 90
2
 70
0
 10
46.655788
 20
338.494515
 30
0.0
 10
52.655788
 20
338.494515
 30
0.0
  0
LWPOLYLINE
  5
15f
100
AcDbEntity
  8
0
 62
1
100
AcDbPolyline
 90
2
 70
0
 10
46.655788
 20
358.494515
 30
0.0
 10
46.655788
 20
338.494515
 30
0.0
  0
LWPOLYLINE
  5
160
100
AcDbEntity
  8
0
 62
1
100
AcDbPolyline
 90
2
 70
0
 10
52.655788
 20
358.494515
 30
0.0
 10
46.655788
 20
358.494515
 30
0.0
  0
LWPOLYLINE
  5
161
100
AcDbEntity
  8
0
 62
1
100
AcDbPolyline
 90
2
 70
0
 10
52.655788
 20
374.494515
 30
0.0
 10
52.655788
 20
358.494515
 30
0.0
  0
LWPOLYLINE
  5
162
100
AcDbEntity
  8
0
 62
1
100
AcDbPolyline
 90
2
 70
0
 10
33.655788
 20
374.494515
 30
0.0
 10
52.655788
 20
374.494515
 30
0.0
  0
LWPOLYLINE
  5
163
100
AcDbEntity
  8
0
 62
1
100
AcDbPolyline
 90
2
 70
0
 10
33.655788
 20
358.494515
 30
0.0
 10
33.655788
 20
374.494515
 30
0.0
  0
LWPOLYLINE
  5
164
100
AcDbEntity
  8
0
 62
1
100
AcDbPolyline
 90
2
 70
0
 10
673.197950
 20
363.449180
 30
0.0
 10
667.197950
 20
363.449180
 30
0.0
  0
LWPOLYLINE
  5
165
100
AcDbEntity
  8
0
 62
1
100
AcDbPolyline
 90
2
 70
0
 10
673.197950
 20
343.449180
 30
0.0
 10
673.197950
 20
363.449180
 30
0.0
  0
LWPOLYLINE
  5
166
100
AcDbEntity
  8
0
 62
1
100
AcDbPolyline
 90
2
 70
0
 10
667.197950
 20
343.449180
 30
0.0
 10
673.197950
 20
343.449180
 30
0.0
  0
LWPOLYLINE
  5
167
100
AcDbEntity
  8
0
 62
1
100
AcDbPolyline
 90
2
 70
0
 10
667.197950
 20
323.449179
 30
0.0
 10
667.197950
 20
343.449180
 30
0.0
  0
LWPOLYLINE
  5
168
100
AcDbEntity
  8
0
 62
1
100
AcDbPolyline
 90
2
 70
0
 10
673.197950
 20
323.449179
 30
0.0
 10
667.197950
 20
323.449179
 30
0.0
  0
LWPOLYLINE
  5
169
100
AcDbEntity
  8
0
 62
1
100
AcDbPolyline
 90
2
 70
0
 10
673.197950
 20
303.449180
 30
0.0
 10
673.197950
 20
323.449179
 30
0.0
  0
LWPOLYLINE
  5
16a
100
AcDbEntity
  8
0
 62
1
100
AcDbPolyline
 90
2
 70
0
 10
680.197950
 20
303.449180
 30
0.0
 10
673.197950
 20
303.449180
 30
0.0
  0
LWPOLYLINE
  5
16b
100
AcDbEntity
  8
0
 62
1
100
AcDbPolyline
 90
2
 70
0
 10
680.197950
 20
323.449179
 30
0.0
 10
680.197950
 20
303.449180
 30
0.0
  0
LWPOLYLINE
  5
16c
100
AcDbEntity
  8
0
 62
1
100
AcDbPolyline
 90
2
 70
0
 10
686.197950
 20
323.449179
 30
0.0
 10
680.197950
 20
323.449179
 30
0.0
  0
LWPOLYLINE
  5
16d
100
AcDbEntity
  8
0
 62
1
100
AcDbPolyline
 90
2
 70
0
 10
686.197950
 20
343.449180
 30
0.0
 10
686.197950
 20
323.449179
 30
0.0
  0
LWPOLYLINE
  5
16e
100
AcDbEntity
  8
0
 62
1
100
AcDbPolyline
 90
2
 70
0
 10
680.197950
 20
343.449180
 30
0.0
 10
686.197950
 20
343.449180
 30
0.0
  0
LWPOLYLINE
  5
16f
100
AcDbEntity
  8
0
 62
1
100
AcDbPolyline
 90
2
 70
0
 10
680.197950
 20
363.449180
 30
0.0
 10
680.197950
 20
343.449180
 30
0.0
  0
LWPOLYLINE
  5
170
100
AcDbEntity
  8
0
 62
1
100
AcDbPolyline
 90
2
 70
0
 10
686.197950
 20
363.449180
 30
0.0
 10
680.197950
 20
363.449180
 30
0.0
  0
LWPOLYLINE
  5
171
100
AcDbEntity
  8
0
 62
1
100
AcDbPolyline
 90
2
 70
0
 10
686.197950
 20
379.449179
 30
0.0
 10
686.197950
 20
363.449180
 30
0.0
  0
LWPOLYLINE
  5
172
100
AcDbEntity
  8
0
 62
1
100
AcDbPolyline
 90
2
 70
0
 10
667.197950
 20
379.449179
 30
0.0
 10
686.197950
 20
379.449179
 30
0.0
  0
LWPOLYLINE
  5
173
100
AcDbEntity
  8
0
 62
1
100
AcDbPolyline
 90
2
 70
0
 10
667.197950
 20
363.449180
 30
0.0
 10
667.197950
 20
379.449179
 30
0.0
  0
LWPOLYLINE
  5
174
100
AcDbEntity
  8
0
 62
1
100
AcDbPolyline
 90
4
 70
0
 10
157.507853
 20
262.947960
 30
0.0
 10
157.507853
 20
256.947961
 30
0.0
 10
177.507853
 20
256.947961
 30
0.0
 10
177.507853
 20
262.947960
 30
0.0
  0
LWPOLYLINE
  5
175
100
AcDbEntity
  8
0
 62
1
100
AcDbPolyline
 90
4
 70
0
 10
197.507853
 20
262.947960
 30
0.0
 10
197.507853
 20
256.947961
 30
0.0
 10
217.507853
 20
256.947961
 30
0.0
 10
217.507853
 20
262.947960
 30
0.0
  0
LWPOLYLINE
  5
176
100
AcDbEntity
  8
0
 62
1
100
AcDbPolyline
 90
4
 70
0
 10
237.507853
 20
262.947960
 30
0.0
 10
237.507853
 20
256.947961
 30
0.0
 10
257.507853
 20
256.947961
 30
0.0
 10
257.507853
 20
262.947960
 30
0.0
  0
LWPOLYLINE
  5
177
100
AcDbEntity
  8
0
 62
1
100
AcDbPolyline
 90
4
 70
0
 10
277.507853
 20
262.947960
 30
0.0
 10
277.507853
 20
256.947961
 30
0.0
 10
297.507853
 20
256.947961
 30
0.0
 10
297.507853
 20
262.947960
 30
0.0
  0
LWPOLYLINE
  5
178
100
AcDbEntity
  8
0
 62
1
100
AcDbPolyline
 90
4
 70
0
 10
317.507853
 20
262.947960
 30
0.0
 10
317.507853
 20
256.947961
 30
0.0
 10
337.507853
 20
256.947961
 30
0.0
 10
337.507853
 20
262.947960
 30
0.0
  0
LWPOLYLINE
  5
179
100
AcDbEntity
  8
0
 62
1
100
AcDbPolyline
 90
4
 70
0
 10
357.507853
 20
262.947960
 30
0.0
 10
357.507853
 20
256.947961
 30
0.0
 10
377.507852
 20
256.947961
 30
0.0
 10
377.507852
 20
262.947960
 30
0.0
  0
LWPOLYLINE
  5
17a
100
AcDbEntity
  8
0
 62
1
100
AcDbPolyline
 90
4
 70
0
 10
397.507853
 20
262.947960
 30
0.0
 10
397.507853
 20
256.947961
 30
0.0
 10
417.507853
 20
256.947961
 30
0.0
 10
417.507853
 20
262.947960
 30
0.0
  0
LWPOLYLINE
  5
17b
100
AcDbEntity
  8
0
 62
1
100
AcDbPolyline
 90
4
 70
0
 10
437.507853
 20
262.947960
 30
0.0
 10
437.507853
 20
256.947961
 30
0.0
 10
457.507853
 20
256.947961
 30
0.0
 10
457.507853
 20
262.947960
 30
0.0
  0
LWPOLYLINE
  5
17c
100
AcDbEntity
  8
0
 62
1
100
AcDbPolyline
 90
4
 70
0
 10
477.507853
 20
262.947960
 30
0.0
 10
477.507853
 20
256.947961
 30
0.0
 10
497.507853
 20
256.947961
 30
0.0
 10
497.507853
 20
262.947960
 30
0.0
  0
LWPOLYLINE
  5
17d
100
AcDbEntity
  8
0
 62
1
100
AcDbPolyline
 90
4
 70
0
 10
517.507853
 20
262.947960
 30
0.0
 10
517.507853
 20
256.947961
 30
0.0
 10
537.507853
 20
256.947961
 30
0.0
 10
537.507853
 20
262.947960
 30
0.0
  0
LWPOLYLINE
  5
17e
100
AcDbEntity
  8
0
 62
1
100
AcDbPolyline
 90
3
 70
0
 10
557.507853
 20
262.947960
 30
0.0
 10
557.507853
 20
256.947961
 30
0.0
 10
577.507853
 20
256.947961
 30
0.0
  0
LWPOLYLINE
  5
17f
100
AcDbEntity
  8
0
 62
1
100
AcDbPolyline
 90
3
 70
0
 10
577.507853
 20
249.947960
 30
0.0
 10
557.507853
 20
249.947960
 30
0.0
 10
557.507853
 20
243.947960
 30
0.0
  0
LWPOLYLINE
  5
180
100
AcDbEntity
  8
0
 62
1
100
AcDbPolyline
 90
4
 70
0
 10
537.507853
 20
243.947960
 30
0.0
 10
537.507853
 20
249.947960
 30
0.0
 10
517.507853
 20
249.947960
 30
0.0
 10
517.507853
 20
243.947960
 30
0.0
  0
LWPOLYLINE
  5
181
100
AcDbEntity
  8
0
 62
1
100
AcDbPolyline
 90
4
 70
0
 10
497.507853
 20
243.947960
 30
0.0
 10
497.507853
 20
249.947960
 30
0.0
 10
477.507853
 20
249.947960
 30
0.0
 10
477.507853
 20
243.947960
 30
0.0
  0
LWPOLYLINE
  5
182
100
AcDbEntity
  8
0
 62
1
100
AcDbPolyline
 90
4
 70
0
 10
457.507853
 20
243.947960
 30
0.0
 10
457.507853
 20
249.947960
 30
0.0
 10
437.507853
 20
249.947960
 30
0.0
 10
437.507853
 20
243.947960
 30
0.0
  0
LWPOLYLINE
  5
183
100
AcDbEntity
  8
0
 62
1
100
AcDbPolyline
 90
4
 70
0
 10
417.507853
 20
243.947960
 30
0.0
 10
417.507853
 20
249.947960
 30
0.0
 10
397.507853
 20
249.947960
 30
0.0
 10
397.507853
 20
243.947960
 30
0.0
  0
LWPOLYLINE
  5
184
100
AcDbEntity
  8
0
 62
1
100
AcDbPolyline
 90
4
 70
0
 10
377.507852
 20
243.947960
 30
0.0
 10
377.507852
 20
249.947960
 30
0.0
 10
357.507853
 20
249.947960
 30
0.0
 10
357.507853
 20
243.947960
 30
0.0
  0
LWPOLYLINE
  5
185
100
AcDbEntity
  8
0
 62
1
100
AcDbPolyline
 90
4
 70
0
 10
337.507853
 20
243.947960
 30
0.0
 10
337.507853
 20
249.947960
 30
0.0
 10
317.507853
 20
249.947960
 30
0.0
 10
317.507853
 20
243.947960
 30
0.0
  0
LWPOLYLINE
  5
186
100
AcDbEntity
  8
0
 62
1
100
AcDbPolyline
 90
4
 70
0
 10
297.507853
 20
243.947960
 30
0.0
 10
297.507853
 20
249.947960
 30
0.0
 10
277.507853
 20
249.947960
 30
0.0
 10
277.507853
 20
243.947960
 30
0.0
  0
LWPOLYLINE
  5
187
100
AcDbEntity
  8
0
 62
1
100
AcDbPolyline
 90
4
 70
0
 10
257.507853
 20
243.947960
 30
0.0
 10
257.507853
 20
249.947960
 30
0.0
 10
237.507853
 20
249.947960
 30
0.0
 10
237.507853
 20
243.947960
 30
0.0
  0
LWPOLYLINE
  5
188
100
AcDbEntity
  8
0
 62
1
100
AcDbPolyline
 90
4
 70
0
 10
217.507853
 20
243.947960
 30
0.0
 10
217.507853
 20
249.947960
 30
0.0
 10
197.507853
 20
249.947960
 30
0.0
 10
197.507853
 20
243.947960
 30
0.0
  0
LWPOLYLINE
  5
189
100
AcDbEntity
  8
0
 62
1
100
AcDbPolyline
 90
4
 70
0
 10
177.507853
 20
243.947960
 30
0.0
 10
177.507853
 20
249.947960
 30
0.0
 10
157.507853
 20
249.947960
 30
0.0
 10
157.507853
 20
243.947960
 30
0.0
  0
LWPOLYLINE
  5
18a
100
AcDbEntity
  8
0
 62
1
100
AcDbPolyline
 90
2
 70
0
 10
557.507853
 20
262.947960
 30
0.0
 10
537.507853
 20
262.947960
 30
0.0
  0
LWPOLYLINE
  5
18b
100
AcDbEntity
  8
0
 62
1
100
AcDbPolyline
 90
2
 70
0
 10
577.507853
 20
249.947960
 30
0.0
 10
577.507853
 20
256.947961
 30
0.0
  0
LWPOLYLINE
  5
18c
100
AcDbEntity
  8
0
 62
1
100
AcDbPolyline
 90
2
 70
0
 10
537.507853
 20
243.947960
 30
0.0
 10
557.507853
 20
243.947960
 30
0.0
  0
LWPOLYLINE
  5
18d
100
AcDbEntity
  8
0
 62
1
100
AcDbPolyline
 90
2
 70
0
 10
137.507853
 20
262.947960
 30
0.0
 10
137.507853
 20
243.947960
 30
0.0
  0
LWPOLYLINE
  5
18e
100
AcDbEntity
  8
0
 62
1
100
AcDbPolyline
 90
2
 70
0
 10
157.507853
 20
262.947960
 30
0.0
 10
137.507853
 20
262.947960
 30
0.0
  0
LWPOLYLINE
  5
18f
100
AcDbEntity
  8
0
 62
1
100
AcDbPolyline
 90
2
 70
0
 10
197.507853
 20
262.947960
 30
0.0
 10
177.507853
 20
262.947960
 30
0.0
  0
LWPOLYLINE
  5
190
100
AcDbEntity
  8
0
 62
1
100
AcDbPolyline
 90
2
 70
0
 10
237.507853
 20
262.947960
 30
0.0
 10
217.507853
 20
262.947960
 30
0.0
  0
LWPOLYLINE
  5
191
100
AcDbEntity
  8
0
 62
1
100
AcDbPolyline
 90
2
 70
0
 10
277.507853
 20
262.947960
 30
0.0
 10
257.507853
 20
262.947960
 30
0.0
  0
LWPOLYLINE
  5
192
100
AcDbEntity
  8
0
 62
1
100
AcDbPolyline
 90
2
 70
0
 10
317.507853
 20
262.947960
 30
0.0
 10
297.507853
 20
262.947960
 30
0.0
  0
LWPOLYLINE
  5
193
100
AcDbEntity
  8
0
 62
1
100
AcDbPolyline
 90
2
 70
0
 10
357.507853
 20
262.947960
 30
0.0
 10
337.507853
 20
262.947960
 30
0.0
  0
LWPOLYLINE
  5
194
100
AcDbEntity
  8
0
 62
1
100
AcDbPolyline
 90
2
 70
0
 10
397.507853
 20
262.947960
 30
0.0
 10
377.507852
 20
262.947960
 30
0.0
  0
LWPOLYLINE
  5
195
100
AcDbEntity
  8
0
 62
1
100
AcDbPolyline
 90
2
 70
0
 10
437.507853
 20
262.947960
 30
0.0
 10
417.507853
 20
262.947960
 30
0.0
  0
LWPOLYLINE
  5
196
100
AcDbEntity
  8
0
 62
1
100
AcDbPolyline
 90
2
 70
0
 10
477.507853
 20
262.947960
 30
0.0
 10
457.507853
 20
262.947960
 30
0.0
  0
LWPOLYLINE
  5
197
100
AcDbEntity
  8
0
 62
1
100
AcDbPolyline
 90
2
 70
0
 10
517.507853
 20
262.947960
 30
0.0
 10
497.507853
 20
262.947960
 30
0.0
  0
LWPOLYLINE
  5
198
100
AcDbEntity
  8
0
 62
1
100
AcDbPolyline
 90
2
 70
0
 10
177.507853
 20
243.947960
 30
0.0
 10
197.507853
 20
243.947960
 30
0.0
  0
LWPOLYLINE
  5
199
100
AcDbEntity
  8
0
 62
1
100
AcDbPolyline
 90
2
 70
0
 10
217.507853
 20
243.947960
 30
0.0
 10
237.507853
 20
243.947960
 30
0.0
  0
LWPOLYLINE
  5
19a
100
AcDbEntity
  8
0
 62
1
100
AcDbPolyline
 90
2
 70
0
 10
257.507853
 20
243.947960
 30
0.0
 10
277.507853
 20
243.947960
 30
0.0
  0
LWPOLYLINE
  5
19b
100
AcDbEntity
  8
0
 62
1
100
AcDbPolyline
 90
2
 70
0
 10
297.507853
 20
243.947960
 30
0.0
 10
317.507853
 20
243.947960
 30
0.0
  0
LWPOLYLINE
  5
19c
100
AcDbEntity
  8
0
 62
1
100
AcDbPolyline
 90
2
 70
0
 10
337.507853
 20
243.947960
 30
0.0
 10
357.507853
 20
243.947960
 30
0.0
  0
LWPOLYLINE
  5
19d
100
AcDbEntity
  8
0
 62
1
100
AcDbPolyline
 90
2
 70
0
 10
377.507852
 20
243.947960
 30
0.0
 10
397.507853
 20
243.947960
 30
0.0
  0
LWPOLYLINE
  5
19e
100
AcDbEntity
  8
0
 62
1
100
AcDbPolyline
 90
2
 70
0
 10
417.507853
 20
243.947960
 30
0.0
 10
437.507853
 20
243.947960
 30
0.0
  0
LWPOLYLINE
  5
19f
100
AcDbEntity
  8
0
 62
1
100
AcDbPolyline
 90
2
 70
0
 10
457.507853
 20
243.947960
 30
0.0
 10
477.507853
 20
243.947960
 30
0.0
  0
LWPOLYLINE
  5
1a0
100
AcDbEntity
  8
0
 62
1
100
AcDbPolyline
 90
2
 70
0
 10
497.507853
 20
243.947960
 30
0.0
 10
517.507853
 20
243.947960
 30
0.0
  0
LWPOLYLINE
  5
1a1
100
AcDbEntity
  8
0
 62
1
100
AcDbPolyline
 90
2
 70
0
 10
137.507853
 20
243.947960
 30
0.0
 10
157.507853
 20
243.947960
 30
0.0
  0
LWPOLYLINE
  5
1a2
100
AcDbEntity
  8
0
 62
1
100
AcDbPolyline
 90
2
 70
0
 10
633.603125
 20
258.574532
 30
0.0
 10
613.603125
 20
258.574532
 30
0.0
  0
LWPOLYLINE
  5
1a3
100
AcDbEntity
  8
0
 62
1
100
AcDbPolyline
 90
2
 70
0
 10
633.603125
 20
264.574532
 30
0.0
 10
633.603125
 20
258.574532
 30
0.0
  0
LWPOLYLINE
  5
1a4
100
AcDbEntity
  8
0
 62
1
100
AcDbPolyline
 90
2
 70
0
 10
653.603125
 20
264.574532
 30
0.0
 10
633.603125
 20
264.574532
 30
0.0
  0
LWPOLYLINE
  5
1a5
100
AcDbEntity
  8
0
 62
1
100
AcDbPolyline
 90
2
 70
0
 10
653.603125
 20
245.574532
 30
0.0
 10
653.603125
 20
264.574532
 30
0.0
  0
LWPOLYLINE
  5
1a6
100
AcDbEntity
  8
0
 62
1
100
AcDbPolyline
 90
2
 70
0
 10
633.603125
 20
245.574532
 30
0.0
 10
653.603125
 20
245.574532
 30
0.0
  0
LWPOLYLINE
  5
1a7
100
AcDbEntity
  8
0
 62
1
100
AcDbPolyline
 90
2
 70
0
 10
633.603125
 20
251.574532
 30
0.0
 10
633.603125
 20
245.574532
 30
0.0
  0
LWPOLYLINE
  5
1a8
100
AcDbEntity
  8
0
 62
1
100
AcDbPolyline
 90
2
 70
0
 10
613.603125
 20
251.574532
 30
0.0
 10
633.603125
 20
251.574532
 30
0.0
  0
LWPOLYLINE
  5
1a9
100
AcDbEntity
  8
0
 62
1
100
AcDbPolyline
 90
2
 70
0
 10
613.603125
 20
245.574532
 30
0.0
 10
613.603125
 20
251.574532
 30
0.0
  0
LWPOLYLINE
  5
1aa
100
AcDbEntity
  8
0
 62
1
100
AcDbPolyline
 90
2
 70
0
 10
592.603125
 20
245.574532
 30
0.0
 10
613.603125
 20
245.574532
 30
0.0
  0
LWPOLYLINE
  5
1ab
100
AcDbEntity
  8
0
 62
1
100
AcDbPolyline
 90
2
 70
0
 10
592.603125
 20
264.574532
 30
0.0
 10
592.603125
 20
245.574532
 30
0.0
  0
LWPOLYLINE
  5
1ac
100
AcDbEntity
  8
0
 62
1
100
AcDbPolyline
 90
2
 70
0
 10
613.603125
 20
264.574532
 30
0.0
 10
592.603125
 20
264.574532
 30
0.0
  0
LWPOLYLINE
  5
1ad
100
AcDbEntity
  8
0
 62
1
100
AcDbPolyline
 90
2
 70
0
 10
613.603125
 20
258.574532
 30
0.0
 10
613.603125
 20
264.574532
 30
0.0
  0
LWPOLYLINE
  5
1ae
100
AcDbEntity
  8
0
 62
1
100
AcDbPolyline
 90
2
 70
0
 10
107.208552
 20
259.373310
 30
0.0
 10
87.208552
 20
259.373310
 30
0.0
  0
LWPOLYLINE
  5
1af
100
AcDbEntity
  8
0
 62
1
100
AcDbPolyline
 90
2
 70
0
 10
107.208552
 20
265.373310
 30
0.0
 10
107.208552
 20
259.373310
 30
0.0
  0
LWPOLYLINE
  5
1b0
100
AcDbEntity
  8
0
 62
1
100
AcDbPolyline
 90
2
 70
0
 10
127.208552
 20
265.373310
 30
0.0
 10
107.208552
 20
265.373310
 30
0.0
  0
LWPOLYLINE
  5
1b1
100
AcDbEntity
  8
0
 62
1
100
AcDbPolyline
 90
2
 70
0
 10
127.208552
 20
246.373310
 30
0.0
 10
127.208552
 20
265.373310
 30
0.0
  0
LWPOLYLINE
  5
1b2
100
AcDbEntity
  8
0
 62
1
100
AcDbPolyline
 90
2
 70
0
 10
107.208552
 20
246.373310
 30
0.0
 10
127.208552
 20
246.373310
 30
0.0
  0
LWPOLYLINE
  5
1b3
100
AcDbEntity
  8
0
 62
1
100
AcDbPolyline
 90
2
 70
0
 10
107.208552
 20
252.373310
 30
0.0
 10
107.208552
 20
246.373310
 30
0.0
  0
LWPOLYLINE
  5
1b4
100
AcDbEntity
  8
0
 62
1
100
AcDbPolyline
 90
2
 70
0
 10
87.208552
 20
252.373310
 30
0.0
 10
107.208552
 20
252.373310
 30
0.0
  0
LWPOLYLINE
  5
1b5
100
AcDbEntity
  8
0
 62
1
100
AcDbPolyline
 90
2
 70
0
 10
87.208552
 20
246.373310
 30
0.0
 10
87.208552
 20
252.373310
 30
0.0
  0
LWPOLYLINE
  5
1b6
100
AcDbEntity
  8
0
 62
1
100
AcDbPolyline
 90
2
 70
0
 10
66.208552
 20
246.373310
 30
0.0
 10
87.208552
 20
246.373310
 30
0.0
  0
LWPOLYLINE
  5
1b7
100
AcDbEntity
  8
0
 62
1
100
AcDbPolyline
 90
2
 70
0
 10
66.208552
 20
265.373310
 30
0.0
 10
66.208552
 20
246.373310
 30
0.0
  0
LWPOLYLINE
  5
1b8
100
AcDbEntity
  8
0
 62
1
100
AcDbPolyline
 90
2
 70
0
 10
87.208552
 20
265.373310
 30
0.0
 10
66.208552
 20
265.373310
 30
0.0
  0
LWPOLYLINE
  5
1b9
100
AcDbEntity
  8
0
 62
1
100
AcDbPolyline
 90
2
 70
0
 10
87.208552
 20
259.373310
 30
0.0
 10
87.208552
 20
265.373310
 30
0.0
  0
ENDSEC
  0
SECTION
  2
OBJECTS
  0
DICTIONARY
  5
C
330
0
100
AcDbDictionary
  3
ACAD_GROUP
350
D
  3
ACAD_MLINESTYLE
350
17
  0
DICTIONARY
  5
D
330
C
100
AcDbDictionary
  0
DICTIONARY
  5
1A
330
C
100
AcDbDictionary
  0
DICTIONARY
  5
17
330
C
100
AcDbDictionary
  3
STANDARD
350
18
  0
DICTIONARY
  5
19
330
C
100
AcDbDictionary
  0
ENDSEC
  0
EOF
