  0
SECTION
  2
HEADER
  9
$ACADVER
  1
AC1014
  9
$HANDSEED
  5
FFFF
  9
$MEASUREMENT
 70
     1
  0
ENDSEC
  0
SECTION
  2
TABLES
  0
TABLE
  2
VPORT
  5
8
330
0
100
AcDbSymbolTable
 70
     4
  0
VPORT
  5
2E
330
8
100
AcDbSymbolTableRecord
100
AcDbViewportTableRecord
  2
*ACTIVE
 70
     0
 10
0.0
 20
0.0
 11
1.0
 21
1.0
 12
210.0
 22
148.5
 13
0.0
 23
0.0
 14
10.0
 24
10.0
 15
10.0
 25
10.0
 16
0.0
 26
0.0
 36
1.0
 17
0.0
 27
0.0
 37
0.0
 40
341.0
 41
1.24
 42
50.0
 43
0.0
 44
0.0
 50
0.0
 51
0.0
 71
     0
 72
   100
 73
     1
 74
     3
 75
     0
 76
     0
 77
     0
 78
     0
  0
ENDTAB
  0
TABLE
  2
LTYPE
  5
5
330
0
100
AcDbSymbolTable
 70
     1
  0
LTYPE
  5
14
330
5
100
AcDbSymbolTableRecord
100
AcDbLinetypeTableRecord
  2
BYBLOCK
 70
     0
  3

 72
    65
 73
     0
 40
0.0
  0
LTYPE
  5
15
330
5
100
AcDbSymbolTableRecord
100
AcDbLinetypeTableRecord
  2
BYLAYER
 70
     0
  3

 72
    65
 73
     0
 40
0.0
  0
LTYPE
  5
16
330
5
100
AcDbSymbolTableRecord
100
AcDbLinetypeTableRecord
  2
CONTINUOUS
 70
     0
  3
Solid line
 72
    65
 73
     0
 40
0.0
  0
ENDTAB
  0
TABLE
  2
LAYER
  5
2
100
AcDbSymbolTable
 70
1
  0
LAYER
  5
50
100
AcDbSymbolTableRecord
100
AcDbLayerTableRecord
  2
0
 70
0
  6
CONTINUOUS
  0
ENDTAB
  0
TABLE
  2
STYLE
  5
3
330
0
100
AcDbSymbolTable
 70
     1
  0
STYLE
  5
11
330
3
100
AcDbSymbolTableRecord
100
AcDbTextStyleTableRecord
  2
STANDARD
 70
     0
 40
0.0
 41
1.0
 50
0.0
 71
     0
 42
2.5
  3
txt
  4

  0
ENDTAB
  0
TABLE
  2
VIEW
  5
6
330
0
100
AcDbSymbolTable
 70
     0
  0
ENDTAB
  0
TABLE
  2
UCS
  5
7
330
0
100
AcDbSymbolTable
 70
     0
  0
ENDTAB
  0
TABLE
  2
APPID
  5
9
330
0
100
AcDbSymbolTable
 70
     2
  0
APPID
  5
12
330
9
100
AcDbSymbolTableRecord
100
AcDbRegAppTableRecord
  2
ACAD
 70
     0
  0
ENDTAB
  0
TABLE
  2
DIMSTYLE
  5
A
330
0
100
AcDbSymbolTable
 70
     1
  0
DIMSTYLE
105
27
330
A
100
AcDbSymbolTableRecord
100
AcDbDimStyleTableRecord
  2
ISO-25
 70
     0
  3

  4

  5

  6

  7

 40
1.0
 41
2.5
 42
0.625
 43
3.75
 44
1.25
 45
0.0
 46
0.0
 47
0.0
 48
0.0
140
2.5
141
2.5
142
0.0
143
0.03937007874016
144
1.0
145
0.0
146
1.0
147
0.625
 71
     0
 72
     0
 73
     0
 74
     0
 75
     0
 76
     0
 77
     1
 78
     8
170
     0
171
     3
172
     1
173
     0
174
     0
175
     0
176
     0
177
     0
178
     0
270
     2
271
     2
272
     2
273
     2
274
     3
340
11
275
     0
280
     0
281
     0
282
     0
283
     0
284
     8
285
     0
286
     0
287
     3
288
     0
  0
ENDTAB
  0
TABLE
  2
BLOCK_RECORD
  5
1
330
0
100
AcDbSymbolTable
 70
     1
  0
BLOCK_RECORD
  5
1F
330
1
100
AcDbSymbolTableRecord
100
AcDbBlockTableRecord
  2
*MODEL_SPACE
  0
BLOCK_RECORD
  5
1B
330
1
100
AcDbSymbolTableRecord
100
AcDbBlockTableRecord
  2
*PAPER_SPACE
  0
ENDTAB
  0
ENDSEC
  0
SECTION
  2
BLOCKS
  0
BLOCK
  5
20
330
1F
100
AcDbEntity
  8
0
100
AcDbBlockBegin
  2
*MODEL_SPACE
 70
     0
 10
0.0
 20
0.0
 30
0.0
  3
*MODEL_SPACE
  1

  0
ENDBLK
  5
21
330
1F
100
AcDbEntity
  8
0
100
AcDbBlockEnd
  0
BLOCK
  5
1C
330
1B
100
AcDbEntity
 67
     1
  8
0
100
AcDbBlockBegin
  2
*PAPER_SPACE
  1

  0
ENDBLK
  5
1D
330
1B
100
AcDbEntity
 67
     1
  8
0
100
AcDbBlockEnd
  0
ENDSEC
  0
SECTION
  2
ENTITIES
  0
LWPOLYLINE
  5
100
100
AcDbEntity
  8
0
 62
1
100
AcDbPolyline
 90
4
 70
1
 10
260.075995
 20
336.304115
 30
0.0
 10
10.075995
 20
336.304115
 30
0.0
 10
10.075995
 20
6.304108
 30
0.0
 10
260.075995
 20
6.304108
 30
0.0
  0
LWPOLYLINE
  5
101
100
AcDbEntity
  8
0
 62
1
100
AcDbPolyline
 90
12
 70
1
 10
14.644866
 20
358.333998
 30
0.0
 10
14.644866
 20
348.334018
 30
0.0
 10
94.644864
 20
348.334018
 30
0.0
 10
94.644864
 20
358.333998
 30
0.0
 10
88.644881
 20
358.333998
 30
0.0
 10
88.644881
 20
378.334008
 30
0.0
 10
94.644864
 20
378.334008
 30
0.0
 10
94.644864
 20
388.334010
 30
0.0
 10
14.644866
 20
388.334010
 30
0.0
 10
14.644866
 20
378.334008
 30
0.0
 10
20.644875
 20
378.334008
 30
0.0
 10
20.644875
 20
358.333998
 30
0.0
  0
LWPOLYLINE
  5
102
100
AcDbEntity
  8
0
 62
1
100
AcDbPolyline
 90
12
 70
1
 10
181.054674
 20
359.755414
 30
0.0
 10
175.054665
 20
359.755414
 30
0.0
 10
175.054665
 20
349.755408
 30
0.0
 10
255.054664
 20
349.755408
 30
0.0
 10
255.054664
 20
359.755414
 30
0.0
 10
249.054681
 20
359.755414
 30
0.0
 10
249.054681
 20
379.755408
 30
0.0
 10
255.054664
 20
379.755408
 30
0.0
 10
255.054664
 20
389.755410
 30
0.0
 10
175.054665
 20
389.755410
 30
0.0
 10
175.054665
 20
379.755408
 30
0.0
 10
181.054674
 20
379.755408
 30
0.0
  0
LWPOLYLINE
  5
103
100
AcDbEntity
  8
0
 62
1
100
AcDbPolyline
 90
12
 70
1
 10
115.344329
 20
379.059268
 30
0.0
 10
115.344329
 20
389.059275
 30
0.0
 10
155.344328
 20
389.059275
 30
0.0
 10
155.344328
 20
379.059268
 30
0.0
 10
161.344311
 20
379.059268
 30
0.0
 10
161.344311
 20
359.059258
 30
0.0
 10
155.344328
 20
359.059258
 30
0.0
 10
155.344328
 20
349.059252
 30
0.0
 10
115.344329
 20
349.059252
 30
0.0
 10
115.344329
 20
359.059258
 30
0.0
 10
109.344320
 20
359.059258
 30
0.0
 10
109.344320
 20
379.059268
 30
0.0
  0
LWPOLYLINE
  5
104
100
AcDbEntity
  8
0
 62
1
100
AcDbPolyline
 90
12
 70
1
 10
181.543907
 20
430.964504
 30
0.0
 10
181.543907
 20
440.964503
 30
0.0
 10
381.543930
 20
440.964503
 30
0.0
 10
381.543930
 20
430.964504
 30
0.0
 10
375.543921
 20
430.964504
 30
0.0
 10
375.543921
 20
410.964499
 30
0.0
 10
381.543930
 20
410.964499
 30
0.0
 10
381.543930
 20
400.964493
 30
0.0
 10
181.543907
 20
400.964493
 30
0.0
 10
181.543907
 20
410.964499
 30
0.0
 10
187.543916
 20
410.964499
 30
0.0
 10
187.543916
 20
430.964504
 30
0.0
  0
LWPOLYLINE
  5
105
100
AcDbEntity
  8
0
 62
1
100
AcDbPolyline
 90
4
 70
1
 10
261.543906
 20
430.964504
 30
0.0
 10
255.543923
 20
430.964504
 30
0.0
 10
255.543923
 20
410.964499
 30
0.0
 10
261.543906
 20
410.964499
 30
0.0
  0
LWPOLYLINE
  5
106
100
AcDbEntity
  8
0
 62
1
100
AcDbPolyline
 90
4
 70
1
 10
301.543932
 20
430.722752
 30
0.0
 10
301.543932
 20
410.722750
 30
0.0
 10
307.543914
 20
410.722750
 30
0.0
 10
307.543914
 20
430.722752
 30
0.0
  0
LWPOLYLINE
  5
107
100
AcDbEntity
  8
0
 62
1
100
AcDbPolyline
 90
17
 70
1
 10
300.647074
 20
381.676662
 30
0.0
 10
300.647074
 20
387.676671
 30
0.0
 10
280.647061
 20
387.676671
 30
0.0
 10
280.647061
 20
381.676662
 30
0.0
 10
270.647054
 20
381.676662
 30
0.0
 10
270.647054
 20
31.676698
 30
0.0
 10
280.647061
 20
31.676698
 30
0.0
 10
280.647061
 20
25.676662
 30
0.0
 10
300.647074
 20
25.676662
 30
0.0
 10
300.647074
 20
31.676698
 30
0.0
 10
310.647054
 20
31.676698
 30
0.0
 10
310.647054
 20
316.676660
 30
0.0
 10
320.486775
 20
340.223385
 30
0.0
 10
289.628236
 20
355.650658
 30
0.0
 10
295.441396
 20
367.278513
 30
0.0
 10
310.647054
 20
359.676663
 30
0.0
 10
310.647054
 20
381.676662
 30
0.0
  0
LWPOLYLINE
  5
108
100
AcDbEntity
  8
0
 62
1
100
AcDbPolyline
 90
17
 70
1
 10
347.046817
 20
356.241476
 30
0.0
 10
352.850320
 20
367.874147
 30
0.0
 10
368.062301
 20
360.284945
 30
0.0
 10
368.062301
 20
382.284943
 30
0.0
 10
358.062295
 20
382.284943
 30
0.0
 10
358.062295
 20
388.284952
 30
0.0
 10
338.062282
 20
388.284952
 30
0.0
 10
338.062282
 20
382.284943
 30
0.0
 10
328.062302
 20
382.284943
 30
0.0
 10
328.062302
 20
32.284942
 30
0.0
 10
338.062282
 20
32.284942
 30
0.0
 10
338.062282
 20
26.284933
 30
0.0
 10
358.062295
 20
26.284933
 30
0.0
 10
358.062295
 20
32.284942
 30
0.0
 10
368.062301
 20
32.284942
 30
0.0
 10
368.062301
 20
317.284941
 30
0.0
 10
377.918162
 20
340.839842
 30
0.0
  0
LWPOLYLINE
  5
109
100
AcDbEntity
  8
0
 62
1
100
AcDbPolyline
 90
4
 70
1
 10
338.062282
 20
296.284935
 30
0.0
 10
358.062295
 20
296.284935
 30
0.0
 10
358.062295
 20
302.284944
 30
0.0
 10
338.062282
 20
302.284944
 30
0.0
  0
LWPOLYLINE
  5
10a
100
AcDbEntity
  8
0
 62
1
100
AcDbPolyline
 90
28
 70
1
 10
399.961817
 20
32.894436
 30
0.0
 10
399.973194
 20
26.894400
 30
0.0
 10
419.973154
 20
26.932500
 30
0.0
 10
419.961777
 20
32.932510
 30
0.0
 10
429.961757
 20
32.951560
 30
0.0
 10
429.946147
 20
41.109418
 30
0.0
 10
412.202130
 20
58.786098
 30
0.0
 10
416.436680
 20
63.036788
 30
0.0
 10
427.847472
 20
51.660842
 30
0.0
 10
429.965541
 20
53.785420
 30
0.0
 10
427.840989
 20
55.903489
 30
0.0
 10
429.959058
 20
58.028040
 30
0.0
 10
427.834507
 20
60.146136
 30
0.0
 10
429.952576
 20
62.270687
 30
0.0
 10
427.827998
 20
64.388756
 30
0.0
 10
429.946094
 20
66.513334
 30
0.0
 10
430.253037
 20
317.900864
 30
0.0
 10
439.199181
 20
341.473043
 30
0.0
 10
408.289974
 20
356.798557
 30
0.0
 10
414.064797
 20
368.445488
 30
0.0
 10
429.295430
 20
360.893804
 30
0.0
 10
429.295430
 20
382.893802
 30
0.0
 10
419.295424
 20
382.893802
 30
0.0
 10
419.295424
 20
388.893811
 30
0.0
 10
399.295411
 20
388.893811
 30
0.0
 10
399.295411
 20
382.893802
 30
0.0
 10
389.295431
 20
382.874752
 30
0.0
 10
389.961731
 20
32.875360
 30
0.0
  0
LWPOLYLINE
  5
10b
100
AcDbEntity
  8
0
 62
1
100
AcDbPolyline
 90
4
 70
1
 10
399.447837
 20
296.893927
 30
0.0
 10
419.447824
 20
296.893927
 30
0.0
 10
419.447824
 20
302.893909
 30
0.0
 10
399.447837
 20
302.893909
 30
0.0
  0
LWPOLYLINE
  5
10c
100
AcDbEntity
  8
0
 62
1
100
AcDbPolyline
 90
28
 70
1
 10
483.502229
 20
61.703392
 30
0.0
 10
485.626780
 20
59.585297
 30
0.0
 10
483.508711
 20
57.460746
 30
0.0
 10
485.633289
 20
55.342677
 30
0.0
 10
483.515194
 20
53.218099
 30
0.0
 10
472.104429
 20
64.594045
 30
0.0
 10
467.869852
 20
60.343355
 30
0.0
 10
485.613869
 20
42.666674
 30
0.0
 10
485.629479
 20
34.508806
 30
0.0
 10
475.629499
 20
34.489756
 30
0.0
 10
475.640876
 20
28.489738
 30
0.0
 10
455.640916
 20
28.451665
 30
0.0
 10
455.629539
 20
34.451682
 30
0.0
 10
445.629559
 20
34.432632
 30
0.0
 10
444.963285
 20
384.432009
 30
0.0
 10
454.963265
 20
384.451059
 30
0.0
 10
454.963265
 20
390.451068
 30
0.0
 10
474.963252
 20
390.451068
 30
0.0
 10
474.963252
 20
384.451059
 30
0.0
 10
484.963258
 20
384.451059
 30
0.0
 10
484.963258
 20
362.451060
 30
0.0
 10
469.732625
 20
370.002745
 30
0.0
 10
463.957802
 20
358.355813
 30
0.0
 10
494.867009
 20
343.030300
 30
0.0
 10
485.920865
 20
319.458121
 30
0.0
 10
485.613922
 20
68.070590
 30
0.0
 10
483.495853
 20
65.946012
 30
0.0
 10
485.620404
 20
63.827944
 30
0.0
  0
LWPOLYLINE
  5
10d
100
AcDbEntity
  8
0
 62
1
100
AcDbPolyline
 90
17
 70
1
 10
127.896496
 20
428.213854
 30
0.0
 10
132.147186
 20
423.979298
 30
0.0
 10
149.823866
 20
441.723307
 30
0.0
 10
157.981737
 20
441.738811
 30
0.0
 10
158.000787
 20
431.738829
 30
0.0
 10
157.981737
 20
441.789876
 30
0.0
 10
157.981737
 20
401.398325
 30
0.0
 10
87.981639
 20
401.398325
 30
0.0
 10
87.981639
 20
441.723249
 30
0.0
 10
124.419950
 20
441.723249
 30
0.0
 10
126.544528
 20
439.605174
 30
0.0
 10
128.662597
 20
441.729736
 30
0.0
 10
130.787148
 20
439.611662
 30
0.0
 10
132.905243
 20
441.736224
 30
0.0
 10
135.029795
 20
439.618150
 30
0.0
 10
137.147864
 20
441.742711
 30
0.0
 10
139.272441
 20
439.624637
 30
0.0
  0
LWPOLYLINE
  5
10e
100
AcDbEntity
  8
0
 62
1
100
AcDbPolyline
 90
17
 70
1
 10
82.909233
 20
441.551063
 30
0.0
 10
82.928283
 20
431.500016
 30
0.0
 10
82.909233
 20
441.499998
 30
0.0
 10
74.751361
 20
441.484494
 30
0.0
 10
57.074708
 20
423.740485
 30
0.0
 10
52.823991
 20
427.975041
 30
0.0
 10
64.199937
 20
439.385827
 30
0.0
 10
62.075359
 20
441.503901
 30
0.0
 10
59.957290
 20
439.379339
 30
0.0
 10
57.832739
 20
441.497414
 30
0.0
 10
55.714670
 20
439.372852
 30
0.0
 10
53.590092
 20
441.490926
 30
0.0
 10
51.472023
 20
439.366364
 30
0.0
 10
49.347472
 20
441.484438
 30
0.0
 10
12.909134
 20
441.484438
 30
0.0
 10
12.909134
 20
401.161957
 30
0.0
 10
82.909127
 20
401.161957
 30
0.0
  0
ENDSEC
  0
SECTION
  2
OBJECTS
  0
DICTIONARY
  5
C
330
0
100
AcDbDictionary
  3
ACAD_GROUP
350
D
  3
ACAD_MLINESTYLE
350
17
  0
DICTIONARY
  5
D
330
C
100
AcDbDictionary
  0
DICTIONARY
  5
1A
330
C
100
AcDbDictionary
  0
DICTIONARY
  5
17
330
C
100
AcDbDictionary
  3
STANDARD
350
18
  0
DICTIONARY
  5
19
330
C
100
AcDbDictionary
  0
ENDSEC
  0
EOF
