  0
SECTION
  2
HEADER
  9
$ACADVER
  1
AC1009
  9
$DWGCODEPAGE
  3
ansi_1252
  9
$INSBASE
 10
0.0
 20
0.0
 30
0.0
  9
$EXTMIN
 10
12.63414300145817
 20
4.812668627770073
 30
0.0
  9
$EXTMAX
 10
492.7366744367378
 20
187.6954310724175
 30
0.0
  9
$LIMMIN
 10
0.0
 20
0.0
  9
$LIMMAX
 10
12.0
 20
9.0
  9
$ORTHOMODE
 70
     0
  9
$REGENMODE
 70
     1
  9
$FILLMODE
 70
     1
  9
$QTEXTMODE
 70
     0
  9
$MIRRTEXT
 70
     1
  9
$DRAGMODE
 70
     2
  9
$LTSCALE
 40
1.0
  9
$OSMODE
 70
    37
  9
$ATTMODE
 70
     1
  9
$TEXTSIZE
 40
0.2
  9
$TRACEWID
 40
0.05
  9
$TEXTSTYLE
  7
STANDARD
  9
$CLAYER
  8
0
  9
$CELTYPE
  6
BYLAYER
  9
$CECOLOR
 62
   256
  9
$DIMSCALE
 40
1.0
  9
$DIMASZ
 40
0.18
  9
$DIMEXO
 40
0.0625
  9
$DIMDLI
 40
0.38
  9
$DIMRND
 40
0.0
  9
$DIMDLE
 40
0.0
  9
$DIMEXE
 40
0.18
  9
$DIMTP
 40
0.0
  9
$DIMTM
 40
0.0
  9
$DIMTXT
 40
0.18
  9
$DIMCEN
 40
0.09
  9
$DIMTSZ
 40
0.0
  9
$DIMTOL
 70
     0
  9
$DIMLIM
 70
     0
  9
$DIMTIH
 70
     1
  9
$DIMTOH
 70
     1
  9
$DIMSE1
 70
     0
  9
$DIMSE2
 70
     0
  9
$DIMTAD
 70
     0
  9
$DIMZIN
 70
     0
  9
$DIMBLK
  1

  9
$DIMASO
 70
     1
  9
$DIMSHO
 70
     1
  9
$DIMPOST
  1

  9
$DIMAPOST
  1

  9
$DIMALT
 70
     0
  9
$DIMALTD
 70
     2
  9
$DIMALTF
 40
25.4
  9
$DIMLFAC
 40
1.0
  9
$DIMTOFL
 70
     0
  9
$DIMTVP
 40
0.0
  9
$DIMTIX
 70
     0
  9
$DIMSOXD
 70
     0
  9
$DIMSAH
 70
     0
  9
$DIMBLK1
  1

  9
$DIMBLK2
  1

  9
$DIMSTYLE
  2
STANDARD
  9
$DIMCLRD
 70
     0
  9
$DIMCLRE
 70
     0
  9
$DIMCLRT
 70
     0
  9
$DIMTFAC
 40
1.0
  9
$DIMGAP
 40
0.09
  9
$LUNITS
 70
     2
  9
$LUPREC
 70
     4
  9
$SKETCHINC
 40
0.1
  9
$FILLETRAD
 40
0.5
  9
$AUNITS
 70
     0
  9
$AUPREC
 70
     0
  9
$MENU
  1
.
  9
$ELEVATION
 40
0.0
  9
$PELEVATION
 40
0.0
  9
$THICKNESS
 40
0.0
  9
$LIMCHECK
 70
     0
  9
$CHAMFERA
 40
0.0
  9
$CHAMFERB
 40
0.0
  9
$SKPOLY
 70
     0
  9
$TDCREATE
 40
2454910.5
  9
$TDUPDATE
 40
2457449.876830555
  9
$TDINDWG
 40
0.0000000116
  9
$TDUSRTIMER
 40
0.0000000116
  9
$USRTIMER
 70
     1
  9
$ANGBASE
 50
0.0
  9
$ANGDIR
 70
     0
  9
$PDMODE
 70
     0
  9
$PDSIZE
 40
0.0
  9
$PLINEWID
 40
0.0
  9
$COORDS
 70
     1
  9
$SPLFRAME
 70
     0
  9
$SPLINETYPE
 70
     6
  9
$SPLINESEGS
 70
     8
  9
$ATTDIA
 70
     0
  9
$ATTREQ
 70
     1
  9
$HANDLING
 70
     1
  9
$HANDSEED
  5
EA4
  9
$SURFTAB1
 70
     6
  9
$SURFTAB2
 70
     6
  9
$SURFTYPE
 70
     6
  9
$SURFU
 70
     6
  9
$SURFV
 70
     6
  9
$UCSNAME
  2

  9
$UCSORG
 10
0.0
 20
0.0
 30
0.0
  9
$UCSXDIR
 10
1.0
 20
0.0
 30
0.0
  9
$UCSYDIR
 10
0.0
 20
1.0
 30
0.0
  9
$PUCSNAME
  2

  9
$PUCSORG
 10
0.0
 20
0.0
 30
0.0
  9
$PUCSXDIR
 10
1.0
 20
0.0
 30
0.0
  9
$PUCSYDIR
 10
0.0
 20
1.0
 30
0.0
  9
$USERI1
 70
     0
  9
$USERI2
 70
     0
  9
$USERI3
 70
     0
  9
$USERI4
 70
     0
  9
$USERI5
 70
     0
  9
$USERR1
 40
0.0
  9
$USERR2
 40
0.0
  9
$USERR3
 40
0.0
  9
$USERR4
 40
0.0
  9
$USERR5
 40
0.0
  9
$WORLDVIEW
 70
     1
  9
$SHADEDGE
 70
     3
  9
$SHADEDIF
 70
    70
  9
$TILEMODE
 70
     1
  9
$MAXACTVP
 70
    64
  9
$PLIMCHECK
 70
     0
  9
$PEXTMIN
 10
1.000000000000000E+20
 20
1.000000000000000E+20
 30
1.000000000000000E+20
  9
$PEXTMAX
 10
-1.000000000000000E+20
 20
-1.000000000000000E+20
 30
-1.000000000000000E+20
  9
$PLIMMIN
 10
0.0
 20
0.0
  9
$PLIMMAX
 10
12.0
 20
9.0
  9
$UNITMODE
 70
     0
  9
$VISRETAIN
 70
     1
  9
$PLINEGEN
 70
     0
  9
$PSLTSCALE
 70
     1
  0
ENDSEC
  0
SECTION
  2
TABLES
  0
TABLE
  2
VPORT
 70
     1
  0
VPORT
  2
*ACTIVE
 70
     0
 10
0.0
 20
0.0
 11
1.0
 21
1.0
 12
10.42990654205607
 22
4.5
 13
0.0
 23
0.0
 14
0.5
 24
0.5
 15
0.5
 25
0.5
 16
0.0
 26
0.0
 36
1.0
 17
0.0
 27
0.0
 37
0.0
 40
9.0
 41
1.972972972850329
 42
50.0
 43
0.0
 44
0.0
 50
0.0
 51
0.0
 71
     0
 72
   100
 73
     1
 74
     3
 75
     0
 76
     0
 77
     0
 78
     0
  0
ENDTAB
  0
TABLE
  2
LTYPE
 70
     2
  0
LTYPE
  2
CONTINUOUS
 70
     0
  3
Solid line
 72
    65
 73
     0
 40
0.0
  0
LTYPE
  2
CONTINUOUS2
 70
     0
  3
Solid Line
 72
    65
 73
     0
 40
0.0
  0
ENDTAB
  0
TABLE
  2
LAYER
 70
     1
  0
LAYER
  2
0
 70
     0
 62
     7
  6
CONTINUOUS
  0
ENDTAB
  0
TABLE
  2
STYLE
 70
     1
  0
STYLE
  2
STANDARD
 70
     0
 40
0.0
 41
1.0
 50
0.0
 71
     0
 42
0.2
  3
txt
  4

  0
ENDTAB
  0
TABLE
  2
VIEW
 70
     0
  0
ENDTAB
  0
TABLE
  2
UCS
 70
     0
  0
ENDTAB
  0
TABLE
  2
APPID
 70
     1
  0
APPID
  2
ACAD
 70
     0
  0
ENDTAB
  0
TABLE
  2
DIMSTYLE
 70
     1
  0
DIMSTYLE
  2
STANDARD
 70
     0
  3

  4

  5

  6

  7

 40
1.0
 41
0.18
 42
0.0625
 43
0.38
 44
0.18
 45
0.0
 46
0.0
 47
0.0
 48
0.0
140
0.18
141
0.09
142
0.0
143
25.4
144
1.0
145
0.0
146
1.0
147
0.09
 71
     0
 72
     0
 73
     1
 74
     1
 75
     0
 76
     0
 77
     0
 78
     0
170
     0
171
     2
172
     0
173
     0
174
     0
175
     0
176
     0
177
     0
178
     0
  0
ENDTAB
  0
ENDSEC
  0
SECTION
  2
BLOCKS
  0
BLOCK
  8
0
  2
$MODEL_SPACE
 70
     0
 10
0.0
 20
0.0
 30
0.0
  3
$MODEL_SPACE
  1

  0
ENDBLK
  5
21
  8
0
  0
BLOCK
 67
     1
  8
0
  2
$PAPER_SPACE
 70
     0
 10
0.0
 20
0.0
 30
0.0
  3
$PAPER_SPACE
  1

  0
ENDBLK
  5
1D
 67
     1
  8
0
  0
ENDSEC
  0
SECTION
  2
ENTITIES
  0
POLYLINE
  5
6B
  8
0
 66
     1
 10
0.0
 20
0.0
 30
0.0
 70
     1
  0
VERTEX
  5
274
  8
0
 10
98.13417466585175
 20
51.36268592690185
 30
0.0
 42
0.4142135623730951
  0
VERTEX
  5
275
  8
0
 10
96.70917413811188
 20
49.93768539916197
 30
0.0
 42
0.4142135623730951
  0
VERTEX
  5
276
  8
0
 10
98.13417466585175
 20
48.51268487142207
 30
0.0
 42
0.4142135623730951
  0
VERTEX
  5
277
  8
0
 10
99.55917519359164
 20
49.93768539916197
 30
0.0
 42
0.4142135623730951
  0
SEQEND
  5
CA2
  8
0
  0
POLYLINE
  5
6C
  8
0
 66
     1
 10
0.0
 20
0.0
 30
0.0
 70
     1
  0
VERTEX
  5
278
  8
0
 10
70.23572548172689
 20
89.76160699311517
 30
0.0
 42
0.4142135623730951
  0
VERTEX
  5
279
  8
0
 10
68.810724953987
 20
88.33660646537528
 30
0.0
 42
0.4142135623730951
  0
VERTEX
  5
27A
  8
0
 10
70.23572548172689
 20
86.91160593763539
 30
0.0
 42
0.4142135623730951
  0
VERTEX
  5
27B
  8
0
 10
71.66072600946677
 20
88.33660646537528
 30
0.0
 42
0.4142135623730951
  0
SEQEND
  5
CA3
  8
0
  0
POLYLINE
  5
6D
  8
0
 66
     1
 10
0.0
 20
0.0
 30
0.0
 70
     1
  0
VERTEX
  5
27C
  8
0
 10
25.09508646840089
 20
75.09452427714604
 30
0.0
 42
0.4142135623730951
  0
VERTEX
  5
27D
  8
0
 10
23.67008594066099
 20
73.66952374940614
 30
0.0
 42
0.4142135623730951
  0
VERTEX
  5
27E
  8
0
 10
25.09508646840089
 20
72.24452322166627
 30
0.0
 42
0.4142135623730951
  0
VERTEX
  5
27F
  8
0
 10
26.52008699614078
 20
73.66952374940614
 30
0.0
 42
0.4142135623730951
  0
SEQEND
  5
CA4
  8
0
  0
POLYLINE
  5
6E
  8
0
 66
     1
 10
0.0
 20
0.0
 30
0.0
 70
     1
  0
VERTEX
  5
280
  8
0
 10
25.09508646840089
 20
27.63084757665772
 30
0.0
 42
0.4142135623730951
  0
VERTEX
  5
281
  8
0
 10
23.67008594066099
 20
26.20584704891782
 30
0.0
 42
0.4142135623730951
  0
VERTEX
  5
282
  8
0
 10
25.09508646840089
 20
24.78084652117794
 30
0.0
 42
0.4142135623730951
  0
VERTEX
  5
283
  8
0
 10
26.52008699614078
 20
26.20584704891782
 30
0.0
 42
0.4142135623730951
  0
SEQEND
  5
CA5
  8
0
  0
POLYLINE
  5
6F
  8
0
 66
     1
 10
0.0
 20
0.0
 30
0.0
 70
     1
  0
VERTEX
  5
284
  8
0
 10
70.23572548172689
 20
12.96376486068858
 30
0.0
 42
0.4142135623730951
  0
VERTEX
  5
285
  8
0
 10
68.810724953987
 20
11.53876433294869
 30
0.0
 42
0.4142135623730951
  0
VERTEX
  5
286
  8
0
 10
70.23572548172689
 20
10.1137638052088
 30
0.0
 42
0.4142135623730951
  0
VERTEX
  5
287
  8
0
 10
71.66072600946677
 20
11.53876433294869
 30
0.0
 42
0.4142135623730951
  0
SEQEND
  5
CA6
  8
0
  0
POLYLINE
  5
70
  8
0
 66
     1
 10
0.0
 20
0.0
 30
0.0
 70
     1
  0
VERTEX
  5
288
  8
0
 10
57.75915971322144
 20
95.06270211092526
 30
0.0
 42
0.4142135623730951
  0
VERTEX
  5
289
  8
0
 10
12.63414300145818
 20
49.93768539916197
 30
0.0
 42
0.4142135623730951
  0
VERTEX
  5
28A
  8
0
 10
57.75915971322144
 20
4.812668687398706
 30
0.0
 42
0.4142135623730951
  0
VERTEX
  5
28B
  8
0
 10
102.8841764249847
 20
49.93768539916197
 30
0.0
 42
0.4142135623730951
  0
SEQEND
  5
CA7
  8
0
  0
POLYLINE
  5
71
  8
0
 66
     1
 10
0.0
 20
0.0
 30
0.0
 70
     1
  0
VERTEX
  5
28C
  8
0
 10
57.75915971322144
 20
60.86268944516781
 30
0.0
 42
0.4142135623730951
  0
VERTEX
  5
28D
  8
0
 10
46.83415566721559
 20
49.93768539916197
 30
0.0
 42
0.4142135623730951
  0
VERTEX
  5
28E
  8
0
 10
57.75915971322144
 20
39.01268135315612
 30
0.0
 42
0.4142135623730951
  0
VERTEX
  5
28F
  8
0
 10
68.68416375922729
 20
49.93768539916197
 30
0.0
 42
0.4142135623730951
  0
SEQEND
  5
CA8
  8
0
  0
POLYLINE
  5
72
  8
0
 66
     1
 10
0.0
 20
0.0
 30
0.0
 70
     1
  0
VERTEX
  5
290
  8
0
 10
25.09508646840089
 20
28.81834801644096
 30
0.0
 42
0.4142135623730951
  0
VERTEX
  5
291
  8
0
 10
22.48258550087775
 20
26.20584704891782
 30
0.0
 42
0.4142135623730951
  0
VERTEX
  5
292
  8
0
 10
25.09508646840089
 20
23.59334608139469
 30
0.0
 42
0.4142135623730951
  0
VERTEX
  5
293
  8
0
 10
27.70758743592402
 20
26.20584704891782
 30
0.0
 42
0.4142135623730951
  0
SEQEND
  5
CA9
  8
0
  0
POLYLINE
  5
73
  8
0
 66
     1
 10
0.0
 20
0.0
 30
0.0
 70
     1
  0
VERTEX
  5
294
  8
0
 10
70.23572548172689
 20
14.15126530047183
 30
0.0
 42
0.4142135623730951
  0
VERTEX
  5
295
  8
0
 10
67.62322451420374
 20
11.53876433294869
 30
0.0
 42
0.4142135623730951
  0
VERTEX
  5
296
  8
0
 10
70.23572548172689
 20
8.926263365425552
 30
0.0
 42
0.4142135623730951
  0
VERTEX
  5
297
  8
0
 10
72.84822644925003
 20
11.53876433294869
 30
0.0
 42
0.4142135623730951
  0
SEQEND
  5
CAA
  8
0
  0
POLYLINE
  5
74
  8
0
 66
     1
 10
0.0
 20
0.0
 30
0.0
 70
     1
  0
VERTEX
  5
298
  8
0
 10
25.09508646840089
 20
76.2820247169293
 30
0.0
 42
0.4142135623730951
  0
VERTEX
  5
299
  8
0
 10
22.48258550087775
 20
73.66952374940614
 30
0.0
 42
0.4142135623730951
  0
VERTEX
  5
29A
  8
0
 10
25.09508646840089
 20
71.057022781883
 30
0.0
 42
0.4142135623730951
  0
VERTEX
  5
29B
  8
0
 10
27.70758743592402
 20
73.66952374940614
 30
0.0
 42
0.4142135623730951
  0
SEQEND
  5
CAB
  8
0
  0
POLYLINE
  5
75
  8
0
 66
     1
 10
0.0
 20
0.0
 30
0.0
 70
     1
  0
VERTEX
  5
29C
  8
0
 10
70.23572548172689
 20
90.94910743289842
 30
0.0
 42
0.4142135623730951
  0
VERTEX
  5
29D
  8
0
 10
67.62322451420374
 20
88.33660646537528
 30
0.0
 42
0.4142135623730951
  0
VERTEX
  5
29E
  8
0
 10
70.23572548172689
 20
85.72410549785214
 30
0.0
 42
0.4142135623730951
  0
VERTEX
  5
29F
  8
0
 10
72.84822644925003
 20
88.33660646537528
 30
0.0
 42
0.4142135623730951
  0
SEQEND
  5
CAC
  8
0
  0
POLYLINE
  5
76
  8
0
 66
     1
 10
0.0
 20
0.0
 30
0.0
 70
     1
  0
VERTEX
  5
2A0
  8
0
 10
98.13417466585175
 20
52.5501863666851
 30
0.0
 42
0.4142135623730951
  0
VERTEX
  5
2A1
  8
0
 10
95.52167369832861
 20
49.93768539916197
 30
0.0
 42
0.4142135623730951
  0
VERTEX
  5
2A2
  8
0
 10
98.13417466585175
 20
47.32518443163882
 30
0.0
 42
0.4142135623730951
  0
VERTEX
  5
2A3
  8
0
 10
100.7466756333749
 20
49.93768539916197
 30
0.0
 42
0.4142135623730951
  0
SEQEND
  5
CAD
  8
0
  0
POLYLINE
  5
77
  8
0
 66
     1
 10
0.0
 20
0.0
 30
0.0
 70
     1
  0
VERTEX
  5
2A4
  8
0
 10
199.2073043275791
 20
58.01268833005941
 30
0.0
 42
0.4142135623730951
  0
VERTEX
  5
2A5
  8
0
 10
197.7823037998392
 20
56.58768780231951
 30
0.0
 42
0.4142135623730951
  0
VERTEX
  5
2A6
  8
0
 10
199.2073043275791
 20
55.16268727457962
 30
0.0
 42
0.4142135623730951
  0
VERTEX
  5
2A7
  8
0
 10
200.6323048553189
 20
56.58768780231951
 30
0.0
 42
0.4142135623730951
  0
SEQEND
  5
CAE
  8
0
  0
POLYLINE
  5
78
  8
0
 66
     1
 10
0.0
 20
0.0
 30
0.0
 70
     1
  0
VERTEX
  5
2A8
  8
0
 10
171.3088551434541
 20
96.4116093962727
 30
0.0
 42
0.4142135623730951
  0
VERTEX
  5
2A9
  8
0
 10
169.8838546157143
 20
94.98660886853278
 30
0.0
 42
0.4142135623730951
  0
VERTEX
  5
2AA
  8
0
 10
171.3088551434541
 20
93.56160834079289
 30
0.0
 42
0.4142135623730951
  0
VERTEX
  5
2AB
  8
0
 10
172.7338556711941
 20
94.98660886853278
 30
0.0
 42
0.4142135623730951
  0
SEQEND
  5
CAF
  8
0
  0
POLYLINE
  5
79
  8
0
 66
     1
 10
0.0
 20
0.0
 30
0.0
 70
     1
  0
VERTEX
  5
2AC
  8
0
 10
126.1682161301283
 20
81.74452668030355
 30
0.0
 42
0.4142135623730951
  0
VERTEX
  5
2AD
  8
0
 10
124.7432156023884
 20
80.31952615256368
 30
0.0
 42
0.4142135623730951
  0
VERTEX
  5
2AE
  8
0
 10
126.1682161301283
 20
78.89452562482377
 30
0.0
 42
0.4142135623730951
  0
VERTEX
  5
2AF
  8
0
 10
127.5932166578682
 20
80.31952615256368
 30
0.0
 42
0.4142135623730951
  0
SEQEND
  5
CB0
  8
0
  0
POLYLINE
  5
7A
  8
0
 66
     1
 10
0.0
 20
0.0
 30
0.0
 70
     1
  0
VERTEX
  5
2B0
  8
0
 10
126.1682161301283
 20
34.28084997981526
 30
0.0
 42
0.4142135623730951
  0
VERTEX
  5
2B1
  8
0
 10
124.7432156023884
 20
32.85584945207536
 30
0.0
 42
0.4142135623730951
  0
VERTEX
  5
2B2
  8
0
 10
126.1682161301283
 20
31.43084892433547
 30
0.0
 42
0.4142135623730951
  0
VERTEX
  5
2B3
  8
0
 10
127.5932166578682
 20
32.85584945207536
 30
0.0
 42
0.4142135623730951
  0
SEQEND
  5
CB1
  8
0
  0
POLYLINE
  5
7B
  8
0
 66
     1
 10
0.0
 20
0.0
 30
0.0
 70
     1
  0
VERTEX
  5
2B4
  8
0
 10
171.3088551434541
 20
19.61376726384609
 30
0.0
 42
0.4142135623730951
  0
VERTEX
  5
2B5
  8
0
 10
169.8838546157143
 20
18.1887667361062
 30
0.0
 42
0.4142135623730951
  0
VERTEX
  5
2B6
  8
0
 10
171.3088551434541
 20
16.76376620836631
 30
0.0
 42
0.4142135623730951
  0
VERTEX
  5
2B7
  8
0
 10
172.7338556711941
 20
18.1887667361062
 30
0.0
 42
0.4142135623730951
  0
SEQEND
  5
CB2
  8
0
  0
POLYLINE
  5
7C
  8
0
 66
     1
 10
0.0
 20
0.0
 30
0.0
  0
VERTEX
  5
2B8
  8
0
 10
114.010793549668
 20
51.36268586727309
 30
0.0
 42
0.3477558622723574
  0
VERTEX
  5
2B9
  8
0
 10
153.6072874399016
 20
11.76619197703869
 30
0.0
  0
SEQEND
  5
CB3
  8
0
  0
POLYLINE
  5
7D
  8
0
 66
     1
 10
0.0
 20
0.0
 30
0.0
 70
     1
  0
VERTEX
  5
2BA
  8
0
 10
158.8322893749489
 20
106.4627062732157
 30
0.0
 42
0.4142135623730951
  0
VERTEX
  5
2BB
  8
0
 10
157.407288847209
 20
105.0377057454759
 30
0.0
 42
0.4142135623730951
  0
VERTEX
  5
2BC
  8
0
 10
158.8322893749489
 20
103.612705217736
 30
0.0
 42
0.4142135623730951
  0
VERTEX
  5
2BD
  8
0
 10
160.2572899026887
 20
105.0377057454759
 30
0.0
 42
0.4142135623730951
  0
SEQEND
  5
CB4
  8
0
  0
POLYLINE
  5
7E
  8
0
 66
     1
 10
0.0
 20
0.0
 30
0.0
  0
VERTEX
  5
2BE
  8
0
 10
155.9822883194691
 20
108.3627069768689
 30
0.0
  0
VERTEX
  5
2BF
  8
0
 10
161.6822904304287
 20
108.3627069768689
 30
0.0
  0
SEQEND
  5
CB5
  8
0
  0
POLYLINE
  5
7F
  8
0
 66
     1
 10
0.0
 20
0.0
 30
0.0
  0
VERTEX
  5
2C0
  8
0
 10
164.0572913099952
 20
103.612705217736
 30
0.0
  0
VERTEX
  5
2C1
  8
0
 10
161.6822904304287
 20
108.3627069768689
 30
0.0
  0
SEQEND
  5
CB6
  8
0
  0
POLYLINE
  5
80
  8
0
 66
     1
 10
0.0
 20
0.0
 30
0.0
  0
VERTEX
  5
2C2
  8
0
 10
155.9822883194691
 20
108.3627069768689
 30
0.0
  0
VERTEX
  5
2C3
  8
0
 10
153.6072874399026
 20
103.612705217736
 30
0.0
  0
VERTEX
  5
2C4
  8
0
 10
153.6072874399026
 20
101.4091836276004
 30
0.0
  0
SEQEND
  5
CB7
  8
0
  0
POLYLINE
  5
81
  8
0
 66
     1
 10
0.0
 20
0.0
 30
0.0
  0
VERTEX
  5
2C5
  8
0
 10
164.0572913099952
 20
103.612705217736
 30
0.0
  0
VERTEX
  5
2C6
  8
0
 10
164.0572913099952
 20
101.4091836276004
 30
0.0
  0
SEQEND
  5
CB8
  8
0
  0
POLYLINE
  5
82
  8
0
 66
     1
 10
0.0
 20
0.0
 30
0.0
 70
     1
  0
VERTEX
  5
2C7
  8
0
 10
207.2823073181052
 20
58.01268833005941
 30
0.0
 42
0.4142135623730951
  0
VERTEX
  5
2C8
  8
0
 10
205.8573067903653
 20
56.58768780231951
 30
0.0
 42
0.4142135623730951
  0
VERTEX
  5
2C9
  8
0
 10
207.2823073181052
 20
55.16268727457962
 30
0.0
 42
0.4142135623730951
  0
VERTEX
  5
2CA
  8
0
 10
208.7073078458451
 20
56.58768780231951
 30
0.0
 42
0.4142135623730951
  0
SEQEND
  5
CB9
  8
0
  0
POLYLINE
  5
83
  8
0
 66
     1
 10
0.0
 20
0.0
 30
0.0
  0
VERTEX
  5
2CB
  8
0
 10
210.6073085494983
 20
59.43768885779929
 30
0.0
  0
VERTEX
  5
2CC
  8
0
 10
210.6073085494983
 20
53.73768674683971
 30
0.0
  0
SEQEND
  5
CBA
  8
0
  0
POLYLINE
  5
84
  8
0
 66
     1
 10
0.0
 20
0.0
 30
0.0
  0
VERTEX
  5
2CD
  8
0
 10
205.8573067903653
 20
51.36268586727321
 30
0.0
  0
VERTEX
  5
2CE
  8
0
 10
210.6073085494983
 20
53.73768674683971
 30
0.0
  0
SEQEND
  5
CBB
  8
0
  0
POLYLINE
  5
85
  8
0
 66
     1
 10
0.0
 20
0.0
 30
0.0
  0
VERTEX
  5
2CF
  8
0
 10
210.6073085494983
 20
59.43768885779929
 30
0.0
  0
VERTEX
  5
2D0
  8
0
 10
205.8573067903653
 20
61.81268973736577
 30
0.0
  0
VERTEX
  5
2D1
  8
0
 10
203.6537852002297
 20
61.81268973736577
 30
0.0
  0
SEQEND
  5
CBC
  8
0
  0
POLYLINE
  5
86
  8
0
 66
     1
 10
0.0
 20
0.0
 30
0.0
  0
VERTEX
  5
2D2
  8
0
 10
205.8573067903653
 20
51.36268586727321
 30
0.0
  0
VERTEX
  5
2D3
  8
0
 10
203.6537852002297
 20
51.36268586727321
 30
0.0
  0
SEQEND
  5
CBD
  8
0
  0
POLYLINE
  5
87
  8
0
 66
     1
 10
0.0
 20
0.0
 30
0.0
 70
     1
  0
VERTEX
  5
2D4
  8
0
 10
110.3822714317924
 20
58.01268833005941
 30
0.0
 42
0.4142135623730951
  0
VERTEX
  5
2D5
  8
0
 10
108.9572709040525
 20
56.58768780231951
 30
0.0
 42
0.4142135623730951
  0
VERTEX
  5
2D6
  8
0
 10
110.3822714317924
 20
55.16268727457962
 30
0.0
 42
0.4142135623730951
  0
VERTEX
  5
2D7
  8
0
 10
111.8072719595323
 20
56.58768780231951
 30
0.0
 42
0.4142135623730951
  0
SEQEND
  5
CBE
  8
0
  0
POLYLINE
  5
88
  8
0
 66
     1
 10
0.0
 20
0.0
 30
0.0
  0
VERTEX
  5
2D8
  8
0
 10
107.0572702003994
 20
53.73768674683971
 30
0.0
  0
VERTEX
  5
2D9
  8
0
 10
107.0572702003994
 20
59.43768885779929
 30
0.0
  0
SEQEND
  5
CBF
  8
0
  0
POLYLINE
  5
89
  8
0
 66
     1
 10
0.0
 20
0.0
 30
0.0
  0
VERTEX
  5
2DA
  8
0
 10
111.8072719595324
 20
61.81268973736577
 30
0.0
  0
VERTEX
  5
2DB
  8
0
 10
107.0572702003994
 20
59.43768885779929
 30
0.0
  0
SEQEND
  5
CC0
  8
0
  0
POLYLINE
  5
8A
  8
0
 66
     1
 10
0.0
 20
0.0
 30
0.0
  0
VERTEX
  5
2DC
  8
0
 10
107.0572702003994
 20
53.73768674683971
 30
0.0
  0
VERTEX
  5
2DD
  8
0
 10
111.8072719595324
 20
51.36268586727321
 30
0.0
  0
VERTEX
  5
2DE
  8
0
 10
114.0107935496678
 20
51.36268586727321
 30
0.0
  0
SEQEND
  5
CC1
  8
0
  0
POLYLINE
  5
8B
  8
0
 66
     1
 10
0.0
 20
0.0
 30
0.0
  0
VERTEX
  5
2DF
  8
0
 10
111.8072719595324
 20
61.81268973736577
 30
0.0
  0
VERTEX
  5
2E0
  8
0
 10
114.0107935496678
 20
61.81268973736577
 30
0.0
  0
SEQEND
  5
CC2
  8
0
  0
POLYLINE
  5
8C
  8
0
 66
     1
 10
0.0
 20
0.0
 30
0.0
 70
     1
  0
VERTEX
  5
2E1
  8
0
 10
158.8322893749489
 20
9.562670386903047
 30
0.0
 42
0.4142135623730951
  0
VERTEX
  5
2E2
  8
0
 10
157.407288847209
 20
8.137669859163154
 30
0.0
 42
0.4142135623730951
  0
VERTEX
  5
2E3
  8
0
 10
158.8322893749489
 20
6.712669331423261
 30
0.0
 42
0.4142135623730951
  0
VERTEX
  5
2E4
  8
0
 10
160.2572899026887
 20
8.137669859163154
 30
0.0
 42
0.4142135623730951
  0
SEQEND
  5
CC3
  8
0
  0
POLYLINE
  5
8D
  8
0
 66
     1
 10
0.0
 20
0.0
 30
0.0
  0
VERTEX
  5
2E5
  8
0
 10
161.6822904304287
 20
4.812668627770073
 30
0.0
  0
VERTEX
  5
2E6
  8
0
 10
155.9822883194691
 20
4.812668627770088
 30
0.0
  0
SEQEND
  5
CC4
  8
0
  0
POLYLINE
  5
8E
  8
0
 66
     1
 10
0.0
 20
0.0
 30
0.0
  0
VERTEX
  5
2E7
  8
0
 10
153.6072874399026
 20
9.562670386903061
 30
0.0
  0
VERTEX
  5
2E8
  8
0
 10
155.9822883194691
 20
4.812668627770088
 30
0.0
  0
SEQEND
  5
CC5
  8
0
  0
POLYLINE
  5
8F
  8
0
 66
     1
 10
0.0
 20
0.0
 30
0.0
  0
VERTEX
  5
2E9
  8
0
 10
161.6822904304287
 20
4.812668627770073
 30
0.0
  0
VERTEX
  5
2EA
  8
0
 10
164.0572913099952
 20
9.562670386903047
 30
0.0
  0
VERTEX
  5
2EB
  8
0
 10
164.0572913099952
 20
11.76619197703859
 30
0.0
  0
SEQEND
  5
CC6
  8
0
  0
POLYLINE
  5
90
  8
0
 66
     1
 10
0.0
 20
0.0
 30
0.0
  0
VERTEX
  5
2EC
  8
0
 10
153.6072874399026
 20
9.562670386903061
 30
0.0
  0
VERTEX
  5
2ED
  8
0
 10
153.6072874399026
 20
11.7661919770386
 30
0.0
  0
SEQEND
  5
CC7
  8
0
  0
POLYLINE
  5
91
  8
0
 66
     1
 10
0.0
 20
0.0
 30
0.0
  0
VERTEX
  5
2EE
  8
0
 10
153.6072874399017
 20
101.4091836276004
 30
0.0
 42
0.3477558622723569
  0
VERTEX
  5
2EF
  8
0
 10
114.010793549668
 20
61.8126897373661
 30
0.0
  0
SEQEND
  5
CC8
  8
0
  0
POLYLINE
  5
92
  8
0
 66
     1
 10
0.0
 20
0.0
 30
0.0
  0
VERTEX
  5
2F0
  8
0
 10
203.6537852002297
 20
61.81268973736606
 30
0.0
 42
0.3477558622723566
  0
VERTEX
  5
2F1
  8
0
 10
164.057291309996
 20
101.4091836276004
 30
0.0
  0
SEQEND
  5
CC9
  8
0
  0
POLYLINE
  5
93
  8
0
 66
     1
 10
0.0
 20
0.0
 30
0.0
 70
     1
  0
VERTEX
  5
2F2
  8
0
 10
126.1682161301283
 20
82.9320271200868
 30
0.0
 42
0.4142135623730951
  0
VERTEX
  5
2F3
  8
0
 10
123.5557151626052
 20
80.31952615256368
 30
0.0
 42
0.4142135623730951
  0
VERTEX
  5
2F4
  8
0
 10
126.1682161301283
 20
77.70702518504052
 30
0.0
 42
0.4142135623730951
  0
VERTEX
  5
2F5
  8
0
 10
128.7807170976515
 20
80.31952615256368
 30
0.0
 42
0.4142135623730951
  0
SEQEND
  5
CCA
  8
0
  0
POLYLINE
  5
94
  8
0
 66
     1
 10
0.0
 20
0.0
 30
0.0
 70
     1
  0
VERTEX
  5
2F6
  8
0
 10
126.1682161301283
 20
35.46835041959851
 30
0.0
 42
0.4142135623730951
  0
VERTEX
  5
2F7
  8
0
 10
123.5557151626052
 20
32.85584945207536
 30
0.0
 42
0.4142135623730951
  0
VERTEX
  5
2F8
  8
0
 10
126.1682161301283
 20
30.24334848455223
 30
0.0
 42
0.4142135623730951
  0
VERTEX
  5
2F9
  8
0
 10
128.7807170976515
 20
32.85584945207536
 30
0.0
 42
0.4142135623730951
  0
SEQEND
  5
CCB
  8
0
  0
POLYLINE
  5
95
  8
0
 66
     1
 10
0.0
 20
0.0
 30
0.0
 70
     1
  0
VERTEX
  5
2FA
  8
0
 10
171.3088551434541
 20
97.59910983605592
 30
0.0
 42
0.4142135623730951
  0
VERTEX
  5
2FB
  8
0
 10
168.696354175931
 20
94.98660886853278
 30
0.0
 42
0.4142135623730951
  0
VERTEX
  5
2FC
  8
0
 10
171.3088551434541
 20
92.37410790100967
 30
0.0
 42
0.4142135623730951
  0
VERTEX
  5
2FD
  8
0
 10
173.9213561109773
 20
94.98660886853278
 30
0.0
 42
0.4142135623730951
  0
SEQEND
  5
CCC
  8
0
  0
POLYLINE
  5
96
  8
0
 66
     1
 10
0.0
 20
0.0
 30
0.0
 70
     1
  0
VERTEX
  5
2FE
  8
0
 10
199.2073043275791
 20
59.20018876984265
 30
0.0
 42
0.4142135623730951
  0
VERTEX
  5
2FF
  8
0
 10
196.5948033600559
 20
56.58768780231951
 30
0.0
 42
0.4142135623730951
  0
VERTEX
  5
300
  8
0
 10
199.2073043275791
 20
53.97518683479638
 30
0.0
 42
0.4142135623730951
  0
VERTEX
  5
301
  8
0
 10
201.8198052951022
 20
56.58768780231951
 30
0.0
 42
0.4142135623730951
  0
SEQEND
  5
CCD
  8
0
  0
POLYLINE
  5
97
  8
0
 66
     1
 10
0.0
 20
0.0
 30
0.0
 70
     1
  0
VERTEX
  5
302
  8
0
 10
171.3088551434541
 20
20.80126770362934
 30
0.0
 42
0.4142135623730951
  0
VERTEX
  5
303
  8
0
 10
168.696354175931
 20
18.1887667361062
 30
0.0
 42
0.4142135623730951
  0
VERTEX
  5
304
  8
0
 10
171.3088551434541
 20
15.57626576858306
 30
0.0
 42
0.4142135623730951
  0
VERTEX
  5
305
  8
0
 10
173.9213561109773
 20
18.1887667361062
 30
0.0
 42
0.4142135623730951
  0
SEQEND
  5
CCE
  8
0
  0
POLYLINE
  5
98
  8
0
 66
     1
 10
0.0
 20
0.0
 30
0.0
  0
VERTEX
  5
306
  8
0
 10
164.0572913099961
 20
11.76619197703869
 30
0.0
 42
0.3477558622723565
  0
VERTEX
  5
307
  8
0
 10
203.6537852002297
 20
51.36268586727292
 30
0.0
  0
SEQEND
  5
CCF
  8
0
  0
POLYLINE
  5
99
  8
0
 66
     1
 10
0.0
 20
0.0
 30
0.0
  0
VERTEX
  5
308
  8
0
 10
81.5091687563235
 20
117.3954050372495
 30
0.0
  0
VERTEX
  5
309
  8
0
 10
77.70916734901714
 20
117.3954050372495
 30
0.0
  0
SEQEND
  5
CD0
  8
0
  0
POLYLINE
  5
9A
  8
0
 66
     1
 10
0.0
 20
0.0
 30
0.0
  0
VERTEX
  5
30A
  8
0
 10
77.70916734901714
 20
130.6954099628218
 30
0.0
  0
VERTEX
  5
30B
  8
0
 10
81.5091687563235
 20
130.6954099628218
 30
0.0
  0
SEQEND
  5
CD1
  8
0
  0
POLYLINE
  5
9B
  8
0
 66
     1
 10
0.0
 20
0.0
 30
0.0
  0
VERTEX
  5
30C
  8
0
 10
77.70916734901714
 20
151.5954177030069
 30
0.0
  0
VERTEX
  5
30D
  8
0
 10
81.5091687563235
 20
151.5954177030069
 30
0.0
  0
VERTEX
  5
30E
  8
0
 10
81.5091687563235
 20
138.2954127774346
 30
0.0
  0
VERTEX
  5
30F
  8
0
 10
77.70916734901714
 20
138.2954127774346
 30
0.0
  0
SEQEND
  5
CD2
  8
0
  0
POLYLINE
  5
9C
  8
0
 66
     1
 10
0.0
 20
0.0
 30
0.0
  0
VERTEX
  5
310
  8
0
 10
77.70916734901714
 20
130.6954099628218
 30
0.0
  0
VERTEX
  5
311
  8
0
 10
77.70916734901714
 20
117.3954050372495
 30
0.0
  0
SEQEND
  5
CD3
  8
0
  0
POLYLINE
  5
9D
  8
0
 66
     1
 10
0.0
 20
0.0
 30
0.0
  0
VERTEX
  5
312
  8
0
 10
81.5091687563235
 20
130.6954099628218
 30
0.0
  0
VERTEX
  5
313
  8
0
 10
81.5091687563235
 20
117.3954050372495
 30
0.0
  0
SEQEND
  5
CD4
  8
0
  0
POLYLINE
  5
9E
  8
0
 66
     1
 10
0.0
 20
0.0
 30
0.0
  0
VERTEX
  5
314
  8
0
 10
77.70916734901714
 20
138.2954127774346
 30
0.0
  0
VERTEX
  5
315
  8
0
 10
77.70916734901714
 20
151.5954177030069
 30
0.0
  0
SEQEND
  5
CD5
  8
0
  0
POLYLINE
  5
9F
  8
0
 66
     1
 10
0.0
 20
0.0
 30
0.0
  0
VERTEX
  5
316
  8
0
 10
29.25914940586078
 20
159.1954205176197
 30
0.0
  0
VERTEX
  5
317
  8
0
 10
33.05915081316716
 20
159.1954205176197
 30
0.0
  0
SEQEND
  5
CD6
  8
0
  0
POLYLINE
  5
A0
  8
0
 66
     1
 10
0.0
 20
0.0
 30
0.0
  0
VERTEX
  5
318
  8
0
 10
29.25914940586078
 20
130.6954099628218
 30
0.0
  0
VERTEX
  5
319
  8
0
 10
33.05915081316716
 20
130.6954099628218
 30
0.0
  0
SEQEND
  5
CD7
  8
0
  0
POLYLINE
  5
A1
  8
0
 66
     1
 10
0.0
 20
0.0
 30
0.0
  0
VERTEX
  5
31A
  8
0
 10
29.25914940586078
 20
151.5954177030069
 30
0.0
  0
VERTEX
  5
31B
  8
0
 10
33.05915081316716
 20
151.5954177030069
 30
0.0
  0
VERTEX
  5
31C
  8
0
 10
33.05915081316716
 20
138.2954127774346
 30
0.0
  0
VERTEX
  5
31D
  8
0
 10
29.25914940586078
 20
138.2954127774346
 30
0.0
  0
SEQEND
  5
CD8
  8
0
  0
POLYLINE
  5
A2
  8
0
 66
     1
 10
0.0
 20
0.0
 30
0.0
  0
VERTEX
  5
31E
  8
0
 10
29.25914940586078
 20
159.1954205176197
 30
0.0
  0
VERTEX
  5
31F
  8
0
 10
29.25914940586078
 20
172.495425443192
 30
0.0
  0
SEQEND
  5
CD9
  8
0
  0
POLYLINE
  5
A3
  8
0
 66
     1
 10
0.0
 20
0.0
 30
0.0
  0
VERTEX
  5
320
  8
0
 10
33.05915081316716
 20
172.495425443192
 30
0.0
  0
VERTEX
  5
321
  8
0
 10
33.05915081316716
 20
159.1954205176197
 30
0.0
  0
SEQEND
  5
CDA
  8
0
  0
POLYLINE
  5
A4
  8
0
 66
     1
 10
0.0
 20
0.0
 30
0.0
  0
VERTEX
  5
322
  8
0
 10
29.25914940586078
 20
130.6954099628218
 30
0.0
  0
VERTEX
  5
323
  8
0
 10
29.25914940586078
 20
117.3954050372495
 30
0.0
  0
SEQEND
  5
CDB
  8
0
  0
POLYLINE
  5
A5
  8
0
 66
     1
 10
0.0
 20
0.0
 30
0.0
  0
VERTEX
  5
324
  8
0
 10
33.05915081316716
 20
130.6954099628218
 30
0.0
  0
VERTEX
  5
325
  8
0
 10
33.05915081316716
 20
117.3954050372495
 30
0.0
  0
SEQEND
  5
CDC
  8
0
  0
POLYLINE
  5
A6
  8
0
 66
     1
 10
0.0
 20
0.0
 30
0.0
  0
VERTEX
  5
326
  8
0
 10
29.25914940586078
 20
138.2954127774346
 30
0.0
  0
VERTEX
  5
327
  8
0
 10
29.25914940586078
 20
151.5954177030069
 30
0.0
  0
SEQEND
  5
CDD
  8
0
  0
POLYLINE
  5
A7
  8
0
 66
     1
 10
0.0
 20
0.0
 30
0.0
  0
VERTEX
  5
328
  8
0
 10
29.25914940586078
 20
172.495425443192
 30
0.0
  0
VERTEX
  5
329
  8
0
 10
33.05915081316716
 20
172.495425443192
 30
0.0
  0
SEQEND
  5
CDE
  8
0
  0
POLYLINE
  5
A8
  8
0
 66
     1
 10
0.0
 20
0.0
 30
0.0
  0
VERTEX
  5
32A
  8
0
 10
29.25914940586078
 20
117.3954050372495
 30
0.0
  0
VERTEX
  5
32B
  8
0
 10
33.05915081316716
 20
117.3954050372495
 30
0.0
  0
SEQEND
  5
CDF
  8
0
  0
POLYLINE
  5
A9
  8
0
 66
     1
 10
0.0
 20
0.0
 30
0.0
 70
     1
  0
VERTEX
  5
32C
  8
0
 10
55.38415908109213
 20
187.6954310724175
 30
0.0
 42
0.4142135623730951
  0
VERTEX
  5
32D
  8
0
 10
12.63414324889536
 20
144.9454152402208
 30
0.0
 42
0.4142135623730951
  0
VERTEX
  5
32E
  8
0
 10
55.38415908109213
 20
102.195399408024
 30
0.0
 42
0.4142135623730951
  0
VERTEX
  5
32F
  8
0
 10
98.1341749132889
 20
144.9454152402208
 30
0.0
 42
0.4142135623730951
  0
SEQEND
  5
CE0
  8
0
  0
POLYLINE
  5
AA
  8
0
 66
     1
 10
0.0
 20
0.0
 30
0.0
 70
     1
  0
VERTEX
  5
330
  8
0
 10
55.38415908109213
 20
148.7454166475272
 30
0.0
 42
0.4142135623730951
  0
VERTEX
  5
331
  8
0
 10
51.58415767378575
 20
144.9454152402208
 30
0.0
 42
0.4142135623730951
  0
VERTEX
  5
332
  8
0
 10
55.38415908109213
 20
141.1454138329144
 30
0.0
 42
0.4142135623730951
  0
VERTEX
  5
333
  8
0
 10
59.1841604883985
 20
144.9454152402208
 30
0.0
 42
0.4142135623730951
  0
SEQEND
  5
CE1
  8
0
  0
POLYLINE
  5
AB
  8
0
 66
     1
 10
0.0
 20
0.0
 30
0.0
  0
VERTEX
  5
334
  8
0
 10
29.25914940586078
 20
171.3079250034088
 30
0.0
  0
VERTEX
  5
335
  8
0
 10
29.25914940586078
 20
164.1829223647093
 30
0.0
  0
SEQEND
  5
CE2
  8
0
  0
POLYLINE
  5
AC
  8
0
 66
     1
 10
0.0
 20
0.0
 30
0.0
  0
VERTEX
  5
336
  8
0
 10
211.5157358389616
 20
69.28591106259253
 30
0.0
  0
VERTEX
  5
337
  8
0
 10
211.5157358389616
 20
92.0859195064308
 30
0.0
  0
SEQEND
  5
CE3
  8
0
  0
POLYLINE
  5
AD
  8
0
 66
     1
 10
0.0
 20
0.0
 30
0.0
  0
VERTEX
  5
338
  8
0
 10
213.4157365426148
 20
93.98592021008398
 30
0.0
  0
VERTEX
  5
339
  8
0
 10
264.7157555412509
 20
93.98592021008398
 30
0.0
  0
SEQEND
  5
CE4
  8
0
  0
POLYLINE
  5
AE
  8
0
 66
     1
 10
0.0
 20
0.0
 30
0.0
  0
VERTEX
  5
33A
  8
0
 10
380.6157984640955
 20
93.98592021008398
 30
0.0
  0
VERTEX
  5
33B
  8
0
 10
329.3157794654593
 20
93.98592021008405
 30
0.0
  0
SEQEND
  5
CE5
  8
0
  0
POLYLINE
  5
AF
  8
0
 66
     1
 10
0.0
 20
0.0
 30
0.0
  0
VERTEX
  5
33C
  8
0
 10
325.5157780581529
 20
90.18591880277762
 30
0.0
  0
VERTEX
  5
33D
  8
0
 10
268.5157569485573
 20
90.18591880277762
 30
0.0
  0
SEQEND
  5
CE6
  8
0
  0
POLYLINE
  5
B0
  8
0
 66
     1
 10
0.0
 20
0.0
 30
0.0
  0
VERTEX
  5
33E
  8
0
 10
213.4157365426148
 20
93.98592021008399
 30
0.0
 42
0.4142135623730994
  0
VERTEX
  5
33F
  8
0
 10
211.5157358389616
 20
92.0859195064308
 30
0.0
  0
SEQEND
  5
CE7
  8
0
  0
POLYLINE
  5
B1
  8
0
 66
     1
 10
0.0
 20
0.0
 30
0.0
  0
VERTEX
  5
340
  8
0
 10
266.6157562449041
 20
92.0859195064308
 30
0.0
 42
0.4142135623730994
  0
VERTEX
  5
341
  8
0
 10
264.7157555412509
 20
93.98592021008399
 30
0.0
  0
SEQEND
  5
CE8
  8
0
  0
POLYLINE
  5
B2
  8
0
 66
     1
 10
0.0
 20
0.0
 30
0.0
  0
VERTEX
  5
342
  8
0
 10
266.6157562449041
 20
92.0859195064308
 30
0.0
 42
0.4142135623730994
  0
VERTEX
  5
343
  8
0
 10
268.5157569485573
 20
90.1859188027776
 30
0.0
  0
SEQEND
  5
CE9
  8
0
  0
POLYLINE
  5
B3
  8
0
 66
     1
 10
0.0
 20
0.0
 30
0.0
  0
VERTEX
  5
344
  8
0
 10
329.3157794654593
 20
93.98592021008405
 30
0.0
 42
0.4142135623730994
  0
VERTEX
  5
345
  8
0
 10
327.4157787618061
 20
92.08591950643086
 30
0.0
  0
SEQEND
  5
CEA
  8
0
  0
POLYLINE
  5
B4
  8
0
 66
     1
 10
0.0
 20
0.0
 30
0.0
  0
VERTEX
  5
346
  8
0
 10
325.5157780581529
 20
90.18591880277766
 30
0.0
 42
0.4142135623730994
  0
VERTEX
  5
347
  8
0
 10
327.4157787618061
 20
92.08591950643086
 30
0.0
  0
SEQEND
  5
CEB
  8
0
  0
POLYLINE
  5
B5
  8
0
 66
     1
 10
0.0
 20
0.0
 30
0.0
 70
     1
  0
VERTEX
  5
348
  8
0
 10
263.2670345034713
 20
87.09841528451166
 30
0.0
  0
VERTEX
  5
349
  8
0
 10
263.1155381059984
 20
87.09105817015201
 30
0.0
  0
VERTEX
  5
34A
  8
0
 10
262.9684179473419
 20
87.06946434923566
 30
0.0
  0
VERTEX
  5
34B
  8
0
 10
262.8264188170791
 20
87.03435010500645
 30
0.0
  0
VERTEX
  5
34C
  8
0
 10
262.6902855047867
 20
86.98643172070824
 30
0.0
  0
VERTEX
  5
34D
  8
0
 10
262.5607628000419
 20
86.92642547958488
 30
0.0
  0
VERTEX
  5
34E
  8
0
 10
262.4385954924217
 20
86.85504766488023
 30
0.0
  0
VERTEX
  5
34F
  8
0
 10
262.3245283715029
 20
86.77301455983817
 30
0.0
  0
VERTEX
  5
350
  8
0
 10
262.2193062268628
 20
86.68104244770254
 30
0.0
  0
VERTEX
  5
351
  8
0
 10
262.1236738480782
 20
86.57984761171718
 30
0.0
  0
VERTEX
  5
352
  8
0
 10
262.0383760247262
 20
86.47014633512597
 30
0.0
  0
VERTEX
  5
353
  8
0
 10
261.9641575463837
 20
86.35265490117277
 30
0.0
  0
VERTEX
  5
354
  8
0
 10
261.9017632026278
 20
86.2280895931014
 30
0.0
  0
VERTEX
  5
355
  8
0
 10
261.8519377830355
 20
86.09716669415575
 30
0.0
  0
VERTEX
  5
356
  8
0
 10
261.8154260771836
 20
85.96060248757968
 30
0.0
  0
VERTEX
  5
357
  8
0
 10
261.7929728746494
 20
85.81911325661704
 30
0.0
  0
VERTEX
  5
358
  8
0
 10
261.7853229650098
 20
85.67341528451166
 30
0.0
  0
VERTEX
  5
359
  8
0
 10
261.7929728746494
 20
85.52771731240632
 30
0.0
  0
VERTEX
  5
35A
  8
0
 10
261.8154260771836
 20
85.3862280814437
 30
0.0
  0
VERTEX
  5
35B
  8
0
 10
261.8519377830355
 20
85.24966387486765
 30
0.0
  0
VERTEX
  5
35C
  8
0
 10
261.9017632026278
 20
85.11874097592201
 30
0.0
  0
VERTEX
  5
35D
  8
0
 10
261.9641575463837
 20
84.99417566785064
 30
0.0
  0
VERTEX
  5
35E
  8
0
 10
262.0383760247262
 20
84.87668423389744
 30
0.0
  0
VERTEX
  5
35F
  8
0
 10
262.1236738480782
 20
84.76698295730623
 30
0.0
  0
VERTEX
  5
360
  8
0
 10
262.2193062268628
 20
84.66578812132086
 30
0.0
  0
VERTEX
  5
361
  8
0
 10
262.324528371503
 20
84.57381600918521
 30
0.0
  0
VERTEX
  5
362
  8
0
 10
262.4385954924217
 20
84.49178290414314
 30
0.0
  0
VERTEX
  5
363
  8
0
 10
262.5607628000419
 20
84.42040508943849
 30
0.0
  0
VERTEX
  5
364
  8
0
 10
262.6902855047867
 20
84.36039884831513
 30
0.0
  0
VERTEX
  5
365
  8
0
 10
262.8264188170791
 20
84.31248046401691
 30
0.0
  0
VERTEX
  5
366
  8
0
 10
262.9684179473419
 20
84.27736621978768
 30
0.0
  0
VERTEX
  5
367
  8
0
 10
263.1155381059984
 20
84.25577239887131
 30
0.0
  0
VERTEX
  5
368
  8
0
 10
263.2670345034713
 20
84.24841528451168
 30
0.0
  0
VERTEX
  5
369
  8
0
 10
263.4185309009443
 20
84.25577239887131
 30
0.0
  0
VERTEX
  5
36A
  8
0
 10
263.5656510596007
 20
84.27736621978767
 30
0.0
  0
VERTEX
  5
36B
  8
0
 10
263.7076501898636
 20
84.31248046401689
 30
0.0
  0
VERTEX
  5
36C
  8
0
 10
263.8437835021559
 20
84.3603988483151
 30
0.0
  0
VERTEX
  5
36D
  8
0
 10
263.9733062069008
 20
84.42040508943845
 30
0.0
  0
VERTEX
  5
36E
  8
0
 10
264.095473514521
 20
84.4917829041431
 30
0.0
  0
VERTEX
  5
36F
  8
0
 10
264.2095406354397
 20
84.57381600918518
 30
0.0
  0
VERTEX
  5
370
  8
0
 10
264.3147627800798
 20
84.66578812132082
 30
0.0
  0
VERTEX
  5
371
  8
0
 10
264.4103951588644
 20
84.76698295730618
 30
0.0
  0
VERTEX
  5
372
  8
0
 10
264.4956929822165
 20
84.87668423389741
 30
0.0
  0
VERTEX
  5
373
  8
0
 10
264.569911460559
 20
84.99417566785061
 30
0.0
  0
VERTEX
  5
374
  8
0
 10
264.6323058043149
 20
85.11874097592198
 30
0.0
  0
VERTEX
  5
375
  8
0
 10
264.6821312239073
 20
85.24966387486762
 30
0.0
  0
VERTEX
  5
376
  8
0
 10
264.7186429297591
 20
85.38622808144368
 30
0.0
  0
VERTEX
  5
377
  8
0
 10
264.7410961322933
 20
85.52771731240631
 30
0.0
  0
VERTEX
  5
378
  8
0
 10
264.7487460419329
 20
85.67341528451166
 30
0.0
  0
VERTEX
  5
379
  8
0
 10
264.7410961322933
 20
85.819113256617
 30
0.0
  0
VERTEX
  5
37A
  8
0
 10
264.7186429297591
 20
85.96060248757964
 30
0.0
  0
VERTEX
  5
37B
  8
0
 10
264.6821312239073
 20
86.0971666941557
 30
0.0
  0
VERTEX
  5
37C
  8
0
 10
264.6323058043149
 20
86.22808959310134
 30
0.0
  0
VERTEX
  5
37D
  8
0
 10
264.569911460559
 20
86.35265490117271
 30
0.0
  0
VERTEX
  5
37E
  8
0
 10
264.4956929822165
 20
86.47014633512592
 30
0.0
  0
VERTEX
  5
37F
  8
0
 10
264.4103951588644
 20
86.57984761171713
 30
0.0
  0
VERTEX
  5
380
  8
0
 10
264.3147627800798
 20
86.6810424477025
 30
0.0
  0
VERTEX
  5
381
  8
0
 10
264.2095406354397
 20
86.77301455983815
 30
0.0
  0
VERTEX
  5
382
  8
0
 10
264.095473514521
 20
86.85504766488022
 30
0.0
  0
VERTEX
  5
383
  8
0
 10
263.9733062069008
 20
86.92642547958486
 30
0.0
  0
VERTEX
  5
384
  8
0
 10
263.8437835021559
 20
86.98643172070823
 30
0.0
  0
VERTEX
  5
385
  8
0
 10
263.7076501898636
 20
87.03435010500644
 30
0.0
  0
VERTEX
  5
386
  8
0
 10
263.5656510596007
 20
87.06946434923567
 30
0.0
  0
VERTEX
  5
387
  8
0
 10
263.4185309009443
 20
87.09105817015204
 30
0.0
  0
SEQEND
  5
CEC
  8
0
  0
POLYLINE
  5
B6
  8
0
 66
     1
 10
0.0
 20
0.0
 30
0.0
 70
     1
  0
VERTEX
  5
388
  8
0
 10
263.2670345034713
 20
77.12341528451165
 30
0.0
  0
VERTEX
  5
389
  8
0
 10
263.1155381059984
 20
77.11605817015202
 30
0.0
  0
VERTEX
  5
38A
  8
0
 10
262.9684179473419
 20
77.09446434923566
 30
0.0
  0
VERTEX
  5
38B
  8
0
 10
262.8264188170791
 20
77.05935010500644
 30
0.0
  0
VERTEX
  5
38C
  8
0
 10
262.6902855047867
 20
77.01143172070823
 30
0.0
  0
VERTEX
  5
38D
  8
0
 10
262.5607628000419
 20
76.95142547958488
 30
0.0
  0
VERTEX
  5
38E
  8
0
 10
262.4385954924217
 20
76.88004766488024
 30
0.0
  0
VERTEX
  5
38F
  8
0
 10
262.3245283715029
 20
76.79801455983818
 30
0.0
  0
VERTEX
  5
390
  8
0
 10
262.2193062268628
 20
76.70604244770254
 30
0.0
  0
VERTEX
  5
391
  8
0
 10
262.1236738480782
 20
76.60484761171719
 30
0.0
  0
VERTEX
  5
392
  8
0
 10
262.0383760247262
 20
76.49514633512597
 30
0.0
  0
VERTEX
  5
393
  8
0
 10
261.9641575463837
 20
76.37765490117275
 30
0.0
  0
VERTEX
  5
394
  8
0
 10
261.9017632026278
 20
76.25308959310138
 30
0.0
  0
VERTEX
  5
395
  8
0
 10
261.8519377830355
 20
76.12216669415574
 30
0.0
  0
VERTEX
  5
396
  8
0
 10
261.8154260771836
 20
75.98560248757967
 30
0.0
  0
VERTEX
  5
397
  8
0
 10
261.7929728746494
 20
75.84411325661702
 30
0.0
  0
VERTEX
  5
398
  8
0
 10
261.7853229650098
 20
75.69841528451165
 30
0.0
  0
VERTEX
  5
399
  8
0
 10
261.7929728746494
 20
75.55271731240633
 30
0.0
  0
VERTEX
  5
39A
  8
0
 10
261.8154260771836
 20
75.41122808144371
 30
0.0
  0
VERTEX
  5
39B
  8
0
 10
261.8519377830355
 20
75.27466387486766
 30
0.0
  0
VERTEX
  5
39C
  8
0
 10
261.9017632026278
 20
75.14374097592201
 30
0.0
  0
VERTEX
  5
39D
  8
0
 10
261.9641575463837
 20
75.01917566785065
 30
0.0
  0
VERTEX
  5
39E
  8
0
 10
262.0383760247262
 20
74.90168423389744
 30
0.0
  0
VERTEX
  5
39F
  8
0
 10
262.1236738480782
 20
74.79198295730622
 30
0.0
  0
VERTEX
  5
3A0
  8
0
 10
262.2193062268628
 20
74.69078812132085
 30
0.0
  0
VERTEX
  5
3A1
  8
0
 10
262.324528371503
 20
74.59881600918519
 30
0.0
  0
VERTEX
  5
3A2
  8
0
 10
262.4385954924217
 20
74.51678290414313
 30
0.0
  0
VERTEX
  5
3A3
  8
0
 10
262.5607628000419
 20
74.44540508943847
 30
0.0
  0
VERTEX
  5
3A4
  8
0
 10
262.6902855047867
 20
74.3853988483151
 30
0.0
  0
VERTEX
  5
3A5
  8
0
 10
262.8264188170791
 20
74.33748046401689
 30
0.0
  0
VERTEX
  5
3A6
  8
0
 10
262.9684179473419
 20
74.30236621978766
 30
0.0
  0
VERTEX
  5
3A7
  8
0
 10
263.1155381059984
 20
74.28077239887129
 30
0.0
  0
VERTEX
  5
3A8
  8
0
 10
263.2670345034713
 20
74.27341528451167
 30
0.0
  0
VERTEX
  5
3A9
  8
0
 10
263.4185309009443
 20
74.28077239887129
 30
0.0
  0
VERTEX
  5
3AA
  8
0
 10
263.5656510596007
 20
74.30236621978766
 30
0.0
  0
VERTEX
  5
3AB
  8
0
 10
263.7076501898636
 20
74.33748046401688
 30
0.0
  0
VERTEX
  5
3AC
  8
0
 10
263.8437835021559
 20
74.38539884831509
 30
0.0
  0
VERTEX
  5
3AD
  8
0
 10
263.9733062069008
 20
74.44540508943845
 30
0.0
  0
VERTEX
  5
3AE
  8
0
 10
264.095473514521
 20
74.5167829041431
 30
0.0
  0
VERTEX
  5
3AF
  8
0
 10
264.2095406354397
 20
74.59881600918519
 30
0.0
  0
VERTEX
  5
3B0
  8
0
 10
264.3147627800798
 20
74.69078812132082
 30
0.0
  0
VERTEX
  5
3B1
  8
0
 10
264.4103951588644
 20
74.79198295730619
 30
0.0
  0
VERTEX
  5
3B2
  8
0
 10
264.4956929822165
 20
74.90168423389741
 30
0.0
  0
VERTEX
  5
3B3
  8
0
 10
264.569911460559
 20
75.01917566785062
 30
0.0
  0
VERTEX
  5
3B4
  8
0
 10
264.6323058043149
 20
75.14374097592199
 30
0.0
  0
VERTEX
  5
3B5
  8
0
 10
264.6821312239073
 20
75.27466387486763
 30
0.0
  0
VERTEX
  5
3B6
  8
0
 10
264.7186429297591
 20
75.41122808144368
 30
0.0
  0
VERTEX
  5
3B7
  8
0
 10
264.7410961322933
 20
75.5527173124063
 30
0.0
  0
VERTEX
  5
3B8
  8
0
 10
264.7487460419329
 20
75.69841528451165
 30
0.0
  0
VERTEX
  5
3B9
  8
0
 10
264.7410961322933
 20
75.844113256617
 30
0.0
  0
VERTEX
  5
3BA
  8
0
 10
264.7186429297591
 20
75.98560248757964
 30
0.0
  0
VERTEX
  5
3BB
  8
0
 10
264.6821312239073
 20
76.12216669415571
 30
0.0
  0
VERTEX
  5
3BC
  8
0
 10
264.6323058043149
 20
76.25308959310135
 30
0.0
  0
VERTEX
  5
3BD
  8
0
 10
264.569911460559
 20
76.37765490117272
 30
0.0
  0
VERTEX
  5
3BE
  8
0
 10
264.4956929822165
 20
76.49514633512592
 30
0.0
  0
VERTEX
  5
3BF
  8
0
 10
264.4103951588644
 20
76.60484761171713
 30
0.0
  0
VERTEX
  5
3C0
  8
0
 10
264.3147627800798
 20
76.7060424477025
 30
0.0
  0
VERTEX
  5
3C1
  8
0
 10
264.2095406354397
 20
76.79801455983815
 30
0.0
  0
VERTEX
  5
3C2
  8
0
 10
264.095473514521
 20
76.88004766488021
 30
0.0
  0
VERTEX
  5
3C3
  8
0
 10
263.9733062069008
 20
76.95142547958486
 30
0.0
  0
VERTEX
  5
3C4
  8
0
 10
263.8437835021559
 20
77.01143172070822
 30
0.0
  0
VERTEX
  5
3C5
  8
0
 10
263.7076501898636
 20
77.05935010500643
 30
0.0
  0
VERTEX
  5
3C6
  8
0
 10
263.5656510596007
 20
77.09446434923565
 30
0.0
  0
VERTEX
  5
3C7
  8
0
 10
263.4185309009443
 20
77.11605817015202
 30
0.0
  0
SEQEND
  5
CED
  8
0
  0
POLYLINE
  5
B7
  8
0
 66
     1
 10
0.0
 20
0.0
 30
0.0
 70
     1
  0
VERTEX
  5
3C8
  8
0
 10
214.8644575803944
 20
87.09841528451166
 30
0.0
  0
VERTEX
  5
3C9
  8
0
 10
214.7129611829215
 20
87.09105817015201
 30
0.0
  0
VERTEX
  5
3CA
  8
0
 10
214.5658410242651
 20
87.06946434923566
 30
0.0
  0
VERTEX
  5
3CB
  8
0
 10
214.4238418940022
 20
87.03435010500644
 30
0.0
  0
VERTEX
  5
3CC
  8
0
 10
214.2877085817099
 20
86.98643172070821
 30
0.0
  0
VERTEX
  5
3CD
  8
0
 10
214.1581858769651
 20
86.92642547958485
 30
0.0
  0
VERTEX
  5
3CE
  8
0
 10
214.0360185693448
 20
86.8550476648802
 30
0.0
  0
VERTEX
  5
3CF
  8
0
 10
213.9219514484261
 20
86.77301455983812
 30
0.0
  0
VERTEX
  5
3D0
  8
0
 10
213.8167293037859
 20
86.68104244770248
 30
0.0
  0
VERTEX
  5
3D1
  8
0
 10
213.7210969250013
 20
86.57984761171713
 30
0.0
  0
VERTEX
  5
3D2
  8
0
 10
213.6357991016493
 20
86.47014633512592
 30
0.0
  0
VERTEX
  5
3D3
  8
0
 10
213.5615806233068
 20
86.35265490117268
 30
0.0
  0
VERTEX
  5
3D4
  8
0
 10
213.4991862795509
 20
86.22808959310134
 30
0.0
  0
VERTEX
  5
3D5
  8
0
 10
213.4493608599585
 20
86.0971666941557
 30
0.0
  0
VERTEX
  5
3D6
  8
0
 10
213.4128491541067
 20
85.96060248757964
 30
0.0
  0
VERTEX
  5
3D7
  8
0
 10
213.3903959515725
 20
85.819113256617
 30
0.0
  0
VERTEX
  5
3D8
  8
0
 10
213.3827460419329
 20
85.67341528451166
 30
0.0
  0
VERTEX
  5
3D9
  8
0
 10
213.3903959515725
 20
85.52771731240631
 30
0.0
  0
VERTEX
  5
3DA
  8
0
 10
213.4128491541067
 20
85.38622808144368
 30
0.0
  0
VERTEX
  5
3DB
  8
0
 10
213.4493608599585
 20
85.24966387486762
 30
0.0
  0
VERTEX
  5
3DC
  8
0
 10
213.4991862795509
 20
85.11874097592198
 30
0.0
  0
VERTEX
  5
3DD
  8
0
 10
213.5615806233068
 20
84.99417566785064
 30
0.0
  0
VERTEX
  5
3DE
  8
0
 10
213.6357991016493
 20
84.87668423389741
 30
0.0
  0
VERTEX
  5
3DF
  8
0
 10
213.7210969250013
 20
84.7669829573062
 30
0.0
  0
VERTEX
  5
3E0
  8
0
 10
213.8167293037859
 20
84.66578812132084
 30
0.0
  0
VERTEX
  5
3E1
  8
0
 10
213.9219514484261
 20
84.57381600918521
 30
0.0
  0
VERTEX
  5
3E2
  8
0
 10
214.0360185693448
 20
84.49178290414312
 30
0.0
  0
VERTEX
  5
3E3
  8
0
 10
214.1581858769651
 20
84.42040508943847
 30
0.0
  0
VERTEX
  5
3E4
  8
0
 10
214.2877085817099
 20
84.36039884831511
 30
0.0
  0
VERTEX
  5
3E5
  8
0
 10
214.4238418940022
 20
84.3124804640169
 30
0.0
  0
VERTEX
  5
3E6
  8
0
 10
214.5658410242651
 20
84.27736621978768
 30
0.0
  0
VERTEX
  5
3E7
  8
0
 10
214.7129611829215
 20
84.25577239887131
 30
0.0
  0
VERTEX
  5
3E8
  8
0
 10
214.8644575803944
 20
84.24841528451168
 30
0.0
  0
VERTEX
  5
3E9
  8
0
 10
215.0159539778674
 20
84.25577239887131
 30
0.0
  0
VERTEX
  5
3EA
  8
0
 10
215.1630741365238
 20
84.27736621978768
 30
0.0
  0
VERTEX
  5
3EB
  8
0
 10
215.3050732667867
 20
84.3124804640169
 30
0.0
  0
VERTEX
  5
3EC
  8
0
 10
215.441206579079
 20
84.36039884831511
 30
0.0
  0
VERTEX
  5
3ED
  8
0
 10
215.5707292838238
 20
84.42040508943847
 30
0.0
  0
VERTEX
  5
3EE
  8
0
 10
215.6928965914441
 20
84.49178290414312
 30
0.0
  0
VERTEX
  5
3EF
  8
0
 10
215.8069637123628
 20
84.57381600918521
 30
0.0
  0
VERTEX
  5
3F0
  8
0
 10
215.912185857003
 20
84.66578812132084
 30
0.0
  0
VERTEX
  5
3F1
  8
0
 10
216.0078182357876
 20
84.7669829573062
 30
0.0
  0
VERTEX
  5
3F2
  8
0
 10
216.0931160591396
 20
84.87668423389741
 30
0.0
  0
VERTEX
  5
3F3
  8
0
 10
216.1673345374821
 20
84.99417566785064
 30
0.0
  0
VERTEX
  5
3F4
  8
0
 10
216.229728881238
 20
85.11874097592198
 30
0.0
  0
VERTEX
  5
3F5
  8
0
 10
216.2795543008303
 20
85.24966387486762
 30
0.0
  0
VERTEX
  5
3F6
  8
0
 10
216.3160660066821
 20
85.38622808144368
 30
0.0
  0
VERTEX
  5
3F7
  8
0
 10
216.3385192092163
 20
85.52771731240631
 30
0.0
  0
VERTEX
  5
3F8
  8
0
 10
216.346169118856
 20
85.67341528451166
 30
0.0
  0
VERTEX
  5
3F9
  8
0
 10
216.3385192092163
 20
85.81911325661702
 30
0.0
  0
VERTEX
  5
3FA
  8
0
 10
216.3160660066821
 20
85.96060248757965
 30
0.0
  0
VERTEX
  5
3FB
  8
0
 10
216.2795543008304
 20
86.0971666941557
 30
0.0
  0
VERTEX
  5
3FC
  8
0
 10
216.229728881238
 20
86.22808959310134
 30
0.0
  0
VERTEX
  5
3FD
  8
0
 10
216.1673345374821
 20
86.35265490117271
 30
0.0
  0
VERTEX
  5
3FE
  8
0
 10
216.0931160591396
 20
86.47014633512592
 30
0.0
  0
VERTEX
  5
3FF
  8
0
 10
216.0078182357876
 20
86.57984761171714
 30
0.0
  0
VERTEX
  5
400
  8
0
 10
215.912185857003
 20
86.68104244770251
 30
0.0
  0
VERTEX
  5
401
  8
0
 10
215.8069637123628
 20
86.77301455983815
 30
0.0
  0
VERTEX
  5
402
  8
0
 10
215.6928965914441
 20
86.85504766488023
 30
0.0
  0
VERTEX
  5
403
  8
0
 10
215.5707292838238
 20
86.92642547958488
 30
0.0
  0
VERTEX
  5
404
  8
0
 10
215.441206579079
 20
86.98643172070824
 30
0.0
  0
VERTEX
  5
405
  8
0
 10
215.3050732667866
 20
87.03435010500645
 30
0.0
  0
VERTEX
  5
406
  8
0
 10
215.1630741365238
 20
87.06946434923566
 30
0.0
  0
VERTEX
  5
407
  8
0
 10
215.0159539778674
 20
87.09105817015201
 30
0.0
  0
SEQEND
  5
CEE
  8
0
  0
POLYLINE
  5
B8
  8
0
 66
     1
 10
0.0
 20
0.0
 30
0.0
 70
     1
  0
VERTEX
  5
408
  8
0
 10
214.8644575803944
 20
77.12341528451165
 30
0.0
  0
VERTEX
  5
409
  8
0
 10
214.7129611829215
 20
77.11605817015202
 30
0.0
  0
VERTEX
  5
40A
  8
0
 10
214.5658410242651
 20
77.09446434923565
 30
0.0
  0
VERTEX
  5
40B
  8
0
 10
214.4238418940022
 20
77.05935010500643
 30
0.0
  0
VERTEX
  5
40C
  8
0
 10
214.2877085817099
 20
77.01143172070822
 30
0.0
  0
VERTEX
  5
40D
  8
0
 10
214.1581858769651
 20
76.95142547958486
 30
0.0
  0
VERTEX
  5
40E
  8
0
 10
214.0360185693448
 20
76.88004766488021
 30
0.0
  0
VERTEX
  5
40F
  8
0
 10
213.9219514484261
 20
76.79801455983812
 30
0.0
  0
VERTEX
  5
410
  8
0
 10
213.8167293037859
 20
76.70604244770249
 30
0.0
  0
VERTEX
  5
411
  8
0
 10
213.7210969250013
 20
76.60484761171712
 30
0.0
  0
VERTEX
  5
412
  8
0
 10
213.6357991016493
 20
76.4951463351259
 30
0.0
  0
VERTEX
  5
413
  8
0
 10
213.5615806233068
 20
76.37765490117269
 30
0.0
  0
VERTEX
  5
414
  8
0
 10
213.4991862795509
 20
76.25308959310132
 30
0.0
  0
VERTEX
  5
415
  8
0
 10
213.4493608599585
 20
76.12216669415568
 30
0.0
  0
VERTEX
  5
416
  8
0
 10
213.4128491541067
 20
75.98560248757963
 30
0.0
  0
VERTEX
  5
417
  8
0
 10
213.3903959515725
 20
75.844113256617
 30
0.0
  0
VERTEX
  5
418
  8
0
 10
213.3827460419329
 20
75.69841528451165
 30
0.0
  0
VERTEX
  5
419
  8
0
 10
213.3903959515725
 20
75.5527173124063
 30
0.0
  0
VERTEX
  5
41A
  8
0
 10
213.4128491541067
 20
75.41122808144368
 30
0.0
  0
VERTEX
  5
41B
  8
0
 10
213.4493608599585
 20
75.27466387486763
 30
0.0
  0
VERTEX
  5
41C
  8
0
 10
213.4991862795509
 20
75.14374097592199
 30
0.0
  0
VERTEX
  5
41D
  8
0
 10
213.5615806233068
 20
75.01917566785062
 30
0.0
  0
VERTEX
  5
41E
  8
0
 10
213.6357991016493
 20
74.90168423389741
 30
0.0
  0
VERTEX
  5
41F
  8
0
 10
213.7210969250013
 20
74.79198295730619
 30
0.0
  0
VERTEX
  5
420
  8
0
 10
213.8167293037859
 20
74.69078812132082
 30
0.0
  0
VERTEX
  5
421
  8
0
 10
213.9219514484261
 20
74.59881600918519
 30
0.0
  0
VERTEX
  5
422
  8
0
 10
214.0360185693448
 20
74.5167829041431
 30
0.0
  0
VERTEX
  5
423
  8
0
 10
214.1581858769651
 20
74.44540508943845
 30
0.0
  0
VERTEX
  5
424
  8
0
 10
214.2877085817099
 20
74.38539884831509
 30
0.0
  0
VERTEX
  5
425
  8
0
 10
214.4238418940022
 20
74.33748046401688
 30
0.0
  0
VERTEX
  5
426
  8
0
 10
214.5658410242651
 20
74.30236621978767
 30
0.0
  0
VERTEX
  5
427
  8
0
 10
214.7129611829215
 20
74.28077239887132
 30
0.0
  0
VERTEX
  5
428
  8
0
 10
214.8644575803944
 20
74.27341528451167
 30
0.0
  0
VERTEX
  5
429
  8
0
 10
215.0159539778674
 20
74.28077239887132
 30
0.0
  0
VERTEX
  5
42A
  8
0
 10
215.1630741365238
 20
74.30236621978767
 30
0.0
  0
VERTEX
  5
42B
  8
0
 10
215.3050732667867
 20
74.33748046401688
 30
0.0
  0
VERTEX
  5
42C
  8
0
 10
215.441206579079
 20
74.38539884831509
 30
0.0
  0
VERTEX
  5
42D
  8
0
 10
215.5707292838238
 20
74.44540508943845
 30
0.0
  0
VERTEX
  5
42E
  8
0
 10
215.6928965914441
 20
74.5167829041431
 30
0.0
  0
VERTEX
  5
42F
  8
0
 10
215.8069637123628
 20
74.59881600918519
 30
0.0
  0
VERTEX
  5
430
  8
0
 10
215.912185857003
 20
74.69078812132082
 30
0.0
  0
VERTEX
  5
431
  8
0
 10
216.0078182357876
 20
74.79198295730617
 30
0.0
  0
VERTEX
  5
432
  8
0
 10
216.0931160591396
 20
74.90168423389738
 30
0.0
  0
VERTEX
  5
433
  8
0
 10
216.1673345374821
 20
75.01917566785062
 30
0.0
  0
VERTEX
  5
434
  8
0
 10
216.229728881238
 20
75.14374097592196
 30
0.0
  0
VERTEX
  5
435
  8
0
 10
216.2795543008303
 20
75.2746638748676
 30
0.0
  0
VERTEX
  5
436
  8
0
 10
216.3160660066821
 20
75.41122808144367
 30
0.0
  0
VERTEX
  5
437
  8
0
 10
216.3385192092163
 20
75.5527173124063
 30
0.0
  0
VERTEX
  5
438
  8
0
 10
216.346169118856
 20
75.69841528451165
 30
0.0
  0
VERTEX
  5
439
  8
0
 10
216.3385192092163
 20
75.844113256617
 30
0.0
  0
VERTEX
  5
43A
  8
0
 10
216.3160660066821
 20
75.98560248757964
 30
0.0
  0
VERTEX
  5
43B
  8
0
 10
216.2795543008304
 20
76.12216669415571
 30
0.0
  0
VERTEX
  5
43C
  8
0
 10
216.229728881238
 20
76.25308959310135
 30
0.0
  0
VERTEX
  5
43D
  8
0
 10
216.1673345374821
 20
76.37765490117269
 30
0.0
  0
VERTEX
  5
43E
  8
0
 10
216.0931160591396
 20
76.49514633512592
 30
0.0
  0
VERTEX
  5
43F
  8
0
 10
216.0078182357876
 20
76.60484761171713
 30
0.0
  0
VERTEX
  5
440
  8
0
 10
215.912185857003
 20
76.70604244770249
 30
0.0
  0
VERTEX
  5
441
  8
0
 10
215.8069637123628
 20
76.79801455983812
 30
0.0
  0
VERTEX
  5
442
  8
0
 10
215.6928965914441
 20
76.88004766488021
 30
0.0
  0
VERTEX
  5
443
  8
0
 10
215.5707292838238
 20
76.95142547958486
 30
0.0
  0
VERTEX
  5
444
  8
0
 10
215.441206579079
 20
77.01143172070822
 30
0.0
  0
VERTEX
  5
445
  8
0
 10
215.3050732667866
 20
77.05935010500643
 30
0.0
  0
VERTEX
  5
446
  8
0
 10
215.1630741365238
 20
77.09446434923565
 30
0.0
  0
VERTEX
  5
447
  8
0
 10
215.0159539778674
 20
77.11605817015202
 30
0.0
  0
SEQEND
  5
CEF
  8
0
  0
POLYLINE
  5
B9
  8
0
 66
     1
 10
0.0
 20
0.0
 30
0.0
  0
VERTEX
  5
448
  8
0
 10
382.5157991677487
 20
92.0859195064308
 30
0.0
 42
0.4142135623730994
  0
VERTEX
  5
449
  8
0
 10
380.6157984640955
 20
93.98592021008399
 30
0.0
  0
SEQEND
  5
CF0
  8
0
  0
POLYLINE
  5
BA
  8
0
 66
     1
 10
0.0
 20
0.0
 30
0.0
  0
VERTEX
  5
44A
  8
0
 10
218.8156883496252
 20
70.94841528451168
 30
0.0
  0
VERTEX
  5
44B
  8
0
 10
218.8156883496252
 20
79.49841528451168
 30
0.0
  0
SEQEND
  5
CF1
  8
0
  0
POLYLINE
  5
BB
  8
0
 66
     1
 10
0.0
 20
0.0
 30
0.0
  0
VERTEX
  5
44C
  8
0
 10
259.3158037342406
 20
70.94841528451168
 30
0.0
  0
VERTEX
  5
44D
  8
0
 10
218.8156883496252
 20
70.94841528451168
 30
0.0
  0
SEQEND
  5
CF2
  8
0
  0
POLYLINE
  5
BC
  8
0
 66
     1
 10
0.0
 20
0.0
 30
0.0
  0
VERTEX
  5
44E
  8
0
 10
259.3158037342406
 20
90.42341528451169
 30
0.0
  0
VERTEX
  5
44F
  8
0
 10
259.3158037342406
 20
81.87341528451167
 30
0.0
  0
SEQEND
  5
CF3
  8
0
  0
POLYLINE
  5
BD
  8
0
 66
     1
 10
0.0
 20
0.0
 30
0.0
 70
     1
  0
VERTEX
  5
450
  8
0
 10
379.1670774263159
 20
87.09841528451167
 30
0.0
  0
VERTEX
  5
451
  8
0
 10
379.015581028843
 20
87.09105817015204
 30
0.0
  0
VERTEX
  5
452
  8
0
 10
378.8684608701865
 20
87.06946434923567
 30
0.0
  0
VERTEX
  5
453
  8
0
 10
378.7264617399237
 20
87.03435010500645
 30
0.0
  0
VERTEX
  5
454
  8
0
 10
378.5903284276313
 20
86.98643172070824
 30
0.0
  0
VERTEX
  5
455
  8
0
 10
378.4608057228865
 20
86.92642547958488
 30
0.0
  0
VERTEX
  5
456
  8
0
 10
378.3386384152662
 20
86.85504766488023
 30
0.0
  0
VERTEX
  5
457
  8
0
 10
378.2245712943476
 20
86.77301455983815
 30
0.0
  0
VERTEX
  5
458
  8
0
 10
378.1193491497074
 20
86.68104244770251
 30
0.0
  0
VERTEX
  5
459
  8
0
 10
378.0237167709228
 20
86.57984761171716
 30
0.0
  0
VERTEX
  5
45A
  8
0
 10
377.9384189475708
 20
86.47014633512595
 30
0.0
  0
VERTEX
  5
45B
  8
0
 10
377.8642004692283
 20
86.35265490117271
 30
0.0
  0
VERTEX
  5
45C
  8
0
 10
377.8018061254724
 20
86.22808959310137
 30
0.0
  0
VERTEX
  5
45D
  8
0
 10
377.75198070588
 20
86.09716669415573
 30
0.0
  0
VERTEX
  5
45E
  8
0
 10
377.7154690000283
 20
85.96060248757966
 30
0.0
  0
VERTEX
  5
45F
  8
0
 10
377.6930157974941
 20
85.81911325661703
 30
0.0
  0
VERTEX
  5
460
  8
0
 10
377.6853658878545
 20
85.67341528451168
 30
0.0
  0
VERTEX
  5
461
  8
0
 10
377.6930157974941
 20
85.52771731240632
 30
0.0
  0
VERTEX
  5
462
  8
0
 10
377.7154690000283
 20
85.38622808144369
 30
0.0
  0
VERTEX
  5
463
  8
0
 10
377.75198070588
 20
85.24966387486762
 30
0.0
  0
VERTEX
  5
464
  8
0
 10
377.8018061254724
 20
85.11874097592198
 30
0.0
  0
VERTEX
  5
465
  8
0
 10
377.8642004692283
 20
84.99417566785061
 30
0.0
  0
VERTEX
  5
466
  8
0
 10
377.9384189475708
 20
84.87668423389741
 30
0.0
  0
VERTEX
  5
467
  8
0
 10
378.0237167709228
 20
84.7669829573062
 30
0.0
  0
VERTEX
  5
468
  8
0
 10
378.1193491497074
 20
84.66578812132083
 30
0.0
  0
VERTEX
  5
469
  8
0
 10
378.2245712943476
 20
84.57381600918518
 30
0.0
  0
VERTEX
  5
46A
  8
0
 10
378.3386384152662
 20
84.49178290414312
 30
0.0
  0
VERTEX
  5
46B
  8
0
 10
378.4608057228865
 20
84.42040508943847
 30
0.0
  0
VERTEX
  5
46C
  8
0
 10
378.5903284276313
 20
84.36039884831511
 30
0.0
  0
VERTEX
  5
46D
  8
0
 10
378.7264617399237
 20
84.3124804640169
 30
0.0
  0
VERTEX
  5
46E
  8
0
 10
378.8684608701865
 20
84.27736621978768
 30
0.0
  0
VERTEX
  5
46F
  8
0
 10
379.015581028843
 20
84.25577239887131
 30
0.0
  0
VERTEX
  5
470
  8
0
 10
379.1670774263159
 20
84.24841528451168
 30
0.0
  0
VERTEX
  5
471
  8
0
 10
379.3185738237889
 20
84.25577239887131
 30
0.0
  0
VERTEX
  5
472
  8
0
 10
379.4656939824453
 20
84.27736621978767
 30
0.0
  0
VERTEX
  5
473
  8
0
 10
379.6076931127081
 20
84.31248046401689
 30
0.0
  0
VERTEX
  5
474
  8
0
 10
379.7438264250005
 20
84.3603988483151
 30
0.0
  0
VERTEX
  5
475
  8
0
 10
379.8733491297453
 20
84.42040508943846
 30
0.0
  0
VERTEX
  5
476
  8
0
 10
379.9955164373656
 20
84.49178290414311
 30
0.0
  0
VERTEX
  5
477
  8
0
 10
380.1095835582843
 20
84.57381600918518
 30
0.0
  0
VERTEX
  5
478
  8
0
 10
380.2148057029244
 20
84.66578812132083
 30
0.0
  0
VERTEX
  5
479
  8
0
 10
380.310438081709
 20
84.7669829573062
 30
0.0
  0
VERTEX
  5
47A
  8
0
 10
380.3957359050611
 20
84.87668423389741
 30
0.0
  0
VERTEX
  5
47B
  8
0
 10
380.4699543834035
 20
84.99417566785061
 30
0.0
  0
VERTEX
  5
47C
  8
0
 10
380.5323487271595
 20
85.11874097592198
 30
0.0
  0
VERTEX
  5
47D
  8
0
 10
380.5821741467519
 20
85.24966387486762
 30
0.0
  0
VERTEX
  5
47E
  8
0
 10
380.6186858526037
 20
85.38622808144369
 30
0.0
  0
VERTEX
  5
47F
  8
0
 10
380.6411390551379
 20
85.52771731240632
 30
0.0
  0
VERTEX
  5
480
  8
0
 10
380.6487889647775
 20
85.67341528451168
 30
0.0
  0
VERTEX
  5
481
  8
0
 10
380.6411390551379
 20
85.81911325661703
 30
0.0
  0
VERTEX
  5
482
  8
0
 10
380.6186858526037
 20
85.96060248757965
 30
0.0
  0
VERTEX
  5
483
  8
0
 10
380.5821741467519
 20
86.0971666941557
 30
0.0
  0
VERTEX
  5
484
  8
0
 10
380.5323487271595
 20
86.22808959310134
 30
0.0
  0
VERTEX
  5
485
  8
0
 10
380.4699543834035
 20
86.35265490117271
 30
0.0
  0
VERTEX
  5
486
  8
0
 10
380.3957359050611
 20
86.47014633512592
 30
0.0
  0
VERTEX
  5
487
  8
0
 10
380.310438081709
 20
86.57984761171714
 30
0.0
  0
VERTEX
  5
488
  8
0
 10
380.2148057029244
 20
86.68104244770251
 30
0.0
  0
VERTEX
  5
489
  8
0
 10
380.1095835582843
 20
86.77301455983815
 30
0.0
  0
VERTEX
  5
48A
  8
0
 10
379.9955164373656
 20
86.85504766488023
 30
0.0
  0
VERTEX
  5
48B
  8
0
 10
379.8733491297453
 20
86.92642547958488
 30
0.0
  0
VERTEX
  5
48C
  8
0
 10
379.7438264250005
 20
86.98643172070824
 30
0.0
  0
VERTEX
  5
48D
  8
0
 10
379.6076931127081
 20
87.03435010500645
 30
0.0
  0
VERTEX
  5
48E
  8
0
 10
379.4656939824453
 20
87.06946434923567
 30
0.0
  0
VERTEX
  5
48F
  8
0
 10
379.3185738237889
 20
87.09105817015204
 30
0.0
  0
SEQEND
  5
CF4
  8
0
  0
POLYLINE
  5
BE
  8
0
 66
     1
 10
0.0
 20
0.0
 30
0.0
 70
     1
  0
VERTEX
  5
490
  8
0
 10
379.1670774263159
 20
77.1234152845117
 30
0.0
  0
VERTEX
  5
491
  8
0
 10
379.015581028843
 20
77.11605817015204
 30
0.0
  0
VERTEX
  5
492
  8
0
 10
378.8684608701865
 20
77.0944643492357
 30
0.0
  0
VERTEX
  5
493
  8
0
 10
378.7264617399237
 20
77.05935010500649
 30
0.0
  0
VERTEX
  5
494
  8
0
 10
378.5903284276313
 20
77.01143172070827
 30
0.0
  0
VERTEX
  5
495
  8
0
 10
378.4608057228865
 20
76.95142547958491
 30
0.0
  0
VERTEX
  5
496
  8
0
 10
378.3386384152662
 20
76.88004766488027
 30
0.0
  0
VERTEX
  5
497
  8
0
 10
378.2245712943476
 20
76.79801455983818
 30
0.0
  0
VERTEX
  5
498
  8
0
 10
378.1193491497074
 20
76.70604244770254
 30
0.0
  0
VERTEX
  5
499
  8
0
 10
378.0237167709228
 20
76.60484761171718
 30
0.0
  0
VERTEX
  5
49A
  8
0
 10
377.9384189475708
 20
76.49514633512595
 30
0.0
  0
VERTEX
  5
49B
  8
0
 10
377.8642004692283
 20
76.37765490117275
 30
0.0
  0
VERTEX
  5
49C
  8
0
 10
377.8018061254724
 20
76.25308959310138
 30
0.0
  0
VERTEX
  5
49D
  8
0
 10
377.75198070588
 20
76.12216669415574
 30
0.0
  0
VERTEX
  5
49E
  8
0
 10
377.7154690000283
 20
75.98560248757967
 30
0.0
  0
VERTEX
  5
49F
  8
0
 10
377.6930157974941
 20
75.84411325661704
 30
0.0
  0
VERTEX
  5
4A0
  8
0
 10
377.6853658878545
 20
75.69841528451168
 30
0.0
  0
VERTEX
  5
4A1
  8
0
 10
377.6930157974941
 20
75.55271731240636
 30
0.0
  0
VERTEX
  5
4A2
  8
0
 10
377.7154690000283
 20
75.41122808144374
 30
0.0
  0
VERTEX
  5
4A3
  8
0
 10
377.7519807058801
 20
75.27466387486768
 30
0.0
  0
VERTEX
  5
4A4
  8
0
 10
377.8018061254725
 20
75.14374097592204
 30
0.0
  0
VERTEX
  5
4A5
  8
0
 10
377.8642004692284
 20
75.0191756678507
 30
0.0
  0
VERTEX
  5
4A6
  8
0
 10
377.9384189475709
 20
74.90168423389747
 30
0.0
  0
VERTEX
  5
4A7
  8
0
 10
378.0237167709229
 20
74.79198295730626
 30
0.0
  0
VERTEX
  5
4A8
  8
0
 10
378.1193491497075
 20
74.6907881213209
 30
0.0
  0
VERTEX
  5
4A9
  8
0
 10
378.2245712943477
 20
74.59881600918524
 30
0.0
  0
VERTEX
  5
4AA
  8
0
 10
378.3386384152664
 20
74.51678290414318
 30
0.0
  0
VERTEX
  5
4AB
  8
0
 10
378.4608057228866
 20
74.44540508943852
 30
0.0
  0
VERTEX
  5
4AC
  8
0
 10
378.5903284276314
 20
74.38539884831516
 30
0.0
  0
VERTEX
  5
4AD
  8
0
 10
378.7264617399238
 20
74.33748046401695
 30
0.0
  0
VERTEX
  5
4AE
  8
0
 10
378.8684608701866
 20
74.30236621978771
 30
0.0
  0
VERTEX
  5
4AF
  8
0
 10
379.015581028843
 20
74.28077239887135
 30
0.0
  0
VERTEX
  5
4B0
  8
0
 10
379.1670774263159
 20
74.27341528451171
 30
0.0
  0
VERTEX
  5
4B1
  8
0
 10
379.3185738237889
 20
74.28077239887135
 30
0.0
  0
VERTEX
  5
4B2
  8
0
 10
379.4656939824453
 20
74.3023662197877
 30
0.0
  0
VERTEX
  5
4B3
  8
0
 10
379.6076931127081
 20
74.33748046401692
 30
0.0
  0
VERTEX
  5
4B4
  8
0
 10
379.7438264250005
 20
74.38539884831513
 30
0.0
  0
VERTEX
  5
4B5
  8
0
 10
379.8733491297453
 20
74.44540508943848
 30
0.0
  0
VERTEX
  5
4B6
  8
0
 10
379.9955164373656
 20
74.51678290414313
 30
0.0
  0
VERTEX
  5
4B7
  8
0
 10
380.1095835582843
 20
74.59881600918521
 30
0.0
  0
VERTEX
  5
4B8
  8
0
 10
380.2148057029244
 20
74.69078812132085
 30
0.0
  0
VERTEX
  5
4B9
  8
0
 10
380.310438081709
 20
74.79198295730622
 30
0.0
  0
VERTEX
  5
4BA
  8
0
 10
380.3957359050611
 20
74.90168423389744
 30
0.0
  0
VERTEX
  5
4BB
  8
0
 10
380.4699543834035
 20
75.01917566785065
 30
0.0
  0
VERTEX
  5
4BC
  8
0
 10
380.5323487271595
 20
75.14374097592201
 30
0.0
  0
VERTEX
  5
4BD
  8
0
 10
380.5821741467519
 20
75.27466387486766
 30
0.0
  0
VERTEX
  5
4BE
  8
0
 10
380.6186858526037
 20
75.41122808144371
 30
0.0
  0
VERTEX
  5
4BF
  8
0
 10
380.6411390551379
 20
75.55271731240633
 30
0.0
  0
VERTEX
  5
4C0
  8
0
 10
380.6487889647775
 20
75.69841528451168
 30
0.0
  0
VERTEX
  5
4C1
  8
0
 10
380.6411390551379
 20
75.84411325661704
 30
0.0
  0
VERTEX
  5
4C2
  8
0
 10
380.6186858526037
 20
75.98560248757967
 30
0.0
  0
VERTEX
  5
4C3
  8
0
 10
380.5821741467519
 20
76.12216669415574
 30
0.0
  0
VERTEX
  5
4C4
  8
0
 10
380.5323487271595
 20
76.25308959310138
 30
0.0
  0
VERTEX
  5
4C5
  8
0
 10
380.4699543834035
 20
76.37765490117275
 30
0.0
  0
VERTEX
  5
4C6
  8
0
 10
380.3957359050611
 20
76.49514633512595
 30
0.0
  0
VERTEX
  5
4C7
  8
0
 10
380.310438081709
 20
76.60484761171718
 30
0.0
  0
VERTEX
  5
4C8
  8
0
 10
380.2148057029244
 20
76.70604244770254
 30
0.0
  0
VERTEX
  5
4C9
  8
0
 10
380.1095835582843
 20
76.79801455983818
 30
0.0
  0
VERTEX
  5
4CA
  8
0
 10
379.9955164373656
 20
76.88004766488027
 30
0.0
  0
VERTEX
  5
4CB
  8
0
 10
379.8733491297453
 20
76.95142547958491
 30
0.0
  0
VERTEX
  5
4CC
  8
0
 10
379.7438264250005
 20
77.01143172070827
 30
0.0
  0
VERTEX
  5
4CD
  8
0
 10
379.6076931127081
 20
77.05935010500649
 30
0.0
  0
VERTEX
  5
4CE
  8
0
 10
379.4656939824453
 20
77.0944643492357
 30
0.0
  0
VERTEX
  5
4CF
  8
0
 10
379.3185738237889
 20
77.11605817015204
 30
0.0
  0
SEQEND
  5
CF5
  8
0
  0
POLYLINE
  5
BF
  8
0
 66
     1
 10
0.0
 20
0.0
 30
0.0
 70
     1
  0
VERTEX
  5
4D0
  8
0
 10
330.764500503239
 20
87.09841528451167
 30
0.0
  0
VERTEX
  5
4D1
  8
0
 10
330.613004105766
 20
87.09105817015204
 30
0.0
  0
VERTEX
  5
4D2
  8
0
 10
330.4658839471096
 20
87.06946434923567
 30
0.0
  0
VERTEX
  5
4D3
  8
0
 10
330.3238848168468
 20
87.03435010500645
 30
0.0
  0
VERTEX
  5
4D4
  8
0
 10
330.1877515045544
 20
86.98643172070824
 30
0.0
  0
VERTEX
  5
4D5
  8
0
 10
330.0582287998096
 20
86.92642547958488
 30
0.0
  0
VERTEX
  5
4D6
  8
0
 10
329.9360614921893
 20
86.85504766488023
 30
0.0
  0
VERTEX
  5
4D7
  8
0
 10
329.8219943712706
 20
86.77301455983815
 30
0.0
  0
VERTEX
  5
4D8
  8
0
 10
329.7167722266305
 20
86.68104244770251
 30
0.0
  0
VERTEX
  5
4D9
  8
0
 10
329.6211398478459
 20
86.57984761171716
 30
0.0
  0
VERTEX
  5
4DA
  8
0
 10
329.5358420244938
 20
86.47014633512595
 30
0.0
  0
VERTEX
  5
4DB
  8
0
 10
329.4616235461514
 20
86.35265490117271
 30
0.0
  0
VERTEX
  5
4DC
  8
0
 10
329.3992292023954
 20
86.22808959310137
 30
0.0
  0
VERTEX
  5
4DD
  8
0
 10
329.3494037828031
 20
86.09716669415573
 30
0.0
  0
VERTEX
  5
4DE
  8
0
 10
329.3128920769512
 20
85.96060248757966
 30
0.0
  0
VERTEX
  5
4DF
  8
0
 10
329.290438874417
 20
85.81911325661703
 30
0.0
  0
VERTEX
  5
4E0
  8
0
 10
329.2827889647774
 20
85.67341528451168
 30
0.0
  0
VERTEX
  5
4E1
  8
0
 10
329.290438874417
 20
85.52771731240632
 30
0.0
  0
VERTEX
  5
4E2
  8
0
 10
329.3128920769512
 20
85.38622808144369
 30
0.0
  0
VERTEX
  5
4E3
  8
0
 10
329.3494037828031
 20
85.24966387486762
 30
0.0
  0
VERTEX
  5
4E4
  8
0
 10
329.3992292023954
 20
85.11874097592198
 30
0.0
  0
VERTEX
  5
4E5
  8
0
 10
329.4616235461514
 20
84.99417566785061
 30
0.0
  0
VERTEX
  5
4E6
  8
0
 10
329.5358420244938
 20
84.87668423389741
 30
0.0
  0
VERTEX
  5
4E7
  8
0
 10
329.6211398478459
 20
84.7669829573062
 30
0.0
  0
VERTEX
  5
4E8
  8
0
 10
329.7167722266305
 20
84.66578812132083
 30
0.0
  0
VERTEX
  5
4E9
  8
0
 10
329.8219943712706
 20
84.57381600918518
 30
0.0
  0
VERTEX
  5
4EA
  8
0
 10
329.9360614921893
 20
84.49178290414311
 30
0.0
  0
VERTEX
  5
4EB
  8
0
 10
330.0582287998096
 20
84.42040508943846
 30
0.0
  0
VERTEX
  5
4EC
  8
0
 10
330.1877515045544
 20
84.3603988483151
 30
0.0
  0
VERTEX
  5
4ED
  8
0
 10
330.3238848168468
 20
84.31248046401689
 30
0.0
  0
VERTEX
  5
4EE
  8
0
 10
330.4658839471096
 20
84.27736621978767
 30
0.0
  0
VERTEX
  5
4EF
  8
0
 10
330.613004105766
 20
84.25577239887131
 30
0.0
  0
VERTEX
  5
4F0
  8
0
 10
330.764500503239
 20
84.24841528451168
 30
0.0
  0
VERTEX
  5
4F1
  8
0
 10
330.9159969007119
 20
84.25577239887131
 30
0.0
  0
VERTEX
  5
4F2
  8
0
 10
331.0631170593684
 20
84.27736621978768
 30
0.0
  0
VERTEX
  5
4F3
  8
0
 10
331.2051161896312
 20
84.3124804640169
 30
0.0
  0
VERTEX
  5
4F4
  8
0
 10
331.3412495019236
 20
84.36039884831511
 30
0.0
  0
VERTEX
  5
4F5
  8
0
 10
331.4707722066684
 20
84.42040508943847
 30
0.0
  0
VERTEX
  5
4F6
  8
0
 10
331.5929395142887
 20
84.49178290414312
 30
0.0
  0
VERTEX
  5
4F7
  8
0
 10
331.7070066352073
 20
84.57381600918518
 30
0.0
  0
VERTEX
  5
4F8
  8
0
 10
331.8122287798475
 20
84.66578812132083
 30
0.0
  0
VERTEX
  5
4F9
  8
0
 10
331.9078611586321
 20
84.7669829573062
 30
0.0
  0
VERTEX
  5
4FA
  8
0
 10
331.9931589819842
 20
84.87668423389741
 30
0.0
  0
VERTEX
  5
4FB
  8
0
 10
332.0673774603266
 20
84.99417566785061
 30
0.0
  0
VERTEX
  5
4FC
  8
0
 10
332.1297718040826
 20
85.11874097592198
 30
0.0
  0
VERTEX
  5
4FD
  8
0
 10
332.1795972236749
 20
85.24966387486762
 30
0.0
  0
VERTEX
  5
4FE
  8
0
 10
332.2161089295266
 20
85.38622808144369
 30
0.0
  0
VERTEX
  5
4FF
  8
0
 10
332.2385621320608
 20
85.52771731240632
 30
0.0
  0
VERTEX
  5
500
  8
0
 10
332.2462120417005
 20
85.67341528451168
 30
0.0
  0
VERTEX
  5
501
  8
0
 10
332.2385621320608
 20
85.81911325661703
 30
0.0
  0
VERTEX
  5
502
  8
0
 10
332.2161089295266
 20
85.96060248757966
 30
0.0
  0
VERTEX
  5
503
  8
0
 10
332.1795972236749
 20
86.09716669415573
 30
0.0
  0
VERTEX
  5
504
  8
0
 10
332.1297718040826
 20
86.22808959310137
 30
0.0
  0
VERTEX
  5
505
  8
0
 10
332.0673774603266
 20
86.35265490117271
 30
0.0
  0
VERTEX
  5
506
  8
0
 10
331.9931589819842
 20
86.47014633512595
 30
0.0
  0
VERTEX
  5
507
  8
0
 10
331.9078611586321
 20
86.57984761171716
 30
0.0
  0
VERTEX
  5
508
  8
0
 10
331.8122287798475
 20
86.68104244770251
 30
0.0
  0
VERTEX
  5
509
  8
0
 10
331.7070066352073
 20
86.77301455983815
 30
0.0
  0
VERTEX
  5
50A
  8
0
 10
331.5929395142887
 20
86.85504766488023
 30
0.0
  0
VERTEX
  5
50B
  8
0
 10
331.4707722066684
 20
86.92642547958488
 30
0.0
  0
VERTEX
  5
50C
  8
0
 10
331.3412495019236
 20
86.98643172070824
 30
0.0
  0
VERTEX
  5
50D
  8
0
 10
331.2051161896312
 20
87.03435010500645
 30
0.0
  0
VERTEX
  5
50E
  8
0
 10
331.0631170593684
 20
87.06946434923567
 30
0.0
  0
VERTEX
  5
50F
  8
0
 10
330.9159969007119
 20
87.09105817015204
 30
0.0
  0
SEQEND
  5
CF6
  8
0
  0
POLYLINE
  5
C0
  8
0
 66
     1
 10
0.0
 20
0.0
 30
0.0
 70
     1
  0
VERTEX
  5
510
  8
0
 10
330.764500503239
 20
77.1234152845117
 30
0.0
  0
VERTEX
  5
511
  8
0
 10
330.613004105766
 20
77.11605817015207
 30
0.0
  0
VERTEX
  5
512
  8
0
 10
330.4658839471096
 20
77.09446434923571
 30
0.0
  0
VERTEX
  5
513
  8
0
 10
330.3238848168468
 20
77.05935010500647
 30
0.0
  0
VERTEX
  5
514
  8
0
 10
330.1877515045544
 20
77.01143172070826
 30
0.0
  0
VERTEX
  5
515
  8
0
 10
330.0582287998096
 20
76.9514254795849
 30
0.0
  0
VERTEX
  5
516
  8
0
 10
329.9360614921893
 20
76.88004766488025
 30
0.0
  0
VERTEX
  5
517
  8
0
 10
329.8219943712706
 20
76.79801455983818
 30
0.0
  0
VERTEX
  5
518
  8
0
 10
329.7167722266305
 20
76.70604244770253
 30
0.0
  0
VERTEX
  5
519
  8
0
 10
329.6211398478459
 20
76.60484761171716
 30
0.0
  0
VERTEX
  5
51A
  8
0
 10
329.5358420244938
 20
76.49514633512595
 30
0.0
  0
VERTEX
  5
51B
  8
0
 10
329.4616235461514
 20
76.37765490117275
 30
0.0
  0
VERTEX
  5
51C
  8
0
 10
329.3992292023954
 20
76.25308959310138
 30
0.0
  0
VERTEX
  5
51D
  8
0
 10
329.3494037828031
 20
76.12216669415574
 30
0.0
  0
VERTEX
  5
51E
  8
0
 10
329.3128920769512
 20
75.98560248757967
 30
0.0
  0
VERTEX
  5
51F
  8
0
 10
329.290438874417
 20
75.84411325661704
 30
0.0
  0
VERTEX
  5
520
  8
0
 10
329.2827889647774
 20
75.69841528451168
 30
0.0
  0
VERTEX
  5
521
  8
0
 10
329.290438874417
 20
75.55271731240633
 30
0.0
  0
VERTEX
  5
522
  8
0
 10
329.3128920769512
 20
75.41122808144371
 30
0.0
  0
VERTEX
  5
523
  8
0
 10
329.3494037828031
 20
75.27466387486766
 30
0.0
  0
VERTEX
  5
524
  8
0
 10
329.3992292023954
 20
75.14374097592201
 30
0.0
  0
VERTEX
  5
525
  8
0
 10
329.4616235461514
 20
75.01917566785065
 30
0.0
  0
VERTEX
  5
526
  8
0
 10
329.5358420244938
 20
74.90168423389744
 30
0.0
  0
VERTEX
  5
527
  8
0
 10
329.6211398478459
 20
74.79198295730622
 30
0.0
  0
VERTEX
  5
528
  8
0
 10
329.7167722266305
 20
74.69078812132085
 30
0.0
  0
VERTEX
  5
529
  8
0
 10
329.8219943712706
 20
74.59881600918521
 30
0.0
  0
VERTEX
  5
52A
  8
0
 10
329.9360614921893
 20
74.51678290414313
 30
0.0
  0
VERTEX
  5
52B
  8
0
 10
330.0582287998096
 20
74.44540508943848
 30
0.0
  0
VERTEX
  5
52C
  8
0
 10
330.1877515045544
 20
74.38539884831513
 30
0.0
  0
VERTEX
  5
52D
  8
0
 10
330.3238848168468
 20
74.33748046401692
 30
0.0
  0
VERTEX
  5
52E
  8
0
 10
330.4658839471096
 20
74.3023662197877
 30
0.0
  0
VERTEX
  5
52F
  8
0
 10
330.613004105766
 20
74.28077239887135
 30
0.0
  0
VERTEX
  5
530
  8
0
 10
330.764500503239
 20
74.27341528451171
 30
0.0
  0
VERTEX
  5
531
  8
0
 10
330.9159969007119
 20
74.28077239887135
 30
0.0
  0
VERTEX
  5
532
  8
0
 10
331.0631170593684
 20
74.30236621978771
 30
0.0
  0
VERTEX
  5
533
  8
0
 10
331.2051161896312
 20
74.33748046401693
 30
0.0
  0
VERTEX
  5
534
  8
0
 10
331.3412495019236
 20
74.38539884831515
 30
0.0
  0
VERTEX
  5
535
  8
0
 10
331.4707722066684
 20
74.44540508943851
 30
0.0
  0
VERTEX
  5
536
  8
0
 10
331.5929395142887
 20
74.51678290414316
 30
0.0
  0
VERTEX
  5
537
  8
0
 10
331.7070066352073
 20
74.59881600918521
 30
0.0
  0
VERTEX
  5
538
  8
0
 10
331.8122287798475
 20
74.69078812132085
 30
0.0
  0
VERTEX
  5
539
  8
0
 10
331.9078611586321
 20
74.7919829573062
 30
0.0
  0
VERTEX
  5
53A
  8
0
 10
331.9931589819842
 20
74.90168423389741
 30
0.0
  0
VERTEX
  5
53B
  8
0
 10
332.0673774603266
 20
75.01917566785065
 30
0.0
  0
VERTEX
  5
53C
  8
0
 10
332.1297718040826
 20
75.14374097592199
 30
0.0
  0
VERTEX
  5
53D
  8
0
 10
332.1795972236749
 20
75.27466387486763
 30
0.0
  0
VERTEX
  5
53E
  8
0
 10
332.2161089295266
 20
75.4112280814437
 30
0.0
  0
VERTEX
  5
53F
  8
0
 10
332.2385621320608
 20
75.55271731240633
 30
0.0
  0
VERTEX
  5
540
  8
0
 10
332.2462120417005
 20
75.69841528451168
 30
0.0
  0
VERTEX
  5
541
  8
0
 10
332.2385621320608
 20
75.84411325661704
 30
0.0
  0
VERTEX
  5
542
  8
0
 10
332.2161089295266
 20
75.98560248757967
 30
0.0
  0
VERTEX
  5
543
  8
0
 10
332.1795972236749
 20
76.12216669415574
 30
0.0
  0
VERTEX
  5
544
  8
0
 10
332.1297718040826
 20
76.25308959310138
 30
0.0
  0
VERTEX
  5
545
  8
0
 10
332.0673774603266
 20
76.37765490117275
 30
0.0
  0
VERTEX
  5
546
  8
0
 10
331.9931589819842
 20
76.49514633512595
 30
0.0
  0
VERTEX
  5
547
  8
0
 10
331.9078611586321
 20
76.60484761171716
 30
0.0
  0
VERTEX
  5
548
  8
0
 10
331.8122287798475
 20
76.70604244770253
 30
0.0
  0
VERTEX
  5
549
  8
0
 10
331.7070066352073
 20
76.79801455983818
 30
0.0
  0
VERTEX
  5
54A
  8
0
 10
331.5929395142887
 20
76.88004766488024
 30
0.0
  0
VERTEX
  5
54B
  8
0
 10
331.4707722066684
 20
76.95142547958488
 30
0.0
  0
VERTEX
  5
54C
  8
0
 10
331.3412495019236
 20
77.01143172070825
 30
0.0
  0
VERTEX
  5
54D
  8
0
 10
331.2051161896312
 20
77.05935010500646
 30
0.0
  0
VERTEX
  5
54E
  8
0
 10
331.0631170593684
 20
77.09446434923568
 30
0.0
  0
VERTEX
  5
54F
  8
0
 10
330.9159969007119
 20
77.11605817015204
 30
0.0
  0
SEQEND
  5
CF7
  8
0
  0
POLYLINE
  5
C1
  8
0
 66
     1
 10
0.0
 20
0.0
 30
0.0
  0
VERTEX
  5
550
  8
0
 10
218.8156883496252
 20
90.42341528451169
 30
0.0
  0
VERTEX
  5
551
  8
0
 10
259.3158037342406
 20
90.42341528451169
 30
0.0
  0
SEQEND
  5
CF8
  8
0
  0
POLYLINE
  5
C2
  8
0
 66
     1
 10
0.0
 20
0.0
 30
0.0
  0
VERTEX
  5
552
  8
0
 10
334.7157312724697
 20
70.9484152845117
 30
0.0
  0
VERTEX
  5
553
  8
0
 10
334.7157312724697
 20
79.49841528451168
 30
0.0
  0
SEQEND
  5
CF9
  8
0
  0
POLYLINE
  5
C3
  8
0
 66
     1
 10
0.0
 20
0.0
 30
0.0
  0
VERTEX
  5
554
  8
0
 10
375.2158466570851
 20
70.9484152845117
 30
0.0
  0
VERTEX
  5
555
  8
0
 10
334.7157312724697
 20
70.9484152845117
 30
0.0
  0
SEQEND
  5
CFA
  8
0
  0
POLYLINE
  5
C4
  8
0
 66
     1
 10
0.0
 20
0.0
 30
0.0
  0
VERTEX
  5
556
  8
0
 10
375.2158466570851
 20
90.4234152845117
 30
0.0
  0
VERTEX
  5
557
  8
0
 10
375.2158466570851
 20
81.87341528451168
 30
0.0
  0
SEQEND
  5
CFB
  8
0
  0
POLYLINE
  5
C5
  8
0
 66
     1
 10
0.0
 20
0.0
 30
0.0
  0
VERTEX
  5
558
  8
0
 10
334.7157312724697
 20
90.4234152845117
 30
0.0
  0
VERTEX
  5
559
  8
0
 10
375.2158466570851
 20
90.4234152845117
 30
0.0
  0
SEQEND
  5
CFC
  8
0
  0
POLYLINE
  5
C6
  8
0
 66
     1
 10
0.0
 20
0.0
 30
0.0
  0
VERTEX
  5
55A
  8
0
 10
211.5157358389616
 20
69.28591106259253
 30
0.0
 42
0.4142135623730994
  0
VERTEX
  5
55B
  8
0
 10
213.4157365426148
 20
67.38591035893936
 30
0.0
  0
VERTEX
  5
55C
  8
0
 10
264.7157555412509
 20
67.38591035893936
 30
0.0
 42
0.4142135623730994
  0
VERTEX
  5
55D
  8
0
 10
266.6157562449041
 20
69.28591106259253
 30
0.0
  0
SEQEND
  5
CFD
  8
0
  0
POLYLINE
  5
C7
  8
0
 66
     1
 10
0.0
 20
0.0
 30
0.0
  0
VERTEX
  5
55E
  8
0
 10
268.5157569485573
 20
71.18591176624572
 30
0.0
 42
0.4142135623730994
  0
VERTEX
  5
55F
  8
0
 10
266.6157562449041
 20
69.28591106259253
 30
0.0
  0
SEQEND
  5
CFE
  8
0
  0
POLYLINE
  5
C8
  8
0
 66
     1
 10
0.0
 20
0.0
 30
0.0
  0
VERTEX
  5
560
  8
0
 10
382.5157991677487
 20
69.28591106259253
 30
0.0
  0
VERTEX
  5
561
  8
0
 10
382.5157991677487
 20
92.0859195064308
 30
0.0
  0
SEQEND
  5
CFF
  8
0
  0
POLYLINE
  5
C9
  8
0
 66
     1
 10
0.0
 20
0.0
 30
0.0
  0
VERTEX
  5
562
  8
0
 10
380.6157984640955
 20
67.38591035893936
 30
0.0
  0
VERTEX
  5
563
  8
0
 10
329.3157794654593
 20
67.38591035893936
 30
0.0
  0
SEQEND
  5
D00
  8
0
  0
POLYLINE
  5
CA
  8
0
 66
     1
 10
0.0
 20
0.0
 30
0.0
  0
VERTEX
  5
564
  8
0
 10
380.6157984640955
 20
67.38591035893936
 30
0.0
 42
0.4142135623730994
  0
VERTEX
  5
565
  8
0
 10
382.5157991677487
 20
69.28591106259253
 30
0.0
  0
SEQEND
  5
D01
  8
0
  0
POLYLINE
  5
CB
  8
0
 66
     1
 10
0.0
 20
0.0
 30
0.0
  0
VERTEX
  5
566
  8
0
 10
327.4157787618061
 20
69.28591106259253
 30
0.0
 42
0.4142135623730994
  0
VERTEX
  5
567
  8
0
 10
329.3157794654593
 20
67.38591035893936
 30
0.0
  0
SEQEND
  5
D02
  8
0
  0
POLYLINE
  5
CC
  8
0
 66
     1
 10
0.0
 20
0.0
 30
0.0
  0
VERTEX
  5
568
  8
0
 10
325.5157780581529
 20
71.18591176624571
 30
0.0
  0
VERTEX
  5
569
  8
0
 10
268.5157569485573
 20
71.18591176624572
 30
0.0
  0
SEQEND
  5
D03
  8
0
  0
POLYLINE
  5
CD
  8
0
 66
     1
 10
0.0
 20
0.0
 30
0.0
 70
     1
  0
VERTEX
  5
56A
  8
0
 10
268.5157569485573
 20
82.11091581225156
 30
0.0
 42
0.4142135623730951
  0
VERTEX
  5
56B
  8
0
 10
267.0907564208174
 20
80.68591528451168
 30
0.0
 42
0.4142135623730951
  0
VERTEX
  5
56C
  8
0
 10
268.5157569485573
 20
79.26091475677178
 30
0.0
 42
0.4142135623730951
  0
VERTEX
  5
56D
  8
0
 10
269.9407574762972
 20
80.68591528451168
 30
0.0
 42
0.4142135623730951
  0
SEQEND
  5
D04
  8
0
  0
POLYLINE
  5
CE
  8
0
 66
     1
 10
0.0
 20
0.0
 30
0.0
 70
     1
  0
VERTEX
  5
56E
  8
0
 10
325.5157780581529
 20
82.11091581225156
 30
0.0
 42
0.4142135623730951
  0
VERTEX
  5
56F
  8
0
 10
324.090777530413
 20
80.68591528451168
 30
0.0
 42
0.4142135623730951
  0
VERTEX
  5
570
  8
0
 10
325.5157780581529
 20
79.26091475677178
 30
0.0
 42
0.4142135623730951
  0
VERTEX
  5
571
  8
0
 10
326.9407785858929
 20
80.68591528451168
 30
0.0
 42
0.4142135623730951
  0
SEQEND
  5
D05
  8
0
  0
POLYLINE
  5
CF
  8
0
 66
     1
 10
0.0
 20
0.0
 30
0.0
 70
     1
  0
VERTEX
  5
572
  8
0
 10
378.2407975845291
 20
72.37341220602899
 30
0.0
 42
0.4142135623730951
  0
VERTEX
  5
573
  8
0
 10
376.8157970567893
 20
70.94841167828908
 30
0.0
 42
0.4142135623730951
  0
VERTEX
  5
574
  8
0
 10
378.2407975845291
 20
69.52341115054918
 30
0.0
 42
0.4142135623730951
  0
VERTEX
  5
575
  8
0
 10
379.665798112269
 20
70.94841167828908
 30
0.0
 42
0.4142135623730951
  0
SEQEND
  5
D06
  8
0
  0
POLYLINE
  5
D0
  8
0
 66
     1
 10
0.0
 20
0.0
 30
0.0
  0
VERTEX
  5
576
  8
0
 10
327.4157787618061
 20
69.28591106259252
 30
0.0
 42
0.4142135623730994
  0
VERTEX
  5
577
  8
0
 10
325.5157780581529
 20
71.18591176624571
 30
0.0
  0
SEQEND
  5
D07
  8
0
  0
POLYLINE
  5
D1
  8
0
 66
     1
 10
0.0
 20
0.0
 30
0.0
  0
VERTEX
  5
578
  8
0
 10
378.673173580162
 20
79.49841528451168
 30
0.0
  0
VERTEX
  5
579
  8
0
 10
378.673173580162
 20
81.87341528451168
 30
0.0
  0
VERTEX
  5
57A
  8
0
 10
375.2158466570851
 20
81.87341528451168
 30
0.0
  0
SEQEND
  5
D08
  8
0
  0
POLYLINE
  5
D2
  8
0
 66
     1
 10
0.0
 20
0.0
 30
0.0
  0
VERTEX
  5
57B
  8
0
 10
378.673173580162
 20
79.49841528451168
 30
0.0
  0
VERTEX
  5
57C
  8
0
 10
375.2158466570851
 20
79.49841528451168
 30
0.0
  0
SEQEND
  5
D09
  8
0
  0
POLYLINE
  5
D3
  8
0
 66
     1
 10
0.0
 20
0.0
 30
0.0
  0
VERTEX
  5
57D
  8
0
 10
262.7731306573175
 20
79.49841528451168
 30
0.0
  0
VERTEX
  5
57E
  8
0
 10
262.7731306573175
 20
81.87341528451167
 30
0.0
  0
VERTEX
  5
57F
  8
0
 10
259.3158037342406
 20
81.87341528451167
 30
0.0
  0
SEQEND
  5
D0A
  8
0
  0
POLYLINE
  5
D4
  8
0
 66
     1
 10
0.0
 20
0.0
 30
0.0
  0
VERTEX
  5
580
  8
0
 10
262.7731306573175
 20
79.49841528451168
 30
0.0
  0
VERTEX
  5
581
  8
0
 10
259.3158037342406
 20
79.49841528451168
 30
0.0
  0
SEQEND
  5
D0B
  8
0
  0
POLYLINE
  5
D5
  8
0
 66
     1
 10
0.0
 20
0.0
 30
0.0
  0
VERTEX
  5
582
  8
0
 10
215.3583614265482
 20
79.49841528451168
 30
0.0
  0
VERTEX
  5
583
  8
0
 10
215.3583614265482
 20
81.87341528451167
 30
0.0
  0
VERTEX
  5
584
  8
0
 10
218.8156883496252
 20
81.87341528451167
 30
0.0
  0
SEQEND
  5
D0C
  8
0
  0
POLYLINE
  5
D6
  8
0
 66
     1
 10
0.0
 20
0.0
 30
0.0
  0
VERTEX
  5
585
  8
0
 10
215.3583614265482
 20
79.49841528451168
 30
0.0
  0
VERTEX
  5
586
  8
0
 10
218.8156883496252
 20
79.49841528451168
 30
0.0
  0
SEQEND
  5
D0D
  8
0
  0
POLYLINE
  5
D7
  8
0
 66
     1
 10
0.0
 20
0.0
 30
0.0
  0
VERTEX
  5
587
  8
0
 10
331.2584043493928
 20
79.49841528451168
 30
0.0
  0
VERTEX
  5
588
  8
0
 10
331.2584043493928
 20
81.87341528451168
 30
0.0
  0
VERTEX
  5
589
  8
0
 10
334.7157312724697
 20
81.87341528451168
 30
0.0
  0
SEQEND
  5
D0E
  8
0
  0
POLYLINE
  5
D8
  8
0
 66
     1
 10
0.0
 20
0.0
 30
0.0
  0
VERTEX
  5
58A
  8
0
 10
331.2584043493928
 20
79.49841528451168
 30
0.0
  0
VERTEX
  5
58B
  8
0
 10
334.7157312724697
 20
79.49841528451168
 30
0.0
  0
SEQEND
  5
D0F
  8
0
  0
POLYLINE
  5
D9
  8
0
 66
     1
 10
0.0
 20
0.0
 30
0.0
  0
VERTEX
  5
58C
  8
0
 10
218.8156883496252
 20
81.87341528451167
 30
0.0
  0
VERTEX
  5
58D
  8
0
 10
218.8156883496252
 20
90.42341528451169
 30
0.0
  0
SEQEND
  5
D10
  8
0
  0
POLYLINE
  5
DA
  8
0
 66
     1
 10
0.0
 20
0.0
 30
0.0
  0
VERTEX
  5
58E
  8
0
 10
259.3158037342406
 20
79.49841528451168
 30
0.0
  0
VERTEX
  5
58F
  8
0
 10
259.3158037342406
 20
70.94841528451168
 30
0.0
  0
SEQEND
  5
D11
  8
0
  0
POLYLINE
  5
DB
  8
0
 66
     1
 10
0.0
 20
0.0
 30
0.0
  0
VERTEX
  5
590
  8
0
 10
334.7157312724697
 20
81.87341528451168
 30
0.0
  0
VERTEX
  5
591
  8
0
 10
334.7157312724697
 20
90.4234152845117
 30
0.0
  0
SEQEND
  5
D12
  8
0
  0
POLYLINE
  5
DC
  8
0
 66
     1
 10
0.0
 20
0.0
 30
0.0
  0
VERTEX
  5
592
  8
0
 10
375.2158466570851
 20
79.49841528451168
 30
0.0
  0
VERTEX
  5
593
  8
0
 10
375.2158466570851
 20
70.9484152845117
 30
0.0
  0
SEQEND
  5
D13
  8
0
  0
POLYLINE
  5
DD
  8
0
 66
     1
 10
0.0
 20
0.0
 30
0.0
  0
VERTEX
  5
594
  8
0
 10
212.9267527260242
 20
104.7194284799822
 30
0.0
  0
VERTEX
  5
595
  8
0
 10
212.9267527260242
 20
127.5194369238205
 30
0.0
  0
SEQEND
  5
D14
  8
0
  0
POLYLINE
  5
DE
  8
0
 66
     1
 10
0.0
 20
0.0
 30
0.0
  0
VERTEX
  5
596
  8
0
 10
214.8267534296774
 20
129.4194376274737
 30
0.0
  0
VERTEX
  5
597
  8
0
 10
266.1267724283135
 20
129.4194376274737
 30
0.0
  0
SEQEND
  5
D15
  8
0
  0
POLYLINE
  5
DF
  8
0
 66
     1
 10
0.0
 20
0.0
 30
0.0
  0
VERTEX
  5
598
  8
0
 10
382.0268153511581
 20
129.4194376274737
 30
0.0
  0
VERTEX
  5
599
  8
0
 10
330.7267963525219
 20
129.4194376274737
 30
0.0
  0
SEQEND
  5
D16
  8
0
  0
POLYLINE
  5
E0
  8
0
 66
     1
 10
0.0
 20
0.0
 30
0.0
  0
VERTEX
  5
59A
  8
0
 10
326.9267949452154
 20
125.6194362201673
 30
0.0
  0
VERTEX
  5
59B
  8
0
 10
269.9267738356199
 20
125.6194362201673
 30
0.0
  0
SEQEND
  5
D17
  8
0
  0
POLYLINE
  5
E1
  8
0
 66
     1
 10
0.0
 20
0.0
 30
0.0
  0
VERTEX
  5
59C
  8
0
 10
214.8267534296774
 20
129.4194376274737
 30
0.0
 42
0.4142135623731065
  0
VERTEX
  5
59D
  8
0
 10
212.9267527260242
 20
127.5194369238205
 30
0.0
  0
SEQEND
  5
D18
  8
0
  0
POLYLINE
  5
E2
  8
0
 66
     1
 10
0.0
 20
0.0
 30
0.0
  0
VERTEX
  5
59E
  8
0
 10
268.0267731319667
 20
127.5194369238205
 30
0.0
 42
0.4142135623731065
  0
VERTEX
  5
59F
  8
0
 10
266.1267724283135
 20
129.4194376274737
 30
0.0
  0
SEQEND
  5
D19
  8
0
  0
POLYLINE
  5
E3
  8
0
 66
     1
 10
0.0
 20
0.0
 30
0.0
  0
VERTEX
  5
5A0
  8
0
 10
268.0267731319667
 20
127.5194369238205
 30
0.0
 42
0.4142135623730994
  0
VERTEX
  5
5A1
  8
0
 10
269.9267738356199
 20
125.6194362201673
 30
0.0
  0
SEQEND
  5
D1A
  8
0
  0
POLYLINE
  5
E4
  8
0
 66
     1
 10
0.0
 20
0.0
 30
0.0
  0
VERTEX
  5
5A2
  8
0
 10
330.7267963525219
 20
129.4194376274737
 30
0.0
 42
0.4142135623731065
  0
VERTEX
  5
5A3
  8
0
 10
328.8267956488686
 20
127.5194369238205
 30
0.0
  0
SEQEND
  5
D1B
  8
0
  0
POLYLINE
  5
E5
  8
0
 66
     1
 10
0.0
 20
0.0
 30
0.0
  0
VERTEX
  5
5A4
  8
0
 10
326.9267949452154
 20
125.6194362201673
 30
0.0
 42
0.4142135623730994
  0
VERTEX
  5
5A5
  8
0
 10
328.8267956488686
 20
127.5194369238205
 30
0.0
  0
SEQEND
  5
D1C
  8
0
  0
POLYLINE
  5
E6
  8
0
 66
     1
 10
0.0
 20
0.0
 30
0.0
 70
     1
  0
VERTEX
  5
5A6
  8
0
 10
264.6780513905339
 20
122.5319327019013
 30
0.0
  0
VERTEX
  5
5A7
  8
0
 10
264.526554993061
 20
122.5245755875417
 30
0.0
  0
VERTEX
  5
5A8
  8
0
 10
264.3794348344045
 20
122.5029817666253
 30
0.0
  0
VERTEX
  5
5A9
  8
0
 10
264.2374357041416
 20
122.4678675223961
 30
0.0
  0
VERTEX
  5
5AA
  8
0
 10
264.1013023918492
 20
122.4199491380979
 30
0.0
  0
VERTEX
  5
5AB
  8
0
 10
263.9717796871044
 20
122.3599428969746
 30
0.0
  0
VERTEX
  5
5AC
  8
0
 10
263.8496123794841
 20
122.2885650822699
 30
0.0
  0
VERTEX
  5
5AD
  8
0
 10
263.7355452585655
 20
122.2065319772279
 30
0.0
  0
VERTEX
  5
5AE
  8
0
 10
263.6303231139253
 20
122.1145598650922
 30
0.0
  0
VERTEX
  5
5AF
  8
0
 10
263.5346907351408
 20
122.0133650291068
 30
0.0
  0
VERTEX
  5
5B0
  8
0
 10
263.4493929117887
 20
121.9036637525156
 30
0.0
  0
VERTEX
  5
5B1
  8
0
 10
263.3751744334463
 20
121.7861723185624
 30
0.0
  0
VERTEX
  5
5B2
  8
0
 10
263.3127800896904
 20
121.6616070104911
 30
0.0
  0
VERTEX
  5
5B3
  8
0
 10
263.2629546700981
 20
121.5306841115454
 30
0.0
  0
VERTEX
  5
5B4
  8
0
 10
263.2264429642462
 20
121.3941199049694
 30
0.0
  0
VERTEX
  5
5B5
  8
0
 10
263.203989761712
 20
121.2526306740067
 30
0.0
  0
VERTEX
  5
5B6
  8
0
 10
263.1963398520724
 20
121.1069327019013
 30
0.0
  0
VERTEX
  5
5B7
  8
0
 10
263.203989761712
 20
120.961234729796
 30
0.0
  0
VERTEX
  5
5B8
  8
0
 10
263.2264429642462
 20
120.8197454988333
 30
0.0
  0
VERTEX
  5
5B9
  8
0
 10
263.2629546700981
 20
120.6831812922573
 30
0.0
  0
VERTEX
  5
5BA
  8
0
 10
263.3127800896904
 20
120.5522583933116
 30
0.0
  0
VERTEX
  5
5BB
  8
0
 10
263.3751744334463
 20
120.4276930852402
 30
0.0
  0
VERTEX
  5
5BC
  8
0
 10
263.4493929117888
 20
120.310201651287
 30
0.0
  0
VERTEX
  5
5BD
  8
0
 10
263.5346907351408
 20
120.2005003746958
 30
0.0
  0
VERTEX
  5
5BE
  8
0
 10
263.6303231139254
 20
120.0993055387104
 30
0.0
  0
VERTEX
  5
5BF
  8
0
 10
263.7355452585655
 20
120.0073334265748
 30
0.0
  0
VERTEX
  5
5C0
  8
0
 10
263.8496123794843
 20
119.9253003215327
 30
0.0
  0
VERTEX
  5
5C1
  8
0
 10
263.9717796871045
 20
119.8539225068281
 30
0.0
  0
VERTEX
  5
5C2
  8
0
 10
264.1013023918493
 20
119.7939162657047
 30
0.0
  0
VERTEX
  5
5C3
  8
0
 10
264.2374357041417
 20
119.7459978814065
 30
0.0
  0
VERTEX
  5
5C4
  8
0
 10
264.3794348344045
 20
119.7108836371773
 30
0.0
  0
VERTEX
  5
5C5
  8
0
 10
264.526554993061
 20
119.6892898162609
 30
0.0
  0
VERTEX
  5
5C6
  8
0
 10
264.6780513905339
 20
119.6819327019013
 30
0.0
  0
VERTEX
  5
5C7
  8
0
 10
264.8295477880069
 20
119.689289816261
 30
0.0
  0
VERTEX
  5
5C8
  8
0
 10
264.9766679466633
 20
119.7108836371773
 30
0.0
  0
VERTEX
  5
5C9
  8
0
 10
265.1186670769262
 20
119.7459978814065
 30
0.0
  0
VERTEX
  5
5CA
  8
0
 10
265.2548003892185
 20
119.7939162657047
 30
0.0
  0
VERTEX
  5
5CB
  8
0
 10
265.3843230939634
 20
119.8539225068281
 30
0.0
  0
VERTEX
  5
5CC
  8
0
 10
265.5064904015836
 20
119.9253003215327
 30
0.0
  0
VERTEX
  5
5CD
  8
0
 10
265.6205575225023
 20
120.0073334265748
 30
0.0
  0
VERTEX
  5
5CE
  8
0
 10
265.7257796671424
 20
120.0993055387104
 30
0.0
  0
VERTEX
  5
5CF
  8
0
 10
265.821412045927
 20
120.2005003746958
 30
0.0
  0
VERTEX
  5
5D0
  8
0
 10
265.9067098692791
 20
120.310201651287
 30
0.0
  0
VERTEX
  5
5D1
  8
0
 10
265.9809283476216
 20
120.4276930852402
 30
0.0
  0
VERTEX
  5
5D2
  8
0
 10
266.0433226913775
 20
120.5522583933116
 30
0.0
  0
VERTEX
  5
5D3
  8
0
 10
266.0931481109698
 20
120.6831812922573
 30
0.0
  0
VERTEX
  5
5D4
  8
0
 10
266.1296598168216
 20
120.8197454988333
 30
0.0
  0
VERTEX
  5
5D5
  8
0
 10
266.1521130193558
 20
120.961234729796
 30
0.0
  0
VERTEX
  5
5D6
  8
0
 10
266.1597629289954
 20
121.1069327019013
 30
0.0
  0
VERTEX
  5
5D7
  8
0
 10
266.1521130193558
 20
121.2526306740067
 30
0.0
  0
VERTEX
  5
5D8
  8
0
 10
266.1296598168216
 20
121.3941199049694
 30
0.0
  0
VERTEX
  5
5D9
  8
0
 10
266.0931481109698
 20
121.5306841115454
 30
0.0
  0
VERTEX
  5
5DA
  8
0
 10
266.0433226913775
 20
121.6616070104911
 30
0.0
  0
VERTEX
  5
5DB
  8
0
 10
265.9809283476216
 20
121.7861723185624
 30
0.0
  0
VERTEX
  5
5DC
  8
0
 10
265.9067098692791
 20
121.9036637525157
 30
0.0
  0
VERTEX
  5
5DD
  8
0
 10
265.821412045927
 20
122.0133650291069
 30
0.0
  0
VERTEX
  5
5DE
  8
0
 10
265.7257796671424
 20
122.1145598650922
 30
0.0
  0
VERTEX
  5
5DF
  8
0
 10
265.6205575225023
 20
122.2065319772279
 30
0.0
  0
VERTEX
  5
5E0
  8
0
 10
265.5064904015836
 20
122.2885650822699
 30
0.0
  0
VERTEX
  5
5E1
  8
0
 10
265.3843230939634
 20
122.3599428969746
 30
0.0
  0
VERTEX
  5
5E2
  8
0
 10
265.2548003892185
 20
122.4199491380979
 30
0.0
  0
VERTEX
  5
5E3
  8
0
 10
265.1186670769262
 20
122.4678675223961
 30
0.0
  0
VERTEX
  5
5E4
  8
0
 10
264.9766679466633
 20
122.5029817666253
 30
0.0
  0
VERTEX
  5
5E5
  8
0
 10
264.8295477880069
 20
122.5245755875417
 30
0.0
  0
SEQEND
  5
D1D
  8
0
  0
POLYLINE
  5
E7
  8
0
 66
     1
 10
0.0
 20
0.0
 30
0.0
 70
     1
  0
VERTEX
  5
5E6
  8
0
 10
264.6780513905339
 20
112.5569327019013
 30
0.0
  0
VERTEX
  5
5E7
  8
0
 10
264.526554993061
 20
112.5495755875417
 30
0.0
  0
VERTEX
  5
5E8
  8
0
 10
264.3794348344045
 20
112.5279817666253
 30
0.0
  0
VERTEX
  5
5E9
  8
0
 10
264.2374357041417
 20
112.4928675223961
 30
0.0
  0
VERTEX
  5
5EA
  8
0
 10
264.1013023918493
 20
112.4449491380979
 30
0.0
  0
VERTEX
  5
5EB
  8
0
 10
263.9717796871045
 20
112.3849428969746
 30
0.0
  0
VERTEX
  5
5EC
  8
0
 10
263.8496123794843
 20
112.3135650822699
 30
0.0
  0
VERTEX
  5
5ED
  8
0
 10
263.7355452585655
 20
112.2315319772279
 30
0.0
  0
VERTEX
  5
5EE
  8
0
 10
263.6303231139254
 20
112.1395598650922
 30
0.0
  0
VERTEX
  5
5EF
  8
0
 10
263.5346907351408
 20
112.0383650291069
 30
0.0
  0
VERTEX
  5
5F0
  8
0
 10
263.4493929117888
 20
111.9286637525156
 30
0.0
  0
VERTEX
  5
5F1
  8
0
 10
263.3751744334463
 20
111.8111723185624
 30
0.0
  0
VERTEX
  5
5F2
  8
0
 10
263.3127800896904
 20
111.6866070104911
 30
0.0
  0
VERTEX
  5
5F3
  8
0
 10
263.2629546700981
 20
111.5556841115454
 30
0.0
  0
VERTEX
  5
5F4
  8
0
 10
263.2264429642462
 20
111.4191199049693
 30
0.0
  0
VERTEX
  5
5F5
  8
0
 10
263.203989761712
 20
111.2776306740067
 30
0.0
  0
VERTEX
  5
5F6
  8
0
 10
263.1963398520724
 20
111.1319327019013
 30
0.0
  0
VERTEX
  5
5F7
  8
0
 10
263.203989761712
 20
110.986234729796
 30
0.0
  0
VERTEX
  5
5F8
  8
0
 10
263.2264429642462
 20
110.8447454988333
 30
0.0
  0
VERTEX
  5
5F9
  8
0
 10
263.2629546700981
 20
110.7081812922572
 30
0.0
  0
VERTEX
  5
5FA
  8
0
 10
263.3127800896904
 20
110.5772583933116
 30
0.0
  0
VERTEX
  5
5FB
  8
0
 10
263.3751744334463
 20
110.4526930852402
 30
0.0
  0
VERTEX
  5
5FC
  8
0
 10
263.4493929117888
 20
110.335201651287
 30
0.0
  0
VERTEX
  5
5FD
  8
0
 10
263.5346907351408
 20
110.2255003746958
 30
0.0
  0
VERTEX
  5
5FE
  8
0
 10
263.6303231139254
 20
110.1243055387105
 30
0.0
  0
VERTEX
  5
5FF
  8
0
 10
263.7355452585655
 20
110.0323334265748
 30
0.0
  0
VERTEX
  5
600
  8
0
 10
263.8496123794843
 20
109.9503003215328
 30
0.0
  0
VERTEX
  5
601
  8
0
 10
263.9717796871045
 20
109.8789225068281
 30
0.0
  0
VERTEX
  5
602
  8
0
 10
264.1013023918493
 20
109.8189162657048
 30
0.0
  0
VERTEX
  5
603
  8
0
 10
264.2374357041417
 20
109.7709978814066
 30
0.0
  0
VERTEX
  5
604
  8
0
 10
264.3794348344045
 20
109.7358836371774
 30
0.0
  0
VERTEX
  5
605
  8
0
 10
264.526554993061
 20
109.714289816261
 30
0.0
  0
VERTEX
  5
606
  8
0
 10
264.6780513905339
 20
109.7069327019014
 30
0.0
  0
VERTEX
  5
607
  8
0
 10
264.8295477880069
 20
109.714289816261
 30
0.0
  0
VERTEX
  5
608
  8
0
 10
264.9766679466633
 20
109.7358836371773
 30
0.0
  0
VERTEX
  5
609
  8
0
 10
265.1186670769262
 20
109.7709978814066
 30
0.0
  0
VERTEX
  5
60A
  8
0
 10
265.2548003892185
 20
109.8189162657048
 30
0.0
  0
VERTEX
  5
60B
  8
0
 10
265.3843230939634
 20
109.8789225068281
 30
0.0
  0
VERTEX
  5
60C
  8
0
 10
265.5064904015836
 20
109.9503003215328
 30
0.0
  0
VERTEX
  5
60D
  8
0
 10
265.6205575225023
 20
110.0323334265748
 30
0.0
  0
VERTEX
  5
60E
  8
0
 10
265.7257796671424
 20
110.1243055387105
 30
0.0
  0
VERTEX
  5
60F
  8
0
 10
265.821412045927
 20
110.2255003746958
 30
0.0
  0
VERTEX
  5
610
  8
0
 10
265.9067098692791
 20
110.335201651287
 30
0.0
  0
VERTEX
  5
611
  8
0
 10
265.9809283476216
 20
110.4526930852402
 30
0.0
  0
VERTEX
  5
612
  8
0
 10
266.0433226913775
 20
110.5772583933116
 30
0.0
  0
VERTEX
  5
613
  8
0
 10
266.0931481109698
 20
110.7081812922573
 30
0.0
  0
VERTEX
  5
614
  8
0
 10
266.1296598168216
 20
110.8447454988333
 30
0.0
  0
VERTEX
  5
615
  8
0
 10
266.1521130193558
 20
110.986234729796
 30
0.0
  0
VERTEX
  5
616
  8
0
 10
266.1597629289954
 20
111.1319327019013
 30
0.0
  0
VERTEX
  5
617
  8
0
 10
266.1521130193558
 20
111.2776306740067
 30
0.0
  0
VERTEX
  5
618
  8
0
 10
266.1296598168216
 20
111.4191199049693
 30
0.0
  0
VERTEX
  5
619
  8
0
 10
266.0931481109698
 20
111.5556841115454
 30
0.0
  0
VERTEX
  5
61A
  8
0
 10
266.0433226913775
 20
111.6866070104911
 30
0.0
  0
VERTEX
  5
61B
  8
0
 10
265.9809283476216
 20
111.8111723185624
 30
0.0
  0
VERTEX
  5
61C
  8
0
 10
265.9067098692791
 20
111.9286637525156
 30
0.0
  0
VERTEX
  5
61D
  8
0
 10
265.821412045927
 20
112.0383650291068
 30
0.0
  0
VERTEX
  5
61E
  8
0
 10
265.7257796671424
 20
112.1395598650922
 30
0.0
  0
VERTEX
  5
61F
  8
0
 10
265.6205575225023
 20
112.2315319772279
 30
0.0
  0
VERTEX
  5
620
  8
0
 10
265.5064904015836
 20
112.3135650822699
 30
0.0
  0
VERTEX
  5
621
  8
0
 10
265.3843230939634
 20
112.3849428969746
 30
0.0
  0
VERTEX
  5
622
  8
0
 10
265.2548003892185
 20
112.4449491380979
 30
0.0
  0
VERTEX
  5
623
  8
0
 10
265.1186670769262
 20
112.4928675223961
 30
0.0
  0
VERTEX
  5
624
  8
0
 10
264.9766679466633
 20
112.5279817666253
 30
0.0
  0
VERTEX
  5
625
  8
0
 10
264.8295477880069
 20
112.5495755875417
 30
0.0
  0
SEQEND
  5
D1E
  8
0
  0
POLYLINE
  5
E8
  8
0
 66
     1
 10
0.0
 20
0.0
 30
0.0
 70
     1
  0
VERTEX
  5
626
  8
0
 10
216.275474467457
 20
122.5319327019013
 30
0.0
  0
VERTEX
  5
627
  8
0
 10
216.123978069984
 20
122.5245755875417
 30
0.0
  0
VERTEX
  5
628
  8
0
 10
215.9768579113276
 20
122.5029817666253
 30
0.0
  0
VERTEX
  5
629
  8
0
 10
215.8348587810648
 20
122.4678675223961
 30
0.0
  0
VERTEX
  5
62A
  8
0
 10
215.6987254687724
 20
122.4199491380979
 30
0.0
  0
VERTEX
  5
62B
  8
0
 10
215.5692027640276
 20
122.3599428969745
 30
0.0
  0
VERTEX
  5
62C
  8
0
 10
215.4470354564073
 20
122.2885650822699
 30
0.0
  0
VERTEX
  5
62D
  8
0
 10
215.3329683354886
 20
122.2065319772278
 30
0.0
  0
VERTEX
  5
62E
  8
0
 10
215.2277461908484
 20
122.1145598650922
 30
0.0
  0
VERTEX
  5
62F
  8
0
 10
215.1321138120638
 20
122.0133650291068
 30
0.0
  0
VERTEX
  5
630
  8
0
 10
215.0468159887118
 20
121.9036637525156
 30
0.0
  0
VERTEX
  5
631
  8
0
 10
214.9725975103693
 20
121.7861723185624
 30
0.0
  0
VERTEX
  5
632
  8
0
 10
214.9102031666134
 20
121.661607010491
 30
0.0
  0
VERTEX
  5
633
  8
0
 10
214.860377747021
 20
121.5306841115454
 30
0.0
  0
VERTEX
  5
634
  8
0
 10
214.8238660411693
 20
121.3941199049693
 30
0.0
  0
VERTEX
  5
635
  8
0
 10
214.8014128386351
 20
121.2526306740067
 30
0.0
  0
VERTEX
  5
636
  8
0
 10
214.7937629289954
 20
121.1069327019013
 30
0.0
  0
VERTEX
  5
637
  8
0
 10
214.8014128386351
 20
120.961234729796
 30
0.0
  0
VERTEX
  5
638
  8
0
 10
214.8238660411693
 20
120.8197454988334
 30
0.0
  0
VERTEX
  5
639
  8
0
 10
214.860377747021
 20
120.6831812922573
 30
0.0
  0
VERTEX
  5
63A
  8
0
 10
214.9102031666134
 20
120.5522583933117
 30
0.0
  0
VERTEX
  5
63B
  8
0
 10
214.9725975103693
 20
120.4276930852403
 30
0.0
  0
VERTEX
  5
63C
  8
0
 10
215.0468159887118
 20
120.3102016512871
 30
0.0
  0
VERTEX
  5
63D
  8
0
 10
215.1321138120638
 20
120.2005003746959
 30
0.0
  0
VERTEX
  5
63E
  8
0
 10
215.2277461908484
 20
120.0993055387105
 30
0.0
  0
VERTEX
  5
63F
  8
0
 10
215.3329683354886
 20
120.0073334265748
 30
0.0
  0
VERTEX
  5
640
  8
0
 10
215.4470354564073
 20
119.9253003215328
 30
0.0
  0
VERTEX
  5
641
  8
0
 10
215.5692027640276
 20
119.8539225068281
 30
0.0
  0
VERTEX
  5
642
  8
0
 10
215.6987254687724
 20
119.7939162657048
 30
0.0
  0
VERTEX
  5
643
  8
0
 10
215.8348587810648
 20
119.7459978814065
 30
0.0
  0
VERTEX
  5
644
  8
0
 10
215.9768579113276
 20
119.7108836371773
 30
0.0
  0
VERTEX
  5
645
  8
0
 10
216.123978069984
 20
119.6892898162609
 30
0.0
  0
VERTEX
  5
646
  8
0
 10
216.275474467457
 20
119.6819327019013
 30
0.0
  0
VERTEX
  5
647
  8
0
 10
216.4269708649299
 20
119.689289816261
 30
0.0
  0
VERTEX
  5
648
  8
0
 10
216.5740910235863
 20
119.7108836371773
 30
0.0
  0
VERTEX
  5
649
  8
0
 10
216.7160901538492
 20
119.7459978814066
 30
0.0
  0
VERTEX
  5
64A
  8
0
 10
216.8522234661415
 20
119.7939162657048
 30
0.0
  0
VERTEX
  5
64B
  8
0
 10
216.9817461708863
 20
119.8539225068281
 30
0.0
  0
VERTEX
  5
64C
  8
0
 10
217.1039134785066
 20
119.9253003215328
 30
0.0
  0
VERTEX
  5
64D
  8
0
 10
217.2179805994253
 20
120.0073334265749
 30
0.0
  0
VERTEX
  5
64E
  8
0
 10
217.3232027440655
 20
120.0993055387105
 30
0.0
  0
VERTEX
  5
64F
  8
0
 10
217.4188351228501
 20
120.2005003746959
 30
0.0
  0
VERTEX
  5
650
  8
0
 10
217.5041329462021
 20
120.3102016512871
 30
0.0
  0
VERTEX
  5
651
  8
0
 10
217.5783514245446
 20
120.4276930852403
 30
0.0
  0
VERTEX
  5
652
  8
0
 10
217.6407457683005
 20
120.5522583933117
 30
0.0
  0
VERTEX
  5
653
  8
0
 10
217.6905711878929
 20
120.6831812922573
 30
0.0
  0
VERTEX
  5
654
  8
0
 10
217.7270828937447
 20
120.8197454988334
 30
0.0
  0
VERTEX
  5
655
  8
0
 10
217.7495360962789
 20
120.961234729796
 30
0.0
  0
VERTEX
  5
656
  8
0
 10
217.7571860059185
 20
121.1069327019013
 30
0.0
  0
VERTEX
  5
657
  8
0
 10
217.7495360962789
 20
121.2526306740067
 30
0.0
  0
VERTEX
  5
658
  8
0
 10
217.7270828937447
 20
121.3941199049693
 30
0.0
  0
VERTEX
  5
659
  8
0
 10
217.6905711878929
 20
121.5306841115454
 30
0.0
  0
VERTEX
  5
65A
  8
0
 10
217.6407457683005
 20
121.661607010491
 30
0.0
  0
VERTEX
  5
65B
  8
0
 10
217.5783514245446
 20
121.7861723185624
 30
0.0
  0
VERTEX
  5
65C
  8
0
 10
217.5041329462021
 20
121.9036637525156
 30
0.0
  0
VERTEX
  5
65D
  8
0
 10
217.4188351228501
 20
122.0133650291068
 30
0.0
  0
VERTEX
  5
65E
  8
0
 10
217.3232027440655
 20
122.1145598650922
 30
0.0
  0
VERTEX
  5
65F
  8
0
 10
217.2179805994253
 20
122.2065319772278
 30
0.0
  0
VERTEX
  5
660
  8
0
 10
217.1039134785066
 20
122.2885650822699
 30
0.0
  0
VERTEX
  5
661
  8
0
 10
216.9817461708863
 20
122.3599428969745
 30
0.0
  0
VERTEX
  5
662
  8
0
 10
216.8522234661415
 20
122.4199491380979
 30
0.0
  0
VERTEX
  5
663
  8
0
 10
216.7160901538492
 20
122.4678675223961
 30
0.0
  0
VERTEX
  5
664
  8
0
 10
216.5740910235863
 20
122.5029817666253
 30
0.0
  0
VERTEX
  5
665
  8
0
 10
216.4269708649299
 20
122.5245755875417
 30
0.0
  0
SEQEND
  5
D1F
  8
0
  0
POLYLINE
  5
E9
  8
0
 66
     1
 10
0.0
 20
0.0
 30
0.0
 70
     1
  0
VERTEX
  5
666
  8
0
 10
216.275474467457
 20
112.5569327019013
 30
0.0
  0
VERTEX
  5
667
  8
0
 10
216.123978069984
 20
112.5495755875417
 30
0.0
  0
VERTEX
  5
668
  8
0
 10
215.9768579113276
 20
112.5279817666253
 30
0.0
  0
VERTEX
  5
669
  8
0
 10
215.8348587810648
 20
112.4928675223961
 30
0.0
  0
VERTEX
  5
66A
  8
0
 10
215.6987254687724
 20
112.4449491380979
 30
0.0
  0
VERTEX
  5
66B
  8
0
 10
215.5692027640276
 20
112.3849428969745
 30
0.0
  0
VERTEX
  5
66C
  8
0
 10
215.4470354564073
 20
112.3135650822699
 30
0.0
  0
VERTEX
  5
66D
  8
0
 10
215.3329683354886
 20
112.2315319772278
 30
0.0
  0
VERTEX
  5
66E
  8
0
 10
215.2277461908484
 20
112.1395598650922
 30
0.0
  0
VERTEX
  5
66F
  8
0
 10
215.1321138120638
 20
112.0383650291068
 30
0.0
  0
VERTEX
  5
670
  8
0
 10
215.0468159887118
 20
111.9286637525156
 30
0.0
  0
VERTEX
  5
671
  8
0
 10
214.9725975103693
 20
111.8111723185624
 30
0.0
  0
VERTEX
  5
672
  8
0
 10
214.9102031666134
 20
111.686607010491
 30
0.0
  0
VERTEX
  5
673
  8
0
 10
214.860377747021
 20
111.5556841115454
 30
0.0
  0
VERTEX
  5
674
  8
0
 10
214.8238660411692
 20
111.4191199049693
 30
0.0
  0
VERTEX
  5
675
  8
0
 10
214.801412838635
 20
111.2776306740067
 30
0.0
  0
VERTEX
  5
676
  8
0
 10
214.7937629289954
 20
111.1319327019013
 30
0.0
  0
VERTEX
  5
677
  8
0
 10
214.801412838635
 20
110.986234729796
 30
0.0
  0
VERTEX
  5
678
  8
0
 10
214.8238660411692
 20
110.8447454988333
 30
0.0
  0
VERTEX
  5
679
  8
0
 10
214.860377747021
 20
110.7081812922573
 30
0.0
  0
VERTEX
  5
67A
  8
0
 10
214.9102031666134
 20
110.5772583933116
 30
0.0
  0
VERTEX
  5
67B
  8
0
 10
214.9725975103693
 20
110.4526930852403
 30
0.0
  0
VERTEX
  5
67C
  8
0
 10
215.0468159887118
 20
110.3352016512871
 30
0.0
  0
VERTEX
  5
67D
  8
0
 10
215.1321138120638
 20
110.2255003746959
 30
0.0
  0
VERTEX
  5
67E
  8
0
 10
215.2277461908484
 20
110.1243055387105
 30
0.0
  0
VERTEX
  5
67F
  8
0
 10
215.3329683354886
 20
110.0323334265748
 30
0.0
  0
VERTEX
  5
680
  8
0
 10
215.4470354564073
 20
109.9503003215328
 30
0.0
  0
VERTEX
  5
681
  8
0
 10
215.5692027640276
 20
109.8789225068281
 30
0.0
  0
VERTEX
  5
682
  8
0
 10
215.6987254687724
 20
109.8189162657048
 30
0.0
  0
VERTEX
  5
683
  8
0
 10
215.8348587810648
 20
109.7709978814066
 30
0.0
  0
VERTEX
  5
684
  8
0
 10
215.9768579113276
 20
109.7358836371773
 30
0.0
  0
VERTEX
  5
685
  8
0
 10
216.123978069984
 20
109.714289816261
 30
0.0
  0
VERTEX
  5
686
  8
0
 10
216.275474467457
 20
109.7069327019014
 30
0.0
  0
VERTEX
  5
687
  8
0
 10
216.4269708649299
 20
109.714289816261
 30
0.0
  0
VERTEX
  5
688
  8
0
 10
216.5740910235863
 20
109.7358836371774
 30
0.0
  0
VERTEX
  5
689
  8
0
 10
216.7160901538492
 20
109.7709978814066
 30
0.0
  0
VERTEX
  5
68A
  8
0
 10
216.8522234661415
 20
109.8189162657048
 30
0.0
  0
VERTEX
  5
68B
  8
0
 10
216.9817461708863
 20
109.8789225068281
 30
0.0
  0
VERTEX
  5
68C
  8
0
 10
217.1039134785066
 20
109.9503003215328
 30
0.0
  0
VERTEX
  5
68D
  8
0
 10
217.2179805994253
 20
110.0323334265749
 30
0.0
  0
VERTEX
  5
68E
  8
0
 10
217.3232027440655
 20
110.1243055387105
 30
0.0
  0
VERTEX
  5
68F
  8
0
 10
217.4188351228501
 20
110.2255003746959
 30
0.0
  0
VERTEX
  5
690
  8
0
 10
217.5041329462021
 20
110.3352016512871
 30
0.0
  0
VERTEX
  5
691
  8
0
 10
217.5783514245446
 20
110.4526930852403
 30
0.0
  0
VERTEX
  5
692
  8
0
 10
217.6407457683005
 20
110.5772583933117
 30
0.0
  0
VERTEX
  5
693
  8
0
 10
217.6905711878929
 20
110.7081812922573
 30
0.0
  0
VERTEX
  5
694
  8
0
 10
217.7270828937447
 20
110.8447454988334
 30
0.0
  0
VERTEX
  5
695
  8
0
 10
217.7495360962789
 20
110.986234729796
 30
0.0
  0
VERTEX
  5
696
  8
0
 10
217.7571860059185
 20
111.1319327019013
 30
0.0
  0
VERTEX
  5
697
  8
0
 10
217.7495360962789
 20
111.2776306740067
 30
0.0
  0
VERTEX
  5
698
  8
0
 10
217.7270828937447
 20
111.4191199049693
 30
0.0
  0
VERTEX
  5
699
  8
0
 10
217.6905711878929
 20
111.5556841115454
 30
0.0
  0
VERTEX
  5
69A
  8
0
 10
217.6407457683005
 20
111.686607010491
 30
0.0
  0
VERTEX
  5
69B
  8
0
 10
217.5783514245446
 20
111.8111723185624
 30
0.0
  0
VERTEX
  5
69C
  8
0
 10
217.5041329462021
 20
111.9286637525156
 30
0.0
  0
VERTEX
  5
69D
  8
0
 10
217.4188351228501
 20
112.0383650291068
 30
0.0
  0
VERTEX
  5
69E
  8
0
 10
217.3232027440655
 20
112.1395598650922
 30
0.0
  0
VERTEX
  5
69F
  8
0
 10
217.2179805994253
 20
112.2315319772278
 30
0.0
  0
VERTEX
  5
6A0
  8
0
 10
217.1039134785066
 20
112.3135650822699
 30
0.0
  0
VERTEX
  5
6A1
  8
0
 10
216.9817461708863
 20
112.3849428969745
 30
0.0
  0
VERTEX
  5
6A2
  8
0
 10
216.8522234661415
 20
112.4449491380979
 30
0.0
  0
VERTEX
  5
6A3
  8
0
 10
216.7160901538492
 20
112.4928675223961
 30
0.0
  0
VERTEX
  5
6A4
  8
0
 10
216.5740910235863
 20
112.5279817666253
 30
0.0
  0
VERTEX
  5
6A5
  8
0
 10
216.4269708649299
 20
112.5495755875417
 30
0.0
  0
SEQEND
  5
D20
  8
0
  0
POLYLINE
  5
EA
  8
0
 66
     1
 10
0.0
 20
0.0
 30
0.0
  0
VERTEX
  5
6A6
  8
0
 10
383.9268160548113
 20
127.5194369238205
 30
0.0
 42
0.4142135623731065
  0
VERTEX
  5
6A7
  8
0
 10
382.0268153511581
 20
129.4194376274737
 30
0.0
  0
SEQEND
  5
D21
  8
0
  0
POLYLINE
  5
EB
  8
0
 66
     1
 10
0.0
 20
0.0
 30
0.0
  0
VERTEX
  5
6A8
  8
0
 10
220.2267052366877
 20
106.3819327019014
 30
0.0
  0
VERTEX
  5
6A9
  8
0
 10
220.2267052366877
 20
114.9319327019013
 30
0.0
  0
SEQEND
  5
D22
  8
0
  0
POLYLINE
  5
EC
  8
0
 66
     1
 10
0.0
 20
0.0
 30
0.0
  0
VERTEX
  5
6AA
  8
0
 10
260.7268206213032
 20
106.3819327019014
 30
0.0
  0
VERTEX
  5
6AB
  8
0
 10
220.2267052366877
 20
106.3819327019014
 30
0.0
  0
SEQEND
  5
D23
  8
0
  0
POLYLINE
  5
ED
  8
0
 66
     1
 10
0.0
 20
0.0
 30
0.0
  0
VERTEX
  5
6AC
  8
0
 10
260.7268206213032
 20
125.8569327019013
 30
0.0
  0
VERTEX
  5
6AD
  8
0
 10
260.7268206213032
 20
117.3069327019013
 30
0.0
  0
SEQEND
  5
D24
  8
0
  0
POLYLINE
  5
EE
  8
0
 66
     1
 10
0.0
 20
0.0
 30
0.0
 70
     1
  0
VERTEX
  5
6AE
  8
0
 10
380.5780943133784
 20
122.5319327019013
 30
0.0
  0
VERTEX
  5
6AF
  8
0
 10
380.4265979159055
 20
122.5245755875417
 30
0.0
  0
VERTEX
  5
6B0
  8
0
 10
380.279477757249
 20
122.5029817666253
 30
0.0
  0
VERTEX
  5
6B1
  8
0
 10
380.1374786269862
 20
122.4678675223961
 30
0.0
  0
VERTEX
  5
6B2
  8
0
 10
380.0013453146938
 20
122.4199491380979
 30
0.0
  0
VERTEX
  5
6B3
  8
0
 10
379.871822609949
 20
122.3599428969745
 30
0.0
  0
VERTEX
  5
6B4
  8
0
 10
379.7496553023287
 20
122.2885650822699
 30
0.0
  0
VERTEX
  5
6B5
  8
0
 10
379.6355881814101
 20
122.2065319772278
 30
0.0
  0
VERTEX
  5
6B6
  8
0
 10
379.5303660367699
 20
122.1145598650921
 30
0.0
  0
VERTEX
  5
6B7
  8
0
 10
379.4347336579853
 20
122.0133650291068
 30
0.0
  0
VERTEX
  5
6B8
  8
0
 10
379.3494358346333
 20
121.9036637525156
 30
0.0
  0
VERTEX
  5
6B9
  8
0
 10
379.2752173562908
 20
121.7861723185623
 30
0.0
  0
VERTEX
  5
6BA
  8
0
 10
379.2128230125348
 20
121.661607010491
 30
0.0
  0
VERTEX
  5
6BB
  8
0
 10
379.1629975929425
 20
121.5306841115454
 30
0.0
  0
VERTEX
  5
6BC
  8
0
 10
379.1264858870907
 20
121.3941199049693
 30
0.0
  0
VERTEX
  5
6BD
  8
0
 10
379.1040326845564
 20
121.2526306740067
 30
0.0
  0
VERTEX
  5
6BE
  8
0
 10
379.0963827749168
 20
121.1069327019013
 30
0.0
  0
VERTEX
  5
6BF
  8
0
 10
379.1040326845564
 20
120.9612347297959
 30
0.0
  0
VERTEX
  5
6C0
  8
0
 10
379.1264858870907
 20
120.8197454988333
 30
0.0
  0
VERTEX
  5
6C1
  8
0
 10
379.1629975929425
 20
120.6831812922573
 30
0.0
  0
VERTEX
  5
6C2
  8
0
 10
379.2128230125348
 20
120.5522583933116
 30
0.0
  0
VERTEX
  5
6C3
  8
0
 10
379.2752173562908
 20
120.4276930852403
 30
0.0
  0
VERTEX
  5
6C4
  8
0
 10
379.3494358346333
 20
120.3102016512871
 30
0.0
  0
VERTEX
  5
6C5
  8
0
 10
379.4347336579853
 20
120.2005003746958
 30
0.0
  0
VERTEX
  5
6C6
  8
0
 10
379.5303660367699
 20
120.0993055387105
 30
0.0
  0
VERTEX
  5
6C7
  8
0
 10
379.6355881814101
 20
120.0073334265748
 30
0.0
  0
VERTEX
  5
6C8
  8
0
 10
379.7496553023287
 20
119.9253003215327
 30
0.0
  0
VERTEX
  5
6C9
  8
0
 10
379.871822609949
 20
119.8539225068281
 30
0.0
  0
VERTEX
  5
6CA
  8
0
 10
380.0013453146938
 20
119.7939162657047
 30
0.0
  0
VERTEX
  5
6CB
  8
0
 10
380.1374786269862
 20
119.7459978814065
 30
0.0
  0
VERTEX
  5
6CC
  8
0
 10
380.279477757249
 20
119.7108836371773
 30
0.0
  0
VERTEX
  5
6CD
  8
0
 10
380.4265979159055
 20
119.6892898162609
 30
0.0
  0
VERTEX
  5
6CE
  8
0
 10
380.5780943133784
 20
119.6819327019013
 30
0.0
  0
VERTEX
  5
6CF
  8
0
 10
380.7295907108514
 20
119.6892898162609
 30
0.0
  0
VERTEX
  5
6D0
  8
0
 10
380.8767108695078
 20
119.7108836371773
 30
0.0
  0
VERTEX
  5
6D1
  8
0
 10
381.0187099997706
 20
119.7459978814065
 30
0.0
  0
VERTEX
  5
6D2
  8
0
 10
381.154843312063
 20
119.7939162657047
 30
0.0
  0
VERTEX
  5
6D3
  8
0
 10
381.2843660168078
 20
119.8539225068281
 30
0.0
  0
VERTEX
  5
6D4
  8
0
 10
381.4065333244281
 20
119.9253003215327
 30
0.0
  0
VERTEX
  5
6D5
  8
0
 10
381.5206004453468
 20
120.0073334265748
 30
0.0
  0
VERTEX
  5
6D6
  8
0
 10
381.6258225899869
 20
120.0993055387105
 30
0.0
  0
VERTEX
  5
6D7
  8
0
 10
381.7214549687715
 20
120.2005003746958
 30
0.0
  0
VERTEX
  5
6D8
  8
0
 10
381.8067527921236
 20
120.310201651287
 30
0.0
  0
VERTEX
  5
6D9
  8
0
 10
381.880971270466
 20
120.4276930852403
 30
0.0
  0
VERTEX
  5
6DA
  8
0
 10
381.943365614222
 20
120.5522583933116
 30
0.0
  0
VERTEX
  5
6DB
  8
0
 10
381.9931910338144
 20
120.6831812922572
 30
0.0
  0
VERTEX
  5
6DC
  8
0
 10
382.0297027396662
 20
120.8197454988333
 30
0.0
  0
VERTEX
  5
6DD
  8
0
 10
382.0521559422004
 20
120.9612347297959
 30
0.0
  0
VERTEX
  5
6DE
  8
0
 10
382.05980585184
 20
121.1069327019013
 30
0.0
  0
VERTEX
  5
6DF
  8
0
 10
382.0521559422004
 20
121.2526306740067
 30
0.0
  0
VERTEX
  5
6E0
  8
0
 10
382.0297027396662
 20
121.3941199049693
 30
0.0
  0
VERTEX
  5
6E1
  8
0
 10
381.9931910338144
 20
121.5306841115453
 30
0.0
  0
VERTEX
  5
6E2
  8
0
 10
381.943365614222
 20
121.661607010491
 30
0.0
  0
VERTEX
  5
6E3
  8
0
 10
381.880971270466
 20
121.7861723185623
 30
0.0
  0
VERTEX
  5
6E4
  8
0
 10
381.8067527921236
 20
121.9036637525155
 30
0.0
  0
VERTEX
  5
6E5
  8
0
 10
381.7214549687715
 20
122.0133650291068
 30
0.0
  0
VERTEX
  5
6E6
  8
0
 10
381.6258225899869
 20
122.1145598650921
 30
0.0
  0
VERTEX
  5
6E7
  8
0
 10
381.5206004453468
 20
122.2065319772278
 30
0.0
  0
VERTEX
  5
6E8
  8
0
 10
381.4065333244281
 20
122.2885650822699
 30
0.0
  0
VERTEX
  5
6E9
  8
0
 10
381.2843660168078
 20
122.3599428969745
 30
0.0
  0
VERTEX
  5
6EA
  8
0
 10
381.154843312063
 20
122.4199491380979
 30
0.0
  0
VERTEX
  5
6EB
  8
0
 10
381.0187099997706
 20
122.4678675223961
 30
0.0
  0
VERTEX
  5
6EC
  8
0
 10
380.8767108695078
 20
122.5029817666253
 30
0.0
  0
VERTEX
  5
6ED
  8
0
 10
380.7295907108514
 20
122.5245755875417
 30
0.0
  0
SEQEND
  5
D25
  8
0
  0
POLYLINE
  5
EF
  8
0
 66
     1
 10
0.0
 20
0.0
 30
0.0
 70
     1
  0
VERTEX
  5
6EE
  8
0
 10
380.5780943133784
 20
112.5569327019013
 30
0.0
  0
VERTEX
  5
6EF
  8
0
 10
380.4265979159055
 20
112.5495755875417
 30
0.0
  0
VERTEX
  5
6F0
  8
0
 10
380.279477757249
 20
112.5279817666254
 30
0.0
  0
VERTEX
  5
6F1
  8
0
 10
380.1374786269862
 20
112.4928675223961
 30
0.0
  0
VERTEX
  5
6F2
  8
0
 10
380.0013453146938
 20
112.4449491380979
 30
0.0
  0
VERTEX
  5
6F3
  8
0
 10
379.871822609949
 20
112.3849428969746
 30
0.0
  0
VERTEX
  5
6F4
  8
0
 10
379.7496553023287
 20
112.3135650822699
 30
0.0
  0
VERTEX
  5
6F5
  8
0
 10
379.6355881814101
 20
112.2315319772278
 30
0.0
  0
VERTEX
  5
6F6
  8
0
 10
379.5303660367699
 20
112.1395598650922
 30
0.0
  0
VERTEX
  5
6F7
  8
0
 10
379.4347336579853
 20
112.0383650291068
 30
0.0
  0
VERTEX
  5
6F8
  8
0
 10
379.3494358346333
 20
111.9286637525156
 30
0.0
  0
VERTEX
  5
6F9
  8
0
 10
379.2752173562908
 20
111.8111723185624
 30
0.0
  0
VERTEX
  5
6FA
  8
0
 10
379.2128230125348
 20
111.686607010491
 30
0.0
  0
VERTEX
  5
6FB
  8
0
 10
379.1629975929425
 20
111.5556841115454
 30
0.0
  0
VERTEX
  5
6FC
  8
0
 10
379.1264858870907
 20
111.4191199049693
 30
0.0
  0
VERTEX
  5
6FD
  8
0
 10
379.1040326845564
 20
111.2776306740067
 30
0.0
  0
VERTEX
  5
6FE
  8
0
 10
379.0963827749168
 20
111.1319327019013
 30
0.0
  0
VERTEX
  5
6FF
  8
0
 10
379.1040326845564
 20
110.986234729796
 30
0.0
  0
VERTEX
  5
700
  8
0
 10
379.1264858870907
 20
110.8447454988333
 30
0.0
  0
VERTEX
  5
701
  8
0
 10
379.1629975929425
 20
110.7081812922573
 30
0.0
  0
VERTEX
  5
702
  8
0
 10
379.2128230125348
 20
110.5772583933116
 30
0.0
  0
VERTEX
  5
703
  8
0
 10
379.2752173562908
 20
110.4526930852403
 30
0.0
  0
VERTEX
  5
704
  8
0
 10
379.3494358346333
 20
110.3352016512871
 30
0.0
  0
VERTEX
  5
705
  8
0
 10
379.4347336579853
 20
110.2255003746959
 30
0.0
  0
VERTEX
  5
706
  8
0
 10
379.5303660367699
 20
110.1243055387105
 30
0.0
  0
VERTEX
  5
707
  8
0
 10
379.6355881814101
 20
110.0323334265749
 30
0.0
  0
VERTEX
  5
708
  8
0
 10
379.7496553023287
 20
109.9503003215328
 30
0.0
  0
VERTEX
  5
709
  8
0
 10
379.871822609949
 20
109.8789225068281
 30
0.0
  0
VERTEX
  5
70A
  8
0
 10
380.0013453146938
 20
109.8189162657048
 30
0.0
  0
VERTEX
  5
70B
  8
0
 10
380.1374786269862
 20
109.7709978814066
 30
0.0
  0
VERTEX
  5
70C
  8
0
 10
380.279477757249
 20
109.7358836371774
 30
0.0
  0
VERTEX
  5
70D
  8
0
 10
380.4265979159055
 20
109.714289816261
 30
0.0
  0
VERTEX
  5
70E
  8
0
 10
380.5780943133784
 20
109.7069327019014
 30
0.0
  0
VERTEX
  5
70F
  8
0
 10
380.7295907108514
 20
109.714289816261
 30
0.0
  0
VERTEX
  5
710
  8
0
 10
380.8767108695078
 20
109.7358836371773
 30
0.0
  0
VERTEX
  5
711
  8
0
 10
381.0187099997706
 20
109.7709978814066
 30
0.0
  0
VERTEX
  5
712
  8
0
 10
381.154843312063
 20
109.8189162657048
 30
0.0
  0
VERTEX
  5
713
  8
0
 10
381.2843660168078
 20
109.8789225068281
 30
0.0
  0
VERTEX
  5
714
  8
0
 10
381.4065333244281
 20
109.9503003215328
 30
0.0
  0
VERTEX
  5
715
  8
0
 10
381.5206004453468
 20
110.0323334265749
 30
0.0
  0
VERTEX
  5
716
  8
0
 10
381.6258225899869
 20
110.1243055387105
 30
0.0
  0
VERTEX
  5
717
  8
0
 10
381.7214549687715
 20
110.2255003746959
 30
0.0
  0
VERTEX
  5
718
  8
0
 10
381.8067527921236
 20
110.3352016512871
 30
0.0
  0
VERTEX
  5
719
  8
0
 10
381.880971270466
 20
110.4526930852403
 30
0.0
  0
VERTEX
  5
71A
  8
0
 10
381.943365614222
 20
110.5772583933117
 30
0.0
  0
VERTEX
  5
71B
  8
0
 10
381.9931910338144
 20
110.7081812922573
 30
0.0
  0
VERTEX
  5
71C
  8
0
 10
382.0297027396662
 20
110.8447454988334
 30
0.0
  0
VERTEX
  5
71D
  8
0
 10
382.0521559422004
 20
110.986234729796
 30
0.0
  0
VERTEX
  5
71E
  8
0
 10
382.05980585184
 20
111.1319327019013
 30
0.0
  0
VERTEX
  5
71F
  8
0
 10
382.0521559422004
 20
111.2776306740067
 30
0.0
  0
VERTEX
  5
720
  8
0
 10
382.0297027396662
 20
111.4191199049693
 30
0.0
  0
VERTEX
  5
721
  8
0
 10
381.9931910338144
 20
111.5556841115454
 30
0.0
  0
VERTEX
  5
722
  8
0
 10
381.943365614222
 20
111.6866070104911
 30
0.0
  0
VERTEX
  5
723
  8
0
 10
381.880971270466
 20
111.8111723185624
 30
0.0
  0
VERTEX
  5
724
  8
0
 10
381.8067527921236
 20
111.9286637525156
 30
0.0
  0
VERTEX
  5
725
  8
0
 10
381.7214549687715
 20
112.0383650291068
 30
0.0
  0
VERTEX
  5
726
  8
0
 10
381.6258225899869
 20
112.1395598650922
 30
0.0
  0
VERTEX
  5
727
  8
0
 10
381.5206004453468
 20
112.2315319772278
 30
0.0
  0
VERTEX
  5
728
  8
0
 10
381.4065333244281
 20
112.3135650822699
 30
0.0
  0
VERTEX
  5
729
  8
0
 10
381.2843660168078
 20
112.3849428969746
 30
0.0
  0
VERTEX
  5
72A
  8
0
 10
381.154843312063
 20
112.4449491380979
 30
0.0
  0
VERTEX
  5
72B
  8
0
 10
381.0187099997706
 20
112.4928675223961
 30
0.0
  0
VERTEX
  5
72C
  8
0
 10
380.8767108695078
 20
112.5279817666253
 30
0.0
  0
VERTEX
  5
72D
  8
0
 10
380.7295907108514
 20
112.5495755875417
 30
0.0
  0
SEQEND
  5
D26
  8
0
  0
POLYLINE
  5
F0
  8
0
 66
     1
 10
0.0
 20
0.0
 30
0.0
 70
     1
  0
VERTEX
  5
72E
  8
0
 10
332.1755173903015
 20
122.5319327019013
 30
0.0
  0
VERTEX
  5
72F
  8
0
 10
332.0240209928286
 20
122.5245755875417
 30
0.0
  0
VERTEX
  5
730
  8
0
 10
331.8769008341721
 20
122.5029817666253
 30
0.0
  0
VERTEX
  5
731
  8
0
 10
331.7349017039093
 20
122.4678675223961
 30
0.0
  0
VERTEX
  5
732
  8
0
 10
331.5987683916169
 20
122.4199491380979
 30
0.0
  0
VERTEX
  5
733
  8
0
 10
331.4692456868721
 20
122.3599428969745
 30
0.0
  0
VERTEX
  5
734
  8
0
 10
331.3470783792519
 20
122.2885650822699
 30
0.0
  0
VERTEX
  5
735
  8
0
 10
331.2330112583332
 20
122.2065319772278
 30
0.0
  0
VERTEX
  5
736
  8
0
 10
331.127789113693
 20
122.1145598650921
 30
0.0
  0
VERTEX
  5
737
  8
0
 10
331.0321567349084
 20
122.0133650291068
 30
0.0
  0
VERTEX
  5
738
  8
0
 10
330.9468589115564
 20
121.9036637525156
 30
0.0
  0
VERTEX
  5
739
  8
0
 10
330.872640433214
 20
121.7861723185623
 30
0.0
  0
VERTEX
  5
73A
  8
0
 10
330.810246089458
 20
121.661607010491
 30
0.0
  0
VERTEX
  5
73B
  8
0
 10
330.7604206698657
 20
121.5306841115454
 30
0.0
  0
VERTEX
  5
73C
  8
0
 10
330.7239089640139
 20
121.3941199049693
 30
0.0
  0
VERTEX
  5
73D
  8
0
 10
330.7014557614797
 20
121.2526306740067
 30
0.0
  0
VERTEX
  5
73E
  8
0
 10
330.6938058518401
 20
121.1069327019013
 30
0.0
  0
VERTEX
  5
73F
  8
0
 10
330.7014557614797
 20
120.9612347297959
 30
0.0
  0
VERTEX
  5
740
  8
0
 10
330.7239089640139
 20
120.8197454988333
 30
0.0
  0
VERTEX
  5
741
  8
0
 10
330.7604206698657
 20
120.6831812922572
 30
0.0
  0
VERTEX
  5
742
  8
0
 10
330.810246089458
 20
120.5522583933116
 30
0.0
  0
VERTEX
  5
743
  8
0
 10
330.872640433214
 20
120.4276930852403
 30
0.0
  0
VERTEX
  5
744
  8
0
 10
330.9468589115564
 20
120.310201651287
 30
0.0
  0
VERTEX
  5
745
  8
0
 10
331.0321567349084
 20
120.2005003746958
 30
0.0
  0
VERTEX
  5
746
  8
0
 10
331.127789113693
 20
120.0993055387105
 30
0.0
  0
VERTEX
  5
747
  8
0
 10
331.2330112583332
 20
120.0073334265748
 30
0.0
  0
VERTEX
  5
748
  8
0
 10
331.3470783792519
 20
119.9253003215327
 30
0.0
  0
VERTEX
  5
749
  8
0
 10
331.4692456868721
 20
119.8539225068281
 30
0.0
  0
VERTEX
  5
74A
  8
0
 10
331.5987683916169
 20
119.7939162657047
 30
0.0
  0
VERTEX
  5
74B
  8
0
 10
331.7349017039093
 20
119.7459978814065
 30
0.0
  0
VERTEX
  5
74C
  8
0
 10
331.8769008341721
 20
119.7108836371773
 30
0.0
  0
VERTEX
  5
74D
  8
0
 10
332.0240209928286
 20
119.6892898162609
 30
0.0
  0
VERTEX
  5
74E
  8
0
 10
332.1755173903015
 20
119.6819327019013
 30
0.0
  0
VERTEX
  5
74F
  8
0
 10
332.3270137877744
 20
119.6892898162609
 30
0.0
  0
VERTEX
  5
750
  8
0
 10
332.4741339464309
 20
119.7108836371773
 30
0.0
  0
VERTEX
  5
751
  8
0
 10
332.6161330766937
 20
119.7459978814065
 30
0.0
  0
VERTEX
  5
752
  8
0
 10
332.7522663889861
 20
119.7939162657047
 30
0.0
  0
VERTEX
  5
753
  8
0
 10
332.8817890937309
 20
119.8539225068281
 30
0.0
  0
VERTEX
  5
754
  8
0
 10
333.0039564013512
 20
119.9253003215327
 30
0.0
  0
VERTEX
  5
755
  8
0
 10
333.1180235222699
 20
120.0073334265748
 30
0.0
  0
VERTEX
  5
756
  8
0
 10
333.2232456669101
 20
120.0993055387105
 30
0.0
  0
VERTEX
  5
757
  8
0
 10
333.3188780456947
 20
120.2005003746958
 30
0.0
  0
VERTEX
  5
758
  8
0
 10
333.4041758690468
 20
120.310201651287
 30
0.0
  0
VERTEX
  5
759
  8
0
 10
333.4783943473892
 20
120.4276930852403
 30
0.0
  0
VERTEX
  5
75A
  8
0
 10
333.5407886911452
 20
120.5522583933116
 30
0.0
  0
VERTEX
  5
75B
  8
0
 10
333.5906141107375
 20
120.6831812922572
 30
0.0
  0
VERTEX
  5
75C
  8
0
 10
333.6271258165893
 20
120.8197454988333
 30
0.0
  0
VERTEX
  5
75D
  8
0
 10
333.6495790191235
 20
120.9612347297959
 30
0.0
  0
VERTEX
  5
75E
  8
0
 10
333.6572289287631
 20
121.1069327019013
 30
0.0
  0
VERTEX
  5
75F
  8
0
 10
333.6495790191235
 20
121.2526306740067
 30
0.0
  0
VERTEX
  5
760
  8
0
 10
333.6271258165893
 20
121.3941199049693
 30
0.0
  0
VERTEX
  5
761
  8
0
 10
333.5906141107375
 20
121.5306841115453
 30
0.0
  0
VERTEX
  5
762
  8
0
 10
333.5407886911452
 20
121.661607010491
 30
0.0
  0
VERTEX
  5
763
  8
0
 10
333.4783943473892
 20
121.7861723185623
 30
0.0
  0
VERTEX
  5
764
  8
0
 10
333.4041758690468
 20
121.9036637525155
 30
0.0
  0
VERTEX
  5
765
  8
0
 10
333.3188780456947
 20
122.0133650291068
 30
0.0
  0
VERTEX
  5
766
  8
0
 10
333.2232456669101
 20
122.1145598650921
 30
0.0
  0
VERTEX
  5
767
  8
0
 10
333.1180235222699
 20
122.2065319772278
 30
0.0
  0
VERTEX
  5
768
  8
0
 10
333.0039564013512
 20
122.2885650822699
 30
0.0
  0
VERTEX
  5
769
  8
0
 10
332.8817890937309
 20
122.3599428969745
 30
0.0
  0
VERTEX
  5
76A
  8
0
 10
332.7522663889861
 20
122.4199491380979
 30
0.0
  0
VERTEX
  5
76B
  8
0
 10
332.6161330766937
 20
122.4678675223961
 30
0.0
  0
VERTEX
  5
76C
  8
0
 10
332.4741339464309
 20
122.5029817666253
 30
0.0
  0
VERTEX
  5
76D
  8
0
 10
332.3270137877744
 20
122.5245755875417
 30
0.0
  0
SEQEND
  5
D27
  8
0
  0
POLYLINE
  5
F1
  8
0
 66
     1
 10
0.0
 20
0.0
 30
0.0
 70
     1
  0
VERTEX
  5
76E
  8
0
 10
332.1755173903015
 20
112.5569327019013
 30
0.0
  0
VERTEX
  5
76F
  8
0
 10
332.0240209928286
 20
112.5495755875417
 30
0.0
  0
VERTEX
  5
770
  8
0
 10
331.8769008341721
 20
112.5279817666253
 30
0.0
  0
VERTEX
  5
771
  8
0
 10
331.7349017039093
 20
112.4928675223961
 30
0.0
  0
VERTEX
  5
772
  8
0
 10
331.5987683916169
 20
112.4449491380979
 30
0.0
  0
VERTEX
  5
773
  8
0
 10
331.4692456868721
 20
112.3849428969746
 30
0.0
  0
VERTEX
  5
774
  8
0
 10
331.3470783792519
 20
112.3135650822699
 30
0.0
  0
VERTEX
  5
775
  8
0
 10
331.2330112583332
 20
112.2315319772278
 30
0.0
  0
VERTEX
  5
776
  8
0
 10
331.127789113693
 20
112.1395598650922
 30
0.0
  0
VERTEX
  5
777
  8
0
 10
331.0321567349084
 20
112.0383650291068
 30
0.0
  0
VERTEX
  5
778
  8
0
 10
330.9468589115564
 20
111.9286637525156
 30
0.0
  0
VERTEX
  5
779
  8
0
 10
330.872640433214
 20
111.8111723185624
 30
0.0
  0
VERTEX
  5
77A
  8
0
 10
330.810246089458
 20
111.686607010491
 30
0.0
  0
VERTEX
  5
77B
  8
0
 10
330.7604206698657
 20
111.5556841115454
 30
0.0
  0
VERTEX
  5
77C
  8
0
 10
330.7239089640139
 20
111.4191199049693
 30
0.0
  0
VERTEX
  5
77D
  8
0
 10
330.7014557614797
 20
111.2776306740067
 30
0.0
  0
VERTEX
  5
77E
  8
0
 10
330.6938058518401
 20
111.1319327019013
 30
0.0
  0
VERTEX
  5
77F
  8
0
 10
330.7014557614797
 20
110.986234729796
 30
0.0
  0
VERTEX
  5
780
  8
0
 10
330.7239089640139
 20
110.8447454988333
 30
0.0
  0
VERTEX
  5
781
  8
0
 10
330.7604206698657
 20
110.7081812922573
 30
0.0
  0
VERTEX
  5
782
  8
0
 10
330.810246089458
 20
110.5772583933116
 30
0.0
  0
VERTEX
  5
783
  8
0
 10
330.872640433214
 20
110.4526930852403
 30
0.0
  0
VERTEX
  5
784
  8
0
 10
330.9468589115564
 20
110.3352016512871
 30
0.0
  0
VERTEX
  5
785
  8
0
 10
331.0321567349084
 20
110.2255003746959
 30
0.0
  0
VERTEX
  5
786
  8
0
 10
331.127789113693
 20
110.1243055387105
 30
0.0
  0
VERTEX
  5
787
  8
0
 10
331.2330112583332
 20
110.0323334265749
 30
0.0
  0
VERTEX
  5
788
  8
0
 10
331.3470783792519
 20
109.9503003215328
 30
0.0
  0
VERTEX
  5
789
  8
0
 10
331.4692456868721
 20
109.8789225068282
 30
0.0
  0
VERTEX
  5
78A
  8
0
 10
331.5987683916169
 20
109.8189162657048
 30
0.0
  0
VERTEX
  5
78B
  8
0
 10
331.7349017039093
 20
109.7709978814066
 30
0.0
  0
VERTEX
  5
78C
  8
0
 10
331.8769008341721
 20
109.7358836371774
 30
0.0
  0
VERTEX
  5
78D
  8
0
 10
332.0240209928286
 20
109.714289816261
 30
0.0
  0
VERTEX
  5
78E
  8
0
 10
332.1755173903015
 20
109.7069327019014
 30
0.0
  0
VERTEX
  5
78F
  8
0
 10
332.3270137877744
 20
109.714289816261
 30
0.0
  0
VERTEX
  5
790
  8
0
 10
332.4741339464309
 20
109.7358836371773
 30
0.0
  0
VERTEX
  5
791
  8
0
 10
332.6161330766937
 20
109.7709978814066
 30
0.0
  0
VERTEX
  5
792
  8
0
 10
332.7522663889861
 20
109.8189162657048
 30
0.0
  0
VERTEX
  5
793
  8
0
 10
332.8817890937309
 20
109.8789225068281
 30
0.0
  0
VERTEX
  5
794
  8
0
 10
333.0039564013512
 20
109.9503003215328
 30
0.0
  0
VERTEX
  5
795
  8
0
 10
333.1180235222699
 20
110.0323334265749
 30
0.0
  0
VERTEX
  5
796
  8
0
 10
333.2232456669101
 20
110.1243055387105
 30
0.0
  0
VERTEX
  5
797
  8
0
 10
333.3188780456947
 20
110.2255003746959
 30
0.0
  0
VERTEX
  5
798
  8
0
 10
333.4041758690468
 20
110.3352016512871
 30
0.0
  0
VERTEX
  5
799
  8
0
 10
333.4783943473892
 20
110.4526930852403
 30
0.0
  0
VERTEX
  5
79A
  8
0
 10
333.5407886911452
 20
110.5772583933117
 30
0.0
  0
VERTEX
  5
79B
  8
0
 10
333.5906141107375
 20
110.7081812922573
 30
0.0
  0
VERTEX
  5
79C
  8
0
 10
333.6271258165893
 20
110.8447454988334
 30
0.0
  0
VERTEX
  5
79D
  8
0
 10
333.6495790191235
 20
110.986234729796
 30
0.0
  0
VERTEX
  5
79E
  8
0
 10
333.6572289287631
 20
111.1319327019013
 30
0.0
  0
VERTEX
  5
79F
  8
0
 10
333.6495790191235
 20
111.2776306740067
 30
0.0
  0
VERTEX
  5
7A0
  8
0
 10
333.6271258165893
 20
111.4191199049693
 30
0.0
  0
VERTEX
  5
7A1
  8
0
 10
333.5906141107375
 20
111.5556841115454
 30
0.0
  0
VERTEX
  5
7A2
  8
0
 10
333.5407886911452
 20
111.6866070104911
 30
0.0
  0
VERTEX
  5
7A3
  8
0
 10
333.4783943473892
 20
111.8111723185624
 30
0.0
  0
VERTEX
  5
7A4
  8
0
 10
333.4041758690468
 20
111.9286637525156
 30
0.0
  0
VERTEX
  5
7A5
  8
0
 10
333.3188780456947
 20
112.0383650291068
 30
0.0
  0
VERTEX
  5
7A6
  8
0
 10
333.2232456669101
 20
112.1395598650922
 30
0.0
  0
VERTEX
  5
7A7
  8
0
 10
333.1180235222699
 20
112.2315319772278
 30
0.0
  0
VERTEX
  5
7A8
  8
0
 10
333.0039564013512
 20
112.3135650822699
 30
0.0
  0
VERTEX
  5
7A9
  8
0
 10
332.8817890937309
 20
112.3849428969746
 30
0.0
  0
VERTEX
  5
7AA
  8
0
 10
332.7522663889861
 20
112.4449491380979
 30
0.0
  0
VERTEX
  5
7AB
  8
0
 10
332.6161330766937
 20
112.4928675223961
 30
0.0
  0
VERTEX
  5
7AC
  8
0
 10
332.4741339464309
 20
112.5279817666253
 30
0.0
  0
VERTEX
  5
7AD
  8
0
 10
332.3270137877744
 20
112.5495755875417
 30
0.0
  0
SEQEND
  5
D28
  8
0
  0
POLYLINE
  5
F2
  8
0
 66
     1
 10
0.0
 20
0.0
 30
0.0
  0
VERTEX
  5
7AE
  8
0
 10
220.2267052366877
 20
125.8569327019013
 30
0.0
  0
VERTEX
  5
7AF
  8
0
 10
260.7268206213032
 20
125.8569327019013
 30
0.0
  0
SEQEND
  5
D29
  8
0
  0
POLYLINE
  5
F3
  8
0
 66
     1
 10
0.0
 20
0.0
 30
0.0
  0
VERTEX
  5
7B0
  8
0
 10
336.1267481595323
 20
106.3819327019014
 30
0.0
  0
VERTEX
  5
7B1
  8
0
 10
336.1267481595323
 20
114.9319327019014
 30
0.0
  0
SEQEND
  5
D2A
  8
0
  0
POLYLINE
  5
F4
  8
0
 66
     1
 10
0.0
 20
0.0
 30
0.0
  0
VERTEX
  5
7B2
  8
0
 10
376.6268635441477
 20
106.3819327019014
 30
0.0
  0
VERTEX
  5
7B3
  8
0
 10
336.1267481595323
 20
106.3819327019014
 30
0.0
  0
SEQEND
  5
D2B
  8
0
  0
POLYLINE
  5
F5
  8
0
 66
     1
 10
0.0
 20
0.0
 30
0.0
  0
VERTEX
  5
7B4
  8
0
 10
376.6268635441477
 20
125.8569327019014
 30
0.0
  0
VERTEX
  5
7B5
  8
0
 10
376.6268635441477
 20
117.3069327019013
 30
0.0
  0
SEQEND
  5
D2C
  8
0
  0
POLYLINE
  5
F6
  8
0
 66
     1
 10
0.0
 20
0.0
 30
0.0
  0
VERTEX
  5
7B6
  8
0
 10
336.1267481595323
 20
125.8569327019014
 30
0.0
  0
VERTEX
  5
7B7
  8
0
 10
376.6268635441477
 20
125.8569327019014
 30
0.0
  0
SEQEND
  5
D2D
  8
0
  0
POLYLINE
  5
F7
  8
0
 66
     1
 10
0.0
 20
0.0
 30
0.0
  0
VERTEX
  5
7B8
  8
0
 10
212.9267527260242
 20
104.7194284799822
 30
0.0
 42
0.4142135623730994
  0
VERTEX
  5
7B9
  8
0
 10
214.8267534296774
 20
102.819427776329
 30
0.0
  0
VERTEX
  5
7BA
  8
0
 10
266.1267724283135
 20
102.819427776329
 30
0.0
 42
0.4142135623730994
  0
VERTEX
  5
7BB
  8
0
 10
268.0267731319667
 20
104.7194284799822
 30
0.0
  0
SEQEND
  5
D2E
  8
0
  0
POLYLINE
  5
F8
  8
0
 66
     1
 10
0.0
 20
0.0
 30
0.0
  0
VERTEX
  5
7BC
  8
0
 10
269.9267738356199
 20
106.6194291836354
 30
0.0
 42
0.4142135623730994
  0
VERTEX
  5
7BD
  8
0
 10
268.0267731319667
 20
104.7194284799822
 30
0.0
  0
SEQEND
  5
D2F
  8
0
  0
POLYLINE
  5
F9
  8
0
 66
     1
 10
0.0
 20
0.0
 30
0.0
  0
VERTEX
  5
7BE
  8
0
 10
383.9268160548113
 20
104.7194284799822
 30
0.0
  0
VERTEX
  5
7BF
  8
0
 10
383.9268160548113
 20
127.5194369238205
 30
0.0
  0
SEQEND
  5
D30
  8
0
  0
POLYLINE
  5
FA
  8
0
 66
     1
 10
0.0
 20
0.0
 30
0.0
  0
VERTEX
  5
7C0
  8
0
 10
382.0268153511581
 20
102.819427776329
 30
0.0
  0
VERTEX
  5
7C1
  8
0
 10
330.7267963525219
 20
102.819427776329
 30
0.0
  0
SEQEND
  5
D31
  8
0
  0
POLYLINE
  5
FB
  8
0
 66
     1
 10
0.0
 20
0.0
 30
0.0
  0
VERTEX
  5
7C2
  8
0
 10
382.0268153511581
 20
102.819427776329
 30
0.0
 42
0.4142135623730994
  0
VERTEX
  5
7C3
  8
0
 10
383.9268160548113
 20
104.7194284799822
 30
0.0
  0
SEQEND
  5
D32
  8
0
  0
POLYLINE
  5
FC
  8
0
 66
     1
 10
0.0
 20
0.0
 30
0.0
  0
VERTEX
  5
7C4
  8
0
 10
328.8267956488686
 20
104.7194284799822
 30
0.0
 42
0.4142135623730994
  0
VERTEX
  5
7C5
  8
0
 10
330.7267963525219
 20
102.819427776329
 30
0.0
  0
SEQEND
  5
D33
  8
0
  0
POLYLINE
  5
FD
  8
0
 66
     1
 10
0.0
 20
0.0
 30
0.0
  0
VERTEX
  5
7C6
  8
0
 10
326.9267949452154
 20
106.6194291836354
 30
0.0
  0
VERTEX
  5
7C7
  8
0
 10
269.9267738356199
 20
106.6194291836354
 30
0.0
  0
SEQEND
  5
D34
  8
0
  0
POLYLINE
  5
FE
  8
0
 66
     1
 10
0.0
 20
0.0
 30
0.0
 70
     1
  0
VERTEX
  5
7C8
  8
0
 10
269.9267738356199
 20
117.5444332296412
 30
0.0
 42
0.4142135623730951
  0
VERTEX
  5
7C9
  8
0
 10
268.5017733078799
 20
116.1194327019013
 30
0.0
 42
0.4142135623730951
  0
VERTEX
  5
7CA
  8
0
 10
269.9267738356199
 20
114.6944321741614
 30
0.0
 42
0.4142135623730951
  0
VERTEX
  5
7CB
  8
0
 10
271.3517743633597
 20
116.1194327019013
 30
0.0
 42
0.4142135623730951
  0
SEQEND
  5
D35
  8
0
  0
POLYLINE
  5
FF
  8
0
 66
     1
 10
0.0
 20
0.0
 30
0.0
 70
     1
  0
VERTEX
  5
7CC
  8
0
 10
326.9267949452154
 20
117.5444332296412
 30
0.0
 42
0.4142135623730951
  0
VERTEX
  5
7CD
  8
0
 10
325.5017944174756
 20
116.1194327019013
 30
0.0
 42
0.4142135623730951
  0
VERTEX
  5
7CE
  8
0
 10
326.9267949452154
 20
114.6944321741614
 30
0.0
 42
0.4142135623730951
  0
VERTEX
  5
7CF
  8
0
 10
328.3517954729554
 20
116.1194327019013
 30
0.0
 42
0.4142135623730951
  0
SEQEND
  5
D36
  8
0
  0
POLYLINE
  5
100
  8
0
 66
     1
 10
0.0
 20
0.0
 30
0.0
 70
     1
  0
VERTEX
  5
7D0
  8
0
 10
379.6518144715916
 20
107.8069296234186
 30
0.0
 42
0.4142135623730951
  0
VERTEX
  5
7D1
  8
0
 10
378.2268139438517
 20
106.3819290956787
 30
0.0
 42
0.4142135623730951
  0
VERTEX
  5
7D2
  8
0
 10
379.6518144715916
 20
104.9569285679388
 30
0.0
 42
0.4142135623730951
  0
VERTEX
  5
7D3
  8
0
 10
381.0768149993315
 20
106.3819290956787
 30
0.0
 42
0.4142135623730951
  0
SEQEND
  5
D37
  8
0
  0
POLYLINE
  5
101
  8
0
 66
     1
 10
0.0
 20
0.0
 30
0.0
  0
VERTEX
  5
7D4
  8
0
 10
328.8267956488686
 20
104.7194284799822
 30
0.0
 42
0.4142135623730994
  0
VERTEX
  5
7D5
  8
0
 10
326.9267949452154
 20
106.6194291836354
 30
0.0
  0
SEQEND
  5
D38
  8
0
  0
POLYLINE
  5
102
  8
0
 66
     1
 10
0.0
 20
0.0
 30
0.0
  0
VERTEX
  5
7D6
  8
0
 10
380.0841904672245
 20
114.9319327019014
 30
0.0
  0
VERTEX
  5
7D7
  8
0
 10
380.0841904672245
 20
117.3069327019013
 30
0.0
  0
VERTEX
  5
7D8
  8
0
 10
376.6268635441477
 20
117.3069327019013
 30
0.0
  0
SEQEND
  5
D39
  8
0
  0
POLYLINE
  5
103
  8
0
 66
     1
 10
0.0
 20
0.0
 30
0.0
  0
VERTEX
  5
7D9
  8
0
 10
380.0841904672245
 20
114.9319327019014
 30
0.0
  0
VERTEX
  5
7DA
  8
0
 10
376.6268635441477
 20
114.9319327019014
 30
0.0
  0
SEQEND
  5
D3A
  8
0
  0
POLYLINE
  5
104
  8
0
 66
     1
 10
0.0
 20
0.0
 30
0.0
  0
VERTEX
  5
7DB
  8
0
 10
264.1841475443801
 20
114.9319327019013
 30
0.0
  0
VERTEX
  5
7DC
  8
0
 10
264.1841475443801
 20
117.3069327019013
 30
0.0
  0
VERTEX
  5
7DD
  8
0
 10
260.7268206213032
 20
117.3069327019013
 30
0.0
  0
SEQEND
  5
D3B
  8
0
  0
POLYLINE
  5
105
  8
0
 66
     1
 10
0.0
 20
0.0
 30
0.0
  0
VERTEX
  5
7DE
  8
0
 10
264.1841475443801
 20
114.9319327019013
 30
0.0
  0
VERTEX
  5
7DF
  8
0
 10
260.7268206213032
 20
114.9319327019013
 30
0.0
  0
SEQEND
  5
D3C
  8
0
  0
POLYLINE
  5
106
  8
0
 66
     1
 10
0.0
 20
0.0
 30
0.0
  0
VERTEX
  5
7E0
  8
0
 10
216.7693783136108
 20
114.9319327019013
 30
0.0
  0
VERTEX
  5
7E1
  8
0
 10
216.7693783136108
 20
117.3069327019013
 30
0.0
  0
VERTEX
  5
7E2
  8
0
 10
220.2267052366877
 20
117.3069327019013
 30
0.0
  0
SEQEND
  5
D3D
  8
0
  0
POLYLINE
  5
107
  8
0
 66
     1
 10
0.0
 20
0.0
 30
0.0
  0
VERTEX
  5
7E3
  8
0
 10
216.7693783136108
 20
114.9319327019013
 30
0.0
  0
VERTEX
  5
7E4
  8
0
 10
220.2267052366877
 20
114.9319327019013
 30
0.0
  0
SEQEND
  5
D3E
  8
0
  0
POLYLINE
  5
108
  8
0
 66
     1
 10
0.0
 20
0.0
 30
0.0
  0
VERTEX
  5
7E5
  8
0
 10
332.6694212364554
 20
114.9319327019014
 30
0.0
  0
VERTEX
  5
7E6
  8
0
 10
332.6694212364554
 20
117.3069327019013
 30
0.0
  0
VERTEX
  5
7E7
  8
0
 10
336.1267481595323
 20
117.3069327019013
 30
0.0
  0
SEQEND
  5
D3F
  8
0
  0
POLYLINE
  5
109
  8
0
 66
     1
 10
0.0
 20
0.0
 30
0.0
  0
VERTEX
  5
7E8
  8
0
 10
332.6694212364554
 20
114.9319327019014
 30
0.0
  0
VERTEX
  5
7E9
  8
0
 10
336.1267481595323
 20
114.9319327019014
 30
0.0
  0
SEQEND
  5
D40
  8
0
  0
POLYLINE
  5
10A
  8
0
 66
     1
 10
0.0
 20
0.0
 30
0.0
  0
VERTEX
  5
7EA
  8
0
 10
220.2267052366877
 20
117.3069327019013
 30
0.0
  0
VERTEX
  5
7EB
  8
0
 10
220.2267052366877
 20
125.8569327019013
 30
0.0
  0
SEQEND
  5
D41
  8
0
  0
POLYLINE
  5
10B
  8
0
 66
     1
 10
0.0
 20
0.0
 30
0.0
  0
VERTEX
  5
7EC
  8
0
 10
260.7268206213032
 20
114.9319327019013
 30
0.0
  0
VERTEX
  5
7ED
  8
0
 10
260.7268206213032
 20
106.3819327019014
 30
0.0
  0
SEQEND
  5
D42
  8
0
  0
POLYLINE
  5
10C
  8
0
 66
     1
 10
0.0
 20
0.0
 30
0.0
  0
VERTEX
  5
7EE
  8
0
 10
336.1267481595323
 20
117.3069327019013
 30
0.0
  0
VERTEX
  5
7EF
  8
0
 10
336.1267481595323
 20
125.8569327019014
 30
0.0
  0
SEQEND
  5
D43
  8
0
  0
POLYLINE
  5
10D
  8
0
 66
     1
 10
0.0
 20
0.0
 30
0.0
  0
VERTEX
  5
7F0
  8
0
 10
376.6268635441477
 20
114.9319327019014
 30
0.0
  0
VERTEX
  5
7F1
  8
0
 10
376.6268635441477
 20
106.3819327019014
 30
0.0
  0
SEQEND
  5
D44
  8
0
  0
POLYLINE
  5
10E
  8
0
 66
     1
 10
0.0
 20
0.0
 30
0.0
  0
VERTEX
  5
7F2
  8
0
 10
198.8112137902171
 20
148.18262039973
 30
0.0
  0
VERTEX
  5
7F3
  8
0
 10
195.0112123829107
 20
148.18262039973
 30
0.0
  0
VERTEX
  5
7F4
  8
0
 10
195.0112123829107
 20
139.6326172332906
 30
0.0
  0
VERTEX
  5
7F5
  8
0
 10
198.8112137902171
 20
139.6326172332906
 30
0.0
  0
SEQEND
  5
D45
  8
0
  0
POLYLINE
  5
10F
  8
0
 66
     1
 10
0.0
 20
0.0
 30
0.0
  0
VERTEX
  5
7F6
  8
0
 10
198.8112137902171
 20
134.8826154741577
 30
0.0
  0
VERTEX
  5
7F7
  8
0
 10
198.8112137902171
 20
139.6326172332906
 30
0.0
  0
SEQEND
  5
D46
  8
0
  0
POLYLINE
  5
110
  8
0
 66
     1
 10
0.0
 20
0.0
 30
0.0
  0
VERTEX
  5
7F8
  8
0
 10
198.8112137902171
 20
152.932622158863
 30
0.0
  0
VERTEX
  5
7F9
  8
0
 10
198.8112137902171
 20
148.18262039973
 30
0.0
  0
SEQEND
  5
D47
  8
0
  0
POLYLINE
  5
111
  8
0
 66
     1
 10
0.0
 20
0.0
 30
0.0
  0
VERTEX
  5
7FA
  8
0
 10
244.4112306778938
 20
148.18262039973
 30
0.0
  0
VERTEX
  5
7FB
  8
0
 10
248.2112320852002
 20
148.18262039973
 30
0.0
  0
VERTEX
  5
7FC
  8
0
 10
248.2112320852002
 20
139.6326172332906
 30
0.0
  0
VERTEX
  5
7FD
  8
0
 10
244.4112306778938
 20
139.6326172332906
 30
0.0
  0
SEQEND
  5
D48
  8
0
  0
POLYLINE
  5
112
  8
0
 66
     1
 10
0.0
 20
0.0
 30
0.0
  0
VERTEX
  5
7FE
  8
0
 10
244.4112306778938
 20
134.8826154741577
 30
0.0
  0
VERTEX
  5
7FF
  8
0
 10
244.4112306778938
 20
139.6326172332906
 30
0.0
  0
SEQEND
  5
D49
  8
0
  0
POLYLINE
  5
113
  8
0
 66
     1
 10
0.0
 20
0.0
 30
0.0
  0
VERTEX
  5
800
  8
0
 10
244.4112306778938
 20
152.932622158863
 30
0.0
  0
VERTEX
  5
801
  8
0
 10
244.4112306778938
 20
148.18262039973
 30
0.0
  0
SEQEND
  5
D4A
  8
0
  0
POLYLINE
  5
114
  8
0
 66
     1
 10
0.0
 20
0.0
 30
0.0
  0
VERTEX
  5
802
  8
0
 10
236.811227863281
 20
160.5326249734757
 30
0.0
  0
VERTEX
  5
803
  8
0
 10
206.41121660483
 20
160.5326249734757
 30
0.0
  0
SEQEND
  5
D4B
  8
0
  0
POLYLINE
  5
115
  8
0
 66
     1
 10
0.0
 20
0.0
 30
0.0
 70
     1
  0
VERTEX
  5
804
  8
0
 10
239.6612289187608
 20
153.6926224403243
 30
0.0
 42
0.4142135623730951
  0
VERTEX
  5
805
  8
0
 10
238.2362283910209
 20
152.2676219125844
 30
0.0
 42
0.4142135623730951
  0
VERTEX
  5
806
  8
0
 10
239.6612289187608
 20
150.8426213848445
 30
0.0
 42
0.4142135623730951
  0
VERTEX
  5
807
  8
0
 10
241.0862294465007
 20
152.2676219125844
 30
0.0
 42
0.4142135623730951
  0
SEQEND
  5
D4C
  8
0
  0
POLYLINE
  5
116
  8
0
 66
     1
 10
0.0
 20
0.0
 30
0.0
 70
     1
  0
VERTEX
  5
808
  8
0
 10
239.6612289187608
 20
144.1926189220583
 30
0.0
 42
0.4142135623730951
  0
VERTEX
  5
809
  8
0
 10
238.2362283910209
 20
142.7676183943184
 30
0.0
 42
0.4142135623730951
  0
VERTEX
  5
80A
  8
0
 10
239.6612289187608
 20
141.3426178665786
 30
0.0
 42
0.4142135623730951
  0
VERTEX
  5
80B
  8
0
 10
241.0862294465007
 20
142.7676183943184
 30
0.0
 42
0.4142135623730951
  0
SEQEND
  5
D4D
  8
0
  0
POLYLINE
  5
117
  8
0
 66
     1
 10
0.0
 20
0.0
 30
0.0
 70
     1
  0
VERTEX
  5
80C
  8
0
 10
212.5862188917028
 20
153.6926224403243
 30
0.0
 42
0.4142135623730951
  0
VERTEX
  5
80D
  8
0
 10
211.1612183639629
 20
152.2676219125844
 30
0.0
 42
0.4142135623730951
  0
VERTEX
  5
80E
  8
0
 10
212.5862188917028
 20
150.8426213848445
 30
0.0
 42
0.4142135623730951
  0
VERTEX
  5
80F
  8
0
 10
214.0112194194427
 20
152.2676219125844
 30
0.0
 42
0.4142135623730951
  0
SEQEND
  5
D4E
  8
0
  0
POLYLINE
  5
118
  8
0
 66
     1
 10
0.0
 20
0.0
 30
0.0
 70
     1
  0
VERTEX
  5
810
  8
0
 10
212.5862188917028
 20
144.1926189220583
 30
0.0
 42
0.4142135623730951
  0
VERTEX
  5
811
  8
0
 10
211.1612183639629
 20
142.7676183943184
 30
0.0
 42
0.4142135623730951
  0
VERTEX
  5
812
  8
0
 10
212.5862188917028
 20
141.3426178665786
 30
0.0
 42
0.4142135623730951
  0
VERTEX
  5
813
  8
0
 10
214.0112194194427
 20
142.7676183943184
 30
0.0
 42
0.4142135623730951
  0
SEQEND
  5
D4F
  8
0
  0
POLYLINE
  5
119
  8
0
 66
     1
 10
0.0
 20
0.0
 30
0.0
 70
     1
  0
VERTEX
  5
814
  8
0
 10
229.6862252245815
 20
181.9076328895742
 30
0.0
 42
0.4142135623730951
  0
VERTEX
  5
815
  8
0
 10
228.2612246968416
 20
180.4826323618343
 30
0.0
 42
0.4142135623730951
  0
VERTEX
  5
816
  8
0
 10
229.6862252245815
 20
179.0576318340944
 30
0.0
 42
0.4142135623730951
  0
VERTEX
  5
817
  8
0
 10
231.1112257523214
 20
180.4826323618343
 30
0.0
 42
0.4142135623730951
  0
SEQEND
  5
D50
  8
0
  0
POLYLINE
  5
11A
  8
0
 66
     1
 10
0.0
 20
0.0
 30
0.0
 70
     1
  0
VERTEX
  5
818
  8
0
 10
229.6862252245815
 20
172.4076293713082
 30
0.0
 42
0.4142135623730951
  0
VERTEX
  5
819
  8
0
 10
228.2612246968416
 20
170.9826288435683
 30
0.0
 42
0.4142135623730951
  0
VERTEX
  5
81A
  8
0
 10
229.6862252245815
 20
169.5576283158285
 30
0.0
 42
0.4142135623730951
  0
VERTEX
  5
81B
  8
0
 10
231.1112257523214
 20
170.9826288435683
 30
0.0
 42
0.4142135623730951
  0
SEQEND
  5
D51
  8
0
  0
POLYLINE
  5
11B
  8
0
 66
     1
 10
0.0
 20
0.0
 30
0.0
 70
     1
  0
VERTEX
  5
81C
  8
0
 10
202.6112151975235
 20
181.9076328895742
 30
0.0
 42
0.4142135623730951
  0
VERTEX
  5
81D
  8
0
 10
201.1862146697836
 20
180.4826323618343
 30
0.0
 42
0.4142135623730951
  0
VERTEX
  5
81E
  8
0
 10
202.6112151975235
 20
179.0576318340944
 30
0.0
 42
0.4142135623730951
  0
VERTEX
  5
81F
  8
0
 10
204.0362157252634
 20
180.4826323618343
 30
0.0
 42
0.4142135623730951
  0
SEQEND
  5
D52
  8
0
  0
POLYLINE
  5
11C
  8
0
 66
     1
 10
0.0
 20
0.0
 30
0.0
 70
     1
  0
VERTEX
  5
820
  8
0
 10
202.6112151975235
 20
172.4076293713082
 30
0.0
 42
0.4142135623730951
  0
VERTEX
  5
821
  8
0
 10
201.1862146697836
 20
170.9826288435683
 30
0.0
 42
0.4142135623730951
  0
VERTEX
  5
822
  8
0
 10
202.6112151975235
 20
169.5576283158285
 30
0.0
 42
0.4142135623730951
  0
VERTEX
  5
823
  8
0
 10
204.0362157252634
 20
170.9826288435683
 30
0.0
 42
0.4142135623730951
  0
SEQEND
  5
D53
  8
0
  0
POLYLINE
  5
11D
  8
0
 66
     1
 10
0.0
 20
0.0
 30
0.0
  0
VERTEX
  5
824
  8
0
 10
198.8112137902171
 20
134.8826154741577
 30
0.0
  0
VERTEX
  5
825
  8
0
 10
244.4112306778938
 20
134.8826154741577
 30
0.0
  0
SEQEND
  5
D54
  8
0
  0
POLYLINE
  5
11E
  8
0
 66
     1
 10
0.0
 20
0.0
 30
0.0
  0
VERTEX
  5
826
  8
0
 10
201.6612148456969
 20
166.2326270844354
 30
0.0
  0
VERTEX
  5
827
  8
0
 10
230.6362255764082
 20
166.2326270844354
 30
0.0
  0
SEQEND
  5
D55
  8
0
  0
POLYLINE
  5
11F
  8
0
 66
     1
 10
0.0
 20
0.0
 30
0.0
  0
VERTEX
  5
828
  8
0
 10
201.6612148456969
 20
185.2326340624554
 30
0.0
  0
VERTEX
  5
829
  8
0
 10
230.6362255764082
 20
185.2326340624554
 30
0.0
  0
SEQEND
  5
D56
  8
0
  0
POLYLINE
  5
120
  8
0
 66
     1
 10
0.0
 20
0.0
 30
0.0
  0
VERTEX
  5
82A
  8
0
 10
233.4862266318879
 20
182.3826330069756
 30
0.0
  0
VERTEX
  5
82B
  8
0
 10
233.4862266318879
 20
169.0826281399151
 30
0.0
  0
SEQEND
  5
D57
  8
0
  0
POLYLINE
  5
121
  8
0
 66
     1
 10
0.0
 20
0.0
 30
0.0
  0
VERTEX
  5
82C
  8
0
 10
198.8112137902171
 20
182.3826330069756
 30
0.0
  0
VERTEX
  5
82D
  8
0
 10
198.8112137902171
 20
169.0826281399151
 30
0.0
  0
SEQEND
  5
D58
  8
0
  0
POLYLINE
  5
122
  8
0
 66
     1
 10
0.0
 20
0.0
 30
0.0
  0
VERTEX
  5
82E
  8
0
 10
201.6612148456969
 20
185.2326340624554
 30
0.0
 42
0.4142135623730875
  0
VERTEX
  5
82F
  8
0
 10
198.8112137902171
 20
182.3826330069756
 30
0.0
  0
SEQEND
  5
D59
  8
0
  0
POLYLINE
  5
123
  8
0
 66
     1
 10
0.0
 20
0.0
 30
0.0
  0
VERTEX
  5
830
  8
0
 10
198.8112137902171
 20
169.0826281399151
 30
0.0
 42
0.4142135623730875
  0
VERTEX
  5
831
  8
0
 10
201.6612148456969
 20
166.2326270844354
 30
0.0
  0
SEQEND
  5
D5A
  8
0
  0
POLYLINE
  5
124
  8
0
 66
     1
 10
0.0
 20
0.0
 30
0.0
  0
VERTEX
  5
832
  8
0
 10
230.6362255764082
 20
166.2326270844354
 30
0.0
 42
0.4142135623730875
  0
VERTEX
  5
833
  8
0
 10
233.4862266318879
 20
169.0826281399151
 30
0.0
  0
SEQEND
  5
D5B
  8
0
  0
POLYLINE
  5
125
  8
0
 66
     1
 10
0.0
 20
0.0
 30
0.0
  0
VERTEX
  5
834
  8
0
 10
233.4862266318879
 20
182.3826330069756
 30
0.0
 42
0.4142135623730875
  0
VERTEX
  5
835
  8
0
 10
230.6362255764082
 20
185.2326340624554
 30
0.0
  0
SEQEND
  5
D5C
  8
0
  0
POLYLINE
  5
126
  8
0
 66
     1
 10
0.0
 20
0.0
 30
0.0
  0
VERTEX
  5
836
  8
0
 10
206.41121660483
 20
160.5326249734758
 30
0.0
 42
0.4142135623730923
  0
VERTEX
  5
837
  8
0
 10
198.8112137902172
 20
152.932622158863
 30
0.0
  0
SEQEND
  5
D5D
  8
0
  0
POLYLINE
  5
127
  8
0
 66
     1
 10
0.0
 20
0.0
 30
0.0
  0
VERTEX
  5
838
  8
0
 10
244.4112306778938
 20
152.932622158863
 30
0.0
 42
0.4142135623730923
  0
VERTEX
  5
839
  8
0
 10
236.811227863281
 20
160.5326249734758
 30
0.0
  0
SEQEND
  5
D5E
  8
0
  0
POLYLINE
  5
128
  8
0
 66
     1
 10
0.0
 20
0.0
 30
0.0
  0
VERTEX
  5
83A
  8
0
 10
264.3738150262633
 20
143.3037880857002
 30
0.0
  0
VERTEX
  5
83B
  8
0
 10
264.3738150262633
 20
152.8037916039661
 30
0.0
  0
SEQEND
  5
D5F
  8
0
  0
POLYLINE
  5
129
  8
0
 66
     1
 10
0.0
 20
0.0
 30
0.0
  0
VERTEX
  5
83C
  8
0
 10
266.2738157299165
 20
154.7037923076193
 30
0.0
  0
VERTEX
  5
83D
  8
0
 10
281.8548809868104
 20
154.7037923076193
 30
0.0
  0
SEQEND
  5
D60
  8
0
  0
POLYLINE
  5
12A
  8
0
 66
     1
 10
0.0
 20
0.0
 30
0.0
  0
VERTEX
  5
83E
  8
0
 10
266.2738157299165
 20
141.4037873820469
 30
0.0
  0
VERTEX
  5
83F
  8
0
 10
306.1738305066335
 20
141.4037873820469
 30
0.0
 42
0.4815661839444566
  0
VERTEX
  5
840
  8
0
 10
316.3618946445231
 20
154.1788568441599
 30
0.0
 42
0.4815661839444624
  0
VERTEX
  5
841
  8
0
 10
301.6402594820146
 20
161.2691677528263
 30
0.0
  0
SEQEND
  5
D61
  8
0
  0
POLYLINE
  5
12B
  8
0
 66
     1
 10
0.0
 20
0.0
 30
0.0
  0
VERTEX
  5
842
  8
0
 10
289.0486200456785
 20
156.118282981497
 30
0.0
  0
VERTEX
  5
843
  8
0
 10
301.6402594820146
 20
161.2691677528263
 30
0.0
  0
SEQEND
  5
D62
  8
0
  0
POLYLINE
  5
12C
  8
0
 66
     1
 10
0.0
 20
0.0
 30
0.0
  0
VERTEX
  5
844
  8
0
 10
269.1238167853963
 20
151.5687911465915
 30
0.0
  0
VERTEX
  5
845
  8
0
 10
277.6738199518356
 20
151.5687911465915
 30
0.0
  0
VERTEX
  5
846
  8
0
 10
277.6738199518356
 20
147.7687897392852
 30
0.0
  0
VERTEX
  5
847
  8
0
 10
269.1238167853963
 20
147.7687897392852
 30
0.0
  0
SEQEND
  5
D63
  8
0
  0
POLYLINE
  5
12D
  8
0
 66
     1
 10
0.0
 20
0.0
 30
0.0
 70
     1
  0
VERTEX
  5
848
  8
0
 10
306.1738305066335
 20
155.6537926594459
 30
0.0
 42
0.4142135623730951
  0
VERTEX
  5
849
  8
0
 10
302.3738290993271
 20
151.8537912521395
 30
0.0
 42
0.4142135623730951
  0
VERTEX
  5
84A
  8
0
 10
306.1738305066335
 20
148.0537898448331
 30
0.0
 42
0.4142135623730951
  0
VERTEX
  5
84B
  8
0
 10
309.9738319139399
 20
151.8537912521395
 30
0.0
 42
0.4142135623730951
  0
SEQEND
  5
D64
  8
0
  0
POLYLINE
  5
12E
  8
0
 66
     1
 10
0.0
 20
0.0
 30
0.0
 70
     1
  0
VERTEX
  5
84C
  8
0
 10
280.5238210073154
 20
146.7237893522759
 30
0.0
 42
0.4142135623730951
  0
VERTEX
  5
84D
  8
0
 10
279.0988204795755
 20
145.298788824536
 30
0.0
 42
0.4142135623730951
  0
VERTEX
  5
84E
  8
0
 10
280.5238210073154
 20
143.8737882967961
 30
0.0
 42
0.4142135623730951
  0
VERTEX
  5
84F
  8
0
 10
281.9488215350553
 20
145.298788824536
 30
0.0
 42
0.4142135623730951
  0
SEQEND
  5
D65
  8
0
  0
POLYLINE
  5
12F
  8
0
 66
     1
 10
0.0
 20
0.0
 30
0.0
 70
     1
  0
VERTEX
  5
850
  8
0
 10
269.7888170316751
 20
146.7237893522759
 30
0.0
 42
0.4142135623730951
  0
VERTEX
  5
851
  8
0
 10
268.3638165039351
 20
145.298788824536
 30
0.0
 42
0.4142135623730951
  0
VERTEX
  5
852
  8
0
 10
269.7888170316751
 20
143.8737882967961
 30
0.0
 42
0.4142135623730951
  0
VERTEX
  5
853
  8
0
 10
271.2138175594149
 20
145.298788824536
 30
0.0
 42
0.4142135623730951
  0
SEQEND
  5
D66
  8
0
  0
POLYLINE
  5
130
  8
0
 66
     1
 10
0.0
 20
0.0
 30
0.0
  0
VERTEX
  5
854
  8
0
 10
269.1238167853963
 20
151.5687911465915
 30
0.0
  0
VERTEX
  5
855
  8
0
 10
269.1238167853963
 20
147.7687897392852
 30
0.0
  0
SEQEND
  5
D67
  8
0
  0
POLYLINE
  5
131
  8
0
 66
     1
 10
0.0
 20
0.0
 30
0.0
  0
VERTEX
  5
856
  8
0
 10
281.8548809868104
 20
154.7037923076192
 30
0.0
 42
0.0973816798453997
  0
VERTEX
  5
857
  8
0
 10
289.0486200456787
 20
156.118282981497
 30
0.0
  0
SEQEND
  5
D68
  8
0
  0
POLYLINE
  5
132
  8
0
 66
     1
 10
0.0
 20
0.0
 30
0.0
  0
VERTEX
  5
858
  8
0
 10
314.7238336730728
 20
178.5474567296896
 30
0.0
  0
VERTEX
  5
859
  8
0
 10
314.7238336730728
 20
169.0474532114237
 30
0.0
  0
SEQEND
  5
D69
  8
0
  0
POLYLINE
  5
133
  8
0
 66
     1
 10
0.0
 20
0.0
 30
0.0
  0
VERTEX
  5
85A
  8
0
 10
312.8238329694196
 20
167.1474525077704
 30
0.0
  0
VERTEX
  5
85B
  8
0
 10
297.242767712526
 20
167.1474525077704
 30
0.0
 42
0.0973816798453962
  0
VERTEX
  5
85C
  8
0
 10
290.0490286536575
 20
165.7329618338927
 30
0.0
  0
SEQEND
  5
D6A
  8
0
  0
POLYLINE
  5
134
  8
0
 66
     1
 10
0.0
 20
0.0
 30
0.0
  0
VERTEX
  5
85D
  8
0
 10
312.8238329694196
 20
180.4474574333427
 30
0.0
  0
VERTEX
  5
85E
  8
0
 10
272.9238181927027
 20
180.4474574333428
 30
0.0
 42
0.4815661839444594
  0
VERTEX
  5
85F
  8
0
 10
262.7357540548131
 20
167.67238797123
 30
0.0
 42
0.481566183944457
  0
VERTEX
  5
860
  8
0
 10
277.4573892173216
 20
160.5820770625635
 30
0.0
  0
SEQEND
  5
D6B
  8
0
  0
POLYLINE
  5
135
  8
0
 66
     1
 10
0.0
 20
0.0
 30
0.0
  0
VERTEX
  5
861
  8
0
 10
290.0490286536577
 20
165.7329618338927
 30
0.0
  0
VERTEX
  5
862
  8
0
 10
277.4573892173215
 20
160.5820770625634
 30
0.0
  0
SEQEND
  5
D6C
  8
0
  0
POLYLINE
  5
136
  8
0
 66
     1
 10
0.0
 20
0.0
 30
0.0
  0
VERTEX
  5
863
  8
0
 10
309.9738319139399
 20
170.2824536687982
 30
0.0
  0
VERTEX
  5
864
  8
0
 10
301.4238287475005
 20
170.2824536687982
 30
0.0
  0
VERTEX
  5
865
  8
0
 10
301.4238287475005
 20
174.0824550761045
 30
0.0
  0
VERTEX
  5
866
  8
0
 10
309.9738319139399
 20
174.0824550761045
 30
0.0
  0
SEQEND
  5
D6D
  8
0
  0
POLYLINE
  5
137
  8
0
 66
     1
 10
0.0
 20
0.0
 30
0.0
 70
     1
  0
VERTEX
  5
867
  8
0
 10
298.5738276920207
 20
177.9774565185936
 30
0.0
 42
0.4142135623730951
  0
VERTEX
  5
868
  8
0
 10
297.1488271642809
 20
176.5524559908537
 30
0.0
 42
0.4142135623730951
  0
VERTEX
  5
869
  8
0
 10
298.5738276920207
 20
175.1274554631138
 30
0.0
 42
0.4142135623730951
  0
VERTEX
  5
86A
  8
0
 10
299.9988282197606
 20
176.5524559908537
 30
0.0
 42
0.4142135623730951
  0
SEQEND
  5
D6E
  8
0
  0
POLYLINE
  5
138
  8
0
 66
     1
 10
0.0
 20
0.0
 30
0.0
 70
     1
  0
VERTEX
  5
86B
  8
0
 10
309.3088316676613
 20
177.9774565185936
 30
0.0
 42
0.4142135623730951
  0
VERTEX
  5
86C
  8
0
 10
307.8838311399213
 20
176.5524559908537
 30
0.0
 42
0.4142135623730951
  0
VERTEX
  5
86D
  8
0
 10
309.3088316676613
 20
175.1274554631138
 30
0.0
 42
0.4142135623730951
  0
VERTEX
  5
86E
  8
0
 10
310.7338321954012
 20
176.5524559908537
 30
0.0
 42
0.4142135623730951
  0
SEQEND
  5
D6F
  8
0
  0
POLYLINE
  5
139
  8
0
 66
     1
 10
0.0
 20
0.0
 30
0.0
 70
     1
  0
VERTEX
  5
86F
  8
0
 10
272.9238181927027
 20
172.3724544428167
 30
0.0
 42
0.4142135623730951
  0
VERTEX
  5
870
  8
0
 10
270.5488173131362
 20
169.9974535632503
 30
0.0
 42
0.4142135623730951
  0
VERTEX
  5
871
  8
0
 10
272.9238181927027
 20
167.6224526836838
 30
0.0
 42
0.4142135623730951
  0
VERTEX
  5
872
  8
0
 10
275.2988190722692
 20
169.9974535632503
 30
0.0
 42
0.4142135623730951
  0
SEQEND
  5
D70
  8
0
  0
POLYLINE
  5
13A
  8
0
 66
     1
 10
0.0
 20
0.0
 30
0.0
  0
VERTEX
  5
873
  8
0
 10
309.9738319139399
 20
170.2824536687982
 30
0.0
  0
VERTEX
  5
874
  8
0
 10
309.9738319139399
 20
174.0824550761045
 30
0.0
  0
SEQEND
  5
D71
  8
0
  0
POLYLINE
  5
13B
  8
0
 66
     1
 10
0.0
 20
0.0
 30
0.0
  0
VERTEX
  5
875
  8
0
 10
312.8238329694196
 20
167.1474525077705
 30
0.0
 42
0.4142135623731065
  0
VERTEX
  5
876
  8
0
 10
314.7238336730728
 20
169.0474532114237
 30
0.0
  0
SEQEND
  5
D72
  8
0
  0
POLYLINE
  5
13C
  8
0
 66
     1
 10
0.0
 20
0.0
 30
0.0
  0
VERTEX
  5
877
  8
0
 10
314.7238336730728
 20
178.5474567296896
 30
0.0
 42
0.4142135623731065
  0
VERTEX
  5
878
  8
0
 10
312.8238329694196
 20
180.4474574333428
 30
0.0
  0
SEQEND
  5
D73
  8
0
  0
POLYLINE
  5
13D
  8
0
 66
     1
 10
0.0
 20
0.0
 30
0.0
  0
VERTEX
  5
879
  8
0
 10
266.2738157299165
 20
154.7037923076193
 30
0.0
 42
0.4142135623731065
  0
VERTEX
  5
87A
  8
0
 10
264.3738150262633
 20
152.8037916039661
 30
0.0
  0
SEQEND
  5
D74
  8
0
  0
POLYLINE
  5
13E
  8
0
 66
     1
 10
0.0
 20
0.0
 30
0.0
 70
     1
  0
VERTEX
  5
87B
  8
0
 10
362.5711535950574
 20
161.5411355813949
 30
0.0
 42
0.4142135623730951
  0
VERTEX
  5
87C
  8
0
 10
353.0711500767914
 20
152.0411320631289
 30
0.0
 42
0.4142135623730951
  0
VERTEX
  5
87D
  8
0
 10
362.5711535950574
 20
142.541128544863
 30
0.0
 42
0.4142135623730951
  0
VERTEX
  5
87E
  8
0
 10
372.0711571133234
 20
152.0411320631289
 30
0.0
 42
0.4142135623730951
  0
SEQEND
  5
D75
  8
0
  0
POLYLINE
  5
13F
  8
0
 66
     1
 10
0.0
 20
0.0
 30
0.0
 70
     1
  0
VERTEX
  5
87F
  8
0
 10
332.5998177606543
 20
172.0545980858402
 30
0.0
 42
0.4142135623730951
  0
VERTEX
  5
880
  8
0
 10
323.0998142423883
 20
162.5545945675743
 30
0.0
 42
0.4142135623730951
  0
VERTEX
  5
881
  8
0
 10
332.5998177606543
 20
153.0545910493083
 30
0.0
 42
0.4142135623730951
  0
VERTEX
  5
882
  8
0
 10
342.0998212789202
 20
162.5545945675743
 30
0.0
 42
0.4142135623730951
  0
SEQEND
  5
D76
  8
0
  0
POLYLINE
  5
140
  8
0
 66
     1
 10
0.0
 20
0.0
 30
0.0
 70
     1
  0
VERTEX
  5
883
  8
0
 10
362.5711535950574
 20
154.4161329426954
 30
0.0
 42
0.4142135623730951
  0
VERTEX
  5
884
  8
0
 10
360.1961527154908
 20
152.0411320631289
 30
0.0
 42
0.4142135623730951
  0
VERTEX
  5
885
  8
0
 10
362.5711535950574
 20
149.6661311835624
 30
0.0
 42
0.4142135623730951
  0
VERTEX
  5
886
  8
0
 10
364.9461544746239
 20
152.0411320631289
 30
0.0
 42
0.4142135623730951
  0
SEQEND
  5
D77
  8
0
  0
POLYLINE
  5
141
  8
0
 66
     1
 10
0.0
 20
0.0
 30
0.0
 70
     1
  0
VERTEX
  5
887
  8
0
 10
332.5998177606543
 20
164.9295954471407
 30
0.0
 42
0.4142135623730951
  0
VERTEX
  5
888
  8
0
 10
330.2248168810878
 20
162.5545945675743
 30
0.0
 42
0.4142135623730951
  0
VERTEX
  5
889
  8
0
 10
332.5998177606543
 20
160.1795936880078
 30
0.0
 42
0.4142135623730951
  0
VERTEX
  5
88A
  8
0
 10
334.9748186402207
 20
162.5545945675743
 30
0.0
 42
0.4142135623730951
  0
SEQEND
  5
D78
  8
0
  0
POLYLINE
  5
142
  8
0
 66
     1
 10
0.0
 20
0.0
 30
0.0
  0
VERTEX
  5
88B
  8
0
 10
264.3738150262633
 20
143.3037880857002
 30
0.0
 42
0.4142135623731065
  0
VERTEX
  5
88C
  8
0
 10
266.2738157299165
 20
141.4037873820469
 30
0.0
  0
SEQEND
  5
D79
  8
0
  0
POLYLINE
  5
143
  8
0
 66
     1
 10
0.0
 20
0.0
 30
0.0
  0
VERTEX
  5
88D
  8
0
 10
229.0651111910986
 20
32.50699681444167
 30
0.0
 42
1.0
  0
VERTEX
  5
88E
  8
0
 10
229.0651111910986
 20
9.706988370603387
 30
0.0
  0
SEQEND
  5
D7A
  8
0
  0
POLYLINE
  5
144
  8
0
 66
     1
 10
0.0
 20
0.0
 30
0.0
  0
VERTEX
  5
88F
  8
0
 10
344.0151537621166
 20
9.706988370603387
 30
0.0
 42
1.0
  0
VERTEX
  5
890
  8
0
 10
344.0151537621166
 20
32.50699681444167
 30
0.0
  0
SEQEND
  5
D7B
  8
0
  0
POLYLINE
  5
145
  8
0
 66
     1
 10
0.0
 20
0.0
 30
0.0
  0
VERTEX
  5
891
  8
0
 10
229.0651111910986
 20
32.50699681444167
 30
0.0
  0
VERTEX
  5
892
  8
0
 10
344.0151537621166
 20
32.50699681444167
 30
0.0
  0
SEQEND
  5
D7C
  8
0
  0
POLYLINE
  5
146
  8
0
 66
     1
 10
0.0
 20
0.0
 30
0.0
 70
     1
  0
VERTEX
  5
893
  8
0
 10
229.0651111910986
 20
54.24676481959931
 30
0.0
 42
0.4142135623730951
  0
VERTEX
  5
894
  8
0
 10
225.2651097837922
 20
50.44676341229294
 30
0.0
 42
0.4142135623730951
  0
VERTEX
  5
895
  8
0
 10
229.0651111910986
 20
46.64676200498655
 30
0.0
 42
0.4142135623730951
  0
VERTEX
  5
896
  8
0
 10
232.8651125984049
 20
50.44676341229294
 30
0.0
 42
0.4142135623730951
  0
SEQEND
  5
D7D
  8
0
  0
POLYLINE
  5
147
  8
0
 66
     1
 10
0.0
 20
0.0
 30
0.0
 70
     1
  0
VERTEX
  5
897
  8
0
 10
344.0151537621166
 20
24.90699399982891
 30
0.0
 42
0.4142135623730951
  0
VERTEX
  5
898
  8
0
 10
340.2151523548102
 20
21.10699259252253
 30
0.0
 42
0.4142135623730951
  0
VERTEX
  5
899
  8
0
 10
344.0151537621166
 20
17.30699118521615
 30
0.0
 42
0.4142135623730951
  0
VERTEX
  5
89A
  8
0
 10
347.815155169423
 20
21.10699259252253
 30
0.0
 42
0.4142135623730951
  0
SEQEND
  5
D7E
  8
0
  0
POLYLINE
  5
148
  8
0
 66
     1
 10
0.0
 20
0.0
 30
0.0
 70
     1
  0
VERTEX
  5
89B
  8
0
 10
274.6651280787752
 20
15.88199065747625
 30
0.0
 42
0.4142135623730951
  0
VERTEX
  5
89C
  8
0
 10
273.2401275510352
 20
14.45699012973635
 30
0.0
 42
0.4142135623730951
  0
VERTEX
  5
89D
  8
0
 10
274.6651280787752
 20
13.03198960199646
 30
0.0
 42
0.4142135623730951
  0
VERTEX
  5
89E
  8
0
 10
276.090128606515
 20
14.45699012973635
 30
0.0
 42
0.4142135623730951
  0
SEQEND
  5
D7F
  8
0
  0
POLYLINE
  5
149
  8
0
 66
     1
 10
0.0
 20
0.0
 30
0.0
 70
     1
  0
VERTEX
  5
89F
  8
0
 10
274.6651280787752
 20
29.18199558304859
 30
0.0
 42
0.4142135623730951
  0
VERTEX
  5
8A0
  8
0
 10
273.2401275510352
 20
27.7569950553087
 30
0.0
 42
0.4142135623730951
  0
VERTEX
  5
8A1
  8
0
 10
274.6651280787752
 20
26.3319945275688
 30
0.0
 42
0.4142135623730951
  0
VERTEX
  5
8A2
  8
0
 10
276.090128606515
 20
27.7569950553087
 30
0.0
 42
0.4142135623730951
  0
SEQEND
  5
D80
  8
0
  0
POLYLINE
  5
14A
  8
0
 66
     1
 10
0.0
 20
0.0
 30
0.0
 70
     1
  0
VERTEX
  5
8A3
  8
0
 10
298.41513687444
 20
15.88199065747625
 30
0.0
 42
0.4142135623730951
  0
VERTEX
  5
8A4
  8
0
 10
296.9901363467001
 20
14.45699012973635
 30
0.0
 42
0.4142135623730951
  0
VERTEX
  5
8A5
  8
0
 10
298.41513687444
 20
13.03198960199646
 30
0.0
 42
0.4142135623730951
  0
VERTEX
  5
8A6
  8
0
 10
299.8401374021799
 20
14.45699012973635
 30
0.0
 42
0.4142135623730951
  0
SEQEND
  5
D81
  8
0
  0
POLYLINE
  5
14B
  8
0
 66
     1
 10
0.0
 20
0.0
 30
0.0
 70
     1
  0
VERTEX
  5
8A7
  8
0
 10
298.41513687444
 20
29.18199558304859
 30
0.0
 42
0.4142135623730951
  0
VERTEX
  5
8A8
  8
0
 10
296.9901363467001
 20
27.7569950553087
 30
0.0
 42
0.4142135623730951
  0
VERTEX
  5
8A9
  8
0
 10
298.41513687444
 20
26.3319945275688
 30
0.0
 42
0.4142135623730951
  0
VERTEX
  5
8AA
  8
0
 10
299.8401374021799
 20
27.7569950553087
 30
0.0
 42
0.4142135623730951
  0
SEQEND
  5
D82
  8
0
  0
POLYLINE
  5
14C
  8
0
 66
     1
 10
0.0
 20
0.0
 30
0.0
  0
VERTEX
  5
8AB
  8
0
 10
344.0151537621166
 20
9.706988370603383
 30
0.0
  0
VERTEX
  5
8AC
  8
0
 10
229.0651111910986
 20
9.706988370603383
 30
0.0
  0
SEQEND
  5
D83
  8
0
  0
POLYLINE
  5
14D
  8
0
 66
     1
 10
0.0
 20
0.0
 30
0.0
  0
VERTEX
  5
8AD
  8
0
 10
229.0651111910986
 20
61.84676763421207
 30
0.0
 42
1.0
  0
VERTEX
  5
8AE
  8
0
 10
229.0651111910986
 20
39.0467591903738
 30
0.0
  0
SEQEND
  5
D84
  8
0
  0
POLYLINE
  5
14E
  8
0
 66
     1
 10
0.0
 20
0.0
 30
0.0
  0
VERTEX
  5
8AF
  8
0
 10
344.0151537621166
 20
39.0467591903738
 30
0.0
 42
1.0
  0
VERTEX
  5
8B0
  8
0
 10
344.0151537621166
 20
61.84676763421207
 30
0.0
  0
SEQEND
  5
D85
  8
0
  0
POLYLINE
  5
14F
  8
0
 66
     1
 10
0.0
 20
0.0
 30
0.0
  0
VERTEX
  5
8B1
  8
0
 10
229.0651111910986
 20
61.84676763421207
 30
0.0
  0
VERTEX
  5
8B2
  8
0
 10
344.0151537621166
 20
61.84676763421207
 30
0.0
  0
SEQEND
  5
D86
  8
0
  0
POLYLINE
  5
150
  8
0
 66
     1
 10
0.0
 20
0.0
 30
0.0
 70
     1
  0
VERTEX
  5
8B3
  8
0
 10
229.0651111910986
 20
24.90699399982891
 30
0.0
 42
0.4142135623730951
  0
VERTEX
  5
8B4
  8
0
 10
225.2651097837922
 20
21.10699259252253
 30
0.0
 42
0.4142135623730951
  0
VERTEX
  5
8B5
  8
0
 10
229.0651111910986
 20
17.30699118521615
 30
0.0
 42
0.4142135623730951
  0
VERTEX
  5
8B6
  8
0
 10
232.8651125984049
 20
21.10699259252253
 30
0.0
 42
0.4142135623730951
  0
SEQEND
  5
D87
  8
0
  0
POLYLINE
  5
151
  8
0
 66
     1
 10
0.0
 20
0.0
 30
0.0
 70
     1
  0
VERTEX
  5
8B7
  8
0
 10
274.6651280787752
 20
45.22176147724667
 30
0.0
 42
0.4142135623730951
  0
VERTEX
  5
8B8
  8
0
 10
273.2401275510352
 20
43.79676094950676
 30
0.0
 42
0.4142135623730951
  0
VERTEX
  5
8B9
  8
0
 10
274.6651280787752
 20
42.37176042176688
 30
0.0
 42
0.4142135623730951
  0
VERTEX
  5
8BA
  8
0
 10
276.090128606515
 20
43.79676094950676
 30
0.0
 42
0.4142135623730951
  0
SEQEND
  5
D88
  8
0
  0
POLYLINE
  5
152
  8
0
 66
     1
 10
0.0
 20
0.0
 30
0.0
 70
     1
  0
VERTEX
  5
8BB
  8
0
 10
274.6651280787752
 20
58.521766402819
 30
0.0
 42
0.4142135623730951
  0
VERTEX
  5
8BC
  8
0
 10
273.2401275510352
 20
57.09676587507909
 30
0.0
 42
0.4142135623730951
  0
VERTEX
  5
8BD
  8
0
 10
274.6651280787752
 20
55.67176534733921
 30
0.0
 42
0.4142135623730951
  0
VERTEX
  5
8BE
  8
0
 10
276.090128606515
 20
57.09676587507909
 30
0.0
 42
0.4142135623730951
  0
SEQEND
  5
D89
  8
0
  0
POLYLINE
  5
153
  8
0
 66
     1
 10
0.0
 20
0.0
 30
0.0
 70
     1
  0
VERTEX
  5
8BF
  8
0
 10
298.41513687444
 20
45.22176147724667
 30
0.0
 42
0.4142135623730951
  0
VERTEX
  5
8C0
  8
0
 10
296.9901363467001
 20
43.79676094950676
 30
0.0
 42
0.4142135623730951
  0
VERTEX
  5
8C1
  8
0
 10
298.41513687444
 20
42.37176042176688
 30
0.0
 42
0.4142135623730951
  0
VERTEX
  5
8C2
  8
0
 10
299.8401374021799
 20
43.79676094950676
 30
0.0
 42
0.4142135623730951
  0
SEQEND
  5
D8A
  8
0
  0
POLYLINE
  5
154
  8
0
 66
     1
 10
0.0
 20
0.0
 30
0.0
 70
     1
  0
VERTEX
  5
8C3
  8
0
 10
298.41513687444
 20
58.521766402819
 30
0.0
 42
0.4142135623730951
  0
VERTEX
  5
8C4
  8
0
 10
296.9901363467001
 20
57.09676587507909
 30
0.0
 42
0.4142135623730951
  0
VERTEX
  5
8C5
  8
0
 10
298.41513687444
 20
55.67176534733921
 30
0.0
 42
0.4142135623730951
  0
VERTEX
  5
8C6
  8
0
 10
299.8401374021799
 20
57.09676587507909
 30
0.0
 42
0.4142135623730951
  0
SEQEND
  5
D8B
  8
0
  0
POLYLINE
  5
155
  8
0
 66
     1
 10
0.0
 20
0.0
 30
0.0
 70
     1
  0
VERTEX
  5
8C7
  8
0
 10
344.0151537621166
 20
52.82176429185942
 30
0.0
 42
0.4142135623730951
  0
VERTEX
  5
8C8
  8
0
 10
341.6401528825501
 20
50.44676341229294
 30
0.0
 42
0.4142135623730951
  0
VERTEX
  5
8C9
  8
0
 10
344.0151537621166
 20
48.07176253272645
 30
0.0
 42
0.4142135623730951
  0
VERTEX
  5
8CA
  8
0
 10
346.390154641683
 20
50.44676341229294
 30
0.0
 42
0.4142135623730951
  0
SEQEND
  5
D8C
  8
0
  0
POLYLINE
  5
156
  8
0
 66
     1
 10
0.0
 20
0.0
 30
0.0
  0
VERTEX
  5
8CB
  8
0
 10
344.0151537621166
 20
39.04675919037381
 30
0.0
  0
VERTEX
  5
8CC
  8
0
 10
229.0651111910986
 20
39.04675919037381
 30
0.0
  0
SEQEND
  5
D8D
  8
0
  0
POLYLINE
  5
157
  8
0
 66
     1
 10
0.0
 20
0.0
 30
0.0
  0
VERTEX
  5
8CD
  8
0
 10
226.9082954306043
 20
43.25841733975582
 30
0.0
 42
0.1467891709092005
  0
VERTEX
  5
8CE
  8
0
 10
231.2219269515928
 20
43.25841733975582
 30
0.0
  0
SEQEND
  5
D8E
  8
0
  0
POLYLINE
  5
158
  8
0
 66
     1
 10
0.0
 20
0.0
 30
0.0
  0
VERTEX
  5
8CF
  8
0
 10
236.2534572636357
 20
48.28994765179865
 30
0.0
 42
0.1467891709092051
  0
VERTEX
  5
8D0
  8
0
 10
236.2534572636357
 20
52.60357917278712
 30
0.0
  0
SEQEND
  5
D8F
  8
0
  0
POLYLINE
  5
159
  8
0
 66
     1
 10
0.0
 20
0.0
 30
0.0
  0
VERTEX
  5
8D1
  8
0
 10
231.2219269515928
 20
57.63510948483005
 30
0.0
 42
0.1467891709092012
  0
VERTEX
  5
8D2
  8
0
 10
226.9082954306043
 20
57.63510948483005
 30
0.0
  0
SEQEND
  5
D90
  8
0
  0
POLYLINE
  5
15A
  8
0
 66
     1
 10
0.0
 20
0.0
 30
0.0
  0
VERTEX
  5
8D3
  8
0
 10
221.8767651185615
 20
52.60357917278723
 30
0.0
 42
0.1467891709092082
  0
VERTEX
  5
8D4
  8
0
 10
221.8767651185615
 20
48.28994765179866
 30
0.0
  0
SEQEND
  5
D91
  8
0
  0
POLYLINE
  5
15B
  8
0
 66
     1
 10
0.0
 20
0.0
 30
0.0
  0
VERTEX
  5
8D5
  8
0
 10
227.1651104874455
 20
44.17309244642431
 30
0.0
 42
0.1481049953067589
  0
VERTEX
  5
8D6
  8
0
 10
230.9651118947517
 20
44.17309244642431
 30
0.0
  0
SEQEND
  5
D92
  8
0
  0
POLYLINE
  5
15C
  8
0
 66
     1
 10
0.0
 20
0.0
 30
0.0
  0
VERTEX
  5
8D7
  8
0
 10
235.3387821569672
 20
48.54676270863978
 30
0.0
 42
0.1481049953067692
  0
VERTEX
  5
8D8
  8
0
 10
235.3387821569672
 20
52.3467641159461
 30
0.0
  0
SEQEND
  5
D93
  8
0
  0
POLYLINE
  5
15D
  8
0
 66
     1
 10
0.0
 20
0.0
 30
0.0
  0
VERTEX
  5
8D9
  8
0
 10
230.9651118947517
 20
56.72043437816157
 30
0.0
 42
0.1481049953067589
  0
VERTEX
  5
8DA
  8
0
 10
227.1651104874455
 20
56.72043437816157
 30
0.0
  0
SEQEND
  5
D94
  8
0
  0
POLYLINE
  5
15E
  8
0
 66
     1
 10
0.0
 20
0.0
 30
0.0
  0
VERTEX
  5
8DB
  8
0
 10
222.79144022523
 20
52.34676411594611
 30
0.0
 42
0.1481049953067689
  0
VERTEX
  5
8DC
  8
0
 10
222.79144022523
 20
48.54676270863978
 30
0.0
  0
SEQEND
  5
D95
  8
0
  0
POLYLINE
  5
15F
  8
0
 66
     1
 10
0.0
 20
0.0
 30
0.0
  0
VERTEX
  5
8DD
  8
0
 10
231.2219269515928
 20
43.25841733975584
 30
0.0
 42
0.7578969007394472
  0
VERTEX
  5
8DE
  8
0
 10
230.9651118947518
 20
44.17309244642433
 30
0.0
  0
SEQEND
  5
D96
  8
0
  0
POLYLINE
  5
160
  8
0
 66
     1
 10
0.0
 20
0.0
 30
0.0
  0
VERTEX
  5
8DF
  8
0
 10
227.1651104874453
 20
44.17309244642433
 30
0.0
 42
0.7578969007394472
  0
VERTEX
  5
8E0
  8
0
 10
226.9082954306043
 20
43.25841733975584
 30
0.0
  0
SEQEND
  5
D97
  8
0
  0
POLYLINE
  5
161
  8
0
 66
     1
 10
0.0
 20
0.0
 30
0.0
  0
VERTEX
  5
8E1
  8
0
 10
221.8767651185614
 20
48.28994765179868
 30
0.0
 42
0.757896900739421
  0
VERTEX
  5
8E2
  8
0
 10
222.7914402252298
 20
48.54676270863978
 30
0.0
  0
SEQEND
  5
D98
  8
0
  0
POLYLINE
  5
162
  8
0
 66
     1
 10
0.0
 20
0.0
 30
0.0
  0
VERTEX
  5
8E3
  8
0
 10
222.7914402252298
 20
52.3467641159461
 30
0.0
 42
0.7578969007394363
  0
VERTEX
  5
8E4
  8
0
 10
221.8767651185614
 20
52.60357917278719
 30
0.0
  0
SEQEND
  5
D99
  8
0
  0
POLYLINE
  5
163
  8
0
 66
     1
 10
0.0
 20
0.0
 30
0.0
  0
VERTEX
  5
8E5
  8
0
 10
236.2534572636356
 20
52.60357917278719
 30
0.0
 42
0.757896900739421
  0
VERTEX
  5
8E6
  8
0
 10
235.3387821569671
 20
52.3467641159461
 30
0.0
  0
SEQEND
  5
D9A
  8
0
  0
POLYLINE
  5
164
  8
0
 66
     1
 10
0.0
 20
0.0
 30
0.0
  0
VERTEX
  5
8E7
  8
0
 10
235.3387821569671
 20
48.54676270863978
 30
0.0
 42
0.757896900739421
  0
VERTEX
  5
8E8
  8
0
 10
236.2534572636356
 20
48.28994765179868
 30
0.0
  0
SEQEND
  5
D9B
  8
0
  0
POLYLINE
  5
165
  8
0
 66
     1
 10
0.0
 20
0.0
 30
0.0
  0
VERTEX
  5
8E9
  8
0
 10
226.9082954306043
 20
57.63510948483006
 30
0.0
 42
0.7578969007394504
  0
VERTEX
  5
8EA
  8
0
 10
227.1651104874454
 20
56.72043437816156
 30
0.0
  0
SEQEND
  5
D9C
  8
0
  0
POLYLINE
  5
166
  8
0
 66
     1
 10
0.0
 20
0.0
 30
0.0
 70
     1
  0
VERTEX
  5
8EB
  8
0
 10
396.7826481817926
 20
28.70699540713527
 30
0.0
 42
0.4142135623730951
  0
VERTEX
  5
8EC
  8
0
 10
395.3576476540527
 20
27.28199487939538
 30
0.0
 42
0.4142135623730951
  0
VERTEX
  5
8ED
  8
0
 10
396.7826481817926
 20
25.85699435165548
 30
0.0
 42
0.4142135623730951
  0
VERTEX
  5
8EE
  8
0
 10
398.2076487095325
 20
27.28199487939538
 30
0.0
 42
0.4142135623730951
  0
SEQEND
  5
D9D
  8
0
  0
POLYLINE
  5
167
  8
0
 66
     1
 10
0.0
 20
0.0
 30
0.0
  0
VERTEX
  5
8EF
  8
0
 10
230.9651118947518
 20
56.72043437816156
 30
0.0
 42
0.7578969007394504
  0
VERTEX
  5
8F0
  8
0
 10
231.2219269515928
 20
57.63510948483006
 30
0.0
  0
SEQEND
  5
D9E
  8
0
  0
POLYLINE
  5
168
  8
0
 66
     1
 10
0.0
 20
0.0
 30
0.0
  0
VERTEX
  5
8F1
  8
0
 10
430.6976607420021
 20
13.98198995382293
 30
0.0
  0
VERTEX
  5
8F2
  8
0
 10
430.6976607420024
 20
31.68623353133223
 30
0.0
  0
SEQEND
  5
D9F
  8
0
  0
POLYLINE
  5
169
  8
0
 66
     1
 10
0.0
 20
0.0
 30
0.0
  0
VERTEX
  5
8F3
  8
0
 10
413.1543512784632
 20
46.75700209184058
 30
0.0
  0
VERTEX
  5
8F4
  8
0
 10
402.1659531419519
 20
46.75700209184058
 30
0.0
  0
SEQEND
  5
DA0
  8
0
  0
POLYLINE
  5
16A
  8
0
 66
     1
 10
0.0
 20
0.0
 30
0.0
 70
     1
  0
VERTEX
  5
8F5
  8
0
 10
402.4826502927523
 20
44.82850137763261
 30
0.0
 42
0.4142135623730951
  0
VERTEX
  5
8F6
  8
0
 10
401.0576497650125
 20
43.4035008498927
 30
0.0
 42
0.4142135623730951
  0
VERTEX
  5
8F7
  8
0
 10
402.4826502927523
 20
41.97850032215282
 30
0.0
 42
0.4142135623730951
  0
VERTEX
  5
8F8
  8
0
 10
403.9076508204922
 20
43.4035008498927
 30
0.0
 42
0.4142135623730951
  0
SEQEND
  5
DA1
  8
0
  0
POLYLINE
  5
16B
  8
0
 66
     1
 10
0.0
 20
0.0
 30
0.0
 70
     1
  0
VERTEX
  5
8F9
  8
0
 10
413.1226542332101
 20
44.82850137763261
 30
0.0
 42
0.4142135623730951
  0
VERTEX
  5
8FA
  8
0
 10
411.6976537054703
 20
43.4035008498927
 30
0.0
 42
0.4142135623730951
  0
VERTEX
  5
8FB
  8
0
 10
413.1226542332101
 20
41.97850032215282
 30
0.0
 42
0.4142135623730951
  0
VERTEX
  5
8FC
  8
0
 10
414.5476547609501
 20
43.4035008498927
 30
0.0
 42
0.4142135623730951
  0
SEQEND
  5
DA2
  8
0
  0
POLYLINE
  5
16C
  8
0
 66
     1
 10
0.0
 20
0.0
 30
0.0
  0
VERTEX
  5
8FD
  8
0
 10
384.6226436784127
 20
31.6862335313322
 30
0.0
  0
VERTEX
  5
8FE
  8
0
 10
384.6226436784123
 20
13.98198995382306
 30
0.0
  0
SEQEND
  5
DA3
  8
0
  0
POLYLINE
  5
16D
  8
0
 66
     1
 10
0.0
 20
0.0
 30
0.0
  0
VERTEX
  5
8FF
  8
0
 10
425.0926586662252
 20
33.40949714867693
 30
0.0
  0
VERTEX
  5
900
  8
0
 10
403.5276506797617
 20
33.40949714867693
 30
0.0
  0
SEQEND
  5
DA4
  8
0
  0
POLYLINE
  5
16E
  8
0
 66
     1
 10
0.0
 20
0.0
 30
0.0
  0
VERTEX
  5
901
  8
0
 10
403.5276506797617
 20
21.15449261011385
 30
0.0
  0
VERTEX
  5
902
  8
0
 10
425.0926586662252
 20
21.15449261011385
 30
0.0
  0
SEQEND
  5
DA5
  8
0
  0
POLYLINE
  5
16F
  8
0
 66
     1
 10
0.0
 20
0.0
 30
0.0
  0
VERTEX
  5
903
  8
0
 10
425.0926586662252
 20
33.40949714867693
 30
0.0
  0
VERTEX
  5
904
  8
0
 10
425.0926586662252
 20
21.15449261011385
 30
0.0
  0
SEQEND
  5
DA6
  8
0
  0
POLYLINE
  5
170
  8
0
 66
     1
 10
0.0
 20
0.0
 30
0.0
  0
VERTEX
  5
905
  8
0
 10
403.5276506797617
 20
33.40949714867693
 30
0.0
  0
VERTEX
  5
906
  8
0
 10
403.5276506797617
 20
21.15449261011385
 30
0.0
  0
SEQEND
  5
DA7
  8
0
  0
POLYLINE
  5
171
  8
0
 66
     1
 10
0.0
 20
0.0
 30
0.0
  0
VERTEX
  5
907
  8
0
 10
429.4455417678606
 20
34.70911614041017
 30
0.0
  0
VERTEX
  5
908
  8
0
 10
415.8566639791617
 20
45.79457422163865
 30
0.0
  0
SEQEND
  5
DA8
  8
0
  0
POLYLINE
  5
172
  8
0
 66
     1
 10
0.0
 20
0.0
 30
0.0
  0
VERTEX
  5
909
  8
0
 10
399.4636404412538
 20
45.79457422163868
 30
0.0
  0
VERTEX
  5
90A
  8
0
 10
385.8747626525543
 20
34.70911614041005
 30
0.0
  0
SEQEND
  5
DA9
  8
0
  0
POLYLINE
  5
173
  8
0
 66
     1
 10
0.0
 20
0.0
 30
0.0
  0
VERTEX
  5
90B
  8
0
 10
430.6976607420024
 20
31.68623353133223
 30
0.0
 42
0.1989123673796505
  0
VERTEX
  5
90C
  8
0
 10
429.4455417678606
 20
34.70911614041017
 30
0.0
  0
SEQEND
  5
DAA
  8
0
  0
POLYLINE
  5
174
  8
0
 66
     1
 10
0.0
 20
0.0
 30
0.0
  0
VERTEX
  5
90D
  8
0
 10
385.8747626525543
 20
34.70911614041005
 30
0.0
 42
0.1989123673796555
  0
VERTEX
  5
90E
  8
0
 10
384.6226436784125
 20
31.6862335313322
 30
0.0
  0
SEQEND
  5
DAB
  8
0
  0
POLYLINE
  5
175
  8
0
 66
     1
 10
0.0
 20
0.0
 30
0.0
  0
VERTEX
  5
90F
  8
0
 10
426.4226591587824
 20
9.706988370603385
 30
0.0
 42
0.4142135623730897
  0
VERTEX
  5
910
  8
0
 10
430.6976607420021
 20
13.98198995382294
 30
0.0
  0
SEQEND
  5
DAC
  8
0
  0
POLYLINE
  5
176
  8
0
 66
     1
 10
0.0
 20
0.0
 30
0.0
  0
VERTEX
  5
911
  8
0
 10
384.6226436784125
 20
13.98198995382306
 30
0.0
 42
0.4142135623731008
  0
VERTEX
  5
912
  8
0
 10
388.8976452616322
 20
9.706988370603385
 30
0.0
  0
VERTEX
  5
913
  8
0
 10
388.8976452616322
 20
13.50698977790977
 30
0.0
  0
VERTEX
  5
914
  8
0
 10
394.5976473725916
 20
13.50698977790977
 30
0.0
  0
VERTEX
  5
915
  8
0
 10
394.5976473725916
 20
9.70698837060339
 30
0.0
  0
SEQEND
  5
DAD
  8
0
  0
POLYLINE
  5
177
  8
0
 66
     1
 10
0.0
 20
0.0
 30
0.0
  0
VERTEX
  5
916
  8
0
 10
426.4226591587824
 20
9.70698837060339
 30
0.0
  0
VERTEX
  5
917
  8
0
 10
426.4226591587824
 20
13.50698977790977
 30
0.0
  0
VERTEX
  5
918
  8
0
 10
420.7226570478226
 20
13.50698977790977
 30
0.0
  0
VERTEX
  5
919
  8
0
 10
420.7226570478226
 20
9.70698837060339
 30
0.0
  0
SEQEND
  5
DAE
  8
0
  0
POLYLINE
  5
178
  8
0
 66
     1
 10
0.0
 20
0.0
 30
0.0
  0
VERTEX
  5
91A
  8
0
 10
401.9601500992476
 20
13.50698977790977
 30
0.0
  0
VERTEX
  5
91B
  8
0
 10
413.3601543211666
 20
13.50698977790977
 30
0.0
  0
VERTEX
  5
91C
  8
0
 10
413.3601543211666
 20
9.70698837060339
 30
0.0
  0
SEQEND
  5
DAF
  8
0
  0
POLYLINE
  5
179
  8
0
 66
     1
 10
0.0
 20
0.0
 30
0.0
  0
VERTEX
  5
91D
  8
0
 10
401.9601500992476
 20
13.50698977790977
 30
0.0
  0
VERTEX
  5
91E
  8
0
 10
401.9601500992476
 20
9.70698837060339
 30
0.0
  0
SEQEND
  5
DB0
  8
0
  0
POLYLINE
  5
17A
  8
0
 66
     1
 10
0.0
 20
0.0
 30
0.0
  0
VERTEX
  5
91F
  8
0
 10
415.8566639791617
 20
45.79457422163852
 30
0.0
 42
0.1727600255708284
  0
VERTEX
  5
920
  8
0
 10
413.1543512784632
 20
46.75700209184063
 30
0.0
  0
SEQEND
  5
DB1
  8
0
  0
POLYLINE
  5
17B
  8
0
 66
     1
 10
0.0
 20
0.0
 30
0.0
  0
VERTEX
  5
921
  8
0
 10
402.1659531419519
 20
46.75700209184063
 30
0.0
 42
0.1727600255708284
  0
VERTEX
  5
922
  8
0
 10
399.4636404412536
 20
45.79457422163852
 30
0.0
  0
SEQEND
  5
DB2
  8
0
  0
POLYLINE
  5
17C
  8
0
 66
     1
 10
0.0
 20
0.0
 30
0.0
  0
VERTEX
  5
923
  8
0
 10
394.5976473725916
 20
9.70698837060339
 30
0.0
  0
VERTEX
  5
924
  8
0
 10
401.9601500992476
 20
9.70698837060339
 30
0.0
  0
SEQEND
  5
DB3
  8
0
  0
POLYLINE
  5
17D
  8
0
 66
     1
 10
0.0
 20
0.0
 30
0.0
 70
     1
  0
VERTEX
  5
925
  8
0
 10
400.7726496594644
 20
28.13699519603931
 30
0.0
 42
0.4142135623730951
  0
VERTEX
  5
926
  8
0
 10
399.9176493428205
 20
27.28199487939538
 30
0.0
 42
0.4142135623730951
  0
VERTEX
  5
927
  8
0
 10
400.7726496594644
 20
26.42699456275144
 30
0.0
 42
0.4142135623730951
  0
VERTEX
  5
928
  8
0
 10
401.6276499761084
 20
27.28199487939538
 30
0.0
 42
0.4142135623730951
  0
SEQEND
  5
DB4
  8
0
  0
POLYLINE
  5
17E
  8
0
 66
     1
 10
0.0
 20
0.0
 30
0.0
 70
     1
  0
VERTEX
  5
929
  8
0
 10
427.8476596865222
 20
28.13699519603931
 30
0.0
 42
0.4142135623730951
  0
VERTEX
  5
92A
  8
0
 10
426.9926593698782
 20
27.28199487939538
 30
0.0
 42
0.4142135623730951
  0
VERTEX
  5
92B
  8
0
 10
427.8476596865222
 20
26.42699456275144
 30
0.0
 42
0.4142135623730951
  0
VERTEX
  5
92C
  8
0
 10
428.7026600031661
 20
27.28199487939538
 30
0.0
 42
0.4142135623730951
  0
SEQEND
  5
DB5
  8
0
  0
POLYLINE
  5
17F
  8
0
 66
     1
 10
0.0
 20
0.0
 30
0.0
 70
     1
  0
VERTEX
  5
92D
  8
0
 10
428.2368096478956
 20
47.56202702850501
 30
0.0
 42
0.4142135623730951
  0
VERTEX
  5
92E
  8
0
 10
425.3868085924157
 20
44.71202597302523
 30
0.0
 42
0.4142135623730951
  0
VERTEX
  5
92F
  8
0
 10
428.2368096478956
 20
41.86202491754545
 30
0.0
 42
0.4142135623730951
  0
VERTEX
  5
930
  8
0
 10
431.0868107033754
 20
44.71202597302523
 30
0.0
 42
0.4142135623730951
  0
SEQEND
  5
DB6
  8
0
  0
POLYLINE
  5
180
  8
0
 66
     1
 10
0.0
 20
0.0
 30
0.0
 70
     1
  0
VERTEX
  5
931
  8
0
 10
428.2368096478956
 20
46.13702650076512
 30
0.0
 42
0.4142135623730951
  0
VERTEX
  5
932
  8
0
 10
426.8118091201557
 20
44.71202597302523
 30
0.0
 42
0.4142135623730951
  0
VERTEX
  5
933
  8
0
 10
428.2368096478956
 20
43.28702544528533
 30
0.0
 42
0.4142135623730951
  0
VERTEX
  5
934
  8
0
 10
429.6618101756354
 20
44.71202597302523
 30
0.0
 42
0.4142135623730951
  0
SEQEND
  5
DB7
  8
0
  0
POLYLINE
  5
181
  8
0
 66
     1
 10
0.0
 20
0.0
 30
0.0
 70
     1
  0
VERTEX
  5
935
  8
0
 10
450.1440779873061
 20
13.82893326544279
 30
0.0
 42
0.4142135623730951
  0
VERTEX
  5
936
  8
0
 10
448.7190774595662
 20
12.4039327377029
 30
0.0
 42
0.4142135623730951
  0
VERTEX
  5
937
  8
0
 10
450.1440779873061
 20
10.97893220996301
 30
0.0
 42
0.4142135623730951
  0
VERTEX
  5
938
  8
0
 10
451.5690785150459
 20
12.4039327377029
 30
0.0
 42
0.4142135623730951
  0
SEQEND
  5
DB8
  8
0
  0
POLYLINE
  5
182
  8
0
 66
     1
 10
0.0
 20
0.0
 30
0.0
 70
     1
  0
VERTEX
  5
939
  8
0
 10
455.8440800982656
 20
29.9504392359401
 30
0.0
 42
0.4142135623730951
  0
VERTEX
  5
93A
  8
0
 10
454.4190795705257
 20
28.52543870820022
 30
0.0
 42
0.4142135623730951
  0
VERTEX
  5
93B
  8
0
 10
455.8440800982656
 20
27.10043818046032
 30
0.0
 42
0.4142135623730951
  0
VERTEX
  5
93C
  8
0
 10
457.2690806260056
 20
28.52543870820022
 30
0.0
 42
0.4142135623730951
  0
SEQEND
  5
DB9
  8
0
  0
POLYLINE
  5
183
  8
0
 66
     1
 10
0.0
 20
0.0
 30
0.0
  0
VERTEX
  5
93D
  8
0
 10
413.3601543211666
 20
9.70698837060339
 30
0.0
  0
VERTEX
  5
93E
  8
0
 10
420.7226570478226
 20
9.70698837060339
 30
0.0
  0
SEQEND
  5
DBA
  8
0
  0
POLYLINE
  5
184
  8
0
 66
     1
 10
0.0
 20
0.0
 30
0.0
  0
VERTEX
  5
93F
  8
0
 10
461.0690820333116
 20
31.37543976368002
 30
0.0
  0
VERTEX
  5
940
  8
0
 10
461.0690820333116
 20
55.12544855934489
 30
0.0
  0
VERTEX
  5
941
  8
0
 10
454.894079746439
 20
55.12544855934489
 30
0.0
  0
VERTEX
  5
942
  8
0
 10
454.894079746439
 20
31.37543976368002
 30
0.0
  0
VERTEX
  5
943
  8
0
 10
453.4690792186989
 20
31.37543976368002
 30
0.0
  0
SEQEND
  5
DBB
  8
0
  0
POLYLINE
  5
185
  8
0
 66
     1
 10
0.0
 20
0.0
 30
0.0
  0
VERTEX
  5
944
  8
0
 10
447.4189893685257
 20
13.2384374027767
 30
0.0
  0
VERTEX
  5
945
  8
0
 10
453.4690792186989
 20
31.37543976368002
 30
0.0
  0
SEQEND
  5
DBC
  8
0
  0
POLYLINE
  5
186
  8
0
 66
     1
 10
0.0
 20
0.0
 30
0.0
  0
VERTEX
  5
946
  8
0
 10
452.810107381507
 20
11.39656324963373
 30
0.0
  0
VERTEX
  5
947
  8
0
 10
461.0690820333116
 20
31.37543976368002
 30
0.0
  0
SEQEND
  5
DBD
  8
0
  0
POLYLINE
  5
187
  8
0
 66
     1
 10
0.0
 20
0.0
 30
0.0
  0
VERTEX
  5
948
  8
0
 10
447.4189893685258
 20
13.23843740277679
 30
0.0
 42
0.9684491971112881
  0
VERTEX
  5
949
  8
0
 10
452.810107381507
 20
11.39656324963377
 30
0.0
  0
SEQEND
  5
DBE
  8
0
  0
POLYLINE
  5
188
  8
0
 66
     1
 10
0.0
 20
0.0
 30
0.0
  0
VERTEX
  5
94A
  8
0
 10
462.3366631782868
 20
95.99644122890462
 30
0.0
  0
VERTEX
  5
94B
  8
0
 10
489.886673381258
 20
95.99644122890462
 30
0.0
  0
SEQEND
  5
DBF
  8
0
  0
POLYLINE
  5
189
  8
0
 66
     1
 10
0.0
 20
0.0
 30
0.0
  0
VERTEX
  5
94C
  8
0
 10
489.886673381258
 20
90.29643911794504
 30
0.0
  0
VERTEX
  5
94D
  8
0
 10
462.3366631782868
 20
90.29643911794504
 30
0.0
  0
SEQEND
  5
DC0
  8
0
  0
POLYLINE
  5
18A
  8
0
 66
     1
 10
0.0
 20
0.0
 30
0.0
  0
VERTEX
  5
94E
  8
0
 10
462.3366631782868
 20
95.99644122890463
 30
0.0
 42
1.0
  0
VERTEX
  5
94F
  8
0
 10
462.3366631782868
 20
90.29643911794506
 30
0.0
  0
SEQEND
  5
DC1
  8
0
  0
POLYLINE
  5
18B
  8
0
 66
     1
 10
0.0
 20
0.0
 30
0.0
 70
     1
  0
VERTEX
  5
950
  8
0
 10
462.3366631782868
 20
94.57144070116473
 30
0.0
 42
0.4142135623730951
  0
VERTEX
  5
951
  8
0
 10
460.9116626505469
 20
93.14644017342484
 30
0.0
 42
0.4142135623730951
  0
VERTEX
  5
952
  8
0
 10
462.3366631782868
 20
91.72143964568497
 30
0.0
 42
0.4142135623730951
  0
VERTEX
  5
953
  8
0
 10
463.7616637060266
 20
93.14644017342484
 30
0.0
 42
0.4142135623730951
  0
SEQEND
  5
DC2
  8
0
  0
POLYLINE
  5
18C
  8
0
 66
     1
 10
0.0
 20
0.0
 30
0.0
 70
     1
  0
VERTEX
  5
954
  8
0
 10
489.886673381258
 20
94.57144070116473
 30
0.0
 42
0.4142135623730951
  0
VERTEX
  5
955
  8
0
 10
488.4616728535182
 20
93.14644017342484
 30
0.0
 42
0.4142135623730951
  0
VERTEX
  5
956
  8
0
 10
489.886673381258
 20
91.72143964568497
 30
0.0
 42
0.4142135623730951
  0
VERTEX
  5
957
  8
0
 10
491.311673908998
 20
93.14644017342484
 30
0.0
 42
0.4142135623730951
  0
SEQEND
  5
DC3
  8
0
  0
POLYLINE
  5
18D
  8
0
 66
     1
 10
0.0
 20
0.0
 30
0.0
  0
VERTEX
  5
958
  8
0
 10
489.886673381258
 20
90.29643911794506
 30
0.0
 42
1.0
  0
VERTEX
  5
959
  8
0
 10
489.886673381258
 20
95.99644122890463
 30
0.0
  0
SEQEND
  5
DC4
  8
0
  0
POLYLINE
  5
18E
  8
0
 66
     1
 10
0.0
 20
0.0
 30
0.0
  0
VERTEX
  5
95A
  8
0
 10
455.3455645745343
 20
88.9068880717181
 30
0.0
  0
VERTEX
  5
95B
  8
0
 10
455.3455645745343
 20
66.58187980379313
 30
0.0
  0
SEQEND
  5
DC5
  8
0
  0
POLYLINE
  5
18F
  8
0
 66
     1
 10
0.0
 20
0.0
 30
0.0
  0
VERTEX
  5
95C
  8
0
 10
447.7455617599215
 20
58.98187698918037
 30
0.0
  0
VERTEX
  5
95D
  8
0
 10
455.3455645745343
 20
66.58187980379313
 30
0.0
  0
SEQEND
  5
DC6
  8
0
  0
POLYLINE
  5
190
  8
0
 66
     1
 10
0.0
 20
0.0
 30
0.0
  0
VERTEX
  5
95E
  8
0
 10
447.7455617599215
 20
58.98187698918037
 30
0.0
  0
VERTEX
  5
95F
  8
0
 10
443.9455603526152
 20
58.98187698918037
 30
0.0
  0
SEQEND
  5
DC7
  8
0
  0
POLYLINE
  5
191
  8
0
 66
     1
 10
0.0
 20
0.0
 30
0.0
  0
VERTEX
  5
960
  8
0
 10
436.3455575380024
 20
66.58187980379313
 30
0.0
  0
VERTEX
  5
961
  8
0
 10
443.9455603526152
 20
58.98187698918037
 30
0.0
  0
SEQEND
  5
DC8
  8
0
  0
POLYLINE
  5
192
  8
0
 66
     1
 10
0.0
 20
0.0
 30
0.0
  0
VERTEX
  5
962
  8
0
 10
436.3455575380024
 20
66.58187980379313
 30
0.0
  0
VERTEX
  5
963
  8
0
 10
436.3455575380024
 20
88.906888071718
 30
0.0
  0
SEQEND
  5
DC9
  8
0
  0
POLYLINE
  5
193
  8
0
 66
     1
 10
0.0
 20
0.0
 30
0.0
  0
VERTEX
  5
964
  8
0
 10
443.9455603526151
 20
96.50689088633082
 30
0.0
  0
VERTEX
  5
965
  8
0
 10
447.7455617599215
 20
96.5068908863309
 30
0.0
  0
SEQEND
  5
DCA
  8
0
  0
POLYLINE
  5
194
  8
0
 66
     1
 10
0.0
 20
0.0
 30
0.0
  0
VERTEX
  5
966
  8
0
 10
436.3455575380024
 20
88.906888071718
 30
0.0
  0
VERTEX
  5
967
  8
0
 10
443.9455603526151
 20
96.50689088633082
 30
0.0
  0
SEQEND
  5
DCB
  8
0
  0
POLYLINE
  5
195
  8
0
 66
     1
 10
0.0
 20
0.0
 30
0.0
  0
VERTEX
  5
968
  8
0
 10
455.3455645745343
 20
88.9068880717181
 30
0.0
  0
VERTEX
  5
969
  8
0
 10
447.7455617599215
 20
96.5068908863309
 30
0.0
  0
SEQEND
  5
DCC
  8
0
  0
POLYLINE
  5
196
  8
0
 66
     1
 10
0.0
 20
0.0
 30
0.0
 70
     1
  0
VERTEX
  5
96A
  8
0
 10
443.9455603526152
 20
90.80688877537119
 30
0.0
  0
VERTEX
  5
96B
  8
0
 10
447.7455617599215
 20
90.80688877537119
 30
0.0
  0
VERTEX
  5
96C
  8
0
 10
447.7455617599215
 20
83.44438604871506
 30
0.0
  0
VERTEX
  5
96D
  8
0
 10
443.9455603526152
 20
83.44438604871506
 30
0.0
  0
SEQEND
  5
DCD
  8
0
  0
POLYLINE
  5
197
  8
0
 66
     1
 10
0.0
 20
0.0
 30
0.0
 70
     1
  0
VERTEX
  5
96E
  8
0
 10
445.8455610562684
 20
80.5943849932353
 30
0.0
 42
0.4142135623730951
  0
VERTEX
  5
96F
  8
0
 10
442.9955600007886
 20
77.74438393775553
 30
0.0
 42
0.4142135623730951
  0
VERTEX
  5
970
  8
0
 10
445.8455610562684
 20
74.89438288227572
 30
0.0
 42
0.4142135623730951
  0
VERTEX
  5
971
  8
0
 10
448.6955621117482
 20
77.74438393775553
 30
0.0
 42
0.4142135623730951
  0
SEQEND
  5
DCE
  8
0
  0
POLYLINE
  5
198
  8
0
 66
     1
 10
0.0
 20
0.0
 30
0.0
 70
     1
  0
VERTEX
  5
972
  8
0
 10
452.4955635190545
 20
80.11938481732199
 30
0.0
 42
0.4142135623730951
  0
VERTEX
  5
973
  8
0
 10
451.7830632551845
 20
79.40688455345203
 30
0.0
 42
0.4142135623730951
  0
VERTEX
  5
974
  8
0
 10
452.4955635190545
 20
78.69438428958209
 30
0.0
 42
0.4142135623730951
  0
VERTEX
  5
975
  8
0
 10
453.2080637829245
 20
79.40688455345203
 30
0.0
 42
0.4142135623730951
  0
SEQEND
  5
DCF
  8
0
  0
POLYLINE
  5
199
  8
0
 66
     1
 10
0.0
 20
0.0
 30
0.0
 70
     1
  0
VERTEX
  5
976
  8
0
 10
452.4955635190545
 20
76.79438358592894
 30
0.0
 42
0.4142135623730951
  0
VERTEX
  5
977
  8
0
 10
451.7830632551845
 20
76.08188332205901
 30
0.0
 42
0.4142135623730951
  0
VERTEX
  5
978
  8
0
 10
452.4955635190545
 20
75.36938305818904
 30
0.0
 42
0.4142135623730951
  0
VERTEX
  5
979
  8
0
 10
453.2080637829245
 20
76.08188332205901
 30
0.0
 42
0.4142135623730951
  0
SEQEND
  5
DD0
  8
0
  0
POLYLINE
  5
19A
  8
0
 66
     1
 10
0.0
 20
0.0
 30
0.0
 70
     1
  0
VERTEX
  5
97A
  8
0
 10
443.9455603526152
 20
72.04438182679598
 30
0.0
  0
VERTEX
  5
97B
  8
0
 10
447.7455617599215
 20
72.04438182679598
 30
0.0
  0
VERTEX
  5
97C
  8
0
 10
447.7455617599215
 20
64.68187910013992
 30
0.0
  0
VERTEX
  5
97D
  8
0
 10
443.9455603526152
 20
64.68187910013992
 30
0.0
  0
SEQEND
  5
DD1
  8
0
  0
POLYLINE
  5
19B
  8
0
 66
     1
 10
0.0
 20
0.0
 30
0.0
  0
VERTEX
  5
97E
  8
0
 10
399.7552783147422
 20
53.54998013557813
 30
0.0
  0
VERTEX
  5
97F
  8
0
 10
400.80925858078
 20
51.96819465819132
 30
0.0
  0
SEQEND
  5
DD2
  8
0
  0
POLYLINE
  5
19C
  8
0
 66
     1
 10
0.0
 20
0.0
 30
0.0
  0
VERTEX
  5
980
  8
0
 10
399.7552783152382
 20
53.54998013479364
 30
0.0
 42
0.3682281136406151
  0
VERTEX
  5
981
  8
0
 10
397.8955159643679
 20
54.07951262470121
 30
0.0
  0
SEQEND
  5
DD3
  8
0
  0
POLYLINE
  5
19D
  8
0
 66
     1
 10
0.0
 20
0.0
 30
0.0
  0
VERTEX
  5
982
  8
0
 10
397.3769995310959
 20
53.86473608720172
 30
0.0
 42
0.0177775312225108
  0
VERTEX
  5
983
  8
0
 10
397.8955159612252
 20
54.07951262487459
 30
0.0
  0
SEQEND
  5
DD4
  8
0
  0
POLYLINE
  5
19E
  8
0
 66
     1
 10
0.0
 20
0.0
 30
0.0
  0
VERTEX
  5
984
  8
0
 10
397.3769995318577
 20
53.86473608779617
 30
0.0
 42
0.3682281136406041
  0
VERTEX
  5
985
  8
0
 10
396.4363849766341
 20
52.17524950362803
 30
0.0
  0
SEQEND
  5
DD5
  8
0
  0
POLYLINE
  5
19F
  8
0
 66
     1
 10
0.0
 20
0.0
 30
0.0
  0
VERTEX
  5
986
  8
0
 10
396.8095996225379
 20
50.31148167357854
 30
0.0
  0
VERTEX
  5
987
  8
0
 10
396.4363849773672
 20
52.17524950202006
 30
0.0
  0
SEQEND
  5
DD6
  8
0
  0
POLYLINE
  5
1A0
  8
0
 66
     1
 10
0.0
 20
0.0
 30
0.0
  0
VERTEX
  5
988
  8
0
 10
396.8408781415405
 20
50.10616557105931
 30
0.0
 42
0.0232304710376692
  0
VERTEX
  5
989
  8
0
 10
396.8095996207626
 20
50.31148167144614
 30
0.0
  0
SEQEND
  5
DD7
  8
0
  0
POLYLINE
  5
1A1
  8
0
 66
     1
 10
0.0
 20
0.0
 30
0.0
  0
VERTEX
  5
98A
  8
0
 10
392.4241510713098
 20
50.31148167144614
 30
0.0
 42
0.0232304710376832
  0
VERTEX
  5
98B
  8
0
 10
392.3928725505318
 20
50.1061655710593
 30
0.0
  0
SEQEND
  5
DD8
  8
0
  0
POLYLINE
  5
1A2
  8
0
 66
     1
 10
0.0
 20
0.0
 30
0.0
  0
VERTEX
  5
98C
  8
0
 10
392.7827996994087
 20
52.10250938756911
 30
0.0
  0
VERTEX
  5
98D
  8
0
 10
392.4241510723817
 20
50.31148167357854
 30
0.0
  0
SEQEND
  5
DD9
  8
0
  0
POLYLINE
  5
1A3
  8
0
 66
     1
 10
0.0
 20
0.0
 30
0.0
  0
VERTEX
  5
98E
  8
0
 10
397.8955159612252
 20
68.4436039679433
 30
0.0
 42
0.0113354079694872
  0
VERTEX
  5
98F
  8
0
 10
397.5666264384582
 20
68.58482483561994
 30
0.0
  0
SEQEND
  5
DDA
  8
0
  0
POLYLINE
  5
1A4
  8
0
 66
     1
 10
0.0
 20
0.0
 30
0.0
  0
VERTEX
  5
990
  8
0
 10
397.8955159643679
 20
68.44360397096403
 30
0.0
 42
0.3682281136406249
  0
VERTEX
  5
991
  8
0
 10
399.7552783152382
 20
68.97313646087163
 30
0.0
  0
SEQEND
  5
DDB
  8
0
  0
POLYLINE
  5
1A5
  8
0
 66
     1
 10
0.0
 20
0.0
 30
0.0
  0
VERTEX
  5
992
  8
0
 10
400.80925858078
 20
70.5549219374739
 30
0.0
  0
VERTEX
  5
993
  8
0
 10
399.7552783147422
 20
68.97313646008729
 30
0.0
  0
SEQEND
  5
DDC
  8
0
  0
POLYLINE
  5
1A6
  8
0
 66
     1
 10
0.0
 20
0.0
 30
0.0
  0
VERTEX
  5
994
  8
0
 10
400.9323217315739
 20
70.72221959810457
 30
0.0
 42
0.023230471037545
  0
VERTEX
  5
995
  8
0
 10
400.8092585788512
 20
70.55492193708665
 30
0.0
  0
SEQEND
  5
DDD
  8
0
  0
POLYLINE
  5
1A7
  8
0
 66
     1
 10
0.0
 20
0.0
 30
0.0
  0
VERTEX
  5
996
  8
0
 10
403.9102389867139
 20
67.45394152922384
 30
0.0
 42
0.0232304710374993
  0
VERTEX
  5
997
  8
0
 10
404.0775366477319
 20
67.57700468194658
 30
0.0
  0
SEQEND
  5
DDE
  8
0
  0
POLYLINE
  5
1A8
  8
0
 66
     1
 10
0.0
 20
0.0
 30
0.0
  0
VERTEX
  5
998
  8
0
 10
402.3284535097142
 20
66.3999612651152
 30
0.0
  0
VERTEX
  5
999
  8
0
 10
403.910238987101
 20
67.45394153115294
 30
0.0
  0
SEQEND
  5
DDF
  8
0
  0
POLYLINE
  5
1A9
  8
0
 66
     1
 10
0.0
 20
0.0
 30
0.0
  0
VERTEX
  5
99A
  8
0
 10
402.3284535104985
 20
66.3999612656115
 30
0.0
 42
0.3682281136406411
  0
VERTEX
  5
99B
  8
0
 10
401.798921020591
 20
64.54019891474107
 30
0.0
  0
SEQEND
  5
DE0
  8
0
  0
POLYLINE
  5
1AA
  8
0
 66
     1
 10
0.0
 20
0.0
 30
0.0
  0
VERTEX
  5
99C
  8
0
 10
402.0136975552434
 20
64.02168248146846
 30
0.0
 42
0.0177775312224356
  0
VERTEX
  5
99D
  8
0
 10
401.7989210175706
 20
64.54019891159793
 30
0.0
  0
SEQEND
  5
DE1
  8
0
  0
POLYLINE
  5
1AB
  8
0
 66
     1
 10
0.0
 20
0.0
 30
0.0
  0
VERTEX
  5
99E
  8
0
 10
402.0136975574959
 20
64.02168248223083
 30
0.0
 42
0.3682281136406225
  0
VERTEX
  5
99F
  8
0
 10
403.7031841416641
 20
63.08106792700713
 30
0.0
  0
SEQEND
  5
DE2
  8
0
  0
POLYLINE
  5
1AC
  8
0
 66
     1
 10
0.0
 20
0.0
 30
0.0
  0
VERTEX
  5
9A0
  8
0
 10
405.8007409812392
 20
63.48836992321066
 30
0.0
  0
VERTEX
  5
9A1
  8
0
 10
403.7031841432724
 20
63.0810679277401
 30
0.0
  0
SEQEND
  5
DE3
  8
0
  0
POLYLINE
  5
1AD
  8
0
 66
     1
 10
0.0
 20
0.0
 30
0.0
  0
VERTEX
  5
9A2
  8
0
 10
403.7031841432724
 20
59.44204866792519
 30
0.0
  0
VERTEX
  5
9A3
  8
0
 10
405.8007409812392
 20
59.03474666960724
 30
0.0
  0
SEQEND
  5
DE4
  8
0
  0
POLYLINE
  5
1AE
  8
0
 66
     1
 10
0.0
 20
0.0
 30
0.0
  0
VERTEX
  5
9A4
  8
0
 10
403.7031841416641
 20
59.44204866865815
 30
0.0
 42
0.3682281136406261
  0
VERTEX
  5
9A5
  8
0
 10
402.0136975574959
 20
58.50143411343446
 30
0.0
  0
SEQEND
  5
DE5
  8
0
  0
POLYLINE
  5
1AF
  8
0
 66
     1
 10
0.0
 20
0.0
 30
0.0
  0
VERTEX
  5
9A6
  8
0
 10
401.7989210175705
 20
57.98291768121992
 30
0.0
 42
0.0177775312225222
  0
VERTEX
  5
9A7
  8
0
 10
402.0136975552434
 20
58.50143411134944
 30
0.0
  0
SEQEND
  5
DE6
  8
0
  0
POLYLINE
  5
1B0
  8
0
 66
     1
 10
0.0
 20
0.0
 30
0.0
  0
VERTEX
  5
9A8
  8
0
 10
401.798921020591
 20
57.9829176809245
 30
0.0
 42
0.368228113640629
  0
VERTEX
  5
9A9
  8
0
 10
402.3284535104985
 20
56.12315533005403
 30
0.0
  0
SEQEND
  5
DE7
  8
0
  0
POLYLINE
  5
1B1
  8
0
 66
     1
 10
0.0
 20
0.0
 30
0.0
  0
VERTEX
  5
9AA
  8
0
 10
403.910238987101
 20
55.06917506451233
 30
0.0
  0
VERTEX
  5
9AB
  8
0
 10
402.3284535097142
 20
56.12315533055016
 30
0.0
  0
SEQEND
  5
DE8
  8
0
  0
POLYLINE
  5
1B2
  8
0
 66
     1
 10
0.0
 20
0.0
 30
0.0
  0
VERTEX
  5
9AC
  8
0
 10
404.0775366477319
 20
54.94611191371879
 30
0.0
 42
0.0232304710375827
  0
VERTEX
  5
9AD
  8
0
 10
403.9102389867139
 20
55.06917506644148
 30
0.0
  0
SEQEND
  5
DE9
  8
0
  0
POLYLINE
  5
1B3
  8
0
 66
     1
 10
0.0
 20
0.0
 30
0.0
  0
VERTEX
  5
9AE
  8
0
 10
400.8092585788512
 20
51.9681946585787
 30
0.0
 42
0.0232304710373096
  0
VERTEX
  5
9AF
  8
0
 10
400.9323217315739
 20
51.80089699756076
 30
0.0
  0
SEQEND
  5
DEA
  8
0
  0
POLYLINE
  5
1B4
  8
0
 66
     1
 10
0.0
 20
0.0
 30
0.0
  0
VERTEX
  5
9B0
  8
0
 10
392.3900637192344
 20
50.07769266120566
 30
0.0
 42
0.4414040368986205
  0
VERTEX
  5
9B1
  8
0
 10
394.6168753460362
 20
47.63613913498995
 30
0.0
 42
0.4414040368986204
  0
VERTEX
  5
9B2
  8
0
 10
396.8436869728379
 20
50.07769266120566
 30
0.0
  0
SEQEND
  5
DEB
  8
0
  0
POLYLINE
  5
1B5
  8
0
 66
     1
 10
0.0
 20
0.0
 30
0.0
  0
VERTEX
  5
9B3
  8
0
 10
405.8007409812393
 20
59.03474666960724
 30
0.0
 42
0.441404036898624
  0
VERTEX
  5
9B4
  8
0
 10
408.2422945074549
 20
61.26155829640896
 30
0.0
 42
0.441404036898624
  0
VERTEX
  5
9B5
  8
0
 10
405.8007409812393
 20
63.48836992321066
 30
0.0
  0
SEQEND
  5
DEC
  8
0
  0
POLYLINE
  5
1B6
  8
0
 66
     1
 10
0.0
 20
0.0
 30
0.0
  0
VERTEX
  5
9B6
  8
0
 10
404.0996561790271
 20
67.59515192592661
 30
0.0
 42
0.4414040368986069
  0
VERTEX
  5
9B7
  8
0
 10
404.2515016323076
 20
70.89618458268018
 30
0.0
 42
0.4414040368986196
  0
VERTEX
  5
9B8
  8
0
 10
400.950468975554
 20
70.74433912939979
 30
0.0
  0
SEQEND
  5
DED
  8
0
  0
POLYLINE
  5
1B7
  8
0
 66
     1
 10
0.0
 20
0.0
 30
0.0
  0
VERTEX
  5
9B9
  8
0
 10
400.950468975554
 20
51.7787774662656
 30
0.0
 42
0.4414040368986152
  0
VERTEX
  5
9BA
  8
0
 10
404.2515016323076
 20
51.62693201298516
 30
0.0
 42
0.4414040368985938
  0
VERTEX
  5
9BB
  8
0
 10
404.0996561790271
 20
54.92796466973871
 30
0.0
  0
SEQEND
  5
DEE
  8
0
  0
POLYLINE
  5
1B8
  8
0
 66
     1
 10
0.0
 20
0.0
 30
0.0
  0
VERTEX
  5
9BC
  8
0
 10
404.0775366477319
 20
67.57700468194658
 30
0.0
 42
0.0031985852304301
  0
VERTEX
  5
9BD
  8
0
 10
404.0996561790271
 20
67.59515192592661
 30
0.0
  0
SEQEND
  5
DEF
  8
0
  0
POLYLINE
  5
1B9
  8
0
 66
     1
 10
0.0
 20
0.0
 30
0.0
  0
VERTEX
  5
9BE
  8
0
 10
400.950468975554
 20
70.74433912939979
 30
0.0
 42
0.0031985852296835
  0
VERTEX
  5
9BF
  8
0
 10
400.9323217315739
 20
70.72221959810457
 30
0.0
  0
SEQEND
  5
DF0
  8
0
  0
POLYLINE
  5
1BA
  8
0
 66
     1
 10
0.0
 20
0.0
 30
0.0
  0
VERTEX
  5
9C0
  8
0
 10
392.3928725505318
 20
50.1061655710593
 30
0.0
 42
0.0031985852307992
  0
VERTEX
  5
9C1
  8
0
 10
392.3900637192344
 20
50.07769266120566
 30
0.0
  0
SEQEND
  5
DF1
  8
0
  0
POLYLINE
  5
1BB
  8
0
 66
     1
 10
0.0
 20
0.0
 30
0.0
  0
VERTEX
  5
9C2
  8
0
 10
396.8436869728379
 20
50.07769266120566
 30
0.0
 42
0.0031985852307753
  0
VERTEX
  5
9C3
  8
0
 10
396.8408781415405
 20
50.10616557105931
 30
0.0
  0
SEQEND
  5
DF2
  8
0
  0
POLYLINE
  5
1BC
  8
0
 66
     1
 10
0.0
 20
0.0
 30
0.0
  0
VERTEX
  5
9C4
  8
0
 10
400.9323217315739
 20
51.80089699756076
 30
0.0
 42
0.0031985852310033
  0
VERTEX
  5
9C5
  8
0
 10
400.950468975554
 20
51.7787774662656
 30
0.0
  0
SEQEND
  5
DF3
  8
0
  0
POLYLINE
  5
1BD
  8
0
 66
     1
 10
0.0
 20
0.0
 30
0.0
  0
VERTEX
  5
9C6
  8
0
 10
404.0996561790271
 20
54.92796466973871
 30
0.0
 42
0.0031985852294064
  0
VERTEX
  5
9C7
  8
0
 10
404.0775366477319
 20
54.94611191371879
 30
0.0
  0
SEQEND
  5
DF4
  8
0
  0
POLYLINE
  5
1BE
  8
0
 66
     1
 10
0.0
 20
0.0
 30
0.0
  0
VERTEX
  5
9C8
  8
0
 10
397.5666264384582
 20
88.81156849937994
 30
0.0
  0
VERTEX
  5
9C9
  8
0
 10
397.5666264384582
 20
68.58482483561988
 30
0.0
  0
SEQEND
  5
DF5
  8
0
  0
POLYLINE
  5
1BF
  8
0
 66
     1
 10
0.0
 20
0.0
 30
0.0
 70
     1
  0
VERTEX
  5
9CA
  8
0
 10
394.6168753460367
 20
62.68655882414855
 30
0.0
 42
0.4142135623730951
  0
VERTEX
  5
9CB
  8
0
 10
393.1918748182969
 20
61.26155829640866
 30
0.0
 42
0.4142135623730951
  0
VERTEX
  5
9CC
  8
0
 10
394.6168753460367
 20
59.83655776866876
 30
0.0
 42
0.4142135623730951
  0
VERTEX
  5
9CD
  8
0
 10
396.0418758737767
 20
61.26155829640866
 30
0.0
 42
0.4142135623730951
  0
SEQEND
  5
DF6
  8
0
  0
POLYLINE
  5
1C0
  8
0
 66
     1
 10
0.0
 20
0.0
 30
0.0
 70
     1
  0
VERTEX
  5
9CE
  8
0
 10
394.6168753460367
 20
90.23656902711984
 30
0.0
 42
0.4142135623730951
  0
VERTEX
  5
9CF
  8
0
 10
393.1918748182969
 20
88.81156849937994
 30
0.0
 42
0.4142135623730951
  0
VERTEX
  5
9D0
  8
0
 10
394.6168753460367
 20
87.38656797164005
 30
0.0
 42
0.4142135623730951
  0
VERTEX
  5
9D1
  8
0
 10
396.0418758737767
 20
88.81156849937994
 30
0.0
 42
0.4142135623730951
  0
SEQEND
  5
DF7
  8
0
  0
POLYLINE
  5
1C1
  8
0
 66
     1
 10
0.0
 20
0.0
 30
0.0
  0
VERTEX
  5
9D2
  8
0
 10
391.6671242536153
 20
88.81156849937994
 30
0.0
  0
VERTEX
  5
9D3
  8
0
 10
391.6671242536153
 20
70.12445730772694
 30
0.0
 42
0.7691862558678755
  0
VERTEX
  5
9D4
  8
0
 10
392.7827996994088
 20
52.10250938756914
 30
0.0
  0
SEQEND
  5
DF8
  8
0
  0
POLYLINE
  5
1C2
  8
0
 66
     1
 10
0.0
 20
0.0
 30
0.0
  0
VERTEX
  5
9D5
  8
0
 10
397.5666264384583
 20
88.81156849937994
 30
0.0
 42
0.9999999999999954
  0
VERTEX
  5
9D6
  8
0
 10
391.6671242536152
 20
88.81156849937994
 30
0.0
  0
SEQEND
  5
DF9
  8
0
  0
POLYLINE
  5
1C3
  8
0
 66
     1
 10
0.0
 20
0.0
 30
0.0
 70
     1
  0
VERTEX
  5
9D7
  8
0
 10
412.0381092980123
 20
88.80608058487338
 30
0.0
 42
0.4142135623730951
  0
VERTEX
  5
9D8
  8
0
 10
410.6131087702724
 20
87.38108005713352
 30
0.0
 42
0.4142135623730951
  0
VERTEX
  5
9D9
  8
0
 10
412.0381092980123
 20
85.9560795293936
 30
0.0
 42
0.4142135623730951
  0
VERTEX
  5
9DA
  8
0
 10
413.4631098257522
 20
87.38108005713352
 30
0.0
 42
0.4142135623730951
  0
SEQEND
  5
DFA
  8
0
  0
POLYLINE
  5
1C4
  8
0
 66
     1
 10
0.0
 20
0.0
 30
0.0
 70
     1
  0
VERTEX
  5
9DB
  8
0
 10
412.0381092980123
 20
78.16607664441563
 30
0.0
 42
0.4142135623730951
  0
VERTEX
  5
9DC
  8
0
 10
410.6131087702724
 20
76.74107611667576
 30
0.0
 42
0.4142135623730951
  0
VERTEX
  5
9DD
  8
0
 10
412.0381092980123
 20
75.31607558893585
 30
0.0
 42
0.4142135623730951
  0
VERTEX
  5
9DE
  8
0
 10
413.4631098257522
 20
76.74107611667576
 30
0.0
 42
0.4142135623730951
  0
SEQEND
  5
DFB
  8
0
  0
POLYLINE
  5
1C5
  8
0
 66
     1
 10
0.0
 20
0.0
 30
0.0
  0
VERTEX
  5
9DF
  8
0
 10
415.3916105399602
 20
76.7093790714226
 30
0.0
  0
VERTEX
  5
9E0
  8
0
 10
415.3916105399602
 20
87.69777720793384
 30
0.0
  0
SEQEND
  5
DFC
  8
0
  0
POLYLINE
  5
1C6
  8
0
 66
     1
 10
0.0
 20
0.0
 30
0.0
  0
VERTEX
  5
9E1
  8
0
 10
411.4283626996609
 20
70.32857374184577
 30
0.0
  0
VERTEX
  5
9E2
  8
0
 10
414.4291826697583
 20
74.00706637072435
 30
0.0
  0
SEQEND
  5
DFD
  8
0
  0
POLYLINE
  5
1C7
  8
0
 66
     1
 10
0.0
 20
0.0
 30
0.0
  0
VERTEX
  5
9E3
  8
0
 10
414.4291826697583
 20
90.40008990863214
 30
0.0
  0
VERTEX
  5
9E4
  8
0
 10
411.4283626996611
 20
94.07858253751066
 30
0.0
  0
SEQEND
  5
DFE
  8
0
  0
POLYLINE
  5
1C8
  8
0
 66
     1
 10
0.0
 20
0.0
 30
0.0
  0
VERTEX
  5
9E5
  8
0
 10
414.4291826697581
 20
74.00706637072419
 30
0.0
 42
0.1727600255708214
  0
VERTEX
  5
9E6
  8
0
 10
415.3916105399602
 20
76.7093790714226
 30
0.0
  0
SEQEND
  5
DFF
  8
0
  0
POLYLINE
  5
1C9
  8
0
 66
     1
 10
0.0
 20
0.0
 30
0.0
  0
VERTEX
  5
9E7
  8
0
 10
415.3916105399602
 20
87.69777720793384
 30
0.0
 42
0.1727600255708205
  0
VERTEX
  5
9E8
  8
0
 10
414.4291826697581
 20
90.40008990863222
 30
0.0
  0
SEQEND
  5
E00
  8
0
  0
POLYLINE
  5
1CA
  8
0
 66
     1
 10
0.0
 20
0.0
 30
0.0
  0
VERTEX
  5
9E9
  8
0
 10
409.2166082530873
 20
94.07858253751066
 30
0.0
  0
VERTEX
  5
9EA
  8
0
 10
409.2166082530873
 20
70.32857374184577
 30
0.0
  0
VERTEX
  5
9EB
  8
0
 10
411.4283626996609
 20
70.32857374184577
 30
0.0
  0
SEQEND
  5
E01
  8
0
  0
POLYLINE
  5
1CB
  8
0
 66
     1
 10
0.0
 20
0.0
 30
0.0
  0
VERTEX
  5
9EC
  8
0
 10
409.2166082530873
 20
94.07858253751066
 30
0.0
  0
VERTEX
  5
9ED
  8
0
 10
411.4283626996611
 20
94.07858253751066
 30
0.0
  0
SEQEND
  5
E02
  8
0
  0
POLYLINE
  5
1CC
  8
0
 66
     1
 10
0.0
 20
0.0
 30
0.0
  0
VERTEX
  5
9EE
  8
0
 10
427.5594949484874
 20
88.24876206295716
 30
0.0
  0
VERTEX
  5
9EF
  8
0
 10
427.5594949484874
 20
69.56165087130421
 30
0.0
  0
SEQEND
  5
E03
  8
0
  0
POLYLINE
  5
1CD
  8
0
 66
     1
 10
0.0
 20
0.0
 30
0.0
  0
VERTEX
  5
9F0
  8
0
 10
421.6599927636445
 20
88.24876206295716
 30
0.0
  0
VERTEX
  5
9F1
  8
0
 10
421.6599927636445
 20
73.45722253629836
 30
0.0
  0
SEQEND
  5
E04
  8
0
  0
POLYLINE
  5
1CE
  8
0
 66
     1
 10
0.0
 20
0.0
 30
0.0
  0
VERTEX
  5
9F2
  8
0
 10
422.4451440251611
 20
49.7430809348196
 30
0.0
  0
VERTEX
  5
9F3
  8
0
 10
422.7991925328793
 20
51.53502367227892
 30
0.0
  0
SEQEND
  5
E05
  8
0
  0
POLYLINE
  5
1CF
  8
0
 66
     1
 10
0.0
 20
0.0
 30
0.0
  0
VERTEX
  5
9F4
  8
0
 10
422.3954705415628
 20
49.54142382053673
 30
0.0
 42
0.0232304710376407
  0
VERTEX
  5
9F5
  8
0
 10
422.4451440264246
 20
49.74308093506972
 30
0.0
  0
SEQEND
  5
E06
  8
0
  0
POLYLINE
  5
1D0
  8
0
 66
     1
 10
0.0
 20
0.0
 30
0.0
  0
VERTEX
  5
9F6
  8
0
 10
418.3935178707038
 20
51.42131943843477
 30
0.0
 42
0.0232304710374775
  0
VERTEX
  5
9F7
  8
0
 10
418.286049215534
 20
51.2436018672831
 30
0.0
  0
SEQEND
  5
E07
  8
0
  0
POLYLINE
  5
1D1
  8
0
 66
     1
 10
0.0
 20
0.0
 30
0.0
  0
VERTEX
  5
9F8
  8
0
 10
419.4515563104165
 20
53.00039332708113
 30
0.0
  0
VERTEX
  5
9F9
  8
0
 10
418.39351786879
 20
51.42131943845391
 30
0.0
  0
SEQEND
  5
E08
  8
0
  0
POLYLINE
  5
1D2
  8
0
 66
     1
 10
0.0
 20
0.0
 30
0.0
  0
VERTEX
  5
9FA
  8
0
 10
419.4515563117091
 20
53.00039332828625
 30
0.0
 42
0.3682281136406261
  0
VERTEX
  5
9FB
  8
0
 10
419.2290803011199
 20
54.92123301037712
 30
0.0
  0
SEQEND
  5
E09
  8
0
  0
POLYLINE
  5
1D3
  8
0
 66
     1
 10
0.0
 20
0.0
 30
0.0
  0
VERTEX
  5
9FC
  8
0
 10
418.8322250082468
 20
55.31808830660625
 30
0.0
 42
0.0177775312225063
  0
VERTEX
  5
9FD
  8
0
 10
419.2290803026862
 20
54.92123301216692
 30
0.0
  0
SEQEND
  5
E0A
  8
0
  0
POLYLINE
  5
1D4
  8
0
 66
     1
 10
0.0
 20
0.0
 30
0.0
  0
VERTEX
  5
9FE
  8
0
 10
418.8322250041874
 20
55.31808830501787
 30
0.0
 42
0.3682281136406116
  0
VERTEX
  5
9FF
  8
0
 10
416.9113853220964
 20
55.54056431560698
 30
0.0
  0
SEQEND
  5
E0B
  8
0
  0
POLYLINE
  5
1D5
  8
0
 66
     1
 10
0.0
 20
0.0
 30
0.0
  0
VERTEX
  5
A00
  8
0
 10
415.3323114316401
 20
54.48252587461343
 30
0.0
  0
VERTEX
  5
A01
  8
0
 10
416.911385322855
 20
55.54056431614197
 30
0.0
  0
SEQEND
  5
E0C
  8
0
  0
POLYLINE
  5
1D6
  8
0
 66
     1
 10
0.0
 20
0.0
 30
0.0
  0
VERTEX
  5
A02
  8
0
 10
415.1545938624186
 20
54.375057219063
 30
0.0
 42
0.0232304710374432
  0
VERTEX
  5
A03
  8
0
 10
415.3323114335705
 20
54.48252587423286
 30
0.0
  0
SEQEND
  5
E0D
  8
0
  0
POLYLINE
  5
1D7
  8
0
 66
     1
 10
0.0
 20
0.0
 30
0.0
  0
VERTEX
  5
A04
  8
0
 10
413.6540729302053
 20
58.53415202995364
 30
0.0
 42
0.0232304710374598
  0
VERTEX
  5
A05
  8
0
 10
413.4524158156722
 20
58.48447854509179
 30
0.0
  0
SEQEND
  5
E0E
  8
0
  0
POLYLINE
  5
1D8
  8
0
 66
     1
 10
0.0
 20
0.0
 30
0.0
  0
VERTEX
  5
A06
  8
0
 10
415.5187929423431
 20
58.90257972803102
 30
0.0
  0
VERTEX
  5
A07
  8
0
 10
413.6540729291095
 20
58.53415202831957
 30
0.0
  0
SEQEND
  5
E0F
  8
0
  0
POLYLINE
  5
1D9
  8
0
 66
     1
 10
0.0
 20
0.0
 30
0.0
  0
VERTEX
  5
A08
  8
0
 10
415.5187929414286
 20
58.90257972787258
 30
0.0
 42
0.3682281136406206
  0
VERTEX
  5
A09
  8
0
 10
416.7197174104685
 20
60.41813278839021
 30
0.0
  0
SEQEND
  5
E10
  8
0
  0
POLYLINE
  5
1DA
  8
0
 66
     1
 10
0.0
 20
0.0
 30
0.0
  0
VERTEX
  5
A0A
  8
0
 10
416.7197174144619
 20
60.97937092983386
 30
0.0
 42
0.0177775312226011
  0
VERTEX
  5
A0B
  8
0
 10
416.7197174144619
 20
60.41813279013801
 30
0.0
  0
SEQEND
  5
E11
  8
0
  0
POLYLINE
  5
1DB
  8
0
 66
     1
 10
0.0
 20
0.0
 30
0.0
  0
VERTEX
  5
A0C
  8
0
 10
416.719717412089
 20
60.97937092999152
 30
0.0
 42
0.3682281136406205
  0
VERTEX
  5
A0D
  8
0
 10
415.5187929430491
 20
62.49492399050914
 30
0.0
  0
SEQEND
  5
E12
  8
0
  0
POLYLINE
  5
1DC
  8
0
 66
     1
 10
0.0
 20
0.0
 30
0.0
  0
VERTEX
  5
A0E
  8
0
 10
413.6540729298102
 20
62.86335168826015
 30
0.0
  0
VERTEX
  5
A0F
  8
0
 10
415.5187929412829
 20
62.49492399044742
 30
0.0
  0
SEQEND
  5
E13
  8
0
  0
POLYLINE
  5
1DD
  8
0
 66
     1
 10
0.0
 20
0.0
 30
0.0
  0
VERTEX
  5
A10
  8
0
 10
413.452415816617
 20
62.91302517448879
 30
0.0
 42
0.0232304710374598
  0
VERTEX
  5
A11
  8
0
 10
413.65407293115
 20
62.86335168962695
 30
0.0
  0
SEQEND
  5
E14
  8
0
  0
POLYLINE
  5
1DE
  8
0
 66
     1
 10
0.0
 20
0.0
 30
0.0
  0
VERTEX
  5
A12
  8
0
 10
415.3323114345152
 20
66.91497784534772
 30
0.0
 42
0.0232304710374988
  0
VERTEX
  5
A13
  8
0
 10
415.1545938633634
 20
67.02244650051757
 30
0.0
  0
SEQEND
  5
E15
  8
0
  0
POLYLINE
  5
1DF
  8
0
 66
     1
 10
0.0
 20
0.0
 30
0.0
  0
VERTEX
  5
A14
  8
0
 10
416.9113853220714
 20
65.85693940300479
 30
0.0
  0
VERTEX
  5
A15
  8
0
 10
415.3323114334448
 20
66.91497784463087
 30
0.0
  0
SEQEND
  5
E16
  8
0
  0
POLYLINE
  5
1E0
  8
0
 66
     1
 10
0.0
 20
0.0
 30
0.0
  0
VERTEX
  5
A16
  8
0
 10
416.9113853232769
 20
65.85693940171205
 30
0.0
 42
0.3682281136406218
  0
VERTEX
  5
A17
  8
0
 10
418.8322250053678
 20
66.07941541230119
 30
0.0
  0
SEQEND
  5
E17
  8
0
  0
POLYLINE
  5
1E1
  8
0
 66
     1
 10
0.0
 20
0.0
 30
0.0
  0
VERTEX
  5
A18
  8
0
 10
419.2290803026862
 20
66.47627070780493
 30
0.0
 42
0.0177775312224979
  0
VERTEX
  5
A19
  8
0
 10
418.8322250082468
 20
66.07941541336558
 30
0.0
  0
SEQEND
  5
E18
  8
0
  0
POLYLINE
  5
1E2
  8
0
 66
     1
 10
0.0
 20
0.0
 30
0.0
  0
VERTEX
  5
A1A
  8
0
 10
419.2290803000088
 20
66.47627070923376
 30
0.0
 42
0.3682281136406244
  0
VERTEX
  5
A1B
  8
0
 10
419.451556310598
 20
68.39711039132462
 30
0.0
  0
SEQEND
  5
E19
  8
0
  0
POLYLINE
  5
1E3
  8
0
 66
     1
 10
0.0
 20
0.0
 30
0.0
  0
VERTEX
  5
A1C
  8
0
 10
418.3935178696037
 20
69.97618428178087
 30
0.0
  0
VERTEX
  5
A1D
  8
0
 10
419.4515563111325
 20
68.39711039056624
 30
0.0
  0
SEQEND
  5
E1A
  8
0
  0
POLYLINE
  5
1E4
  8
0
 66
     1
 10
0.0
 20
0.0
 30
0.0
  0
VERTEX
  5
A1E
  8
0
 10
418.2860492140533
 20
70.15390185100215
 30
0.0
 42
0.023230471037508
  0
VERTEX
  5
A1F
  8
0
 10
418.3935178692232
 20
69.97618427985033
 30
0.0
  0
SEQEND
  5
E1B
  8
0
  0
POLYLINE
  5
1E5
  8
0
 66
     1
 10
0.0
 20
0.0
 30
0.0
  0
VERTEX
  5
A20
  8
0
 10
418.2725580829159
 20
51.21837122184007
 30
0.0
 42
0.4414040368986399
  0
VERTEX
  5
A21
  8
0
 10
419.3955216839609
 20
48.11050597486365
 30
0.0
 42
0.4414040368986086
  0
VERTEX
  5
A22
  8
0
 10
422.3871694524364
 20
49.51404338869003
 30
0.0
  0
SEQEND
  5
E1C
  8
0
  0
POLYLINE
  5
1E6
  8
0
 66
     1
 10
0.0
 20
0.0
 30
0.0
  0
VERTEX
  5
A23
  8
0
 10
415.1293632179204
 20
67.03593763313563
 30
0.0
 42
0.4414040368986314
  0
VERTEX
  5
A24
  8
0
 10
412.021497970944
 20
65.91297403209083
 30
0.0
 42
0.4414040368986636
  0
VERTEX
  5
A25
  8
0
 10
413.4250353847704
 20
62.92132626361514
 30
0.0
  0
SEQEND
  5
E1D
  8
0
  0
POLYLINE
  5
1E7
  8
0
 66
     1
 10
0.0
 20
0.0
 30
0.0
  0
VERTEX
  5
A26
  8
0
 10
413.4250353838256
 20
58.47617745596545
 30
0.0
 42
0.4414040368986191
  0
VERTEX
  5
A27
  8
0
 10
412.0214979699991
 20
55.48452968748988
 30
0.0
 42
0.4414040368986205
  0
VERTEX
  5
A28
  8
0
 10
415.1293632169755
 20
54.3615660864449
 30
0.0
  0
SEQEND
  5
E1E
  8
0
  0
POLYLINE
  5
1E8
  8
0
 66
     1
 10
0.0
 20
0.0
 30
0.0
  0
VERTEX
  5
A29
  8
0
 10
420.2512995062483
 20
73.4572225362984
 30
0.0
 42
0.5644339246288943
  0
VERTEX
  5
A2A
  8
0
 10
418.2725580814351
 20
70.17913249644518
 30
0.0
  0
SEQEND
  5
E1F
  8
0
  0
POLYLINE
  5
1E9
  8
0
 66
     1
 10
0.0
 20
0.0
 30
0.0
  0
VERTEX
  5
A2B
  8
0
 10
413.4524158156722
 20
58.48447854509179
 30
0.0
 42
0.0031985852305592
  0
VERTEX
  5
A2C
  8
0
 10
413.4250353838256
 20
58.47617745596545
 30
0.0
  0
SEQEND
  5
E20
  8
0
  0
POLYLINE
  5
1EA
  8
0
 66
     1
 10
0.0
 20
0.0
 30
0.0
  0
VERTEX
  5
A2D
  8
0
 10
415.1293632169755
 20
54.3615660864449
 30
0.0
 42
0.0031985852299694
  0
VERTEX
  5
A2E
  8
0
 10
415.1545938624186
 20
54.375057219063
 30
0.0
  0
SEQEND
  5
E21
  8
0
  0
POLYLINE
  5
1EB
  8
0
 66
     1
 10
0.0
 20
0.0
 30
0.0
  0
VERTEX
  5
A2F
  8
0
 10
418.286049215534
 20
51.2436018672831
 30
0.0
 42
0.0031985852316654
  0
VERTEX
  5
A30
  8
0
 10
418.2725580829159
 20
51.21837122184007
 30
0.0
  0
SEQEND
  5
E22
  8
0
  0
POLYLINE
  5
1EC
  8
0
 66
     1
 10
0.0
 20
0.0
 30
0.0
  0
VERTEX
  5
A31
  8
0
 10
422.3871694524364
 20
49.51404338869003
 30
0.0
 42
0.0031985852285264
  0
VERTEX
  5
A32
  8
0
 10
422.3954705415628
 20
49.54142382053673
 30
0.0
  0
SEQEND
  5
E23
  8
0
  0
POLYLINE
  5
1ED
  8
0
 66
     1
 10
0.0
 20
0.0
 30
0.0
  0
VERTEX
  5
A33
  8
0
 10
418.2725580814351
 20
70.17913249644518
 30
0.0
 42
0.0031985852285591
  0
VERTEX
  5
A34
  8
0
 10
418.2860492140533
 20
70.15390185100215
 30
0.0
  0
SEQEND
  5
E24
  8
0
  0
POLYLINE
  5
1EE
  8
0
 66
     1
 10
0.0
 20
0.0
 30
0.0
  0
VERTEX
  5
A35
  8
0
 10
415.1545938633634
 20
67.02244650051757
 30
0.0
 42
0.0031985852308875
  0
VERTEX
  5
A36
  8
0
 10
415.1293632179238
 20
67.03593763313381
 30
0.0
  0
SEQEND
  5
E25
  8
0
  0
POLYLINE
  5
1EF
  8
0
 66
     1
 10
0.0
 20
0.0
 30
0.0
  0
VERTEX
  5
A37
  8
0
 10
413.4250353847704
 20
62.92132626361514
 30
0.0
 42
0.0031985852303332
  0
VERTEX
  5
A38
  8
0
 10
413.452415816617
 20
62.91302517448879
 30
0.0
  0
SEQEND
  5
E26
  8
0
  0
POLYLINE
  5
1F0
  8
0
 66
     1
 10
0.0
 20
0.0
 30
0.0
  0
VERTEX
  5
A39
  8
0
 10
422.7991925328795
 20
51.53502367227887
 30
0.0
 42
0.9387994472517738
  0
VERTEX
  5
A3A
  8
0
 10
427.5594949484876
 20
69.56165087130415
 30
0.0
  0
SEQEND
  5
E27
  8
0
  0
POLYLINE
  5
1F1
  8
0
 66
     1
 10
0.0
 20
0.0
 30
0.0
 70
     1
  0
VERTEX
  5
A3B
  8
0
 10
424.6097438560658
 20
89.67376259069707
 30
0.0
 42
0.4142135623730951
  0
VERTEX
  5
A3C
  8
0
 10
423.184743328326
 20
88.24876206295716
 30
0.0
 42
0.4142135623730951
  0
VERTEX
  5
A3D
  8
0
 10
424.6097438560658
 20
86.82376153521726
 30
0.0
 42
0.4142135623730951
  0
VERTEX
  5
A3E
  8
0
 10
426.0347443838058
 20
88.24876206295716
 30
0.0
 42
0.4142135623730951
  0
SEQEND
  5
E28
  8
0
  0
POLYLINE
  5
1F2
  8
0
 66
     1
 10
0.0
 20
0.0
 30
0.0
  0
VERTEX
  5
A3F
  8
0
 10
420.2512995062483
 20
73.45722253629836
 30
0.0
  0
VERTEX
  5
A40
  8
0
 10
421.6599927636445
 20
73.45722253629836
 30
0.0
  0
SEQEND
  5
E29
  8
0
  0
POLYLINE
  5
1F3
  8
0
 66
     1
 10
0.0
 20
0.0
 30
0.0
 70
     1
  0
VERTEX
  5
A41
  8
0
 10
476.7726778055918
 20
13.98198995382306
 30
0.0
 42
0.4142135623730951
  0
VERTEX
  5
A42
  8
0
 10
475.3476772778519
 20
12.55698942608317
 30
0.0
 42
0.4142135623730951
  0
VERTEX
  5
A43
  8
0
 10
476.7726778055918
 20
11.13198889834328
 30
0.0
 42
0.4142135623730951
  0
VERTEX
  5
A44
  8
0
 10
478.1976783333316
 20
12.55698942608317
 30
0.0
 42
0.4142135623730951
  0
SEQEND
  5
E2A
  8
0
  0
POLYLINE
  5
1F4
  8
0
 66
     1
 10
0.0
 20
0.0
 30
0.0
 70
     1
  0
VERTEX
  5
A45
  8
0
 10
482.4726799165516
 20
30.10349592432036
 30
0.0
 42
0.4142135623730951
  0
VERTEX
  5
A46
  8
0
 10
481.0476793888117
 20
28.67849539658047
 30
0.0
 42
0.4142135623730951
  0
VERTEX
  5
A47
  8
0
 10
482.4726799165516
 20
27.25349486884058
 30
0.0
 42
0.4142135623730951
  0
VERTEX
  5
A48
  8
0
 10
483.8976804442915
 20
28.67849539658047
 30
0.0
 42
0.4142135623730951
  0
SEQEND
  5
E2B
  8
0
  0
POLYLINE
  5
1F5
  8
0
 66
     1
 10
0.0
 20
0.0
 30
0.0
  0
VERTEX
  5
A49
  8
0
 10
427.5594949484874
 20
88.24876206295716
 30
0.0
 42
1.0
  0
VERTEX
  5
A4A
  8
0
 10
421.6599927636443
 20
88.24876206295716
 30
0.0
  0
SEQEND
  5
E2C
  8
0
  0
POLYLINE
  5
1F6
  8
0
 66
     1
 10
0.0
 20
0.0
 30
0.0
  0
VERTEX
  5
A4B
  8
0
 10
487.6976818515976
 20
31.52849645206028
 30
0.0
  0
VERTEX
  5
A4C
  8
0
 10
487.6976818515976
 20
55.27850524772514
 30
0.0
  0
VERTEX
  5
A4D
  8
0
 10
481.5226795647247
 20
55.27850524772514
 30
0.0
  0
VERTEX
  5
A4E
  8
0
 10
481.5226795647247
 20
31.52849645206028
 30
0.0
  0
VERTEX
  5
A4F
  8
0
 10
480.0976790369848
 20
31.52849645206028
 30
0.0
  0
SEQEND
  5
E2D
  8
0
  0
POLYLINE
  5
1F7
  8
0
 66
     1
 10
0.0
 20
0.0
 30
0.0
  0
VERTEX
  5
A50
  8
0
 10
474.0475891868113
 20
13.39149409115698
 30
0.0
  0
VERTEX
  5
A51
  8
0
 10
480.0976790369848
 20
31.52849645206028
 30
0.0
  0
SEQEND
  5
E2E
  8
0
  0
POLYLINE
  5
1F8
  8
0
 66
     1
 10
0.0
 20
0.0
 30
0.0
  0
VERTEX
  5
A52
  8
0
 10
479.4387071997927
 20
11.549619938014
 30
0.0
  0
VERTEX
  5
A53
  8
0
 10
487.6976818515976
 20
31.52849645206028
 30
0.0
  0
SEQEND
  5
E2F
  8
0
  0
POLYLINE
  5
1F9
  8
0
 66
     1
 10
0.0
 20
0.0
 30
0.0
 70
     1
  0
VERTEX
  5
A54
  8
0
 10
463.4726728800194
 20
13.98198995382306
 30
0.0
 42
0.4142135623730951
  0
VERTEX
  5
A55
  8
0
 10
462.0476723522796
 20
12.55698942608317
 30
0.0
 42
0.4142135623730951
  0
VERTEX
  5
A56
  8
0
 10
463.4726728800194
 20
11.13198889834328
 30
0.0
 42
0.4142135623730951
  0
VERTEX
  5
A57
  8
0
 10
464.8976734077594
 20
12.55698942608317
 30
0.0
 42
0.4142135623730951
  0
SEQEND
  5
E30
  8
0
  0
POLYLINE
  5
1FA
  8
0
 66
     1
 10
0.0
 20
0.0
 30
0.0
 70
     1
  0
VERTEX
  5
A58
  8
0
 10
469.1726749909792
 20
30.10349592432036
 30
0.0
 42
0.4142135623730951
  0
VERTEX
  5
A59
  8
0
 10
467.7476744632393
 20
28.67849539658047
 30
0.0
 42
0.4142135623730951
  0
VERTEX
  5
A5A
  8
0
 10
469.1726749909792
 20
27.25349486884058
 30
0.0
 42
0.4142135623730951
  0
VERTEX
  5
A5B
  8
0
 10
470.597675518719
 20
28.67849539658047
 30
0.0
 42
0.4142135623730951
  0
SEQEND
  5
E31
  8
0
  0
POLYLINE
  5
1FB
  8
0
 66
     1
 10
0.0
 20
0.0
 30
0.0
  0
VERTEX
  5
A5C
  8
0
 10
474.0475891868115
 20
13.39149409115706
 30
0.0
 42
0.9684491971112881
  0
VERTEX
  5
A5D
  8
0
 10
479.4387071997927
 20
11.54961993801404
 30
0.0
  0
SEQEND
  5
E32
  8
0
  0
POLYLINE
  5
1FC
  8
0
 66
     1
 10
0.0
 20
0.0
 30
0.0
  0
VERTEX
  5
A5E
  8
0
 10
474.3976769260255
 20
31.52849645206028
 30
0.0
  0
VERTEX
  5
A5F
  8
0
 10
474.3976769260255
 20
55.27850524772514
 30
0.0
  0
VERTEX
  5
A60
  8
0
 10
468.2226746391524
 20
55.27850524772514
 30
0.0
  0
VERTEX
  5
A61
  8
0
 10
468.2226746391524
 20
31.52849645206028
 30
0.0
  0
VERTEX
  5
A62
  8
0
 10
466.7976741114127
 20
31.52849645206028
 30
0.0
  0
SEQEND
  5
E33
  8
0
  0
POLYLINE
  5
1FD
  8
0
 66
     1
 10
0.0
 20
0.0
 30
0.0
  0
VERTEX
  5
A63
  8
0
 10
460.7475842612392
 20
13.39149409115698
 30
0.0
  0
VERTEX
  5
A64
  8
0
 10
466.7976741114127
 20
31.52849645206028
 30
0.0
  0
SEQEND
  5
E34
  8
0
  0
POLYLINE
  5
1FE
  8
0
 66
     1
 10
0.0
 20
0.0
 30
0.0
  0
VERTEX
  5
A65
  8
0
 10
466.1387022742202
 20
11.549619938014
 30
0.0
  0
VERTEX
  5
A66
  8
0
 10
474.3976769260255
 20
31.52849645206028
 30
0.0
  0
SEQEND
  5
E35
  8
0
  0
POLYLINE
  5
1FF
  8
0
 66
     1
 10
0.0
 20
0.0
 30
0.0
 70
     1
  0
VERTEX
  5
A67
  8
0
 10
436.8440730617335
 20
13.82893326544279
 30
0.0
 42
0.4142135623730951
  0
VERTEX
  5
A68
  8
0
 10
435.4190725339937
 20
12.4039327377029
 30
0.0
 42
0.4142135623730951
  0
VERTEX
  5
A69
  8
0
 10
436.8440730617335
 20
10.97893220996301
 30
0.0
 42
0.4142135623730951
  0
VERTEX
  5
A6A
  8
0
 10
438.2690735894735
 20
12.4039327377029
 30
0.0
 42
0.4142135623730951
  0
SEQEND
  5
E36
  8
0
  0
POLYLINE
  5
200
  8
0
 66
     1
 10
0.0
 20
0.0
 30
0.0
 70
     1
  0
VERTEX
  5
A6B
  8
0
 10
442.5440751726933
 20
29.9504392359401
 30
0.0
 42
0.4142135623730951
  0
VERTEX
  5
A6C
  8
0
 10
441.1190746449535
 20
28.52543870820022
 30
0.0
 42
0.4142135623730951
  0
VERTEX
  5
A6D
  8
0
 10
442.5440751726933
 20
27.10043818046032
 30
0.0
 42
0.4142135623730951
  0
VERTEX
  5
A6E
  8
0
 10
443.9690757004332
 20
28.52543870820022
 30
0.0
 42
0.4142135623730951
  0
SEQEND
  5
E37
  8
0
  0
POLYLINE
  5
201
  8
0
 66
     1
 10
0.0
 20
0.0
 30
0.0
  0
VERTEX
  5
A6F
  8
0
 10
460.7475842612392
 20
13.39149409115706
 30
0.0
 42
0.9684491971112881
  0
VERTEX
  5
A70
  8
0
 10
466.1387022742203
 20
11.54961993801404
 30
0.0
  0
SEQEND
  5
E38
  8
0
  0
POLYLINE
  5
202
  8
0
 66
     1
 10
0.0
 20
0.0
 30
0.0
  0
VERTEX
  5
A71
  8
0
 10
447.7690771077395
 20
31.37543976368002
 30
0.0
  0
VERTEX
  5
A72
  8
0
 10
447.7690771077395
 20
55.12544855934489
 30
0.0
  0
VERTEX
  5
A73
  8
0
 10
441.5940748208665
 20
55.12544855934489
 30
0.0
  0
VERTEX
  5
A74
  8
0
 10
441.5940748208665
 20
31.37543976368002
 30
0.0
  0
VERTEX
  5
A75
  8
0
 10
440.1690742931269
 20
31.37543976368002
 30
0.0
  0
SEQEND
  5
E39
  8
0
  0
POLYLINE
  5
203
  8
0
 66
     1
 10
0.0
 20
0.0
 30
0.0
  0
VERTEX
  5
A76
  8
0
 10
434.1189844429533
 20
13.23843740277671
 30
0.0
  0
VERTEX
  5
A77
  8
0
 10
440.1690742931269
 20
31.37543976368002
 30
0.0
  0
SEQEND
  5
E3A
  8
0
  0
POLYLINE
  5
204
  8
0
 66
     1
 10
0.0
 20
0.0
 30
0.0
  0
VERTEX
  5
A78
  8
0
 10
439.5101024559344
 20
11.39656324963373
 30
0.0
  0
VERTEX
  5
A79
  8
0
 10
447.7690771077395
 20
31.37543976368002
 30
0.0
  0
SEQEND
  5
E3B
  8
0
  0
POLYLINE
  5
205
  8
0
 66
     1
 10
0.0
 20
0.0
 30
0.0
  0
VERTEX
  5
A7A
  8
0
 10
434.1189844429533
 20
13.23843740277679
 30
0.0
 42
0.9684491971112881
  0
VERTEX
  5
A7B
  8
0
 10
439.5101024559345
 20
11.39656324963377
 30
0.0
  0
SEQEND
  5
E3C
  8
0
  0
POLYLINE
  5
206
  8
0
 66
     1
 10
0.0
 20
0.0
 30
0.0
  0
VERTEX
  5
A7C
  8
0
 10
462.3366631782868
 20
85.54643735881207
 30
0.0
  0
VERTEX
  5
A7D
  8
0
 10
489.886673381258
 20
85.54643735881207
 30
0.0
  0
SEQEND
  5
E3D
  8
0
  0
POLYLINE
  5
207
  8
0
 66
     1
 10
0.0
 20
0.0
 30
0.0
  0
VERTEX
  5
A7E
  8
0
 10
489.886673381258
 20
79.84643524785253
 30
0.0
  0
VERTEX
  5
A7F
  8
0
 10
462.3366631782868
 20
79.84643524785253
 30
0.0
  0
SEQEND
  5
E3E
  8
0
  0
POLYLINE
  5
208
  8
0
 66
     1
 10
0.0
 20
0.0
 30
0.0
  0
VERTEX
  5
A80
  8
0
 10
462.3366631782868
 20
85.54643735881211
 30
0.0
 42
1.0
  0
VERTEX
  5
A81
  8
0
 10
462.3366631782868
 20
79.84643524785253
 30
0.0
  0
SEQEND
  5
E3F
  8
0
  0
POLYLINE
  5
209
  8
0
 66
     1
 10
0.0
 20
0.0
 30
0.0
 70
     1
  0
VERTEX
  5
A82
  8
0
 10
462.3366631782868
 20
84.1214368310722
 30
0.0
 42
0.4142135623730951
  0
VERTEX
  5
A83
  8
0
 10
460.9116626505469
 20
82.6964363033323
 30
0.0
 42
0.4142135623730951
  0
VERTEX
  5
A84
  8
0
 10
462.3366631782868
 20
81.27143577559244
 30
0.0
 42
0.4142135623730951
  0
VERTEX
  5
A85
  8
0
 10
463.7616637060266
 20
82.6964363033323
 30
0.0
 42
0.4142135623730951
  0
SEQEND
  5
E40
  8
0
  0
POLYLINE
  5
20A
  8
0
 66
     1
 10
0.0
 20
0.0
 30
0.0
 70
     1
  0
VERTEX
  5
A86
  8
0
 10
489.886673381258
 20
84.1214368310722
 30
0.0
 42
0.4142135623730951
  0
VERTEX
  5
A87
  8
0
 10
488.4616728535182
 20
82.6964363033323
 30
0.0
 42
0.4142135623730951
  0
VERTEX
  5
A88
  8
0
 10
489.886673381258
 20
81.27143577559244
 30
0.0
 42
0.4142135623730951
  0
VERTEX
  5
A89
  8
0
 10
491.311673908998
 20
82.6964363033323
 30
0.0
 42
0.4142135623730951
  0
SEQEND
  5
E41
  8
0
  0
POLYLINE
  5
20B
  8
0
 66
     1
 10
0.0
 20
0.0
 30
0.0
  0
VERTEX
  5
A8A
  8
0
 10
489.886673381258
 20
79.84643524785253
 30
0.0
 42
1.0
  0
VERTEX
  5
A8B
  8
0
 10
489.886673381258
 20
85.54643735881211
 30
0.0
  0
SEQEND
  5
E42
  8
0
  0
POLYLINE
  5
20C
  8
0
 66
     1
 10
0.0
 20
0.0
 30
0.0
  0
VERTEX
  5
A8C
  8
0
 10
462.3366631782868
 20
64.64642961862705
 30
0.0
  0
VERTEX
  5
A8D
  8
0
 10
489.886673381258
 20
64.64642961862705
 30
0.0
  0
SEQEND
  5
E43
  8
0
  0
POLYLINE
  5
20D
  8
0
 66
     1
 10
0.0
 20
0.0
 30
0.0
  0
VERTEX
  5
A8E
  8
0
 10
489.886673381258
 20
58.94642750766744
 30
0.0
  0
VERTEX
  5
A8F
  8
0
 10
462.3366631782868
 20
58.94642750766744
 30
0.0
  0
SEQEND
  5
E44
  8
0
  0
POLYLINE
  5
20E
  8
0
 66
     1
 10
0.0
 20
0.0
 30
0.0
  0
VERTEX
  5
A90
  8
0
 10
462.3366631782868
 20
64.64642961862704
 30
0.0
 42
1.0
  0
VERTEX
  5
A91
  8
0
 10
462.3366631782868
 20
58.94642750766746
 30
0.0
  0
SEQEND
  5
E45
  8
0
  0
POLYLINE
  5
20F
  8
0
 66
     1
 10
0.0
 20
0.0
 30
0.0
 70
     1
  0
VERTEX
  5
A92
  8
0
 10
462.3366631782868
 20
63.22142909088714
 30
0.0
 42
0.4142135623730951
  0
VERTEX
  5
A93
  8
0
 10
460.9116626505469
 20
61.79642856314725
 30
0.0
 42
0.4142135623730951
  0
VERTEX
  5
A94
  8
0
 10
462.3366631782868
 20
60.37142803540736
 30
0.0
 42
0.4142135623730951
  0
VERTEX
  5
A95
  8
0
 10
463.7616637060266
 20
61.79642856314725
 30
0.0
 42
0.4142135623730951
  0
SEQEND
  5
E46
  8
0
  0
POLYLINE
  5
210
  8
0
 66
     1
 10
0.0
 20
0.0
 30
0.0
 70
     1
  0
VERTEX
  5
A96
  8
0
 10
489.886673381258
 20
63.22142909088714
 30
0.0
 42
0.4142135623730951
  0
VERTEX
  5
A97
  8
0
 10
488.4616728535182
 20
61.79642856314725
 30
0.0
 42
0.4142135623730951
  0
VERTEX
  5
A98
  8
0
 10
489.886673381258
 20
60.37142803540736
 30
0.0
 42
0.4142135623730951
  0
VERTEX
  5
A99
  8
0
 10
491.311673908998
 20
61.79642856314725
 30
0.0
 42
0.4142135623730951
  0
SEQEND
  5
E47
  8
0
  0
POLYLINE
  5
211
  8
0
 66
     1
 10
0.0
 20
0.0
 30
0.0
  0
VERTEX
  5
A9A
  8
0
 10
489.886673381258
 20
58.94642750766746
 30
0.0
 42
1.0
  0
VERTEX
  5
A9B
  8
0
 10
489.886673381258
 20
64.64642961862704
 30
0.0
  0
SEQEND
  5
E48
  8
0
  0
POLYLINE
  5
212
  8
0
 66
     1
 10
0.0
 20
0.0
 30
0.0
  0
VERTEX
  5
A9C
  8
0
 10
462.3366631782868
 20
75.09643348871958
 30
0.0
  0
VERTEX
  5
A9D
  8
0
 10
489.886673381258
 20
75.09643348871958
 30
0.0
  0
SEQEND
  5
E49
  8
0
  0
POLYLINE
  5
213
  8
0
 66
     1
 10
0.0
 20
0.0
 30
0.0
  0
VERTEX
  5
A9E
  8
0
 10
489.886673381258
 20
69.39643137776004
 30
0.0
  0
VERTEX
  5
A9F
  8
0
 10
462.3366631782868
 20
69.39643137776004
 30
0.0
  0
SEQEND
  5
E4A
  8
0
  0
POLYLINE
  5
214
  8
0
 66
     1
 10
0.0
 20
0.0
 30
0.0
  0
VERTEX
  5
AA0
  8
0
 10
462.3366631782868
 20
75.09643348871958
 30
0.0
 42
1.0
  0
VERTEX
  5
AA1
  8
0
 10
462.3366631782868
 20
69.39643137776002
 30
0.0
  0
SEQEND
  5
E4B
  8
0
  0
POLYLINE
  5
215
  8
0
 66
     1
 10
0.0
 20
0.0
 30
0.0
 70
     1
  0
VERTEX
  5
AA2
  8
0
 10
462.3366631782868
 20
73.67143296097969
 30
0.0
 42
0.4142135623730951
  0
VERTEX
  5
AA3
  8
0
 10
460.9116626505469
 20
72.24643243323979
 30
0.0
 42
0.4142135623730951
  0
VERTEX
  5
AA4
  8
0
 10
462.3366631782868
 20
70.82143190549989
 30
0.0
 42
0.4142135623730951
  0
VERTEX
  5
AA5
  8
0
 10
463.7616637060266
 20
72.24643243323979
 30
0.0
 42
0.4142135623730951
  0
SEQEND
  5
E4C
  8
0
  0
POLYLINE
  5
216
  8
0
 66
     1
 10
0.0
 20
0.0
 30
0.0
 70
     1
  0
VERTEX
  5
AA6
  8
0
 10
489.886673381258
 20
73.67143296097969
 30
0.0
 42
0.4142135623730951
  0
VERTEX
  5
AA7
  8
0
 10
488.4616728535182
 20
72.24643243323979
 30
0.0
 42
0.4142135623730951
  0
VERTEX
  5
AA8
  8
0
 10
489.886673381258
 20
70.82143190549989
 30
0.0
 42
0.4142135623730951
  0
VERTEX
  5
AA9
  8
0
 10
491.311673908998
 20
72.24643243323979
 30
0.0
 42
0.4142135623730951
  0
SEQEND
  5
E4D
  8
0
  0
POLYLINE
  5
217
  8
0
 66
     1
 10
0.0
 20
0.0
 30
0.0
 70
     1
  0
VERTEX
  5
AAA
  8
0
 10
424.6097438560658
 20
63.54875291546571
 30
0.0
 42
0.4142135623730951
  0
VERTEX
  5
AAB
  8
0
 10
421.7597428005861
 20
60.69875185998591
 30
0.0
 42
0.4142135623730951
  0
VERTEX
  5
AAC
  8
0
 10
424.6097438560658
 20
57.84875080450612
 30
0.0
 42
0.4142135623730951
  0
VERTEX
  5
AAD
  8
0
 10
427.4597449115456
 20
60.69875185998591
 30
0.0
 42
0.4142135623730951
  0
SEQEND
  5
E4E
  8
0
  0
POLYLINE
  5
218
  8
0
 66
     1
 10
0.0
 20
0.0
 30
0.0
 70
     1
  0
VERTEX
  5
AAE
  8
0
 10
422.9472432403693
 20
68.06125458664202
 30
0.0
 42
0.4142135623730951
  0
VERTEX
  5
AAF
  8
0
 10
422.2347429764994
 20
67.34875432277208
 30
0.0
 42
0.4142135623730951
  0
VERTEX
  5
AB0
  8
0
 10
422.9472432403693
 20
66.63625405890213
 30
0.0
 42
0.4142135623730951
  0
VERTEX
  5
AB1
  8
0
 10
423.6597435042393
 20
67.34875432277208
 30
0.0
 42
0.4142135623730951
  0
SEQEND
  5
E4F
  8
0
  0
POLYLINE
  5
219
  8
0
 66
     1
 10
0.0
 20
0.0
 30
0.0
 70
     1
  0
VERTEX
  5
AB2
  8
0
 10
426.2722444717624
 20
68.06125458664202
 30
0.0
 42
0.4142135623730951
  0
VERTEX
  5
AB3
  8
0
 10
425.5597442078924
 20
67.34875432277208
 30
0.0
 42
0.4142135623730951
  0
VERTEX
  5
AB4
  8
0
 10
426.2722444717624
 20
66.63625405890213
 30
0.0
 42
0.4142135623730951
  0
VERTEX
  5
AB5
  8
0
 10
426.9847447356323
 20
67.34875432277208
 30
0.0
 42
0.4142135623730951
  0
SEQEND
  5
E50
  8
0
  0
POLYLINE
  5
21A
  8
0
 66
     1
 10
0.0
 20
0.0
 30
0.0
  0
VERTEX
  5
AB6
  8
0
 10
489.886673381258
 20
69.39643137776002
 30
0.0
 42
1.0
  0
VERTEX
  5
AB7
  8
0
 10
489.886673381258
 20
75.09643348871958
 30
0.0
  0
SEQEND
  5
E51
  8
0
  0
POLYLINE
  5
21B
  8
0
 66
     1
 10
0.0
 20
0.0
 30
0.0
  0
VERTEX
  5
AB8
  8
0
 10
134.7303209844282
 20
162.3994947827092
 30
0.0
  0
VERTEX
  5
AB9
  8
0
 10
138.5303223917346
 20
162.3994947827092
 30
0.0
  0
SEQEND
  5
E52
  8
0
  0
POLYLINE
  5
21C
  8
0
 66
     1
 10
0.0
 20
0.0
 30
0.0
  0
VERTEX
  5
ABA
  8
0
 10
134.7303209844282
 20
133.8994842279113
 30
0.0
  0
VERTEX
  5
ABB
  8
0
 10
138.5303223917346
 20
133.8994842279113
 30
0.0
  0
SEQEND
  5
E53
  8
0
  0
POLYLINE
  5
21D
  8
0
 66
     1
 10
0.0
 20
0.0
 30
0.0
  0
VERTEX
  5
ABC
  8
0
 10
134.7303209844282
 20
154.7994919680965
 30
0.0
  0
VERTEX
  5
ABD
  8
0
 10
138.5303223917346
 20
154.7994919680965
 30
0.0
  0
VERTEX
  5
ABE
  8
0
 10
138.5303223917346
 20
141.4994870425242
 30
0.0
  0
VERTEX
  5
ABF
  8
0
 10
134.7303209844282
 20
141.4994870425242
 30
0.0
  0
SEQEND
  5
E54
  8
0
  0
POLYLINE
  5
21E
  8
0
 66
     1
 10
0.0
 20
0.0
 30
0.0
  0
VERTEX
  5
AC0
  8
0
 10
138.5303223917346
 20
175.6994997082816
 30
0.0
  0
VERTEX
  5
AC1
  8
0
 10
138.5303223917346
 20
162.3994947827092
 30
0.0
  0
SEQEND
  5
E55
  8
0
  0
POLYLINE
  5
21F
  8
0
 66
     1
 10
0.0
 20
0.0
 30
0.0
  0
VERTEX
  5
AC2
  8
0
 10
138.5303223917346
 20
133.8994842279113
 30
0.0
  0
VERTEX
  5
AC3
  8
0
 10
138.5303223917346
 20
120.599479302339
 30
0.0
  0
SEQEND
  5
E56
  8
0
  0
POLYLINE
  5
220
  8
0
 66
     1
 10
0.0
 20
0.0
 30
0.0
  0
VERTEX
  5
AC4
  8
0
 10
134.7303209844282
 20
175.6994997082816
 30
0.0
  0
VERTEX
  5
AC5
  8
0
 10
138.5303223917346
 20
175.6994997082816
 30
0.0
  0
SEQEND
  5
E57
  8
0
  0
POLYLINE
  5
221
  8
0
 66
     1
 10
0.0
 20
0.0
 30
0.0
  0
VERTEX
  5
AC6
  8
0
 10
134.7303209844282
 20
120.599479302339
 30
0.0
  0
VERTEX
  5
AC7
  8
0
 10
138.5303223917346
 20
120.599479302339
 30
0.0
  0
SEQEND
  5
E58
  8
0
  0
POLYLINE
  5
222
  8
0
 66
     1
 10
0.0
 20
0.0
 30
0.0
  0
VERTEX
  5
AC8
  8
0
 10
134.7303209844282
 20
175.6994997082816
 30
0.0
  0
VERTEX
  5
AC9
  8
0
 10
134.7303209844282
 20
180.4495014674145
 30
0.0
  0
SEQEND
  5
E59
  8
0
  0
POLYLINE
  5
223
  8
0
 66
     1
 10
0.0
 20
0.0
 30
0.0
 70
     1
  0
VERTEX
  5
ACA
  8
0
 10
124.2803171143357
 20
126.7744815892118
 30
0.0
 42
0.4142135623730951
  0
VERTEX
  5
ACB
  8
0
 10
122.8553165865958
 20
125.3494810614719
 30
0.0
 42
0.4142135623730951
  0
VERTEX
  5
ACC
  8
0
 10
124.2803171143357
 20
123.924480533732
 30
0.0
 42
0.4142135623730951
  0
VERTEX
  5
ACD
  8
0
 10
125.7053176420756
 20
125.3494810614719
 30
0.0
 42
0.4142135623730951
  0
SEQEND
  5
E5A
  8
0
  0
POLYLINE
  5
224
  8
0
 66
     1
 10
0.0
 20
0.0
 30
0.0
 70
     1
  0
VERTEX
  5
ACE
  8
0
 10
114.3053134201564
 20
126.7744815892118
 30
0.0
 42
0.4142135623730951
  0
VERTEX
  5
ACF
  8
0
 10
112.8803128924165
 20
125.3494810614719
 30
0.0
 42
0.4142135623730951
  0
VERTEX
  5
AD0
  8
0
 10
114.3053134201564
 20
123.924480533732
 30
0.0
 42
0.4142135623730951
  0
VERTEX
  5
AD1
  8
0
 10
115.7303139478963
 20
125.3494810614719
 30
0.0
 42
0.4142135623730951
  0
SEQEND
  5
E5B
  8
0
  0
POLYLINE
  5
225
  8
0
 66
     1
 10
0.0
 20
0.0
 30
0.0
 70
     1
  0
VERTEX
  5
AD2
  8
0
 10
124.2803171143357
 20
172.3744984768886
 30
0.0
 42
0.4142135623730951
  0
VERTEX
  5
AD3
  8
0
 10
122.8553165865958
 20
170.9494979491487
 30
0.0
 42
0.4142135623730951
  0
VERTEX
  5
AD4
  8
0
 10
124.2803171143357
 20
169.5244974214088
 30
0.0
 42
0.4142135623730951
  0
VERTEX
  5
AD5
  8
0
 10
125.7053176420756
 20
170.9494979491487
 30
0.0
 42
0.4142135623730951
  0
SEQEND
  5
E5C
  8
0
  0
POLYLINE
  5
226
  8
0
 66
     1
 10
0.0
 20
0.0
 30
0.0
 70
     1
  0
VERTEX
  5
AD6
  8
0
 10
114.3053134201564
 20
172.3744984768886
 30
0.0
 42
0.4142135623730951
  0
VERTEX
  5
AD7
  8
0
 10
112.8803128924165
 20
170.9494979491487
 30
0.0
 42
0.4142135623730951
  0
VERTEX
  5
AD8
  8
0
 10
114.3053134201564
 20
169.5244974214088
 30
0.0
 42
0.4142135623730951
  0
VERTEX
  5
AD9
  8
0
 10
115.7303139478963
 20
170.9494979491487
 30
0.0
 42
0.4142135623730951
  0
SEQEND
  5
E5D
  8
0
  0
POLYLINE
  5
227
  8
0
 66
     1
 10
0.0
 20
0.0
 30
0.0
  0
VERTEX
  5
ADA
  8
0
 10
134.7303209844282
 20
120.599479302339
 30
0.0
  0
VERTEX
  5
ADB
  8
0
 10
134.7303209844282
 20
115.8494775432061
 30
0.0
  0
SEQEND
  5
E5E
  8
0
  0
POLYLINE
  5
228
  8
0
 66
     1
 10
0.0
 20
0.0
 30
0.0
  0
VERTEX
  5
ADC
  8
0
 10
134.7303209844282
 20
133.8994842279113
 30
0.0
  0
VERTEX
  5
ADD
  8
0
 10
134.7303209844282
 20
141.4994870425242
 30
0.0
  0
SEQEND
  5
E5F
  8
0
  0
POLYLINE
  5
229
  8
0
 66
     1
 10
0.0
 20
0.0
 30
0.0
  0
VERTEX
  5
ADE
  8
0
 10
134.7303209844282
 20
154.7994919680965
 30
0.0
  0
VERTEX
  5
ADF
  8
0
 10
134.7303209844282
 20
162.3994947827092
 30
0.0
  0
SEQEND
  5
E60
  8
0
  0
POLYLINE
  5
22A
  8
0
 66
     1
 10
0.0
 20
0.0
 30
0.0
  0
VERTEX
  5
AE0
  8
0
 10
134.7303209844282
 20
180.4495014674145
 30
0.0
  0
VERTEX
  5
AE1
  8
0
 10
112.8803128924165
 20
180.4495014674145
 30
0.0
  0
SEQEND
  5
E61
  8
0
  0
POLYLINE
  5
22B
  8
0
 66
     1
 10
0.0
 20
0.0
 30
0.0
  0
VERTEX
  5
AE2
  8
0
 10
103.3803093741506
 20
170.9494979491486
 30
0.0
  0
VERTEX
  5
AE3
  8
0
 10
103.3803093741506
 20
125.349481061472
 30
0.0
  0
SEQEND
  5
E62
  8
0
  0
POLYLINE
  5
22C
  8
0
 66
     1
 10
0.0
 20
0.0
 30
0.0
  0
VERTEX
  5
AE4
  8
0
 10
112.8803128924165
 20
180.4495014674145
 30
0.0
 42
0.4142135623730951
  0
VERTEX
  5
AE5
  8
0
 10
103.3803093741506
 20
170.9494979491486
 30
0.0
  0
SEQEND
  5
E63
  8
0
  0
POLYLINE
  5
22D
  8
0
 66
     1
 10
0.0
 20
0.0
 30
0.0
 70
     1
  0
VERTEX
  5
AE6
  8
0
 10
109.5553116610235
 20
123.4494803578188
 30
0.0
 42
0.4142135623730951
  0
VERTEX
  5
AE7
  8
0
 10
108.1303111332836
 20
122.0244798300789
 30
0.0
 42
0.4142135623730951
  0
VERTEX
  5
AE8
  8
0
 10
109.5553116610235
 20
120.599479302339
 30
0.0
 42
0.4142135623730951
  0
VERTEX
  5
AE9
  8
0
 10
110.9803121887633
 20
122.0244798300789
 30
0.0
 42
0.4142135623730951
  0
SEQEND
  5
E64
  8
0
  0
POLYLINE
  5
22E
  8
0
 66
     1
 10
0.0
 20
0.0
 30
0.0
  0
VERTEX
  5
AEA
  8
0
 10
103.3803093741506
 20
125.349481061472
 30
0.0
 42
0.4142135623730951
  0
VERTEX
  5
AEB
  8
0
 10
112.8803128924165
 20
115.8494775432061
 30
0.0
  0
VERTEX
  5
AEC
  8
0
 10
134.7303209844282
 20
115.8494775432061
 30
0.0
  0
SEQEND
  5
E65
  8
0
  0
POLYLINE
  5
22F
  8
0
 66
     1
 10
0.0
 20
0.0
 30
0.0
  0
VERTEX
  5
AED
  8
0
 10
175.5803361129719
 20
162.529509302043
 30
0.0
  0
VERTEX
  5
AEE
  8
0
 10
179.3803375202783
 20
162.529509302043
 30
0.0
  0
SEQEND
  5
E66
  8
0
  0
POLYLINE
  5
230
  8
0
 66
     1
 10
0.0
 20
0.0
 30
0.0
  0
VERTEX
  5
AEF
  8
0
 10
175.5803361129718
 20
134.0294987472451
 30
0.0
  0
VERTEX
  5
AF0
  8
0
 10
179.3803375202782
 20
134.0294987472451
 30
0.0
  0
SEQEND
  5
E67
  8
0
  0
POLYLINE
  5
231
  8
0
 66
     1
 10
0.0
 20
0.0
 30
0.0
  0
VERTEX
  5
AF1
  8
0
 10
175.5803361129719
 20
154.9295064874303
 30
0.0
  0
VERTEX
  5
AF2
  8
0
 10
179.3803375202783
 20
154.9295064874303
 30
0.0
  0
VERTEX
  5
AF3
  8
0
 10
179.3803375202782
 20
141.6295015618579
 30
0.0
  0
VERTEX
  5
AF4
  8
0
 10
175.5803361129718
 20
141.6295015618579
 30
0.0
  0
SEQEND
  5
E68
  8
0
  0
POLYLINE
  5
232
  8
0
 66
     1
 10
0.0
 20
0.0
 30
0.0
  0
VERTEX
  5
AF5
  8
0
 10
179.3803375202783
 20
175.8295142276154
 30
0.0
  0
VERTEX
  5
AF6
  8
0
 10
179.3803375202783
 20
162.529509302043
 30
0.0
  0
SEQEND
  5
E69
  8
0
  0
POLYLINE
  5
233
  8
0
 66
     1
 10
0.0
 20
0.0
 30
0.0
  0
VERTEX
  5
AF7
  8
0
 10
179.3803375202782
 20
134.0294987472451
 30
0.0
  0
VERTEX
  5
AF8
  8
0
 10
179.3803375202782
 20
120.7294938216729
 30
0.0
  0
SEQEND
  5
E6A
  8
0
  0
POLYLINE
  5
234
  8
0
 66
     1
 10
0.0
 20
0.0
 30
0.0
  0
VERTEX
  5
AF9
  8
0
 10
175.5803361129719
 20
175.8295142276154
 30
0.0
  0
VERTEX
  5
AFA
  8
0
 10
179.3803375202783
 20
175.8295142276154
 30
0.0
  0
SEQEND
  5
E6B
  8
0
  0
POLYLINE
  5
235
  8
0
 66
     1
 10
0.0
 20
0.0
 30
0.0
  0
VERTEX
  5
AFB
  8
0
 10
175.5803361129718
 20
120.7294938216729
 30
0.0
  0
VERTEX
  5
AFC
  8
0
 10
179.3803375202782
 20
120.7294938216729
 30
0.0
  0
SEQEND
  5
E6C
  8
0
  0
POLYLINE
  5
236
  8
0
 66
     1
 10
0.0
 20
0.0
 30
0.0
  0
VERTEX
  5
AFD
  8
0
 10
175.5803361129719
 20
175.8295142276154
 30
0.0
  0
VERTEX
  5
AFE
  8
0
 10
175.5803361129719
 20
180.5795159867484
 30
0.0
  0
SEQEND
  5
E6D
  8
0
  0
POLYLINE
  5
237
  8
0
 66
     1
 10
0.0
 20
0.0
 30
0.0
 70
     1
  0
VERTEX
  5
AFF
  8
0
 10
165.1303303957896
 20
126.2630334364089
 30
0.0
  0
VERTEX
  5
B00
  8
0
 10
164.9846324236842
 20
126.2554555326936
 30
0.0
  0
VERTEX
  5
B01
  8
0
 10
164.8431431927216
 20
126.2332136743034
 30
0.0
  0
VERTEX
  5
B02
  8
0
 10
164.7065789861455
 20
126.1970456403712
 30
0.0
  0
VERTEX
  5
B03
  8
0
 10
164.5756560871999
 20
126.1476892100302
 30
0.0
  0
VERTEX
  5
B04
  8
0
 10
164.4510907791285
 20
126.0858821624137
 30
0.0
  0
VERTEX
  5
B05
  8
0
 10
164.3335993451753
 20
126.0123622766548
 30
0.0
  0
VERTEX
  5
B06
  8
0
 10
164.2238980685841
 20
125.9278673318865
 30
0.0
  0
VERTEX
  5
B07
  8
0
 10
164.1227032325988
 20
125.8331351072422
 30
0.0
  0
VERTEX
  5
B08
  8
0
 10
164.0307311204631
 20
125.7289033818549
 30
0.0
  0
VERTEX
  5
B09
  8
0
 10
163.948698015421
 20
125.6159099348579
 30
0.0
  0
VERTEX
  5
B0A
  8
0
 10
163.8773202007164
 20
125.4948925453842
 30
0.0
  0
VERTEX
  5
B0B
  8
0
 10
163.817313959593
 20
125.366588992567
 30
0.0
  0
VERTEX
  5
B0C
  8
0
 10
163.7693955752948
 20
125.2317370555394
 30
0.0
  0
VERTEX
  5
B0D
  8
0
 10
163.7342813310656
 20
125.0910745134348
 30
0.0
  0
VERTEX
  5
B0E
  8
0
 10
163.7126875101492
 20
124.9453391453861
 30
0.0
  0
VERTEX
  5
B0F
  8
0
 10
163.7053303957896
 20
124.7952687305265
 30
0.0
  0
VERTEX
  5
B10
  8
0
 10
163.7126875101492
 20
124.645198315667
 30
0.0
  0
VERTEX
  5
B11
  8
0
 10
163.7342813310656
 20
124.4994629476183
 30
0.0
  0
VERTEX
  5
B12
  8
0
 10
163.7693955752948
 20
124.3588004055136
 30
0.0
  0
VERTEX
  5
B13
  8
0
 10
163.817313959593
 20
124.2239484684861
 30
0.0
  0
VERTEX
  5
B14
  8
0
 10
163.8773202007164
 20
124.0956449156689
 30
0.0
  0
VERTEX
  5
B15
  8
0
 10
163.948698015421
 20
123.9746275261952
 30
0.0
  0
VERTEX
  5
B16
  8
0
 10
164.0307311204631
 20
123.8616340791982
 30
0.0
  0
VERTEX
  5
B17
  8
0
 10
164.1227032325988
 20
123.7574023538109
 30
0.0
  0
VERTEX
  5
B18
  8
0
 10
164.2238980685841
 20
123.6626701291665
 30
0.0
  0
VERTEX
  5
B19
  8
0
 10
164.3335993451753
 20
123.5781751843983
 30
0.0
  0
VERTEX
  5
B1A
  8
0
 10
164.4510907791285
 20
123.5046552986394
 30
0.0
  0
VERTEX
  5
B1B
  8
0
 10
164.5756560871999
 20
123.4428482510229
 30
0.0
  0
VERTEX
  5
B1C
  8
0
 10
164.7065789861455
 20
123.3934918206819
 30
0.0
  0
VERTEX
  5
B1D
  8
0
 10
164.8431431927216
 20
123.3573237867497
 30
0.0
  0
VERTEX
  5
B1E
  8
0
 10
164.9846324236842
 20
123.3350819283594
 30
0.0
  0
VERTEX
  5
B1F
  8
0
 10
165.1303303957896
 20
123.3275040246442
 30
0.0
  0
VERTEX
  5
B20
  8
0
 10
165.2760283678949
 20
123.3350819283594
 30
0.0
  0
VERTEX
  5
B21
  8
0
 10
165.4175175988576
 20
123.3573237867497
 30
0.0
  0
VERTEX
  5
B22
  8
0
 10
165.5540818054336
 20
123.3934918206819
 30
0.0
  0
VERTEX
  5
B23
  8
0
 10
165.6850047043793
 20
123.4428482510229
 30
0.0
  0
VERTEX
  5
B24
  8
0
 10
165.8095700124506
 20
123.5046552986394
 30
0.0
  0
VERTEX
  5
B25
  8
0
 10
165.9270614464039
 20
123.5781751843983
 30
0.0
  0
VERTEX
  5
B26
  8
0
 10
166.0367627229951
 20
123.6626701291665
 30
0.0
  0
VERTEX
  5
B27
  8
0
 10
166.1379575589804
 20
123.7574023538108
 30
0.0
  0
VERTEX
  5
B28
  8
0
 10
166.2299296711161
 20
123.8616340791981
 30
0.0
  0
VERTEX
  5
B29
  8
0
 10
166.3119627761582
 20
123.9746275261952
 30
0.0
  0
VERTEX
  5
B2A
  8
0
 10
166.3833405908628
 20
124.0956449156689
 30
0.0
  0
VERTEX
  5
B2B
  8
0
 10
166.4433468319862
 20
124.2239484684861
 30
0.0
  0
VERTEX
  5
B2C
  8
0
 10
166.4912652162844
 20
124.3588004055136
 30
0.0
  0
VERTEX
  5
B2D
  8
0
 10
166.5263794605136
 20
124.4994629476183
 30
0.0
  0
VERTEX
  5
B2E
  8
0
 10
166.54797328143
 20
124.645198315667
 30
0.0
  0
VERTEX
  5
B2F
  8
0
 10
166.5553303957896
 20
124.7952687305265
 30
0.0
  0
VERTEX
  5
B30
  8
0
 10
166.54797328143
 20
124.9453391453861
 30
0.0
  0
VERTEX
  5
B31
  8
0
 10
166.5263794605136
 20
125.0910745134348
 30
0.0
  0
VERTEX
  5
B32
  8
0
 10
166.4912652162844
 20
125.2317370555395
 30
0.0
  0
VERTEX
  5
B33
  8
0
 10
166.4433468319862
 20
125.366588992567
 30
0.0
  0
VERTEX
  5
B34
  8
0
 10
166.3833405908628
 20
125.4948925453842
 30
0.0
  0
VERTEX
  5
B35
  8
0
 10
166.3119627761582
 20
125.6159099348579
 30
0.0
  0
VERTEX
  5
B36
  8
0
 10
166.2299296711161
 20
125.728903381855
 30
0.0
  0
VERTEX
  5
B37
  8
0
 10
166.1379575589804
 20
125.8331351072422
 30
0.0
  0
VERTEX
  5
B38
  8
0
 10
166.0367627229951
 20
125.9278673318865
 30
0.0
  0
VERTEX
  5
B39
  8
0
 10
165.9270614464039
 20
126.0123622766548
 30
0.0
  0
VERTEX
  5
B3A
  8
0
 10
165.8095700124506
 20
126.0858821624137
 30
0.0
  0
VERTEX
  5
B3B
  8
0
 10
165.6850047043793
 20
126.1476892100302
 30
0.0
  0
VERTEX
  5
B3C
  8
0
 10
165.5540818054336
 20
126.1970456403712
 30
0.0
  0
VERTEX
  5
B3D
  8
0
 10
165.4175175988576
 20
126.2332136743034
 30
0.0
  0
VERTEX
  5
B3E
  8
0
 10
165.2760283678949
 20
126.2554555326936
 30
0.0
  0
SEQEND
  5
E6E
  8
0
  0
POLYLINE
  5
238
  8
0
 66
     1
 10
0.0
 20
0.0
 30
0.0
 70
     1
  0
VERTEX
  5
B3F
  8
0
 10
155.1553303957896
 20
126.2630334364089
 30
0.0
  0
VERTEX
  5
B40
  8
0
 10
155.0096324236843
 20
126.2554555326936
 30
0.0
  0
VERTEX
  5
B41
  8
0
 10
154.8681431927217
 20
126.2332136743034
 30
0.0
  0
VERTEX
  5
B42
  8
0
 10
154.7315789861456
 20
126.1970456403712
 30
0.0
  0
VERTEX
  5
B43
  8
0
 10
154.6006560872
 20
126.1476892100302
 30
0.0
  0
VERTEX
  5
B44
  8
0
 10
154.4760907791286
 20
126.0858821624137
 30
0.0
  0
VERTEX
  5
B45
  8
0
 10
154.3585993451754
 20
126.0123622766548
 30
0.0
  0
VERTEX
  5
B46
  8
0
 10
154.2488980685842
 20
125.9278673318865
 30
0.0
  0
VERTEX
  5
B47
  8
0
 10
154.1477032325988
 20
125.8331351072422
 30
0.0
  0
VERTEX
  5
B48
  8
0
 10
154.0557311204632
 20
125.728903381855
 30
0.0
  0
VERTEX
  5
B49
  8
0
 10
153.9736980154211
 20
125.6159099348579
 30
0.0
  0
VERTEX
  5
B4A
  8
0
 10
153.9023202007165
 20
125.4948925453842
 30
0.0
  0
VERTEX
  5
B4B
  8
0
 10
153.8423139595931
 20
125.366588992567
 30
0.0
  0
VERTEX
  5
B4C
  8
0
 10
153.7943955752949
 20
125.2317370555394
 30
0.0
  0
VERTEX
  5
B4D
  8
0
 10
153.7592813310657
 20
125.0910745134348
 30
0.0
  0
VERTEX
  5
B4E
  8
0
 10
153.7376875101493
 20
124.9453391453861
 30
0.0
  0
VERTEX
  5
B4F
  8
0
 10
153.7303303957897
 20
124.7952687305265
 30
0.0
  0
VERTEX
  5
B50
  8
0
 10
153.7376875101493
 20
124.645198315667
 30
0.0
  0
VERTEX
  5
B51
  8
0
 10
153.7592813310657
 20
124.4994629476183
 30
0.0
  0
VERTEX
  5
B52
  8
0
 10
153.7943955752949
 20
124.3588004055136
 30
0.0
  0
VERTEX
  5
B53
  8
0
 10
153.8423139595931
 20
124.2239484684861
 30
0.0
  0
VERTEX
  5
B54
  8
0
 10
153.9023202007165
 20
124.0956449156689
 30
0.0
  0
VERTEX
  5
B55
  8
0
 10
153.9736980154211
 20
123.9746275261952
 30
0.0
  0
VERTEX
  5
B56
  8
0
 10
154.0557311204632
 20
123.8616340791981
 30
0.0
  0
VERTEX
  5
B57
  8
0
 10
154.1477032325988
 20
123.7574023538108
 30
0.0
  0
VERTEX
  5
B58
  8
0
 10
154.2488980685842
 20
123.6626701291665
 30
0.0
  0
VERTEX
  5
B59
  8
0
 10
154.3585993451754
 20
123.5781751843983
 30
0.0
  0
VERTEX
  5
B5A
  8
0
 10
154.4760907791286
 20
123.5046552986394
 30
0.0
  0
VERTEX
  5
B5B
  8
0
 10
154.6006560872
 20
123.4428482510229
 30
0.0
  0
VERTEX
  5
B5C
  8
0
 10
154.7315789861456
 20
123.3934918206819
 30
0.0
  0
VERTEX
  5
B5D
  8
0
 10
154.8681431927217
 20
123.3573237867497
 30
0.0
  0
VERTEX
  5
B5E
  8
0
 10
155.0096324236843
 20
123.3350819283594
 30
0.0
  0
VERTEX
  5
B5F
  8
0
 10
155.1553303957896
 20
123.3275040246442
 30
0.0
  0
VERTEX
  5
B60
  8
0
 10
155.301028367895
 20
123.3350819283594
 30
0.0
  0
VERTEX
  5
B61
  8
0
 10
155.4425175988576
 20
123.3573237867497
 30
0.0
  0
VERTEX
  5
B62
  8
0
 10
155.5790818054337
 20
123.3934918206819
 30
0.0
  0
VERTEX
  5
B63
  8
0
 10
155.7100047043793
 20
123.4428482510229
 30
0.0
  0
VERTEX
  5
B64
  8
0
 10
155.8345700124507
 20
123.5046552986394
 30
0.0
  0
VERTEX
  5
B65
  8
0
 10
155.9520614464039
 20
123.5781751843983
 30
0.0
  0
VERTEX
  5
B66
  8
0
 10
156.0617627229951
 20
123.6626701291665
 30
0.0
  0
VERTEX
  5
B67
  8
0
 10
156.1629575589805
 20
123.7574023538108
 30
0.0
  0
VERTEX
  5
B68
  8
0
 10
156.2549296711161
 20
123.8616340791981
 30
0.0
  0
VERTEX
  5
B69
  8
0
 10
156.3369627761581
 20
123.9746275261952
 30
0.0
  0
VERTEX
  5
B6A
  8
0
 10
156.4083405908628
 20
124.0956449156689
 30
0.0
  0
VERTEX
  5
B6B
  8
0
 10
156.4683468319861
 20
124.2239484684861
 30
0.0
  0
VERTEX
  5
B6C
  8
0
 10
156.5162652162844
 20
124.3588004055136
 30
0.0
  0
VERTEX
  5
B6D
  8
0
 10
156.5513794605136
 20
124.4994629476183
 30
0.0
  0
VERTEX
  5
B6E
  8
0
 10
156.5729732814299
 20
124.645198315667
 30
0.0
  0
VERTEX
  5
B6F
  8
0
 10
156.5803303957896
 20
124.7952687305265
 30
0.0
  0
VERTEX
  5
B70
  8
0
 10
156.5729732814299
 20
124.9453391453861
 30
0.0
  0
VERTEX
  5
B71
  8
0
 10
156.5513794605136
 20
125.0910745134348
 30
0.0
  0
VERTEX
  5
B72
  8
0
 10
156.5162652162844
 20
125.2317370555395
 30
0.0
  0
VERTEX
  5
B73
  8
0
 10
156.4683468319861
 20
125.366588992567
 30
0.0
  0
VERTEX
  5
B74
  8
0
 10
156.4083405908628
 20
125.4948925453842
 30
0.0
  0
VERTEX
  5
B75
  8
0
 10
156.3369627761581
 20
125.6159099348579
 30
0.0
  0
VERTEX
  5
B76
  8
0
 10
156.2549296711161
 20
125.728903381855
 30
0.0
  0
VERTEX
  5
B77
  8
0
 10
156.1629575589805
 20
125.8331351072422
 30
0.0
  0
VERTEX
  5
B78
  8
0
 10
156.0617627229951
 20
125.9278673318865
 30
0.0
  0
VERTEX
  5
B79
  8
0
 10
155.9520614464039
 20
126.0123622766548
 30
0.0
  0
VERTEX
  5
B7A
  8
0
 10
155.8345700124507
 20
126.0858821624137
 30
0.0
  0
VERTEX
  5
B7B
  8
0
 10
155.7100047043793
 20
126.1476892100302
 30
0.0
  0
VERTEX
  5
B7C
  8
0
 10
155.5790818054336
 20
126.1970456403712
 30
0.0
  0
VERTEX
  5
B7D
  8
0
 10
155.4425175988576
 20
126.2332136743034
 30
0.0
  0
VERTEX
  5
B7E
  8
0
 10
155.301028367895
 20
126.2554555326936
 30
0.0
  0
SEQEND
  5
E6F
  8
0
  0
POLYLINE
  5
239
  8
0
 66
     1
 10
0.0
 20
0.0
 30
0.0
 70
     1
  0
VERTEX
  5
B7F
  8
0
 10
165.1303303957896
 20
173.2315040246442
 30
0.0
  0
VERTEX
  5
B80
  8
0
 10
164.9846324236842
 20
173.2239261209289
 30
0.0
  0
VERTEX
  5
B81
  8
0
 10
164.8431431927216
 20
173.2016842625386
 30
0.0
  0
VERTEX
  5
B82
  8
0
 10
164.7065789861455
 20
173.1655162286064
 30
0.0
  0
VERTEX
  5
B83
  8
0
 10
164.5756560871999
 20
173.1161597982655
 30
0.0
  0
VERTEX
  5
B84
  8
0
 10
164.4510907791285
 20
173.054352750649
 30
0.0
  0
VERTEX
  5
B85
  8
0
 10
164.3335993451753
 20
172.98083286489
 30
0.0
  0
VERTEX
  5
B86
  8
0
 10
164.2238980685841
 20
172.8963379201218
 30
0.0
  0
VERTEX
  5
B87
  8
0
 10
164.1227032325988
 20
172.8016056954775
 30
0.0
  0
VERTEX
  5
B88
  8
0
 10
164.0307311204631
 20
172.6973739700902
 30
0.0
  0
VERTEX
  5
B89
  8
0
 10
163.948698015421
 20
172.5843805230932
 30
0.0
  0
VERTEX
  5
B8A
  8
0
 10
163.8773202007164
 20
172.4633631336195
 30
0.0
  0
VERTEX
  5
B8B
  8
0
 10
163.817313959593
 20
172.3350595808022
 30
0.0
  0
VERTEX
  5
B8C
  8
0
 10
163.7693955752948
 20
172.2002076437747
 30
0.0
  0
VERTEX
  5
B8D
  8
0
 10
163.7342813310656
 20
172.05954510167
 30
0.0
  0
VERTEX
  5
B8E
  8
0
 10
163.7126875101492
 20
171.9138097336213
 30
0.0
  0
VERTEX
  5
B8F
  8
0
 10
163.7053303957896
 20
171.7637393187618
 30
0.0
  0
VERTEX
  5
B90
  8
0
 10
163.7126875101492
 20
171.6136689039023
 30
0.0
  0
VERTEX
  5
B91
  8
0
 10
163.7342813310656
 20
171.4679335358536
 30
0.0
  0
VERTEX
  5
B92
  8
0
 10
163.7693955752948
 20
171.3272709937489
 30
0.0
  0
VERTEX
  5
B93
  8
0
 10
163.817313959593
 20
171.1924190567214
 30
0.0
  0
VERTEX
  5
B94
  8
0
 10
163.8773202007164
 20
171.0641155039042
 30
0.0
  0
VERTEX
  5
B95
  8
0
 10
163.948698015421
 20
170.9430981144305
 30
0.0
  0
VERTEX
  5
B96
  8
0
 10
164.0307311204631
 20
170.8301046674335
 30
0.0
  0
VERTEX
  5
B97
  8
0
 10
164.1227032325988
 20
170.7258729420462
 30
0.0
  0
VERTEX
  5
B98
  8
0
 10
164.2238980685841
 20
170.6311407174019
 30
0.0
  0
VERTEX
  5
B99
  8
0
 10
164.3335993451753
 20
170.5466457726337
 30
0.0
  0
VERTEX
  5
B9A
  8
0
 10
164.4510907791285
 20
170.4731258868747
 30
0.0
  0
VERTEX
  5
B9B
  8
0
 10
164.5756560871999
 20
170.4113188392582
 30
0.0
  0
VERTEX
  5
B9C
  8
0
 10
164.7065789861455
 20
170.3619624089173
 30
0.0
  0
VERTEX
  5
B9D
  8
0
 10
164.8431431927216
 20
170.3257943749851
 30
0.0
  0
VERTEX
  5
B9E
  8
0
 10
164.9846324236842
 20
170.3035525165948
 30
0.0
  0
VERTEX
  5
B9F
  8
0
 10
165.1303303957896
 20
170.2959746128795
 30
0.0
  0
VERTEX
  5
BA0
  8
0
 10
165.2760283678949
 20
170.3035525165948
 30
0.0
  0
VERTEX
  5
BA1
  8
0
 10
165.4175175988576
 20
170.3257943749851
 30
0.0
  0
VERTEX
  5
BA2
  8
0
 10
165.5540818054336
 20
170.3619624089173
 30
0.0
  0
VERTEX
  5
BA3
  8
0
 10
165.6850047043793
 20
170.4113188392582
 30
0.0
  0
VERTEX
  5
BA4
  8
0
 10
165.8095700124506
 20
170.4731258868747
 30
0.0
  0
VERTEX
  5
BA5
  8
0
 10
165.9270614464038
 20
170.5466457726337
 30
0.0
  0
VERTEX
  5
BA6
  8
0
 10
166.036762722995
 20
170.6311407174019
 30
0.0
  0
VERTEX
  5
BA7
  8
0
 10
166.1379575589804
 20
170.7258729420462
 30
0.0
  0
VERTEX
  5
BA8
  8
0
 10
166.2299296711161
 20
170.8301046674335
 30
0.0
  0
VERTEX
  5
BA9
  8
0
 10
166.3119627761581
 20
170.9430981144305
 30
0.0
  0
VERTEX
  5
BAA
  8
0
 10
166.3833405908628
 20
171.0641155039042
 30
0.0
  0
VERTEX
  5
BAB
  8
0
 10
166.4433468319862
 20
171.1924190567215
 30
0.0
  0
VERTEX
  5
BAC
  8
0
 10
166.4912652162844
 20
171.327270993749
 30
0.0
  0
VERTEX
  5
BAD
  8
0
 10
166.5263794605136
 20
171.4679335358537
 30
0.0
  0
VERTEX
  5
BAE
  8
0
 10
166.54797328143
 20
171.6136689039024
 30
0.0
  0
VERTEX
  5
BAF
  8
0
 10
166.5553303957896
 20
171.7637393187618
 30
0.0
  0
VERTEX
  5
BB0
  8
0
 10
166.54797328143
 20
171.9138097336214
 30
0.0
  0
VERTEX
  5
BB1
  8
0
 10
166.5263794605136
 20
172.0595451016701
 30
0.0
  0
VERTEX
  5
BB2
  8
0
 10
166.4912652162844
 20
172.2002076437748
 30
0.0
  0
VERTEX
  5
BB3
  8
0
 10
166.4433468319862
 20
172.3350595808023
 30
0.0
  0
VERTEX
  5
BB4
  8
0
 10
166.3833405908628
 20
172.4633631336195
 30
0.0
  0
VERTEX
  5
BB5
  8
0
 10
166.3119627761582
 20
172.5843805230932
 30
0.0
  0
VERTEX
  5
BB6
  8
0
 10
166.2299296711161
 20
172.6973739700903
 30
0.0
  0
VERTEX
  5
BB7
  8
0
 10
166.1379575589804
 20
172.8016056954775
 30
0.0
  0
VERTEX
  5
BB8
  8
0
 10
166.036762722995
 20
172.8963379201219
 30
0.0
  0
VERTEX
  5
BB9
  8
0
 10
165.9270614464038
 20
172.9808328648901
 30
0.0
  0
VERTEX
  5
BBA
  8
0
 10
165.8095700124506
 20
173.054352750649
 30
0.0
  0
VERTEX
  5
BBB
  8
0
 10
165.6850047043793
 20
173.1161597982655
 30
0.0
  0
VERTEX
  5
BBC
  8
0
 10
165.5540818054336
 20
173.1655162286065
 30
0.0
  0
VERTEX
  5
BBD
  8
0
 10
165.4175175988576
 20
173.2016842625387
 30
0.0
  0
VERTEX
  5
BBE
  8
0
 10
165.2760283678949
 20
173.223926120929
 30
0.0
  0
SEQEND
  5
E70
  8
0
  0
POLYLINE
  5
23A
  8
0
 66
     1
 10
0.0
 20
0.0
 30
0.0
 70
     1
  0
VERTEX
  5
BBF
  8
0
 10
155.1553303957896
 20
173.2315040246442
 30
0.0
  0
VERTEX
  5
BC0
  8
0
 10
155.0096324236843
 20
173.223926120929
 30
0.0
  0
VERTEX
  5
BC1
  8
0
 10
154.8681431927217
 20
173.2016842625387
 30
0.0
  0
VERTEX
  5
BC2
  8
0
 10
154.7315789861456
 20
173.1655162286065
 30
0.0
  0
VERTEX
  5
BC3
  8
0
 10
154.6006560872
 20
173.1161597982655
 30
0.0
  0
VERTEX
  5
BC4
  8
0
 10
154.4760907791286
 20
173.054352750649
 30
0.0
  0
VERTEX
  5
BC5
  8
0
 10
154.3585993451754
 20
172.9808328648901
 30
0.0
  0
VERTEX
  5
BC6
  8
0
 10
154.2488980685842
 20
172.8963379201219
 30
0.0
  0
VERTEX
  5
BC7
  8
0
 10
154.1477032325988
 20
172.8016056954775
 30
0.0
  0
VERTEX
  5
BC8
  8
0
 10
154.0557311204632
 20
172.6973739700902
 30
0.0
  0
VERTEX
  5
BC9
  8
0
 10
153.9736980154211
 20
172.5843805230932
 30
0.0
  0
VERTEX
  5
BCA
  8
0
 10
153.9023202007165
 20
172.4633631336195
 30
0.0
  0
VERTEX
  5
BCB
  8
0
 10
153.8423139595931
 20
172.3350595808023
 30
0.0
  0
VERTEX
  5
BCC
  8
0
 10
153.7943955752949
 20
172.2002076437748
 30
0.0
  0
VERTEX
  5
BCD
  8
0
 10
153.7592813310657
 20
172.0595451016701
 30
0.0
  0
VERTEX
  5
BCE
  8
0
 10
153.7376875101493
 20
171.9138097336214
 30
0.0
  0
VERTEX
  5
BCF
  8
0
 10
153.7303303957897
 20
171.7637393187618
 30
0.0
  0
VERTEX
  5
BD0
  8
0
 10
153.7376875101493
 20
171.6136689039024
 30
0.0
  0
VERTEX
  5
BD1
  8
0
 10
153.7592813310657
 20
171.4679335358537
 30
0.0
  0
VERTEX
  5
BD2
  8
0
 10
153.7943955752949
 20
171.327270993749
 30
0.0
  0
VERTEX
  5
BD3
  8
0
 10
153.8423139595931
 20
171.1924190567215
 30
0.0
  0
VERTEX
  5
BD4
  8
0
 10
153.9023202007165
 20
171.0641155039042
 30
0.0
  0
VERTEX
  5
BD5
  8
0
 10
153.9736980154211
 20
170.9430981144305
 30
0.0
  0
VERTEX
  5
BD6
  8
0
 10
154.0557311204632
 20
170.8301046674335
 30
0.0
  0
VERTEX
  5
BD7
  8
0
 10
154.1477032325988
 20
170.7258729420462
 30
0.0
  0
VERTEX
  5
BD8
  8
0
 10
154.2488980685842
 20
170.6311407174019
 30
0.0
  0
VERTEX
  5
BD9
  8
0
 10
154.3585993451754
 20
170.5466457726337
 30
0.0
  0
VERTEX
  5
BDA
  8
0
 10
154.4760907791286
 20
170.4731258868747
 30
0.0
  0
VERTEX
  5
BDB
  8
0
 10
154.6006560872
 20
170.4113188392582
 30
0.0
  0
VERTEX
  5
BDC
  8
0
 10
154.7315789861456
 20
170.3619624089173
 30
0.0
  0
VERTEX
  5
BDD
  8
0
 10
154.8681431927217
 20
170.3257943749851
 30
0.0
  0
VERTEX
  5
BDE
  8
0
 10
155.0096324236843
 20
170.3035525165948
 30
0.0
  0
VERTEX
  5
BDF
  8
0
 10
155.1553303957896
 20
170.2959746128795
 30
0.0
  0
VERTEX
  5
BE0
  8
0
 10
155.301028367895
 20
170.3035525165948
 30
0.0
  0
VERTEX
  5
BE1
  8
0
 10
155.4425175988576
 20
170.3257943749851
 30
0.0
  0
VERTEX
  5
BE2
  8
0
 10
155.5790818054336
 20
170.3619624089173
 30
0.0
  0
VERTEX
  5
BE3
  8
0
 10
155.7100047043793
 20
170.4113188392582
 30
0.0
  0
VERTEX
  5
BE4
  8
0
 10
155.8345700124506
 20
170.4731258868747
 30
0.0
  0
VERTEX
  5
BE5
  8
0
 10
155.9520614464039
 20
170.5466457726337
 30
0.0
  0
VERTEX
  5
BE6
  8
0
 10
156.0617627229951
 20
170.6311407174019
 30
0.0
  0
VERTEX
  5
BE7
  8
0
 10
156.1629575589804
 20
170.7258729420462
 30
0.0
  0
VERTEX
  5
BE8
  8
0
 10
156.2549296711161
 20
170.8301046674335
 30
0.0
  0
VERTEX
  5
BE9
  8
0
 10
156.3369627761581
 20
170.9430981144305
 30
0.0
  0
VERTEX
  5
BEA
  8
0
 10
156.4083405908628
 20
171.0641155039042
 30
0.0
  0
VERTEX
  5
BEB
  8
0
 10
156.4683468319861
 20
171.1924190567214
 30
0.0
  0
VERTEX
  5
BEC
  8
0
 10
156.5162652162844
 20
171.3272709937489
 30
0.0
  0
VERTEX
  5
BED
  8
0
 10
156.5513794605136
 20
171.4679335358536
 30
0.0
  0
VERTEX
  5
BEE
  8
0
 10
156.5729732814299
 20
171.6136689039023
 30
0.0
  0
VERTEX
  5
BEF
  8
0
 10
156.5803303957896
 20
171.7637393187618
 30
0.0
  0
VERTEX
  5
BF0
  8
0
 10
156.5729732814299
 20
171.9138097336214
 30
0.0
  0
VERTEX
  5
BF1
  8
0
 10
156.5513794605136
 20
172.0595451016701
 30
0.0
  0
VERTEX
  5
BF2
  8
0
 10
156.5162652162844
 20
172.2002076437748
 30
0.0
  0
VERTEX
  5
BF3
  8
0
 10
156.4683468319861
 20
172.3350595808023
 30
0.0
  0
VERTEX
  5
BF4
  8
0
 10
156.4083405908628
 20
172.4633631336195
 30
0.0
  0
VERTEX
  5
BF5
  8
0
 10
156.3369627761581
 20
172.5843805230932
 30
0.0
  0
VERTEX
  5
BF6
  8
0
 10
156.2549296711161
 20
172.6973739700903
 30
0.0
  0
VERTEX
  5
BF7
  8
0
 10
156.1629575589805
 20
172.8016056954775
 30
0.0
  0
VERTEX
  5
BF8
  8
0
 10
156.0617627229951
 20
172.8963379201219
 30
0.0
  0
VERTEX
  5
BF9
  8
0
 10
155.9520614464039
 20
172.9808328648901
 30
0.0
  0
VERTEX
  5
BFA
  8
0
 10
155.8345700124507
 20
173.054352750649
 30
0.0
  0
VERTEX
  5
BFB
  8
0
 10
155.7100047043793
 20
173.1161597982655
 30
0.0
  0
VERTEX
  5
BFC
  8
0
 10
155.5790818054336
 20
173.1655162286065
 30
0.0
  0
VERTEX
  5
BFD
  8
0
 10
155.4425175988576
 20
173.2016842625387
 30
0.0
  0
VERTEX
  5
BFE
  8
0
 10
155.301028367895
 20
173.223926120929
 30
0.0
  0
SEQEND
  5
E71
  8
0
  0
POLYLINE
  5
23B
  8
0
 66
     1
 10
0.0
 20
0.0
 30
0.0
  0
VERTEX
  5
BFF
  8
0
 10
175.5803361129718
 20
120.7294938216729
 30
0.0
  0
VERTEX
  5
C00
  8
0
 10
175.5803361129718
 20
115.9794920625398
 30
0.0
  0
SEQEND
  5
E72
  8
0
  0
POLYLINE
  5
23C
  8
0
 66
     1
 10
0.0
 20
0.0
 30
0.0
  0
VERTEX
  5
C01
  8
0
 10
150.4053303957896
 20
168.3389550050364
 30
0.0
  0
VERTEX
  5
C02
  8
0
 10
158.9553303957896
 20
168.3389550050364
 30
0.0
  0
SEQEND
  5
E73
  8
0
  0
POLYLINE
  5
23D
  8
0
 66
     1
 10
0.0
 20
0.0
 30
0.0
  0
VERTEX
  5
C03
  8
0
 10
150.4053303957896
 20
128.2200530442519
 30
0.0
  0
VERTEX
  5
C04
  8
0
 10
150.4053303957896
 20
168.3389550050364
 30
0.0
  0
SEQEND
  5
E74
  8
0
  0
POLYLINE
  5
23E
  8
0
 66
     1
 10
0.0
 20
0.0
 30
0.0
  0
VERTEX
  5
C05
  8
0
 10
169.8803303957896
 20
128.2200530442519
 30
0.0
  0
VERTEX
  5
C06
  8
0
 10
161.3303303957896
 20
128.2200530442519
 30
0.0
  0
SEQEND
  5
E75
  8
0
  0
POLYLINE
  5
23F
  8
0
 66
     1
 10
0.0
 20
0.0
 30
0.0
  0
VERTEX
  5
C07
  8
0
 10
169.8803303957896
 20
168.3389550050364
 30
0.0
  0
VERTEX
  5
C08
  8
0
 10
169.8803303957896
 20
128.2200530442519
 30
0.0
  0
SEQEND
  5
E76
  8
0
  0
POLYLINE
  5
240
  8
0
 66
     1
 10
0.0
 20
0.0
 30
0.0
  0
VERTEX
  5
C09
  8
0
 10
158.9553303957896
 20
124.7952687305265
 30
0.0
  0
VERTEX
  5
C0A
  8
0
 10
161.3303303957896
 20
124.7952687305265
 30
0.0
  0
VERTEX
  5
C0B
  8
0
 10
161.3303303957896
 20
128.2200530442519
 30
0.0
  0
SEQEND
  5
E77
  8
0
  0
POLYLINE
  5
241
  8
0
 66
     1
 10
0.0
 20
0.0
 30
0.0
  0
VERTEX
  5
C0C
  8
0
 10
158.9553303957896
 20
124.7952687305265
 30
0.0
  0
VERTEX
  5
C0D
  8
0
 10
158.9553303957896
 20
128.2200530442519
 30
0.0
  0
SEQEND
  5
E78
  8
0
  0
POLYLINE
  5
242
  8
0
 66
     1
 10
0.0
 20
0.0
 30
0.0
  0
VERTEX
  5
C0E
  8
0
 10
158.9553303957896
 20
171.7637393187618
 30
0.0
  0
VERTEX
  5
C0F
  8
0
 10
161.3303303957896
 20
171.7637393187618
 30
0.0
  0
VERTEX
  5
C10
  8
0
 10
161.3303303957896
 20
168.3389550050364
 30
0.0
  0
SEQEND
  5
E79
  8
0
  0
POLYLINE
  5
243
  8
0
 66
     1
 10
0.0
 20
0.0
 30
0.0
  0
VERTEX
  5
C11
  8
0
 10
158.9553303957896
 20
171.7637393187618
 30
0.0
  0
VERTEX
  5
C12
  8
0
 10
158.9553303957896
 20
168.3389550050364
 30
0.0
  0
SEQEND
  5
E7A
  8
0
  0
POLYLINE
  5
244
  8
0
 66
     1
 10
0.0
 20
0.0
 30
0.0
  0
VERTEX
  5
C13
  8
0
 10
161.3303303957896
 20
168.3389550050364
 30
0.0
  0
VERTEX
  5
C14
  8
0
 10
169.8803303957896
 20
168.3389550050364
 30
0.0
  0
SEQEND
  5
E7B
  8
0
  0
POLYLINE
  5
245
  8
0
 66
     1
 10
0.0
 20
0.0
 30
0.0
  0
VERTEX
  5
C15
  8
0
 10
158.9553303957896
 20
128.2200530442519
 30
0.0
  0
VERTEX
  5
C16
  8
0
 10
150.4053303957896
 20
128.2200530442519
 30
0.0
  0
SEQEND
  5
E7C
  8
0
  0
POLYLINE
  5
246
  8
0
 66
     1
 10
0.0
 20
0.0
 30
0.0
  0
VERTEX
  5
C17
  8
0
 10
175.5803361129718
 20
134.0294987472451
 30
0.0
  0
VERTEX
  5
C18
  8
0
 10
175.5803361129718
 20
141.6295015618579
 30
0.0
  0
SEQEND
  5
E7D
  8
0
  0
POLYLINE
  5
247
  8
0
 66
     1
 10
0.0
 20
0.0
 30
0.0
  0
VERTEX
  5
C19
  8
0
 10
175.5803361129719
 20
154.9295064874303
 30
0.0
  0
VERTEX
  5
C1A
  8
0
 10
175.5803361129719
 20
162.529509302043
 30
0.0
  0
SEQEND
  5
E7E
  8
0
  0
POLYLINE
  5
248
  8
0
 66
     1
 10
0.0
 20
0.0
 30
0.0
  0
VERTEX
  5
C1B
  8
0
 10
175.5803361129719
 20
180.5795159867484
 30
0.0
  0
VERTEX
  5
C1C
  8
0
 10
153.7303280209602
 20
180.5795159867484
 30
0.0
  0
SEQEND
  5
E7F
  8
0
  0
POLYLINE
  5
249
  8
0
 66
     1
 10
0.0
 20
0.0
 30
0.0
  0
VERTEX
  5
C1D
  8
0
 10
144.2303245026941
 20
171.0795124684824
 30
0.0
  0
VERTEX
  5
C1E
  8
0
 10
144.2303245026941
 20
125.4794955808059
 30
0.0
  0
SEQEND
  5
E80
  8
0
  0
POLYLINE
  5
24A
  8
0
 66
     1
 10
0.0
 20
0.0
 30
0.0
  0
VERTEX
  5
C1F
  8
0
 10
153.7303280209602
 20
180.5795159867484
 30
0.0
 42
0.4142135623730951
  0
VERTEX
  5
C20
  8
0
 10
144.2303245026942
 20
171.0795124684824
 30
0.0
  0
SEQEND
  5
E81
  8
0
  0
POLYLINE
  5
24B
  8
0
 66
     1
 10
0.0
 20
0.0
 30
0.0
 70
     1
  0
VERTEX
  5
C21
  8
0
 10
150.405326789567
 20
123.5794948771526
 30
0.0
 42
0.4142135623730951
  0
VERTEX
  5
C22
  8
0
 10
148.9803262618271
 20
122.1544943494127
 30
0.0
 42
0.4142135623730951
  0
VERTEX
  5
C23
  8
0
 10
150.405326789567
 20
120.7294938216728
 30
0.0
 42
0.4142135623730951
  0
VERTEX
  5
C24
  8
0
 10
151.8303273173069
 20
122.1544943494127
 30
0.0
 42
0.4142135623730951
  0
SEQEND
  5
E82
  8
0
  0
POLYLINE
  5
24C
  8
0
 66
     1
 10
0.0
 20
0.0
 30
0.0
 70
     1
  0
VERTEX
  5
C25
  8
0
 10
89.5841714994125
 20
56.23143773001315
 30
0.0
 42
0.4142135623730951
  0
VERTEX
  5
C26
  8
0
 10
88.15917097167261
 20
54.80643720227326
 30
0.0
 42
0.4142135623730951
  0
VERTEX
  5
C27
  8
0
 10
89.5841714994125
 20
53.38143667453335
 30
0.0
 42
0.4142135623730951
  0
VERTEX
  5
C28
  8
0
 10
91.00917202715242
 20
54.80643720227326
 30
0.0
 42
0.4142135623730951
  0
SEQEND
  5
E83
  8
0
  0
POLYLINE
  5
24D
  8
0
 66
     1
 10
0.0
 20
0.0
 30
0.0
 70
     1
  0
VERTEX
  5
C29
  8
0
 10
89.5841714994125
 20
46.25643403583388
 30
0.0
 42
0.4142135623730951
  0
VERTEX
  5
C2A
  8
0
 10
88.15917097167261
 20
44.83143350809399
 30
0.0
 42
0.4142135623730951
  0
VERTEX
  5
C2B
  8
0
 10
89.5841714994125
 20
43.4064329803541
 30
0.0
 42
0.4142135623730951
  0
VERTEX
  5
C2C
  8
0
 10
91.00917202715242
 20
44.83143350809399
 30
0.0
 42
0.4142135623730951
  0
SEQEND
  5
E84
  8
0
  0
POLYLINE
  5
24E
  8
0
 66
     1
 10
0.0
 20
0.0
 30
0.0
 70
     1
  0
VERTEX
  5
C2D
  8
0
 10
43.98415461173583
 20
56.23143773001315
 30
0.0
 42
0.4142135623730951
  0
VERTEX
  5
C2E
  8
0
 10
42.55915408399594
 20
54.80643720227326
 30
0.0
 42
0.4142135623730951
  0
VERTEX
  5
C2F
  8
0
 10
43.98415461173583
 20
53.38143667453335
 30
0.0
 42
0.4142135623730951
  0
VERTEX
  5
C30
  8
0
 10
45.40915513947573
 20
54.80643720227326
 30
0.0
 42
0.4142135623730951
  0
SEQEND
  5
E85
  8
0
  0
POLYLINE
  5
24F
  8
0
 66
     1
 10
0.0
 20
0.0
 30
0.0
 70
     1
  0
VERTEX
  5
C31
  8
0
 10
43.98415461173583
 20
46.25643403583388
 30
0.0
 42
0.4142135623730951
  0
VERTEX
  5
C32
  8
0
 10
42.55915408399594
 20
44.83143350809399
 30
0.0
 42
0.4142135623730951
  0
VERTEX
  5
C33
  8
0
 10
43.98415461173583
 20
43.4064329803541
 30
0.0
 42
0.4142135623730951
  0
VERTEX
  5
C34
  8
0
 10
45.40915513947573
 20
44.83143350809399
 30
0.0
 42
0.4142135623730951
  0
SEQEND
  5
E86
  8
0
  0
POLYLINE
  5
250
  8
0
 66
     1
 10
0.0
 20
0.0
 30
0.0
 70
     1
  0
VERTEX
  5
C35
  8
0
 10
43.98415461173583
 20
47.44393447561713
 30
0.0
 42
0.4142135623730951
  0
VERTEX
  5
C36
  8
0
 10
41.3716536442127
 20
44.83143350809399
 30
0.0
 42
0.4142135623730951
  0
VERTEX
  5
C37
  8
0
 10
43.98415461173583
 20
42.21893254057085
 30
0.0
 42
0.4142135623730951
  0
VERTEX
  5
C38
  8
0
 10
46.59665557925897
 20
44.83143350809399
 30
0.0
 42
0.4142135623730951
  0
SEQEND
  5
E87
  8
0
  0
POLYLINE
  5
251
  8
0
 66
     1
 10
0.0
 20
0.0
 30
0.0
 70
     1
  0
VERTEX
  5
C39
  8
0
 10
43.98415461173583
 20
57.41893816979638
 30
0.0
 42
0.4142135623730951
  0
VERTEX
  5
C3A
  8
0
 10
41.3716536442127
 20
54.80643720227326
 30
0.0
 42
0.4142135623730951
  0
VERTEX
  5
C3B
  8
0
 10
43.98415461173583
 20
52.19393623475012
 30
0.0
 42
0.4142135623730951
  0
VERTEX
  5
C3C
  8
0
 10
46.59665557925897
 20
54.80643720227326
 30
0.0
 42
0.4142135623730951
  0
SEQEND
  5
E88
  8
0
  0
POLYLINE
  5
252
  8
0
 66
     1
 10
0.0
 20
0.0
 30
0.0
 70
     1
  0
VERTEX
  5
C3D
  8
0
 10
89.5841714994125
 20
57.41893816979638
 30
0.0
 42
0.4142135623730951
  0
VERTEX
  5
C3E
  8
0
 10
86.97167053188939
 20
54.80643720227326
 30
0.0
 42
0.4142135623730951
  0
VERTEX
  5
C3F
  8
0
 10
89.5841714994125
 20
52.19393623475012
 30
0.0
 42
0.4142135623730951
  0
VERTEX
  5
C40
  8
0
 10
92.19667246693564
 20
54.80643720227326
 30
0.0
 42
0.4142135623730951
  0
SEQEND
  5
E89
  8
0
  0
POLYLINE
  5
253
  8
0
 66
     1
 10
0.0
 20
0.0
 30
0.0
 70
     1
  0
VERTEX
  5
C41
  8
0
 10
89.5841714994125
 20
47.44393447561713
 30
0.0
 42
0.4142135623730951
  0
VERTEX
  5
C42
  8
0
 10
86.97167053188939
 20
44.83143350809399
 30
0.0
 42
0.4142135623730951
  0
VERTEX
  5
C43
  8
0
 10
89.5841714994125
 20
42.21893254057085
 30
0.0
 42
0.4142135623730951
  0
VERTEX
  5
C44
  8
0
 10
92.19667246693564
 20
44.83143350809399
 30
0.0
 42
0.4142135623730951
  0
SEQEND
  5
E8A
  8
0
  0
POLYLINE
  5
254
  8
0
 66
     1
 10
0.0
 20
0.0
 30
0.0
 70
     1
  0
VERTEX
  5
C45
  8
0
 10
62.41416168460892
 20
145.7054155216821
 30
0.0
 42
0.4142135623730951
  0
VERTEX
  5
C46
  8
0
 10
61.65416140314765
 20
144.9454152402208
 30
0.0
 42
0.4142135623730951
  0
VERTEX
  5
C47
  8
0
 10
62.41416168460892
 20
144.1854149587595
 30
0.0
 42
0.4142135623730951
  0
VERTEX
  5
C48
  8
0
 10
63.17416196607019
 20
144.9454152402208
 30
0.0
 42
0.4142135623730951
  0
SEQEND
  5
E8B
  8
0
  0
POLYLINE
  5
255
  8
0
 66
     1
 10
0.0
 20
0.0
 30
0.0
 70
     1
  0
VERTEX
  5
C49
  8
0
 10
55.49913302771156
 20
138.6763531662143
 30
0.0
 42
0.4142135623730951
  0
VERTEX
  5
C4A
  8
0
 10
54.73913274625028
 20
137.916352884753
 30
0.0
 42
0.4142135623730951
  0
VERTEX
  5
C4B
  8
0
 10
55.49913302771156
 20
137.1563526032917
 30
0.0
 42
0.4142135623730951
  0
VERTEX
  5
C4C
  8
0
 10
56.25913330917283
 20
137.916352884753
 30
0.0
 42
0.4142135623730951
  0
SEQEND
  5
E8C
  8
0
  0
POLYLINE
  5
256
  8
0
 66
     1
 10
0.0
 20
0.0
 30
0.0
 70
     1
  0
VERTEX
  5
C4D
  8
0
 10
48.35415647757535
 20
145.7054155216821
 30
0.0
 42
0.4142135623730951
  0
VERTEX
  5
C4E
  8
0
 10
47.59415619611408
 20
144.9454152402208
 30
0.0
 42
0.4142135623730951
  0
VERTEX
  5
C4F
  8
0
 10
48.35415647757535
 20
144.1854149587595
 30
0.0
 42
0.4142135623730951
  0
VERTEX
  5
C50
  8
0
 10
49.11415675903663
 20
144.9454152402208
 30
0.0
 42
0.4142135623730951
  0
SEQEND
  5
E8D
  8
0
  0
POLYLINE
  5
257
  8
0
 66
     1
 10
0.0
 20
0.0
 30
0.0
 70
     1
  0
VERTEX
  5
C51
  8
0
 10
55.38415908109213
 20
152.7354181251988
 30
0.0
 42
0.4142135623730951
  0
VERTEX
  5
C52
  8
0
 10
54.62415879963086
 20
151.9754178437375
 30
0.0
 42
0.4142135623730951
  0
VERTEX
  5
C53
  8
0
 10
55.38415908109213
 20
151.2154175622763
 30
0.0
 42
0.4142135623730951
  0
VERTEX
  5
C54
  8
0
 10
56.1441593625534
 20
151.9754178437375
 30
0.0
 42
0.4142135623730951
  0
SEQEND
  5
E8E
  8
0
  0
POLYLINE
  5
258
  8
0
 66
     1
 10
0.0
 20
0.0
 30
0.0
 70
     1
  0
VERTEX
  5
C55
  8
0
 10
306.1738305066335
 20
159.6437941371176
 30
0.0
 42
0.4142135623730951
  0
VERTEX
  5
C56
  8
0
 10
305.4138302251722
 20
158.8837938556563
 30
0.0
 42
0.4142135623730951
  0
VERTEX
  5
C57
  8
0
 10
306.1738305066335
 20
158.123793574195
 30
0.0
 42
0.4142135623730951
  0
VERTEX
  5
C58
  8
0
 10
306.9338307880947
 20
158.8837938556563
 30
0.0
 42
0.4142135623730951
  0
SEQEND
  5
E8F
  8
0
  0
POLYLINE
  5
259
  8
0
 66
     1
 10
0.0
 20
0.0
 30
0.0
 70
     1
  0
VERTEX
  5
C59
  8
0
 10
313.2038331101504
 20
152.6137915336008
 30
0.0
 42
0.4142135623730951
  0
VERTEX
  5
C5A
  8
0
 10
312.4438328286891
 20
151.8537912521395
 30
0.0
 42
0.4142135623730951
  0
VERTEX
  5
C5B
  8
0
 10
313.2038331101504
 20
151.0937909706782
 30
0.0
 42
0.4142135623730951
  0
VERTEX
  5
C5C
  8
0
 10
313.9638333916116
 20
151.8537912521395
 30
0.0
 42
0.4142135623730951
  0
SEQEND
  5
E90
  8
0
  0
POLYLINE
  5
25A
  8
0
 66
     1
 10
0.0
 20
0.0
 30
0.0
 70
     1
  0
VERTEX
  5
C5D
  8
0
 10
299.1438279031166
 20
152.6137915336008
 30
0.0
 42
0.4142135623730951
  0
VERTEX
  5
C5E
  8
0
 10
298.3838276216553
 20
151.8537912521395
 30
0.0
 42
0.4142135623730951
  0
VERTEX
  5
C5F
  8
0
 10
299.1438279031166
 20
151.0937909706782
 30
0.0
 42
0.4142135623730951
  0
VERTEX
  5
C60
  8
0
 10
299.9038281845779
 20
151.8537912521395
 30
0.0
 42
0.4142135623730951
  0
SEQEND
  5
E91
  8
0
  0
POLYLINE
  5
25B
  8
0
 66
     1
 10
0.0
 20
0.0
 30
0.0
 70
     1
  0
VERTEX
  5
C61
  8
0
 10
306.288804453253
 20
145.5847291781332
 30
0.0
 42
0.4142135623730951
  0
VERTEX
  5
C62
  8
0
 10
305.5288041717916
 20
144.8247288966719
 30
0.0
 42
0.4142135623730951
  0
VERTEX
  5
C63
  8
0
 10
306.288804453253
 20
144.0647286152106
 30
0.0
 42
0.4142135623730951
  0
VERTEX
  5
C64
  8
0
 10
307.0488047347143
 20
144.8247288966719
 30
0.0
 42
0.4142135623730951
  0
SEQEND
  5
E92
  8
0
  0
POLYLINE
  5
25C
  8
0
 66
     1
 10
0.0
 20
0.0
 30
0.0
 70
     1
  0
VERTEX
  5
C65
  8
0
 10
236.0951137946153
 20
21.86699287398381
 30
0.0
 42
0.4142135623730951
  0
VERTEX
  5
C66
  8
0
 10
235.335113513154
 20
21.10699259252253
 30
0.0
 42
0.4142135623730951
  0
VERTEX
  5
C67
  8
0
 10
236.0951137946153
 20
20.34699231106125
 30
0.0
 42
0.4142135623730951
  0
VERTEX
  5
C68
  8
0
 10
236.8551140760766
 20
21.10699259252253
 30
0.0
 42
0.4142135623730951
  0
SEQEND
  5
E93
  8
0
  0
POLYLINE
  5
25D
  8
0
 66
     1
 10
0.0
 20
0.0
 30
0.0
 70
     1
  0
VERTEX
  5
C69
  8
0
 10
229.0651111910986
 20
14.836990270467
 30
0.0
 42
0.4142135623730951
  0
VERTEX
  5
C6A
  8
0
 10
228.3051109096373
 20
14.07698998900572
 30
0.0
 42
0.4142135623730951
  0
VERTEX
  5
C6B
  8
0
 10
229.0651111910986
 20
13.31698970754445
 30
0.0
 42
0.4142135623730951
  0
VERTEX
  5
C6C
  8
0
 10
229.8251114725599
 20
14.07698998900572
 30
0.0
 42
0.4142135623730951
  0
SEQEND
  5
E94
  8
0
  0
POLYLINE
  5
25E
  8
0
 66
     1
 10
0.0
 20
0.0
 30
0.0
 70
     1
  0
VERTEX
  5
C6D
  8
0
 10
222.0351085875817
 20
21.86699287398381
 30
0.0
 42
0.4142135623730951
  0
VERTEX
  5
C6E
  8
0
 10
221.2751083061204
 20
21.10699259252253
 30
0.0
 42
0.4142135623730951
  0
VERTEX
  5
C6F
  8
0
 10
222.0351085875817
 20
20.34699231106125
 30
0.0
 42
0.4142135623730951
  0
VERTEX
  5
C70
  8
0
 10
222.795108869043
 20
21.10699259252253
 30
0.0
 42
0.4142135623730951
  0
SEQEND
  5
E95
  8
0
  0
POLYLINE
  5
25F
  8
0
 66
     1
 10
0.0
 20
0.0
 30
0.0
 70
     1
  0
VERTEX
  5
C71
  8
0
 10
228.9501372444791
 20
28.89605522945141
 30
0.0
 42
0.4142135623730951
  0
VERTEX
  5
C72
  8
0
 10
228.1901369630178
 20
28.13605494799013
 30
0.0
 42
0.4142135623730951
  0
VERTEX
  5
C73
  8
0
 10
228.9501372444791
 20
27.37605466652885
 30
0.0
 42
0.4142135623730951
  0
VERTEX
  5
C74
  8
0
 10
229.7101375259404
 20
28.13605494799013
 30
0.0
 42
0.4142135623730951
  0
SEQEND
  5
E96
  8
0
  0
POLYLINE
  5
260
  8
0
 66
     1
 10
0.0
 20
0.0
 30
0.0
 70
     1
  0
VERTEX
  5
C75
  8
0
 10
344.1301277087359
 20
14.8379305185162
 30
0.0
 42
0.4142135623730951
  0
VERTEX
  5
C76
  8
0
 10
343.3701274272746
 20
14.07793023705492
 30
0.0
 42
0.4142135623730951
  0
VERTEX
  5
C77
  8
0
 10
344.1301277087359
 20
13.31792995559364
 30
0.0
 42
0.4142135623730951
  0
VERTEX
  5
C78
  8
0
 10
344.8901279901972
 20
14.07793023705492
 30
0.0
 42
0.4142135623730951
  0
SEQEND
  5
E97
  8
0
  0
POLYLINE
  5
261
  8
0
 66
     1
 10
0.0
 20
0.0
 30
0.0
 70
     1
  0
VERTEX
  5
C79
  8
0
 10
336.9851511585998
 20
21.86699287398381
 30
0.0
 42
0.4142135623730951
  0
VERTEX
  5
C7A
  8
0
 10
336.2251508771385
 20
21.10699259252253
 30
0.0
 42
0.4142135623730951
  0
VERTEX
  5
C7B
  8
0
 10
336.9851511585998
 20
20.34699231106125
 30
0.0
 42
0.4142135623730951
  0
VERTEX
  5
C7C
  8
0
 10
337.7451514400611
 20
21.10699259252253
 30
0.0
 42
0.4142135623730951
  0
SEQEND
  5
E98
  8
0
  0
POLYLINE
  5
262
  8
0
 66
     1
 10
0.0
 20
0.0
 30
0.0
 70
     1
  0
VERTEX
  5
C7D
  8
0
 10
351.0451563656333
 20
21.86699287398381
 30
0.0
 42
0.4142135623730951
  0
VERTEX
  5
C7E
  8
0
 10
350.2851560841721
 20
21.10699259252253
 30
0.0
 42
0.4142135623730951
  0
VERTEX
  5
C7F
  8
0
 10
351.0451563656333
 20
20.34699231106125
 30
0.0
 42
0.4142135623730951
  0
VERTEX
  5
C80
  8
0
 10
351.8051566470946
 20
21.10699259252253
 30
0.0
 42
0.4142135623730951
  0
SEQEND
  5
E99
  8
0
  0
POLYLINE
  5
263
  8
0
 66
     1
 10
0.0
 20
0.0
 30
0.0
 70
     1
  0
VERTEX
  5
C81
  8
0
 10
344.0151537621166
 20
28.89699547750061
 30
0.0
 42
0.4142135623730951
  0
VERTEX
  5
C82
  8
0
 10
343.2551534806553
 20
28.13699519603934
 30
0.0
 42
0.4142135623730951
  0
VERTEX
  5
C83
  8
0
 10
344.0151537621166
 20
27.37699491457806
 30
0.0
 42
0.4142135623730951
  0
VERTEX
  5
C84
  8
0
 10
344.7751540435779
 20
28.13699519603934
 30
0.0
 42
0.4142135623730951
  0
SEQEND
  5
E9A
  8
0
  0
POLYLINE
  5
264
  8
0
 66
     1
 10
0.0
 20
0.0
 30
0.0
 70
     1
  0
VERTEX
  5
C85
  8
0
 10
422.9472432403693
 20
55.2837498545743
 30
0.0
 42
0.4142135623730951
  0
VERTEX
  5
C86
  8
0
 10
422.1872429589081
 20
54.52374957311303
 30
0.0
 42
0.4142135623730951
  0
VERTEX
  5
C87
  8
0
 10
422.9472432403693
 20
53.76374929165176
 30
0.0
 42
0.4142135623730951
  0
VERTEX
  5
C88
  8
0
 10
423.7072435218306
 20
54.52374957311303
 30
0.0
 42
0.4142135623730951
  0
SEQEND
  5
E9B
  8
0
  0
POLYLINE
  5
265
  8
0
 66
     1
 10
0.0
 20
0.0
 30
0.0
 70
     1
  0
VERTEX
  5
C89
  8
0
 10
426.2722444717624
 20
55.2837498545743
 30
0.0
 42
0.4142135623730951
  0
VERTEX
  5
C8A
  8
0
 10
425.5122441903011
 20
54.52374957311303
 30
0.0
 42
0.4142135623730951
  0
VERTEX
  5
C8B
  8
0
 10
426.2722444717624
 20
53.76374929165176
 30
0.0
 42
0.4142135623730951
  0
VERTEX
  5
C8C
  8
0
 10
427.0322447532236
 20
54.52374957311303
 30
0.0
 42
0.4142135623730951
  0
SEQEND
  5
E9C
  8
0
  0
POLYLINE
  5
266
  8
0
 66
     1
 10
0.0
 20
0.0
 30
0.0
 70
     1
  0
VERTEX
  5
C8D
  8
0
 10
439.6705587693955
 20
80.1668848349133
 30
0.0
 42
0.4142135623730951
  0
VERTEX
  5
C8E
  8
0
 10
438.9105584879342
 20
79.40688455345203
 30
0.0
 42
0.4142135623730951
  0
VERTEX
  5
C8F
  8
0
 10
439.6705587693955
 20
78.64688427199076
 30
0.0
 42
0.4142135623730951
  0
VERTEX
  5
C90
  8
0
 10
440.4305590508568
 20
79.40688455345203
 30
0.0
 42
0.4142135623730951
  0
SEQEND
  5
E9D
  8
0
  0
POLYLINE
  5
267
  8
0
 66
     1
 10
0.0
 20
0.0
 30
0.0
 70
     1
  0
VERTEX
  5
C91
  8
0
 10
439.6705587693955
 20
76.84188360352029
 30
0.0
 42
0.4142135623730951
  0
VERTEX
  5
C92
  8
0
 10
438.9105584879342
 20
76.08188332205901
 30
0.0
 42
0.4142135623730951
  0
VERTEX
  5
C93
  8
0
 10
439.6705587693955
 20
75.32188304059774
 30
0.0
 42
0.4142135623730951
  0
VERTEX
  5
C94
  8
0
 10
440.4305590508568
 20
76.08188332205901
 30
0.0
 42
0.4142135623730951
  0
SEQEND
  5
E9E
  8
0
  0
POLYLINE
  5
268
  8
0
 66
     1
 10
0.0
 20
0.0
 30
0.0
  0
VERTEX
  5
C95
  8
0
 10
144.2303245026941
 20
125.4794955808059
 30
0.0
 42
0.4142135623730951
  0
VERTEX
  5
C96
  8
0
 10
153.7303280209601
 20
115.9794920625399
 30
0.0
  0
VERTEX
  5
C97
  8
0
 10
175.5803361129718
 20
115.9794920625398
 30
0.0
  0
SEQEND
  5
E9F
  8
0
  0
POLYLINE
  5
269
  8
0
 66
     1
 10
0.0
 20
0.0
 30
0.0
  0
VERTEX
  5
C98
  8
0
 10
77.70916734901714
 20
172.495425443192
 30
0.0
  0
VERTEX
  5
C99
  8
0
 10
81.5091687563235
 20
172.495425443192
 30
0.0
  0
SEQEND
  5
EA0
  8
0
  0
POLYLINE
  5
26A
  8
0
 66
     1
 10
0.0
 20
0.0
 30
0.0
  0
VERTEX
  5
C9A
  8
0
 10
77.70916734901714
 20
159.1954205176197
 30
0.0
  0
VERTEX
  5
C9B
  8
0
 10
81.5091687563235
 20
159.1954205176197
 30
0.0
  0
SEQEND
  5
EA1
  8
0
  0
POLYLINE
  5
26B
  8
0
 66
     1
 10
0.0
 20
0.0
 30
0.0
  0
VERTEX
  5
C9C
  8
0
 10
81.5091687563235
 20
172.495425443192
 30
0.0
  0
VERTEX
  5
C9D
  8
0
 10
81.5091687563235
 20
159.1954205176197
 30
0.0
  0
SEQEND
  5
EA2
  8
0
  0
POLYLINE
  5
26C
  8
0
 66
     1
 10
0.0
 20
0.0
 30
0.0
  0
VERTEX
  5
C9E
  8
0
 10
77.70916734901714
 20
172.495425443192
 30
0.0
  0
VERTEX
  5
C9F
  8
0
 10
77.70916734901714
 20
159.1954205176197
 30
0.0
  0
SEQEND
  5
EA3
  8
0
  0
ENDSEC
  0
EOF
