ISO-10303-21;
HEADER;
/* Generated by software containing ST-Developer
 * from STEP Tools, Inc. (www.steptools.com) 
 */

FILE_DESCRIPTION(
/* description */ (''),
/* implementation_level */ '2;1');

FILE_NAME(
/* name */ 
'C:\\Users\\Mark\\Desktop\\Inventor Projects\\Nail_box_render\\nail_bl
ock.stp',
/* time_stamp */ '2017-10-11T19:27:35-04:00',
/* author */ ('Mark'),
/* organization */ (''),
/* preprocessor_version */ 'ST-DEVELOPER v16.1',
/* originating_system */ 'Autodesk Inventor 2016',
/* authorisation */ '');

FILE_SCHEMA (('AUTOMOTIVE_DESIGN { 1 0 10303 214 3 1 1 }'));
ENDSEC;

DATA;
#10=MECHANICAL_DESIGN_GEOMETRIC_PRESENTATION_REPRESENTATION('',(#13),#543);
#11=SHAPE_REPRESENTATION_RELATIONSHIP('SRR','None',#555,#12);
#12=ADVANCED_BREP_SHAPE_REPRESENTATION('',(#14),#542);
#13=STYLED_ITEM('',(#564),#14);
#14=MANIFOLD_SOLID_BREP('Solid1',#322);
#15=LINE('',#483,#27);
#16=LINE('',#485,#28);
#17=LINE('',#487,#29);
#18=LINE('',#488,#30);
#19=LINE('',#526,#31);
#20=LINE('',#528,#32);
#21=LINE('',#530,#33);
#22=LINE('',#531,#34);
#23=LINE('',#533,#35);
#24=LINE('',#534,#36);
#25=LINE('',#536,#37);
#26=LINE('',#537,#38);
#27=VECTOR('',#394,3.5);
#28=VECTOR('',#395,0.5);
#29=VECTOR('',#396,3.5);
#30=VECTOR('',#397,0.5);
#31=VECTOR('',#442,3.5);
#32=VECTOR('',#443,0.5);
#33=VECTOR('',#444,3.5);
#34=VECTOR('',#445,0.5);
#35=VECTOR('',#448,0.75);
#36=VECTOR('',#449,0.75);
#37=VECTOR('',#452,0.75);
#38=VECTOR('',#453,0.75);
#39=PLANE('',#337);
#40=PLANE('',#359);
#41=PLANE('',#360);
#42=PLANE('',#361);
#43=PLANE('',#362);
#44=PLANE('',#363);
#45=CYLINDRICAL_SURFACE('',#327,0.058);
#46=CYLINDRICAL_SURFACE('',#332,0.058);
#47=CYLINDRICAL_SURFACE('',#343,0.078125);
#48=CYLINDRICAL_SURFACE('',#347,0.078125);
#49=CYLINDRICAL_SURFACE('',#351,0.078125);
#50=CYLINDRICAL_SURFACE('',#353,0.078125);
#51=CYLINDRICAL_SURFACE('',#355,0.078125);
#52=CYLINDRICAL_SURFACE('',#357,0.078125);
#53=FACE_BOUND('',#102,.T.);
#54=FACE_BOUND('',#104,.T.);
#55=FACE_BOUND('',#106,.T.);
#56=FACE_BOUND('',#108,.T.);
#57=FACE_BOUND('',#110,.T.);
#58=FACE_BOUND('',#112,.T.);
#59=FACE_BOUND('',#113,.T.);
#60=FACE_BOUND('',#114,.T.);
#61=FACE_BOUND('',#115,.T.);
#62=FACE_BOUND('',#116,.T.);
#63=FACE_BOUND('',#117,.T.);
#64=FACE_BOUND('',#119,.T.);
#65=FACE_BOUND('',#121,.T.);
#66=FACE_BOUND('',#123,.T.);
#67=FACE_BOUND('',#125,.T.);
#68=FACE_BOUND('',#127,.T.);
#69=FACE_BOUND('',#129,.T.);
#70=FACE_BOUND('',#131,.T.);
#71=FACE_BOUND('',#133,.T.);
#72=FACE_BOUND('',#135,.T.);
#73=FACE_BOUND('',#136,.T.);
#74=FACE_BOUND('',#137,.T.);
#75=FACE_BOUND('',#138,.T.);
#76=FACE_BOUND('',#139,.T.);
#77=FACE_BOUND('',#140,.T.);
#78=FACE_BOUND('',#144,.T.);
#79=FACE_BOUND('',#145,.T.);
#80=FACE_BOUND('',#147,.T.);
#81=FACE_BOUND('',#148,.T.);
#82=FACE_OUTER_BOUND('',#101,.T.);
#83=FACE_OUTER_BOUND('',#103,.T.);
#84=FACE_OUTER_BOUND('',#105,.T.);
#85=FACE_OUTER_BOUND('',#107,.T.);
#86=FACE_OUTER_BOUND('',#109,.T.);
#87=FACE_OUTER_BOUND('',#111,.T.);
#88=FACE_OUTER_BOUND('',#118,.T.);
#89=FACE_OUTER_BOUND('',#120,.T.);
#90=FACE_OUTER_BOUND('',#122,.T.);
#91=FACE_OUTER_BOUND('',#124,.T.);
#92=FACE_OUTER_BOUND('',#126,.T.);
#93=FACE_OUTER_BOUND('',#128,.T.);
#94=FACE_OUTER_BOUND('',#130,.T.);
#95=FACE_OUTER_BOUND('',#132,.T.);
#96=FACE_OUTER_BOUND('',#134,.T.);
#97=FACE_OUTER_BOUND('',#141,.T.);
#98=FACE_OUTER_BOUND('',#142,.T.);
#99=FACE_OUTER_BOUND('',#143,.T.);
#100=FACE_OUTER_BOUND('',#146,.T.);
#101=EDGE_LOOP('',(#232));
#102=EDGE_LOOP('',(#233));
#103=EDGE_LOOP('',(#234));
#104=EDGE_LOOP('',(#235));
#105=EDGE_LOOP('',(#236));
#106=EDGE_LOOP('',(#237));
#107=EDGE_LOOP('',(#238));
#108=EDGE_LOOP('',(#239));
#109=EDGE_LOOP('',(#240));
#110=EDGE_LOOP('',(#241));
#111=EDGE_LOOP('',(#242,#243,#244,#245));
#112=EDGE_LOOP('',(#246));
#113=EDGE_LOOP('',(#247));
#114=EDGE_LOOP('',(#248));
#115=EDGE_LOOP('',(#249));
#116=EDGE_LOOP('',(#250));
#117=EDGE_LOOP('',(#251));
#118=EDGE_LOOP('',(#252));
#119=EDGE_LOOP('',(#253));
#120=EDGE_LOOP('',(#254));
#121=EDGE_LOOP('',(#255));
#122=EDGE_LOOP('',(#256));
#123=EDGE_LOOP('',(#257));
#124=EDGE_LOOP('',(#258));
#125=EDGE_LOOP('',(#259));
#126=EDGE_LOOP('',(#260));
#127=EDGE_LOOP('',(#261));
#128=EDGE_LOOP('',(#262));
#129=EDGE_LOOP('',(#263));
#130=EDGE_LOOP('',(#264));
#131=EDGE_LOOP('',(#265));
#132=EDGE_LOOP('',(#266));
#133=EDGE_LOOP('',(#267));
#134=EDGE_LOOP('',(#268,#269,#270,#271));
#135=EDGE_LOOP('',(#272));
#136=EDGE_LOOP('',(#273));
#137=EDGE_LOOP('',(#274));
#138=EDGE_LOOP('',(#275));
#139=EDGE_LOOP('',(#276));
#140=EDGE_LOOP('',(#277));
#141=EDGE_LOOP('',(#278,#279,#280,#281));
#142=EDGE_LOOP('',(#282,#283,#284,#285));
#143=EDGE_LOOP('',(#286,#287,#288,#289));
#144=EDGE_LOOP('',(#290));
#145=EDGE_LOOP('',(#291));
#146=EDGE_LOOP('',(#292,#293,#294,#295));
#147=EDGE_LOOP('',(#296));
#148=EDGE_LOOP('',(#297));
#149=CIRCLE('',#325,0.15);
#150=CIRCLE('',#326,0.058);
#151=CIRCLE('',#328,0.058);
#152=CIRCLE('',#330,0.15);
#153=CIRCLE('',#331,0.058);
#154=CIRCLE('',#333,0.058);
#155=CIRCLE('',#335,0.078125);
#156=CIRCLE('',#336,0.128125);
#157=CIRCLE('',#338,0.128125);
#158=CIRCLE('',#339,0.078125);
#159=CIRCLE('',#340,0.078125);
#160=CIRCLE('',#341,0.078125);
#161=CIRCLE('',#342,0.128125);
#162=CIRCLE('',#344,0.078125);
#163=CIRCLE('',#346,0.078125);
#164=CIRCLE('',#348,0.078125);
#165=CIRCLE('',#350,0.078125);
#166=CIRCLE('',#352,0.078125);
#167=CIRCLE('',#354,0.078125);
#168=CIRCLE('',#356,0.078125);
#169=CIRCLE('',#358,0.078125);
#170=VERTEX_POINT('',#460);
#171=VERTEX_POINT('',#462);
#172=VERTEX_POINT('',#465);
#173=VERTEX_POINT('',#468);
#174=VERTEX_POINT('',#470);
#175=VERTEX_POINT('',#473);
#176=VERTEX_POINT('',#476);
#177=VERTEX_POINT('',#478);
#178=VERTEX_POINT('',#481);
#179=VERTEX_POINT('',#482);
#180=VERTEX_POINT('',#484);
#181=VERTEX_POINT('',#486);
#182=VERTEX_POINT('',#489);
#183=VERTEX_POINT('',#491);
#184=VERTEX_POINT('',#493);
#185=VERTEX_POINT('',#495);
#186=VERTEX_POINT('',#497);
#187=VERTEX_POINT('',#500);
#188=VERTEX_POINT('',#503);
#189=VERTEX_POINT('',#506);
#190=VERTEX_POINT('',#509);
#191=VERTEX_POINT('',#512);
#192=VERTEX_POINT('',#515);
#193=VERTEX_POINT('',#518);
#194=VERTEX_POINT('',#521);
#195=VERTEX_POINT('',#524);
#196=VERTEX_POINT('',#525);
#197=VERTEX_POINT('',#527);
#198=VERTEX_POINT('',#529);
#199=EDGE_CURVE('',#170,#170,#149,.T.);
#200=EDGE_CURVE('',#171,#171,#150,.T.);
#201=EDGE_CURVE('',#172,#172,#151,.T.);
#202=EDGE_CURVE('',#173,#173,#152,.T.);
#203=EDGE_CURVE('',#174,#174,#153,.T.);
#204=EDGE_CURVE('',#175,#175,#154,.T.);
#205=EDGE_CURVE('',#176,#176,#155,.T.);
#206=EDGE_CURVE('',#177,#177,#156,.T.);
#207=EDGE_CURVE('',#178,#179,#15,.T.);
#208=EDGE_CURVE('',#179,#180,#16,.T.);
#209=EDGE_CURVE('',#181,#180,#17,.T.);
#210=EDGE_CURVE('',#178,#181,#18,.T.);
#211=EDGE_CURVE('',#182,#182,#157,.T.);
#212=EDGE_CURVE('',#183,#183,#158,.T.);
#213=EDGE_CURVE('',#184,#184,#159,.T.);
#214=EDGE_CURVE('',#185,#185,#160,.T.);
#215=EDGE_CURVE('',#186,#186,#161,.T.);
#216=EDGE_CURVE('',#187,#187,#162,.T.);
#217=EDGE_CURVE('',#188,#188,#163,.T.);
#218=EDGE_CURVE('',#189,#189,#164,.T.);
#219=EDGE_CURVE('',#190,#190,#165,.T.);
#220=EDGE_CURVE('',#191,#191,#166,.T.);
#221=EDGE_CURVE('',#192,#192,#167,.T.);
#222=EDGE_CURVE('',#193,#193,#168,.T.);
#223=EDGE_CURVE('',#194,#194,#169,.T.);
#224=EDGE_CURVE('',#195,#196,#19,.T.);
#225=EDGE_CURVE('',#196,#197,#20,.T.);
#226=EDGE_CURVE('',#198,#197,#21,.T.);
#227=EDGE_CURVE('',#195,#198,#22,.T.);
#228=EDGE_CURVE('',#179,#195,#23,.T.);
#229=EDGE_CURVE('',#180,#198,#24,.T.);
#230=EDGE_CURVE('',#196,#178,#25,.T.);
#231=EDGE_CURVE('',#197,#181,#26,.T.);
#232=ORIENTED_EDGE('',*,*,#199,.F.);
#233=ORIENTED_EDGE('',*,*,#200,.F.);
#234=ORIENTED_EDGE('',*,*,#201,.F.);
#235=ORIENTED_EDGE('',*,*,#200,.T.);
#236=ORIENTED_EDGE('',*,*,#202,.F.);
#237=ORIENTED_EDGE('',*,*,#203,.F.);
#238=ORIENTED_EDGE('',*,*,#204,.F.);
#239=ORIENTED_EDGE('',*,*,#203,.T.);
#240=ORIENTED_EDGE('',*,*,#205,.T.);
#241=ORIENTED_EDGE('',*,*,#206,.T.);
#242=ORIENTED_EDGE('',*,*,#207,.T.);
#243=ORIENTED_EDGE('',*,*,#208,.T.);
#244=ORIENTED_EDGE('',*,*,#209,.F.);
#245=ORIENTED_EDGE('',*,*,#210,.F.);
#246=ORIENTED_EDGE('',*,*,#211,.F.);
#247=ORIENTED_EDGE('',*,*,#212,.T.);
#248=ORIENTED_EDGE('',*,*,#213,.T.);
#249=ORIENTED_EDGE('',*,*,#214,.T.);
#250=ORIENTED_EDGE('',*,*,#215,.F.);
#251=ORIENTED_EDGE('',*,*,#206,.F.);
#252=ORIENTED_EDGE('',*,*,#216,.F.);
#253=ORIENTED_EDGE('',*,*,#205,.F.);
#254=ORIENTED_EDGE('',*,*,#217,.T.);
#255=ORIENTED_EDGE('',*,*,#211,.T.);
#256=ORIENTED_EDGE('',*,*,#218,.F.);
#257=ORIENTED_EDGE('',*,*,#217,.F.);
#258=ORIENTED_EDGE('',*,*,#219,.T.);
#259=ORIENTED_EDGE('',*,*,#215,.T.);
#260=ORIENTED_EDGE('',*,*,#220,.F.);
#261=ORIENTED_EDGE('',*,*,#219,.F.);
#262=ORIENTED_EDGE('',*,*,#221,.F.);
#263=ORIENTED_EDGE('',*,*,#214,.F.);
#264=ORIENTED_EDGE('',*,*,#222,.F.);
#265=ORIENTED_EDGE('',*,*,#213,.F.);
#266=ORIENTED_EDGE('',*,*,#223,.F.);
#267=ORIENTED_EDGE('',*,*,#212,.F.);
#268=ORIENTED_EDGE('',*,*,#224,.T.);
#269=ORIENTED_EDGE('',*,*,#225,.T.);
#270=ORIENTED_EDGE('',*,*,#226,.F.);
#271=ORIENTED_EDGE('',*,*,#227,.F.);
#272=ORIENTED_EDGE('',*,*,#221,.T.);
#273=ORIENTED_EDGE('',*,*,#218,.T.);
#274=ORIENTED_EDGE('',*,*,#222,.T.);
#275=ORIENTED_EDGE('',*,*,#216,.T.);
#276=ORIENTED_EDGE('',*,*,#223,.T.);
#277=ORIENTED_EDGE('',*,*,#220,.T.);
#278=ORIENTED_EDGE('',*,*,#228,.T.);
#279=ORIENTED_EDGE('',*,*,#227,.T.);
#280=ORIENTED_EDGE('',*,*,#229,.F.);
#281=ORIENTED_EDGE('',*,*,#208,.F.);
#282=ORIENTED_EDGE('',*,*,#230,.T.);
#283=ORIENTED_EDGE('',*,*,#210,.T.);
#284=ORIENTED_EDGE('',*,*,#231,.F.);
#285=ORIENTED_EDGE('',*,*,#225,.F.);
#286=ORIENTED_EDGE('',*,*,#231,.T.);
#287=ORIENTED_EDGE('',*,*,#209,.T.);
#288=ORIENTED_EDGE('',*,*,#229,.T.);
#289=ORIENTED_EDGE('',*,*,#226,.T.);
#290=ORIENTED_EDGE('',*,*,#199,.T.);
#291=ORIENTED_EDGE('',*,*,#202,.T.);
#292=ORIENTED_EDGE('',*,*,#230,.F.);
#293=ORIENTED_EDGE('',*,*,#224,.F.);
#294=ORIENTED_EDGE('',*,*,#228,.F.);
#295=ORIENTED_EDGE('',*,*,#207,.F.);
#296=ORIENTED_EDGE('',*,*,#201,.T.);
#297=ORIENTED_EDGE('',*,*,#204,.T.);
#298=CONICAL_SURFACE('',#324,0.104,41.);
#299=CONICAL_SURFACE('',#329,0.104,41.);
#300=CONICAL_SURFACE('',#334,0.103125,33.6900675259798);
#301=CONICAL_SURFACE('',#345,0.103125,33.6900675259798);
#302=CONICAL_SURFACE('',#349,0.103125,33.6900675259798);
#303=ADVANCED_FACE('',(#82,#53),#298,.F.);
#304=ADVANCED_FACE('',(#83,#54),#45,.F.);
#305=ADVANCED_FACE('',(#84,#55),#299,.F.);
#306=ADVANCED_FACE('',(#85,#56),#46,.F.);
#307=ADVANCED_FACE('',(#86,#57),#300,.F.);
#308=ADVANCED_FACE('',(#87,#58,#59,#60,#61,#62,#63),#39,.T.);
#309=ADVANCED_FACE('',(#88,#64),#47,.F.);
#310=ADVANCED_FACE('',(#89,#65),#301,.F.);
#311=ADVANCED_FACE('',(#90,#66),#48,.F.);
#312=ADVANCED_FACE('',(#91,#67),#302,.F.);
#313=ADVANCED_FACE('',(#92,#68),#49,.F.);
#314=ADVANCED_FACE('',(#93,#69),#50,.F.);
#315=ADVANCED_FACE('',(#94,#70),#51,.F.);
#316=ADVANCED_FACE('',(#95,#71),#52,.F.);
#317=ADVANCED_FACE('',(#96,#72,#73,#74,#75,#76,#77),#40,.T.);
#318=ADVANCED_FACE('',(#97),#41,.T.);
#319=ADVANCED_FACE('',(#98),#42,.T.);
#320=ADVANCED_FACE('',(#99,#78,#79),#43,.T.);
#321=ADVANCED_FACE('',(#100,#80,#81),#44,.F.);
#322=CLOSED_SHELL('',(#303,#304,#305,#306,#307,#308,#309,#310,#311,#312,
#313,#314,#315,#316,#317,#318,#319,#320,#321));
#323=AXIS2_PLACEMENT_3D('placement',#458,#364,#365);
#324=AXIS2_PLACEMENT_3D('',#459,#366,#367);
#325=AXIS2_PLACEMENT_3D('',#461,#368,#369);
#326=AXIS2_PLACEMENT_3D('',#463,#370,#371);
#327=AXIS2_PLACEMENT_3D('',#464,#372,#373);
#328=AXIS2_PLACEMENT_3D('',#466,#374,#375);
#329=AXIS2_PLACEMENT_3D('',#467,#376,#377);
#330=AXIS2_PLACEMENT_3D('',#469,#378,#379);
#331=AXIS2_PLACEMENT_3D('',#471,#380,#381);
#332=AXIS2_PLACEMENT_3D('',#472,#382,#383);
#333=AXIS2_PLACEMENT_3D('',#474,#384,#385);
#334=AXIS2_PLACEMENT_3D('',#475,#386,#387);
#335=AXIS2_PLACEMENT_3D('',#477,#388,#389);
#336=AXIS2_PLACEMENT_3D('',#479,#390,#391);
#337=AXIS2_PLACEMENT_3D('',#480,#392,#393);
#338=AXIS2_PLACEMENT_3D('',#490,#398,#399);
#339=AXIS2_PLACEMENT_3D('',#492,#400,#401);
#340=AXIS2_PLACEMENT_3D('',#494,#402,#403);
#341=AXIS2_PLACEMENT_3D('',#496,#404,#405);
#342=AXIS2_PLACEMENT_3D('',#498,#406,#407);
#343=AXIS2_PLACEMENT_3D('',#499,#408,#409);
#344=AXIS2_PLACEMENT_3D('',#501,#410,#411);
#345=AXIS2_PLACEMENT_3D('',#502,#412,#413);
#346=AXIS2_PLACEMENT_3D('',#504,#414,#415);
#347=AXIS2_PLACEMENT_3D('',#505,#416,#417);
#348=AXIS2_PLACEMENT_3D('',#507,#418,#419);
#349=AXIS2_PLACEMENT_3D('',#508,#420,#421);
#350=AXIS2_PLACEMENT_3D('',#510,#422,#423);
#351=AXIS2_PLACEMENT_3D('',#511,#424,#425);
#352=AXIS2_PLACEMENT_3D('',#513,#426,#427);
#353=AXIS2_PLACEMENT_3D('',#514,#428,#429);
#354=AXIS2_PLACEMENT_3D('',#516,#430,#431);
#355=AXIS2_PLACEMENT_3D('',#517,#432,#433);
#356=AXIS2_PLACEMENT_3D('',#519,#434,#435);
#357=AXIS2_PLACEMENT_3D('',#520,#436,#437);
#358=AXIS2_PLACEMENT_3D('',#522,#438,#439);
#359=AXIS2_PLACEMENT_3D('',#523,#440,#441);
#360=AXIS2_PLACEMENT_3D('',#532,#446,#447);
#361=AXIS2_PLACEMENT_3D('',#535,#450,#451);
#362=AXIS2_PLACEMENT_3D('',#538,#454,#455);
#363=AXIS2_PLACEMENT_3D('',#539,#456,#457);
#364=DIRECTION('axis',(0.,0.,1.));
#365=DIRECTION('refdir',(1.,0.,0.));
#366=DIRECTION('center_axis',(0.,0.,1.));
#367=DIRECTION('ref_axis',(1.,0.,0.));
#368=DIRECTION('center_axis',(0.,0.,-1.));
#369=DIRECTION('ref_axis',(1.,0.,0.));
#370=DIRECTION('center_axis',(0.,0.,1.));
#371=DIRECTION('ref_axis',(1.,0.,0.));
#372=DIRECTION('center_axis',(0.,0.,1.));
#373=DIRECTION('ref_axis',(1.,0.,0.));
#374=DIRECTION('center_axis',(0.,0.,1.));
#375=DIRECTION('ref_axis',(1.,0.,0.));
#376=DIRECTION('center_axis',(0.,0.,1.));
#377=DIRECTION('ref_axis',(1.,0.,0.));
#378=DIRECTION('center_axis',(0.,0.,-1.));
#379=DIRECTION('ref_axis',(1.,0.,0.));
#380=DIRECTION('center_axis',(0.,0.,1.));
#381=DIRECTION('ref_axis',(1.,0.,0.));
#382=DIRECTION('center_axis',(0.,0.,1.));
#383=DIRECTION('ref_axis',(1.,0.,0.));
#384=DIRECTION('center_axis',(0.,0.,1.));
#385=DIRECTION('ref_axis',(1.,0.,0.));
#386=DIRECTION('center_axis',(1.,0.,0.));
#387=DIRECTION('ref_axis',(1.74838271594513E-16,-1.,0.));
#388=DIRECTION('center_axis',(-1.,-1.74838271594513E-16,0.));
#389=DIRECTION('ref_axis',(1.74838271594513E-16,-1.,0.));
#390=DIRECTION('center_axis',(1.,1.74838271594513E-16,0.));
#391=DIRECTION('ref_axis',(1.74838271594513E-16,-1.,0.));
#392=DIRECTION('center_axis',(1.,1.74838271594513E-16,0.));
#393=DIRECTION('ref_axis',(-2.8199664825479E-16,1.,0.));
#394=DIRECTION('',(-1.74838271594513E-16,1.,0.));
#395=DIRECTION('',(0.,0.,1.));
#396=DIRECTION('',(-1.74838271594513E-16,1.,0.));
#397=DIRECTION('',(0.,0.,1.));
#398=DIRECTION('center_axis',(1.,1.74838271594513E-16,0.));
#399=DIRECTION('ref_axis',(1.74838271594513E-16,-1.,0.));
#400=DIRECTION('center_axis',(-1.,-1.74838271594513E-16,0.));
#401=DIRECTION('ref_axis',(-1.74838271594513E-16,1.,0.));
#402=DIRECTION('center_axis',(-1.,-1.74838271594513E-16,0.));
#403=DIRECTION('ref_axis',(-1.74838271594513E-16,1.,0.));
#404=DIRECTION('center_axis',(-1.,-1.74838271594513E-16,0.));
#405=DIRECTION('ref_axis',(-1.74838271594513E-16,1.,0.));
#406=DIRECTION('center_axis',(1.,1.74838271594513E-16,0.));
#407=DIRECTION('ref_axis',(1.74838271594513E-16,-1.,0.));
#408=DIRECTION('center_axis',(1.,1.74838271594513E-16,0.));
#409=DIRECTION('ref_axis',(-1.74838271594513E-16,1.,0.));
#410=DIRECTION('center_axis',(1.,3.06161699786838E-16,0.));
#411=DIRECTION('ref_axis',(-1.74838271594513E-16,1.,0.));
#412=DIRECTION('center_axis',(1.,0.,0.));
#413=DIRECTION('ref_axis',(1.74838271594513E-16,-1.,0.));
#414=DIRECTION('center_axis',(-1.,-1.74838271594513E-16,0.));
#415=DIRECTION('ref_axis',(1.74838271594513E-16,-1.,0.));
#416=DIRECTION('center_axis',(1.,1.74838271594513E-16,0.));
#417=DIRECTION('ref_axis',(-1.74838271594513E-16,1.,0.));
#418=DIRECTION('center_axis',(1.,3.06161699786838E-16,0.));
#419=DIRECTION('ref_axis',(-1.74838271594513E-16,1.,0.));
#420=DIRECTION('center_axis',(1.,0.,0.));
#421=DIRECTION('ref_axis',(1.74838271594513E-16,-1.,0.));
#422=DIRECTION('center_axis',(-1.,-1.74838271594513E-16,0.));
#423=DIRECTION('ref_axis',(1.74838271594513E-16,-1.,0.));
#424=DIRECTION('center_axis',(1.,1.74838271594513E-16,0.));
#425=DIRECTION('ref_axis',(-1.74838271594513E-16,1.,0.));
#426=DIRECTION('center_axis',(1.,3.06161699786838E-16,0.));
#427=DIRECTION('ref_axis',(-1.74838271594513E-16,1.,0.));
#428=DIRECTION('center_axis',(1.,1.74838271594513E-16,0.));
#429=DIRECTION('ref_axis',(-1.74838271594513E-16,1.,0.));
#430=DIRECTION('center_axis',(1.,3.06161699786838E-16,0.));
#431=DIRECTION('ref_axis',(-1.74838271594513E-16,1.,0.));
#432=DIRECTION('center_axis',(1.,1.74838271594513E-16,0.));
#433=DIRECTION('ref_axis',(-1.74838271594513E-16,1.,0.));
#434=DIRECTION('center_axis',(1.,3.06161699786838E-16,0.));
#435=DIRECTION('ref_axis',(-1.74838271594513E-16,1.,0.));
#436=DIRECTION('center_axis',(1.,1.74838271594513E-16,0.));
#437=DIRECTION('ref_axis',(-1.74838271594513E-16,1.,0.));
#438=DIRECTION('center_axis',(1.,3.06161699786838E-16,0.));
#439=DIRECTION('ref_axis',(-1.74838271594513E-16,1.,0.));
#440=DIRECTION('center_axis',(-1.,-3.06161699786838E-16,0.));
#441=DIRECTION('ref_axis',(3.06161699786838E-16,-1.,0.));
#442=DIRECTION('',(3.06161699786838E-16,-1.,0.));
#443=DIRECTION('',(0.,0.,1.));
#444=DIRECTION('',(3.06161699786838E-16,-1.,0.));
#445=DIRECTION('',(0.,0.,1.));
#446=DIRECTION('center_axis',(0.,1.,0.));
#447=DIRECTION('ref_axis',(-1.,0.,0.));
#448=DIRECTION('',(-1.,0.,0.));
#449=DIRECTION('',(-1.,0.,0.));
#450=DIRECTION('center_axis',(0.,-1.,0.));
#451=DIRECTION('ref_axis',(1.,0.,0.));
#452=DIRECTION('',(1.,0.,0.));
#453=DIRECTION('',(1.,0.,0.));
#454=DIRECTION('center_axis',(0.,0.,1.));
#455=DIRECTION('ref_axis',(1.,0.,0.));
#456=DIRECTION('center_axis',(0.,0.,1.));
#457=DIRECTION('ref_axis',(1.,0.,0.));
#458=CARTESIAN_POINT('',(0.,0.,0.));
#459=CARTESIAN_POINT('Origin',(0.375,0.25,0.447083053267833));
#460=CARTESIAN_POINT('',(0.525,0.25,0.5));
#461=CARTESIAN_POINT('Origin',(0.375,0.25,0.5));
#462=CARTESIAN_POINT('',(0.433,0.25,0.394166106535667));
#463=CARTESIAN_POINT('Origin',(0.375,0.25,0.394166106535667));
#464=CARTESIAN_POINT('Origin',(0.375,0.25,-3.11420807370024));
#465=CARTESIAN_POINT('',(0.317,0.25,0.));
#466=CARTESIAN_POINT('Origin',(0.375,0.25,0.));
#467=CARTESIAN_POINT('Origin',(0.374999999999999,3.25,0.447083053267833));
#468=CARTESIAN_POINT('',(0.524999999999999,3.25,0.5));
#469=CARTESIAN_POINT('Origin',(0.374999999999999,3.25,0.5));
#470=CARTESIAN_POINT('',(0.432999999999999,3.25,0.394166106535667));
#471=CARTESIAN_POINT('Origin',(0.374999999999999,3.25,0.394166106535667));
#472=CARTESIAN_POINT('Origin',(0.374999999999999,3.25,-3.11420807370024));
#473=CARTESIAN_POINT('',(0.316999999999999,3.25,0.));
#474=CARTESIAN_POINT('Origin',(0.374999999999999,3.25,0.));
#475=CARTESIAN_POINT('Origin',(0.712499999999999,1.5625,0.25));
#476=CARTESIAN_POINT('',(0.674999999999999,1.640625,0.25));
#477=CARTESIAN_POINT('Origin',(0.674999999999999,1.5625,0.25));
#478=CARTESIAN_POINT('',(0.749999999999999,1.690625,0.25));
#479=CARTESIAN_POINT('Origin',(0.749999999999999,1.5625,0.25));
#480=CARTESIAN_POINT('Origin',(0.75,0.,0.));
#481=CARTESIAN_POINT('',(0.75,0.,0.));
#482=CARTESIAN_POINT('',(0.749999999999999,3.5,0.));
#483=CARTESIAN_POINT('',(0.75,0.,0.));
#484=CARTESIAN_POINT('',(0.749999999999999,3.5,0.5));
#485=CARTESIAN_POINT('',(0.749999999999999,3.5,0.));
#486=CARTESIAN_POINT('',(0.75,0.,0.5));
#487=CARTESIAN_POINT('',(0.75,0.,0.5));
#488=CARTESIAN_POINT('',(0.75,0.,0.));
#489=CARTESIAN_POINT('',(0.749999999999999,2.440625,0.25));
#490=CARTESIAN_POINT('Origin',(0.749999999999999,2.3125,0.25));
#491=CARTESIAN_POINT('',(0.749999999999999,1.265625,0.25));
#492=CARTESIAN_POINT('Origin',(0.749999999999999,1.1875,0.25));
#493=CARTESIAN_POINT('',(0.749999999999999,2.015625,0.25));
#494=CARTESIAN_POINT('Origin',(0.749999999999999,1.9375,0.25));
#495=CARTESIAN_POINT('',(0.749999999999999,2.765625,0.25));
#496=CARTESIAN_POINT('Origin',(0.749999999999999,2.6875,0.25));
#497=CARTESIAN_POINT('',(0.749999999999999,0.940624999999999,0.25));
#498=CARTESIAN_POINT('Origin',(0.749999999999999,0.812499999999999,0.25));
#499=CARTESIAN_POINT('Origin',(0.249999999999999,1.5625,0.25));
#500=CARTESIAN_POINT('',(-7.29403414308358E-16,1.484375,0.25));
#501=CARTESIAN_POINT('Origin',(-7.4306265427668E-16,1.5625,0.25));
#502=CARTESIAN_POINT('Origin',(0.712499999999999,2.3125,0.25));
#503=CARTESIAN_POINT('',(0.674999999999999,2.390625,0.25));
#504=CARTESIAN_POINT('Origin',(0.674999999999999,2.3125,0.25));
#505=CARTESIAN_POINT('Origin',(0.249999999999999,2.3125,0.25));
#506=CARTESIAN_POINT('',(-8.60532118004243E-16,2.234375,0.25));
#507=CARTESIAN_POINT('Origin',(-8.74191357972564E-16,2.3125,0.25));
#508=CARTESIAN_POINT('Origin',(0.712499999999999,0.812499999999999,0.25));
#509=CARTESIAN_POINT('',(0.674999999999999,0.890624999999999,0.25));
#510=CARTESIAN_POINT('Origin',(0.674999999999999,0.812499999999999,0.25));
#511=CARTESIAN_POINT('Origin',(0.249999999999999,0.812499999999999,0.25));
#512=CARTESIAN_POINT('',(-5.98274710612474E-16,0.734374999999999,0.25));
#513=CARTESIAN_POINT('Origin',(-6.11933950580795E-16,0.812499999999999,
0.25));
#514=CARTESIAN_POINT('Origin',(0.249999999999999,2.6875,0.25));
#515=CARTESIAN_POINT('',(-9.47951253801499E-16,2.609375,0.25));
#516=CARTESIAN_POINT('Origin',(-9.61610493769821E-16,2.6875,0.25));
#517=CARTESIAN_POINT('Origin',(0.249999999999999,1.9375,0.25));
#518=CARTESIAN_POINT('',(-8.16822550105615E-16,1.859375,0.25));
#519=CARTESIAN_POINT('Origin',(-8.30481790073936E-16,1.9375,0.25));
#520=CARTESIAN_POINT('Origin',(0.249999999999999,1.1875,0.25));
#521=CARTESIAN_POINT('',(-6.8569384640973E-16,1.109375,0.25));
#522=CARTESIAN_POINT('Origin',(-6.99353086378051E-16,1.1875,0.25));
#523=CARTESIAN_POINT('Origin',(-1.07156594925393E-15,3.5,0.));
#524=CARTESIAN_POINT('',(-1.07156594925393E-15,3.5,0.));
#525=CARTESIAN_POINT('',(0.,0.,0.));
#526=CARTESIAN_POINT('',(-1.07156594925393E-15,3.5,0.));
#527=CARTESIAN_POINT('',(0.,0.,0.5));
#528=CARTESIAN_POINT('',(0.,0.,0.));
#529=CARTESIAN_POINT('',(-1.07156594925393E-15,3.5,0.5));
#530=CARTESIAN_POINT('',(-1.07156594925393E-15,3.5,0.5));
#531=CARTESIAN_POINT('',(-1.07156594925393E-15,3.5,0.));
#532=CARTESIAN_POINT('Origin',(0.749999999999999,3.5,0.));
#533=CARTESIAN_POINT('',(0.749999999999999,3.5,0.));
#534=CARTESIAN_POINT('',(0.749999999999999,3.5,0.5));
#535=CARTESIAN_POINT('Origin',(0.,0.,0.));
#536=CARTESIAN_POINT('',(0.,0.,0.));
#537=CARTESIAN_POINT('',(0.,0.,0.5));
#538=CARTESIAN_POINT('Origin',(0.374999999999999,1.75,0.5));
#539=CARTESIAN_POINT('Origin',(0.374999999999999,1.75,0.));
#540=UNCERTAINTY_MEASURE_WITH_UNIT(LENGTH_MEASURE(0.000393700787401575),
#544,'DISTANCE_ACCURACY_VALUE',
'Maximum model space distance between geometric entities at asserted c
onnectivities');
#541=UNCERTAINTY_MEASURE_WITH_UNIT(LENGTH_MEASURE(1.E-6),#545,
'DISTANCE_ACCURACY_VALUE',
'Maximum model space distance between geometric entities at asserted c
onnectivities');
#542=(
GEOMETRIC_REPRESENTATION_CONTEXT(3)
GLOBAL_UNCERTAINTY_ASSIGNED_CONTEXT((#540))
GLOBAL_UNIT_ASSIGNED_CONTEXT((#544,#550,#547))
REPRESENTATION_CONTEXT('','3D')
);
#543=(
GEOMETRIC_REPRESENTATION_CONTEXT(3)
GLOBAL_UNCERTAINTY_ASSIGNED_CONTEXT((#541))
GLOBAL_UNIT_ASSIGNED_CONTEXT((#545,#550,#547))
REPRESENTATION_CONTEXT('','3D')
);
#544=(
CONVERSION_BASED_UNIT('__CONSTANT UNIT inch',#546)
LENGTH_UNIT()
NAMED_UNIT(#549)
);
#545=(
LENGTH_UNIT()
NAMED_UNIT(*)
SI_UNIT(.MILLI.,.METRE.)
);
#546=LENGTH_MEASURE_WITH_UNIT(LENGTH_MEASURE(25.4),#545);
#547=(
NAMED_UNIT(*)
SI_UNIT($,.STERADIAN.)
SOLID_ANGLE_UNIT()
);
#548=DIMENSIONAL_EXPONENTS(0.,0.,0.,0.,0.,0.,0.);
#549=DIMENSIONAL_EXPONENTS(1.,0.,0.,0.,0.,0.,0.);
#550=(
CONVERSION_BASED_UNIT('degree',#552)
NAMED_UNIT(#548)
PLANE_ANGLE_UNIT()
);
#551=(
NAMED_UNIT(*)
PLANE_ANGLE_UNIT()
SI_UNIT($,.RADIAN.)
);
#552=PLANE_ANGLE_MEASURE_WITH_UNIT(PLANE_ANGLE_MEASURE(0.01745329252),#551);
#553=SHAPE_DEFINITION_REPRESENTATION(#554,#555);
#554=PRODUCT_DEFINITION_SHAPE('',$,#557);
#555=SHAPE_REPRESENTATION('',(#323),#542);
#556=PRODUCT_DEFINITION_CONTEXT('part definition',#561,'design');
#557=PRODUCT_DEFINITION('nail_block','nail_block',#558,#556);
#558=PRODUCT_DEFINITION_FORMATION('',$,#563);
#559=PRODUCT_RELATED_PRODUCT_CATEGORY('nail_block','nail_block',(#563));
#560=APPLICATION_PROTOCOL_DEFINITION('international standard',
'automotive_design',2009,#561);
#561=APPLICATION_CONTEXT(
'Core Data for Automotive Mechanical Design Process');
#562=PRODUCT_CONTEXT('part definition',#561,'mechanical');
#563=PRODUCT('nail_block','nail_block',$,(#562));
#564=PRESENTATION_STYLE_ASSIGNMENT((#565));
#565=SURFACE_STYLE_USAGE(.BOTH.,#566);
#566=SURFACE_SIDE_STYLE('',(#567));
#567=SURFACE_STYLE_FILL_AREA(#568);
#568=FILL_AREA_STYLE('',(#569));
#569=FILL_AREA_STYLE_COLOUR('',#570);
#570=COLOUR_RGB('',0.913725490196078,0.482352941176471,0.231372549019608);
ENDSEC;
END-ISO-10303-21;
