  0
SECTION
  2
HEADER
  9
$ACADVER
  1
AC1009
  9
$FILLMODE
 70
1
  9
$EXTMIN
 10
-0.0500
 20
-0.0500
 30
0.0000
  9
$EXTMAX
 10
35.6100
 20
144.1700
 30
0.0000
  0
ENDSEC
  0
SECTION
  2
TABLES
  0
TABLE
  2
LTYPE
 70
1
  0
LTYPE
  2
CONTINUOUS
 70
64
  3
Solid line
 72
65
 73
0
 40
0
  0
ENDTAB
  0
TABLE
  2
LAYER
 70
255
  0
LAYER
  2
1
 70
64
 62
14
  6
CONTINUOUS
  0
LAYER
  2
16
 70
64
 62
174
  6
CONTINUOUS
  0
LAYER
  2
17
 70
64
 62
94
  6
CONTINUOUS
  0
LAYER
  2
18
 70
64
 62
94
  6
CONTINUOUS
  0
LAYER
  2
19
 70
64
 62
54
  6
CONTINUOUS
  0
LAYER
  2
20
 70
64
 62
178
  6
CONTINUOUS
  0
LAYER
  2
21
 70
64
 62
250
  6
CONTINUOUS
  0
LAYER
  2
22
 70
64
 62
250
  6
CONTINUOUS
  0
LAYER
  2
23
 70
64
 62
178
  6
CONTINUOUS
  0
LAYER
  2
24
 70
64
 62
178
  6
CONTINUOUS
  0
LAYER
  2
25
 70
64
 62
250
  6
CONTINUOUS
  0
LAYER
  2
26
 70
64
 62
250
  6
CONTINUOUS
  0
LAYER
  2
27
 70
64
 62
250
  6
CONTINUOUS
  0
LAYER
  2
28
 70
64
 62
250
  6
CONTINUOUS
  0
LAYER
  2
39
 70
64
 62
14
  6
CONTINUOUS
  0
LAYER
  2
40
 70
64
 62
174
  6
CONTINUOUS
  0
LAYER
  2
41
 70
64
 62
14
  6
CONTINUOUS
  0
LAYER
  2
42
 70
64
 62
174
  6
CONTINUOUS
  0
LAYER
  2
43
 70
64
 62
94
  6
CONTINUOUS
  0
LAYER
  2
45
 70
64
 62
250
  6
CONTINUOUS
  0
LAYER
  2
48
 70
64
 62
250
  6
CONTINUOUS
  0
LAYER
  2
49
 70
64
 62
250
  6
CONTINUOUS
  0
LAYER
  2
51
 70
64
 62
250
  6
CONTINUOUS
  0
LAYER
  2
52
 70
64
 62
250
  6
CONTINUOUS
  0
ENDTAB
  0
ENDSEC
  0
SECTION
  2
BLOCKS
  0
BLOCK
  8
0
  2
RECT
 70
64
 10
0.0000
 20
0.0000
 30
0.0000
  3
RECT
  0
SOLID
  8
0
 10
-0.5000
 20
-0.5000
 30
0.0000
 11
0.5000
 21
-0.5000
 31
0.0000
 12
-0.5000
 22
0.5000
 32
0.0000
 13
0.5000
 23
0.5000
 33
0.0000
  0
ENDBLK
  8
0
  0
BLOCK
  8
0
  2
PIE
 70
64
 10
0.0000
 20
0.0000
 30
0.0000
  3
PIE
  0
POLYLINE
  8
0
 66
1
 10
0.0000
 20
0.0000
 30
0.0000
 40
0.5000
 41
0.5000
 70
0
  0
VERTEX
  8
0
 10
0.0000
 20
-0.2500
 30
0.0000
 42
1.0000
  0
VERTEX
  8
0
 10
0.0000
 20
0.2500
 30
0.0000
 42
1.0000
  0
VERTEX
  8
0
 10
0.0000
 20
-0.2500
 30
0.0000
  0
SEQEND
  8
0
  0
ENDBLK
  8
0
  0
BLOCK
  8
0
  2
OCTAGONP
 70
64
 10
0.0000
 20
0.0000
 30
0.0000
  3
OCTAGONP
  0
POLYLINE
  8
0
 66
1
 10
0.0000
 20
0.0000
 30
0.0000
 40
0.5000
 41
0.5000
 70
0
  0
VERTEX
  8
0
 10
-0.2500
 20
-0.1036
 30
0.0000
  0
VERTEX
  8
0
 10
-0.2500
 20
0.1036
 30
0.0000
  0
VERTEX
  8
0
 10
-0.1036
 20
0.2500
 30
0.0000
  0
VERTEX
  8
0
 10
0.1036
 20
0.2500
 30
0.0000
  0
VERTEX
  8
0
 10
0.2500
 20
0.1036
 30
0.0000
  0
VERTEX
  8
0
 10
0.2500
 20
-0.1036
 30
0.0000
  0
VERTEX
  8
0
 10
0.1036
 20
-0.2500
 30
0.0000
  0
VERTEX
  8
0
 10
-0.1036
 20
-0.2500
 30
0.0000
  0
VERTEX
  8
0
 10
-0.2500
 20
-0.1036
 30
0.0000
  0
VERTEX
  8
0
 10
-0.2500
 20
0.1036
 30
0.0000
  0
SEQEND
  8
0
  0
ENDBLK
  8
0
  0
BLOCK
  8
0
  2
SQUAREP
 70
64
 10
0.0000
 20
0.0000
 30
0.0000
  3
SQUAREP
  0
SOLID
  8
0
 10
-0.5000
 20
-0.5000
 30
0.0000
 11
0.5000
 21
-0.5000
 31
0.0000
 12
-0.5000
 22
0.5000
 32
0.0000
 13
0.5000
 23
0.5000
 33
0.0000
  0
ENDBLK
  8
0
  0
BLOCK
  8
0
  2
ROUNDP
 70
64
 10
0.0000
 20
0.0000
 30
0.0000
  3
ROUNDP
  0
POLYLINE
  8
0
 66
1
 10
0.0000
 20
0.0000
 30
0.0000
 40
0.5000
 41
0.5000
 70
0
  0
VERTEX
  8
0
 10
0.0000
 20
-0.2500
 30
0.0000
 42
1.0000
  0
VERTEX
  8
0
 10
0.0000
 20
0.2500
 30
0.0000
 42
1.0000
  0
VERTEX
  8
0
 10
0.0000
 20
-0.2500
 30
0.0000
  0
SEQEND
  8
0
  0
ENDBLK
  8
0
  0
BLOCK
  8
0
  2
ANNULUSP
 70
64
 10
0.0000
 20
0.0000
 30
0.0000
  3
ANNULUSP
  0
POLYLINE
  8
0
 66
1
 10
0.0000
 20
0.0000
 30
0.0000
 40
0.5000
 41
0.5000
 70
0
  0
VERTEX
  8
0
 10
0.0000
 20
-0.2500
 30
0.0000
 42
1.0000
  0
VERTEX
  8
0
 10
0.0000
 20
0.2500
 30
0.0000
 42
1.0000
  0
VERTEX
  8
0
 10
0.0000
 20
-0.2500
 30
0.0000
  0
SEQEND
  8
0
  0
ENDBLK
  8
0
  0
BLOCK
  8
0
  2
THERMALP
 70
64
 10
0.0000
 20
0.0000
 30
0.0000
  3
THERMALP
  0
POLYLINE
  8
0
 66
1
 10
0.0000
 20
0.0000
 30
0.0000
 40
0.1000
 41
0.1000
 70
0
  0
VERTEX
  8
0
 10
-0.2379
 20
0.4500
 30
0.0000
  0
VERTEX
  8
0
 10
0.2379
 20
0.4500
 30
0.0000
  0
SEQEND
  8
0
  0
POLYLINE
  8
0
 66
1
 10
0.0000
 20
0.0000
 30
0.0000
 40
0.0500
 41
0.0500
 70
0
  0
VERTEX
  8
0
 10
0.2379
 20
0.4250
 30
0.0000
 42
1.0000
  0
VERTEX
  8
0
 10
0.2379
 20
0.4750
 30
0.0000
  0
SEQEND
  8
0
  0
POLYLINE
  8
0
 66
1
 10
0.0000
 20
0.0000
 30
0.0000
 40
0.0500
 41
0.0500
 70
0
  0
VERTEX
  8
0
 10
-0.2379
 20
0.4750
 30
0.0000
 42
1.0000
  0
VERTEX
  8
0
 10
-0.2379
 20
0.4250
 30
0.0000
  0
SEQEND
  8
0
  0
POLYLINE
  8
0
 66
1
 10
0.0000
 20
0.0000
 30
0.0000
 40
0.1000
 41
0.1000
 70
0
  0
VERTEX
  8
0
 10
0.4500
 20
0.2379
 30
0.0000
  0
VERTEX
  8
0
 10
0.4500
 20
-0.2379
 30
0.0000
  0
SEQEND
  8
0
  0
POLYLINE
  8
0
 66
1
 10
0.0000
 20
0.0000
 30
0.0000
 40
0.0500
 41
0.0500
 70
0
  0
VERTEX
  8
0
 10
0.4250
 20
-0.2379
 30
0.0000
 42
1.0000
  0
VERTEX
  8
0
 10
0.4750
 20
-0.2379
 30
0.0000
  0
SEQEND
  8
0
  0
POLYLINE
  8
0
 66
1
 10
0.0000
 20
0.0000
 30
0.0000
 40
0.0500
 41
0.0500
 70
0
  0
VERTEX
  8
0
 10
0.4750
 20
0.2379
 30
0.0000
 42
1.0000
  0
VERTEX
  8
0
 10
0.4250
 20
0.2379
 30
0.0000
  0
SEQEND
  8
0
  0
POLYLINE
  8
0
 66
1
 10
0.0000
 20
0.0000
 30
0.0000
 40
0.1000
 41
0.1000
 70
0
  0
VERTEX
  8
0
 10
0.2379
 20
-0.4500
 30
0.0000
  0
VERTEX
  8
0
 10
-0.2379
 20
-0.4500
 30
0.0000
  0
SEQEND
  8
0
  0
POLYLINE
  8
0
 66
1
 10
0.0000
 20
0.0000
 30
0.0000
 40
0.0500
 41
0.0500
 70
0
  0
VERTEX
  8
0
 10
-0.2379
 20
-0.4250
 30
0.0000
 42
1.0000
  0
VERTEX
  8
0
 10
-0.2379
 20
-0.4750
 30
0.0000
  0
SEQEND
  8
0
  0
POLYLINE
  8
0
 66
1
 10
0.0000
 20
0.0000
 30
0.0000
 40
0.0500
 41
0.0500
 70
0
  0
VERTEX
  8
0
 10
0.2379
 20
-0.4750
 30
0.0000
 42
1.0000
  0
VERTEX
  8
0
 10
0.2379
 20
-0.4250
 30
0.0000
  0
SEQEND
  8
0
  0
POLYLINE
  8
0
 66
1
 10
0.0000
 20
0.0000
 30
0.0000
 40
0.1000
 41
0.1000
 70
0
  0
VERTEX
  8
0
 10
-0.4500
 20
-0.2379
 30
0.0000
  0
VERTEX
  8
0
 10
-0.4500
 20
0.2379
 30
0.0000
  0
SEQEND
  8
0
  0
POLYLINE
  8
0
 66
1
 10
0.0000
 20
0.0000
 30
0.0000
 40
0.0500
 41
0.0500
 70
0
  0
VERTEX
  8
0
 10
-0.4250
 20
0.2379
 30
0.0000
 42
1.0000
  0
VERTEX
  8
0
 10
-0.4750
 20
0.2379
 30
0.0000
  0
SEQEND
  8
0
  0
POLYLINE
  8
0
 66
1
 10
0.0000
 20
0.0000
 30
0.0000
 40
0.0500
 41
0.0500
 70
0
  0
VERTEX
  8
0
 10
-0.4750
 20
-0.2379
 30
0.0000
 42
1.0000
  0
VERTEX
  8
0
 10
-0.4250
 20
-0.2379
 30
0.0000
  0
SEQEND
  8
0
  0
ENDBLK
  8
0
  0
BLOCK
  8
0
  2
OCTAGONV
 70
64
 10
0.0000
 20
0.0000
 30
0.0000
  3
OCTAGONV
  0
POLYLINE
  8
0
 66
1
 10
0.0000
 20
0.0000
 30
0.0000
 40
0.5000
 41
0.5000
 70
0
  0
VERTEX
  8
0
 10
-0.2500
 20
-0.1036
 30
0.0000
  0
VERTEX
  8
0
 10
-0.2500
 20
0.1036
 30
0.0000
  0
VERTEX
  8
0
 10
-0.1036
 20
0.2500
 30
0.0000
  0
VERTEX
  8
0
 10
0.1036
 20
0.2500
 30
0.0000
  0
VERTEX
  8
0
 10
0.2500
 20
0.1036
 30
0.0000
  0
VERTEX
  8
0
 10
0.2500
 20
-0.1036
 30
0.0000
  0
VERTEX
  8
0
 10
0.1036
 20
-0.2500
 30
0.0000
  0
VERTEX
  8
0
 10
-0.1036
 20
-0.2500
 30
0.0000
  0
VERTEX
  8
0
 10
-0.2500
 20
-0.1036
 30
0.0000
  0
VERTEX
  8
0
 10
-0.2500
 20
0.1036
 30
0.0000
  0
SEQEND
  8
0
  0
ENDBLK
  8
0
  0
BLOCK
  8
0
  2
SQUAREV
 70
64
 10
0.0000
 20
0.0000
 30
0.0000
  3
SQUAREV
  0
SOLID
  8
0
 10
-0.5000
 20
-0.5000
 30
0.0000
 11
0.5000
 21
-0.5000
 31
0.0000
 12
-0.5000
 22
0.5000
 32
0.0000
 13
0.5000
 23
0.5000
 33
0.0000
  0
ENDBLK
  8
0
  0
BLOCK
  8
0
  2
ROUNDV
 70
64
 10
0.0000
 20
0.0000
 30
0.0000
  3
ROUNDV
  0
POLYLINE
  8
0
 66
1
 10
0.0000
 20
0.0000
 30
0.0000
 40
0.5000
 41
0.5000
 70
0
  0
VERTEX
  8
0
 10
0.0000
 20
-0.2500
 30
0.0000
 42
1.0000
  0
VERTEX
  8
0
 10
0.0000
 20
0.2500
 30
0.0000
 42
1.0000
  0
VERTEX
  8
0
 10
0.0000
 20
-0.2500
 30
0.0000
  0
SEQEND
  8
0
  0
ENDBLK
  8
0
  0
BLOCK
  8
0
  2
ANNULUSV
 70
64
 10
0.0000
 20
0.0000
 30
0.0000
  3
ANNULUSV
  0
POLYLINE
  8
0
 66
1
 10
0.0000
 20
0.0000
 30
0.0000
 40
0.5000
 41
0.5000
 70
0
  0
VERTEX
  8
0
 10
0.0000
 20
-0.2500
 30
0.0000
 42
1.0000
  0
VERTEX
  8
0
 10
0.0000
 20
0.2500
 30
0.0000
 42
1.0000
  0
VERTEX
  8
0
 10
0.0000
 20
-0.2500
 30
0.0000
  0
SEQEND
  8
0
  0
ENDBLK
  8
0
  0
BLOCK
  8
0
  2
THERMALV
 70
64
 10
0.0000
 20
0.0000
 30
0.0000
  3
THERMALV
  0
POLYLINE
  8
0
 66
1
 10
0.0000
 20
0.0000
 30
0.0000
 40
0.1000
 41
0.1000
 70
0
  0
VERTEX
  8
0
 10
-0.2379
 20
0.4500
 30
0.0000
  0
VERTEX
  8
0
 10
0.2379
 20
0.4500
 30
0.0000
  0
SEQEND
  8
0
  0
POLYLINE
  8
0
 66
1
 10
0.0000
 20
0.0000
 30
0.0000
 40
0.0500
 41
0.0500
 70
0
  0
VERTEX
  8
0
 10
0.2379
 20
0.4250
 30
0.0000
 42
1.0000
  0
VERTEX
  8
0
 10
0.2379
 20
0.4750
 30
0.0000
  0
SEQEND
  8
0
  0
POLYLINE
  8
0
 66
1
 10
0.0000
 20
0.0000
 30
0.0000
 40
0.0500
 41
0.0500
 70
0
  0
VERTEX
  8
0
 10
-0.2379
 20
0.4750
 30
0.0000
 42
1.0000
  0
VERTEX
  8
0
 10
-0.2379
 20
0.4250
 30
0.0000
  0
SEQEND
  8
0
  0
POLYLINE
  8
0
 66
1
 10
0.0000
 20
0.0000
 30
0.0000
 40
0.1000
 41
0.1000
 70
0
  0
VERTEX
  8
0
 10
0.4500
 20
0.2379
 30
0.0000
  0
VERTEX
  8
0
 10
0.4500
 20
-0.2379
 30
0.0000
  0
SEQEND
  8
0
  0
POLYLINE
  8
0
 66
1
 10
0.0000
 20
0.0000
 30
0.0000
 40
0.0500
 41
0.0500
 70
0
  0
VERTEX
  8
0
 10
0.4250
 20
-0.2379
 30
0.0000
 42
1.0000
  0
VERTEX
  8
0
 10
0.4750
 20
-0.2379
 30
0.0000
  0
SEQEND
  8
0
  0
POLYLINE
  8
0
 66
1
 10
0.0000
 20
0.0000
 30
0.0000
 40
0.0500
 41
0.0500
 70
0
  0
VERTEX
  8
0
 10
0.4750
 20
0.2379
 30
0.0000
 42
1.0000
  0
VERTEX
  8
0
 10
0.4250
 20
0.2379
 30
0.0000
  0
SEQEND
  8
0
  0
POLYLINE
  8
0
 66
1
 10
0.0000
 20
0.0000
 30
0.0000
 40
0.1000
 41
0.1000
 70
0
  0
VERTEX
  8
0
 10
0.2379
 20
-0.4500
 30
0.0000
  0
VERTEX
  8
0
 10
-0.2379
 20
-0.4500
 30
0.0000
  0
SEQEND
  8
0
  0
POLYLINE
  8
0
 66
1
 10
0.0000
 20
0.0000
 30
0.0000
 40
0.0500
 41
0.0500
 70
0
  0
VERTEX
  8
0
 10
-0.2379
 20
-0.4250
 30
0.0000
 42
1.0000
  0
VERTEX
  8
0
 10
-0.2379
 20
-0.4750
 30
0.0000
  0
SEQEND
  8
0
  0
POLYLINE
  8
0
 66
1
 10
0.0000
 20
0.0000
 30
0.0000
 40
0.0500
 41
0.0500
 70
0
  0
VERTEX
  8
0
 10
0.2379
 20
-0.4750
 30
0.0000
 42
1.0000
  0
VERTEX
  8
0
 10
0.2379
 20
-0.4250
 30
0.0000
  0
SEQEND
  8
0
  0
POLYLINE
  8
0
 66
1
 10
0.0000
 20
0.0000
 30
0.0000
 40
0.1000
 41
0.1000
 70
0
  0
VERTEX
  8
0
 10
-0.4500
 20
-0.2379
 30
0.0000
  0
VERTEX
  8
0
 10
-0.4500
 20
0.2379
 30
0.0000
  0
SEQEND
  8
0
  0
POLYLINE
  8
0
 66
1
 10
0.0000
 20
0.0000
 30
0.0000
 40
0.0500
 41
0.0500
 70
0
  0
VERTEX
  8
0
 10
-0.4250
 20
0.2379
 30
0.0000
 42
1.0000
  0
VERTEX
  8
0
 10
-0.4750
 20
0.2379
 30
0.0000
  0
SEQEND
  8
0
  0
POLYLINE
  8
0
 66
1
 10
0.0000
 20
0.0000
 30
0.0000
 40
0.0500
 41
0.0500
 70
0
  0
VERTEX
  8
0
 10
-0.4750
 20
-0.2379
 30
0.0000
 42
1.0000
  0
VERTEX
  8
0
 10
-0.4250
 20
-0.2379
 30
0.0000
  0
SEQEND
  8
0
  0
ENDBLK
  8
0
  0
ENDSEC
  0
SECTION
  2
ENTITIES
  0
CIRCLE
  8
20
 10
29.2100
 20
53.9750
 30
0.0000
 40
0.3000
  0
CIRCLE
  8
20
 10
29.2100
 20
46.3550
 30
0.0000
 40
0.3000
  0
CIRCLE
  8
20
 10
6.3500
 20
36.1950
 30
0.0000
 40
0.3000
  0
CIRCLE
  8
20
 10
6.3500
 20
33.6550
 30
0.0000
 40
0.3000
  0
CIRCLE
  8
20
 10
6.3500
 20
20.9550
 30
0.0000
 40
0.3000
  0
CIRCLE
  8
20
 10
6.3500
 20
13.3350
 30
0.0000
 40
0.3000
  0
CIRCLE
  8
20
 10
6.3500
 20
10.7950
 30
0.0000
 40
0.3000
  0
CIRCLE
  8
20
 10
6.9850
 20
106.0450
 30
0.0000
 40
0.3000
  0
CIRCLE
  8
20
 10
6.9850
 20
108.5850
 30
0.0000
 40
0.3000
  0
CIRCLE
  8
20
 10
6.9850
 20
111.1250
 30
0.0000
 40
0.3000
  0
CIRCLE
  8
20
 10
6.9850
 20
113.6650
 30
0.0000
 40
0.3000
  0
CIRCLE
  8
20
 10
6.9850
 20
103.5050
 30
0.0000
 40
0.3000
  0
CIRCLE
  8
20
 10
6.9850
 20
100.9650
 30
0.0000
 40
0.3000
  0
CIRCLE
  8
20
 10
6.9850
 20
98.4250
 30
0.0000
 40
0.3000
  0
CIRCLE
  8
20
 10
6.9850
 20
95.8850
 30
0.0000
 40
0.3000
  0
CIRCLE
  8
20
 10
29.8450
 20
106.0450
 30
0.0000
 40
0.3000
  0
CIRCLE
  8
20
 10
29.8450
 20
112.3950
 30
0.0000
 40
0.3000
  0
CIRCLE
  8
20
 10
29.8450
 20
118.7450
 30
0.0000
 40
0.3000
  0
CIRCLE
  8
20
 10
12.0650
 20
18.4150
 30
0.0000
 40
0.3000
  0
CIRCLE
  8
20
 10
17.7800
 20
18.4150
 30
0.0000
 40
0.3000
  0
CIRCLE
  8
20
 10
16.5100
 20
14.6050
 30
0.0000
 40
0.3000
  0
CIRCLE
  8
20
 10
29.8450
 20
17.1450
 30
0.0000
 40
0.3000
  0
CIRCLE
  8
20
 10
23.4950
 20
11.4300
 30
0.0000
 40
0.3000
  0
CIRCLE
  8
20
 10
28.5750
 20
11.4300
 30
0.0000
 40
0.3000
  0
CIRCLE
  8
20
 10
23.4950
 20
3.8100
 30
0.0000
 40
0.3000
  0
CIRCLE
  8
20
 10
28.5750
 20
3.8100
 30
0.0000
 40
0.3000
  0
CIRCLE
  8
20
 10
6.3500
 20
31.1150
 30
0.0000
 40
0.3000
  0
CIRCLE
  8
20
 10
20.9550
 20
62.8650
 30
0.0000
 40
0.3000
  0
CIRCLE
  8
20
 10
20.9550
 20
68.5800
 30
0.0000
 40
0.3000
  0
POLYLINE
  8
16
 66
1
 10
0.0000
 20
0.0000
 30
0.0000
 40
0.1000
 41
0.1000
 70
0
  0
VERTEX
  8
16
 10
0.0000
 20
0.0000
 30
0.0000
  0
VERTEX
  8
16
 10
0.0000
 20
22.2250
 30
0.0000
  0
SEQEND
  8
0
  0
POLYLINE
  8
16
 66
1
 10
0.0000
 20
0.0000
 30
0.0000
 40
0.0500
 41
0.0500
 70
0
  0
VERTEX
  8
16
 10
0.0250
 20
22.2250
 30
0.0000
 42
1.0000
  0
VERTEX
  8
16
 10
-0.0250
 20
22.2250
 30
0.0000
  0
SEQEND
  8
0
  0
POLYLINE
  8
16
 66
1
 10
0.0000
 20
0.0000
 30
0.0000
 40
0.0500
 41
0.0500
 70
0
  0
VERTEX
  8
16
 10
-0.0250
 20
0.0000
 30
0.0000
 42
1.0000
  0
VERTEX
  8
16
 10
0.0250
 20
0.0000
 30
0.0000
  0
SEQEND
  8
0
  0
POLYLINE
  8
16
 66
1
 10
0.0000
 20
0.0000
 30
0.0000
 40
0.1000
 41
0.1000
 70
0
  0
VERTEX
  8
16
 10
0.0000
 20
22.2250
 30
0.0000
  0
VERTEX
  8
16
 10
1.2700
 20
25.4000
 30
0.0000
  0
SEQEND
  8
0
  0
POLYLINE
  8
16
 66
1
 10
0.0000
 20
0.0000
 30
0.0000
 40
0.0500
 41
0.0500
 70
0
  0
VERTEX
  8
16
 10
1.2932
 20
25.3907
 30
0.0000
 42
1.0000
  0
VERTEX
  8
16
 10
1.2468
 20
25.4093
 30
0.0000
  0
SEQEND
  8
0
  0
POLYLINE
  8
16
 66
1
 10
0.0000
 20
0.0000
 30
0.0000
 40
0.0500
 41
0.0500
 70
0
  0
VERTEX
  8
16
 10
-0.0232
 20
22.2343
 30
0.0000
 42
1.0000
  0
VERTEX
  8
16
 10
0.0232
 20
22.2157
 30
0.0000
  0
SEQEND
  8
0
  0
POLYLINE
  8
16
 66
1
 10
0.0000
 20
0.0000
 30
0.0000
 40
0.1000
 41
0.1000
 70
0
  0
VERTEX
  8
16
 10
34.2900
 20
127.6350
 30
0.0000
  0
VERTEX
  8
16
 10
34.2900
 20
26.0350
 30
0.0000
  0
SEQEND
  8
0
  0
POLYLINE
  8
16
 66
1
 10
0.0000
 20
0.0000
 30
0.0000
 40
0.0500
 41
0.0500
 70
0
  0
VERTEX
  8
16
 10
34.2650
 20
26.0350
 30
0.0000
 42
1.0000
  0
VERTEX
  8
16
 10
34.3150
 20
26.0350
 30
0.0000
  0
SEQEND
  8
0
  0
POLYLINE
  8
16
 66
1
 10
0.0000
 20
0.0000
 30
0.0000
 40
0.0500
 41
0.0500
 70
0
  0
VERTEX
  8
16
 10
34.3150
 20
127.6350
 30
0.0000
 42
1.0000
  0
VERTEX
  8
16
 10
34.2650
 20
127.6350
 30
0.0000
  0
SEQEND
  8
0
  0
POLYLINE
  8
16
 66
1
 10
0.0000
 20
0.0000
 30
0.0000
 40
0.1000
 41
0.1000
 70
0
  0
VERTEX
  8
16
 10
34.2900
 20
26.0350
 30
0.0000
  0
VERTEX
  8
16
 10
35.5600
 20
22.2250
 30
0.0000
  0
SEQEND
  8
0
  0
POLYLINE
  8
16
 66
1
 10
0.0000
 20
0.0000
 30
0.0000
 40
0.0500
 41
0.0500
 70
0
  0
VERTEX
  8
16
 10
35.5363
 20
22.2171
 30
0.0000
 42
1.0000
  0
VERTEX
  8
16
 10
35.5837
 20
22.2329
 30
0.0000
  0
SEQEND
  8
0
  0
POLYLINE
  8
16
 66
1
 10
0.0000
 20
0.0000
 30
0.0000
 40
0.0500
 41
0.0500
 70
0
  0
VERTEX
  8
16
 10
34.3137
 20
26.0429
 30
0.0000
 42
1.0000
  0
VERTEX
  8
16
 10
34.2663
 20
26.0271
 30
0.0000
  0
SEQEND
  8
0
  0
POLYLINE
  8
16
 66
1
 10
0.0000
 20
0.0000
 30
0.0000
 40
0.0500
 41
0.0500
 70
0
  0
VERTEX
  8
16
 10
34.2900
 20
127.6350
 30
0.0000
 42
1.0000
  0
VERTEX
  8
16
 10
1.2700
 20
127.6350
 30
0.0000
  0
SEQEND
  8
0
  0
POLYLINE
  8
16
 66
1
 10
0.0000
 20
0.0000
 30
0.0000
 40
0.0250
 41
0.0250
 70
0
  0
VERTEX
  8
16
 10
34.2775
 20
127.6350
 30
0.0000
 42
1.0000
  0
VERTEX
  8
16
 10
34.3025
 20
127.6350
 30
0.0000
  0
SEQEND
  8
0
  0
POLYLINE
  8
16
 66
1
 10
0.0000
 20
0.0000
 30
0.0000
 40
0.0250
 41
0.0250
 70
0
  0
VERTEX
  8
16
 10
1.2575
 20
127.6350
 30
0.0000
 42
1.0000
  0
VERTEX
  8
16
 10
1.2825
 20
127.6350
 30
0.0000
  0
SEQEND
  8
0
  0
POLYLINE
  8
16
 66
1
 10
0.0000
 20
0.0000
 30
0.0000
 40
0.0500
 41
0.0500
 70
0
  0
VERTEX
  8
16
 10
0.0000
 20
0.0000
 30
0.0000
  0
VERTEX
  8
16
 10
35.5600
 20
0.0000
 30
0.0000
  0
SEQEND
  8
0
  0
POLYLINE
  8
16
 66
1
 10
0.0000
 20
0.0000
 30
0.0000
 40
0.0250
 41
0.0250
 70
0
  0
VERTEX
  8
16
 10
35.5600
 20
-0.0125
 30
0.0000
 42
1.0000
  0
VERTEX
  8
16
 10
35.5600
 20
0.0125
 30
0.0000
  0
SEQEND
  8
0
  0
POLYLINE
  8
16
 66
1
 10
0.0000
 20
0.0000
 30
0.0000
 40
0.0250
 41
0.0250
 70
0
  0
VERTEX
  8
16
 10
0.0000
 20
0.0125
 30
0.0000
 42
1.0000
  0
VERTEX
  8
16
 10
0.0000
 20
-0.0125
 30
0.0000
  0
SEQEND
  8
0
  0
POLYLINE
  8
16
 66
1
 10
0.0000
 20
0.0000
 30
0.0000
 40
0.1000
 41
0.1000
 70
0
  0
VERTEX
  8
16
 10
35.5600
 20
22.2250
 30
0.0000
  0
VERTEX
  8
16
 10
35.5600
 20
0.0000
 30
0.0000
  0
SEQEND
  8
0
  0
POLYLINE
  8
16
 66
1
 10
0.0000
 20
0.0000
 30
0.0000
 40
0.0500
 41
0.0500
 70
0
  0
VERTEX
  8
16
 10
35.5350
 20
0.0000
 30
0.0000
 42
1.0000
  0
VERTEX
  8
16
 10
35.5850
 20
0.0000
 30
0.0000
  0
SEQEND
  8
0
  0
POLYLINE
  8
16
 66
1
 10
0.0000
 20
0.0000
 30
0.0000
 40
0.0500
 41
0.0500
 70
0
  0
VERTEX
  8
16
 10
35.5850
 20
22.2250
 30
0.0000
 42
1.0000
  0
VERTEX
  8
16
 10
35.5350
 20
22.2250
 30
0.0000
  0
SEQEND
  8
0
  0
POLYLINE
  8
16
 66
1
 10
0.0000
 20
0.0000
 30
0.0000
 40
0.1000
 41
0.1000
 70
0
  0
VERTEX
  8
16
 10
1.2700
 20
127.6350
 30
0.0000
  0
VERTEX
  8
16
 10
1.2700
 20
25.4000
 30
0.0000
  0
SEQEND
  8
0
  0
POLYLINE
  8
16
 66
1
 10
0.0000
 20
0.0000
 30
0.0000
 40
0.0500
 41
0.0500
 70
0
  0
VERTEX
  8
16
 10
1.2450
 20
25.4000
 30
0.0000
 42
1.0000
  0
VERTEX
  8
16
 10
1.2950
 20
25.4000
 30
0.0000
  0
SEQEND
  8
0
  0
POLYLINE
  8
16
 66
1
 10
0.0000
 20
0.0000
 30
0.0000
 40
0.0500
 41
0.0500
 70
0
  0
VERTEX
  8
16
 10
1.2950
 20
127.6350
 30
0.0000
 42
1.0000
  0
VERTEX
  8
16
 10
1.2450
 20
127.6350
 30
0.0000
  0
SEQEND
  8
0
  0
POLYLINE
  8
16
 66
1
 10
0.0000
 20
0.0000
 30
0.0000
 40
2.1844
 41
2.1844
 70
0
  0
VERTEX
  8
16
 10
28.5750
 20
3.8100
 30
0.0000
  0
VERTEX
  8
16
 10
28.5750
 20
2.5400
 30
0.0000
  0
SEQEND
  8
0
  0
POLYLINE
  8
16
 66
1
 10
0.0000
 20
0.0000
 30
0.0000
 40
1.0922
 41
1.0922
 70
0
  0
VERTEX
  8
16
 10
28.0289
 20
2.5400
 30
0.0000
 42
1.0000
  0
VERTEX
  8
16
 10
29.1211
 20
2.5400
 30
0.0000
  0
SEQEND
  8
0
  0
POLYLINE
  8
16
 66
1
 10
0.0000
 20
0.0000
 30
0.0000
 40
1.0922
 41
1.0922
 70
0
  0
VERTEX
  8
16
 10
29.1211
 20
3.8100
 30
0.0000
 42
1.0000
  0
VERTEX
  8
16
 10
28.0289
 20
3.8100
 30
0.0000
  0
SEQEND
  8
0
  0
POLYLINE
  8
16
 66
1
 10
0.0000
 20
0.0000
 30
0.0000
 40
2.1844
 41
2.1844
 70
0
  0
VERTEX
  8
16
 10
23.4950
 20
3.8100
 30
0.0000
  0
VERTEX
  8
16
 10
23.4950
 20
2.5400
 30
0.0000
  0
SEQEND
  8
0
  0
POLYLINE
  8
16
 66
1
 10
0.0000
 20
0.0000
 30
0.0000
 40
1.0922
 41
1.0922
 70
0
  0
VERTEX
  8
16
 10
22.9489
 20
2.5400
 30
0.0000
 42
1.0000
  0
VERTEX
  8
16
 10
24.0411
 20
2.5400
 30
0.0000
  0
SEQEND
  8
0
  0
POLYLINE
  8
16
 66
1
 10
0.0000
 20
0.0000
 30
0.0000
 40
1.0922
 41
1.0922
 70
0
  0
VERTEX
  8
16
 10
24.0411
 20
3.8100
 30
0.0000
 42
1.0000
  0
VERTEX
  8
16
 10
22.9489
 20
3.8100
 30
0.0000
  0
SEQEND
  8
0
  0
POLYLINE
  8
16
 66
1
 10
0.0000
 20
0.0000
 30
0.0000
 40
3.8100
 41
3.8100
 70
0
  0
VERTEX
  8
16
 10
30.4800
 20
102.2350
 30
0.0000
  0
VERTEX
  8
16
 10
30.4800
 20
91.4400
 30
0.0000
  0
SEQEND
  8
0
  0
POLYLINE
  8
16
 66
1
 10
0.0000
 20
0.0000
 30
0.0000
 40
1.9050
 41
1.9050
 70
0
  0
VERTEX
  8
16
 10
29.5275
 20
91.4400
 30
0.0000
 42
1.0000
  0
VERTEX
  8
16
 10
31.4325
 20
91.4400
 30
0.0000
  0
SEQEND
  8
0
  0
POLYLINE
  8
16
 66
1
 10
0.0000
 20
0.0000
 30
0.0000
 40
1.9050
 41
1.9050
 70
0
  0
VERTEX
  8
16
 10
31.4325
 20
102.2350
 30
0.0000
 42
1.0000
  0
VERTEX
  8
16
 10
29.5275
 20
102.2350
 30
0.0000
  0
SEQEND
  8
0
  0
POLYLINE
  8
16
 66
1
 10
0.0000
 20
0.0000
 30
0.0000
 40
0.8128
 41
0.8128
 70
0
  0
VERTEX
  8
16
 10
20.9550
 20
13.3350
 30
0.0000
  0
VERTEX
  8
16
 10
24.7650
 20
17.7800
 30
0.0000
  0
SEQEND
  8
0
  0
POLYLINE
  8
16
 66
1
 10
0.0000
 20
0.0000
 30
0.0000
 40
0.4064
 41
0.4064
 70
0
  0
VERTEX
  8
16
 10
24.9193
 20
17.6478
 30
0.0000
 42
1.0000
  0
VERTEX
  8
16
 10
24.6107
 20
17.9122
 30
0.0000
  0
SEQEND
  8
0
  0
POLYLINE
  8
16
 66
1
 10
0.0000
 20
0.0000
 30
0.0000
 40
0.4064
 41
0.4064
 70
0
  0
VERTEX
  8
16
 10
20.8007
 20
13.4672
 30
0.0000
 42
1.0000
  0
VERTEX
  8
16
 10
21.1093
 20
13.2028
 30
0.0000
  0
SEQEND
  8
0
  0
POLYLINE
  8
16
 66
1
 10
0.0000
 20
0.0000
 30
0.0000
 40
0.8128
 41
0.8128
 70
0
  0
VERTEX
  8
16
 10
20.9550
 20
13.3350
 30
0.0000
  0
VERTEX
  8
16
 10
20.9550
 20
6.9850
 30
0.0000
  0
SEQEND
  8
0
  0
POLYLINE
  8
16
 66
1
 10
0.0000
 20
0.0000
 30
0.0000
 40
0.4064
 41
0.4064
 70
0
  0
VERTEX
  8
16
 10
20.7518
 20
6.9850
 30
0.0000
 42
1.0000
  0
VERTEX
  8
16
 10
21.1582
 20
6.9850
 30
0.0000
  0
SEQEND
  8
0
  0
POLYLINE
  8
16
 66
1
 10
0.0000
 20
0.0000
 30
0.0000
 40
0.4064
 41
0.4064
 70
0
  0
VERTEX
  8
16
 10
21.1582
 20
13.3350
 30
0.0000
 42
1.0000
  0
VERTEX
  8
16
 10
20.7518
 20
13.3350
 30
0.0000
  0
SEQEND
  8
0
  0
POLYLINE
  8
16
 66
1
 10
0.0000
 20
0.0000
 30
0.0000
 40
0.8128
 41
0.8128
 70
0
  0
VERTEX
  8
16
 10
20.9550
 20
6.9850
 30
0.0000
  0
VERTEX
  8
16
 10
8.2550
 20
6.9850
 30
0.0000
  0
SEQEND
  8
0
  0
POLYLINE
  8
16
 66
1
 10
0.0000
 20
0.0000
 30
0.0000
 40
0.4064
 41
0.4064
 70
0
  0
VERTEX
  8
16
 10
8.2550
 20
7.1882
 30
0.0000
 42
1.0000
  0
VERTEX
  8
16
 10
8.2550
 20
6.7818
 30
0.0000
  0
SEQEND
  8
0
  0
POLYLINE
  8
16
 66
1
 10
0.0000
 20
0.0000
 30
0.0000
 40
0.4064
 41
0.4064
 70
0
  0
VERTEX
  8
16
 10
20.9550
 20
6.7818
 30
0.0000
 42
1.0000
  0
VERTEX
  8
16
 10
20.9550
 20
7.1882
 30
0.0000
  0
SEQEND
  8
0
  0
POLYLINE
  8
16
 66
1
 10
0.0000
 20
0.0000
 30
0.0000
 40
0.8128
 41
0.8128
 70
0
  0
VERTEX
  8
16
 10
6.9850
 20
10.7950
 30
0.0000
  0
VERTEX
  8
16
 10
8.2550
 20
10.1600
 30
0.0000
  0
SEQEND
  8
0
  0
POLYLINE
  8
16
 66
1
 10
0.0000
 20
0.0000
 30
0.0000
 40
0.4064
 41
0.4064
 70
0
  0
VERTEX
  8
16
 10
8.1641
 20
9.9783
 30
0.0000
 42
1.0000
  0
VERTEX
  8
16
 10
8.3459
 20
10.3417
 30
0.0000
  0
SEQEND
  8
0
  0
POLYLINE
  8
16
 66
1
 10
0.0000
 20
0.0000
 30
0.0000
 40
0.4064
 41
0.4064
 70
0
  0
VERTEX
  8
16
 10
7.0759
 20
10.9767
 30
0.0000
 42
1.0000
  0
VERTEX
  8
16
 10
6.8941
 20
10.6133
 30
0.0000
  0
SEQEND
  8
0
  0
POLYLINE
  8
16
 66
1
 10
0.0000
 20
0.0000
 30
0.0000
 40
0.8128
 41
0.8128
 70
0
  0
VERTEX
  8
16
 10
8.2550
 20
6.9850
 30
0.0000
  0
VERTEX
  8
16
 10
8.2550
 20
10.1600
 30
0.0000
  0
SEQEND
  8
0
  0
POLYLINE
  8
16
 66
1
 10
0.0000
 20
0.0000
 30
0.0000
 40
0.4064
 41
0.4064
 70
0
  0
VERTEX
  8
16
 10
8.4582
 20
10.1600
 30
0.0000
 42
1.0000
  0
VERTEX
  8
16
 10
8.0518
 20
10.1600
 30
0.0000
  0
SEQEND
  8
0
  0
POLYLINE
  8
16
 66
1
 10
0.0000
 20
0.0000
 30
0.0000
 40
0.4064
 41
0.4064
 70
0
  0
VERTEX
  8
16
 10
8.0518
 20
6.9850
 30
0.0000
 42
1.0000
  0
VERTEX
  8
16
 10
8.4582
 20
6.9850
 30
0.0000
  0
SEQEND
  8
0
  0
POLYLINE
  8
16
 66
1
 10
0.0000
 20
0.0000
 30
0.0000
 40
0.8128
 41
0.8128
 70
0
  0
VERTEX
  8
16
 10
24.7650
 20
54.6100
 30
0.0000
  0
VERTEX
  8
16
 10
26.6700
 20
63.5000
 30
0.0000
  0
SEQEND
  8
0
  0
POLYLINE
  8
16
 66
1
 10
0.0000
 20
0.0000
 30
0.0000
 40
0.4064
 41
0.4064
 70
0
  0
VERTEX
  8
16
 10
26.8687
 20
63.4574
 30
0.0000
 42
1.0000
  0
VERTEX
  8
16
 10
26.4713
 20
63.5426
 30
0.0000
  0
SEQEND
  8
0
  0
POLYLINE
  8
16
 66
1
 10
0.0000
 20
0.0000
 30
0.0000
 40
0.4064
 41
0.4064
 70
0
  0
VERTEX
  8
16
 10
24.5663
 20
54.6526
 30
0.0000
 42
1.0000
  0
VERTEX
  8
16
 10
24.9637
 20
54.5674
 30
0.0000
  0
SEQEND
  8
0
  0
POLYLINE
  8
16
 66
1
 10
0.0000
 20
0.0000
 30
0.0000
 40
0.8128
 41
0.8128
 70
0
  0
VERTEX
  8
16
 10
24.7650
 20
17.7800
 30
0.0000
  0
VERTEX
  8
16
 10
24.7650
 20
54.6100
 30
0.0000
  0
SEQEND
  8
0
  0
POLYLINE
  8
16
 66
1
 10
0.0000
 20
0.0000
 30
0.0000
 40
0.4064
 41
0.4064
 70
0
  0
VERTEX
  8
16
 10
24.9682
 20
54.6100
 30
0.0000
 42
1.0000
  0
VERTEX
  8
16
 10
24.5618
 20
54.6100
 30
0.0000
  0
SEQEND
  8
0
  0
POLYLINE
  8
16
 66
1
 10
0.0000
 20
0.0000
 30
0.0000
 40
0.4064
 41
0.4064
 70
0
  0
VERTEX
  8
16
 10
24.5618
 20
17.7800
 30
0.0000
 42
1.0000
  0
VERTEX
  8
16
 10
24.9682
 20
17.7800
 30
0.0000
  0
SEQEND
  8
0
  0
POLYLINE
  8
16
 66
1
 10
0.0000
 20
0.0000
 30
0.0000
 40
0.8128
 41
0.8128
 70
0
  0
VERTEX
  8
16
 10
8.8900
 20
100.9650
 30
0.0000
  0
VERTEX
  8
16
 10
7.6200
 20
100.9650
 30
0.0000
  0
SEQEND
  8
0
  0
POLYLINE
  8
16
 66
1
 10
0.0000
 20
0.0000
 30
0.0000
 40
0.4064
 41
0.4064
 70
0
  0
VERTEX
  8
16
 10
7.6200
 20
101.1682
 30
0.0000
 42
1.0000
  0
VERTEX
  8
16
 10
7.6200
 20
100.7618
 30
0.0000
  0
SEQEND
  8
0
  0
POLYLINE
  8
16
 66
1
 10
0.0000
 20
0.0000
 30
0.0000
 40
0.4064
 41
0.4064
 70
0
  0
VERTEX
  8
16
 10
8.8900
 20
100.7618
 30
0.0000
 42
1.0000
  0
VERTEX
  8
16
 10
8.8900
 20
101.1682
 30
0.0000
  0
SEQEND
  8
0
  0
POLYLINE
  8
16
 66
1
 10
0.0000
 20
0.0000
 30
0.0000
 40
1.9304
 41
1.9304
 70
0
  0
VERTEX
  8
16
 10
19.6850
 20
57.1500
 30
0.0000
  0
VERTEX
  8
16
 10
20.9550
 20
63.5000
 30
0.0000
  0
SEQEND
  8
0
  0
POLYLINE
  8
16
 66
1
 10
0.0000
 20
0.0000
 30
0.0000
 40
0.9652
 41
0.9652
 70
0
  0
VERTEX
  8
16
 10
21.4282
 20
63.4054
 30
0.0000
 42
1.0000
  0
VERTEX
  8
16
 10
20.4818
 20
63.5946
 30
0.0000
  0
SEQEND
  8
0
  0
POLYLINE
  8
16
 66
1
 10
0.0000
 20
0.0000
 30
0.0000
 40
0.9652
 41
0.9652
 70
0
  0
VERTEX
  8
16
 10
19.2118
 20
57.2446
 30
0.0000
 42
1.0000
  0
VERTEX
  8
16
 10
20.1582
 20
57.0554
 30
0.0000
  0
SEQEND
  8
0
  0
POLYLINE
  8
16
 66
1
 10
0.0000
 20
0.0000
 30
0.0000
 40
1.9304
 41
1.9304
 70
0
  0
VERTEX
  8
16
 10
20.9550
 20
67.9450
 30
0.0000
  0
VERTEX
  8
16
 10
20.9550
 20
102.2350
 30
0.0000
  0
SEQEND
  8
0
  0
POLYLINE
  8
16
 66
1
 10
0.0000
 20
0.0000
 30
0.0000
 40
0.9652
 41
0.9652
 70
0
  0
VERTEX
  8
16
 10
21.4376
 20
102.2350
 30
0.0000
 42
1.0000
  0
VERTEX
  8
16
 10
20.4724
 20
102.2350
 30
0.0000
  0
SEQEND
  8
0
  0
POLYLINE
  8
16
 66
1
 10
0.0000
 20
0.0000
 30
0.0000
 40
0.9652
 41
0.9652
 70
0
  0
VERTEX
  8
16
 10
20.4724
 20
67.9450
 30
0.0000
 42
1.0000
  0
VERTEX
  8
16
 10
21.4376
 20
67.9450
 30
0.0000
  0
SEQEND
  8
0
  0
POLYLINE
  8
16
 66
1
 10
0.0000
 20
0.0000
 30
0.0000
 40
2.5400
 41
2.5400
 70
0
  0
VERTEX
  8
16
 10
32.3850
 20
3.1750
 30
0.0000
  0
VERTEX
  8
16
 10
32.3850
 20
15.2400
 30
0.0000
  0
SEQEND
  8
0
  0
POLYLINE
  8
16
 66
1
 10
0.0000
 20
0.0000
 30
0.0000
 40
1.2700
 41
1.2700
 70
0
  0
VERTEX
  8
16
 10
33.0200
 20
15.2400
 30
0.0000
 42
1.0000
  0
VERTEX
  8
16
 10
31.7500
 20
15.2400
 30
0.0000
  0
SEQEND
  8
0
  0
POLYLINE
  8
16
 66
1
 10
0.0000
 20
0.0000
 30
0.0000
 40
1.2700
 41
1.2700
 70
0
  0
VERTEX
  8
16
 10
31.7500
 20
3.1750
 30
0.0000
 42
1.0000
  0
VERTEX
  8
16
 10
33.0200
 20
3.1750
 30
0.0000
  0
SEQEND
  8
0
  0
POLYLINE
  8
16
 66
1
 10
0.0000
 20
0.0000
 30
0.0000
 40
2.5400
 41
2.5400
 70
0
  0
VERTEX
  8
16
 10
32.3850
 20
19.6850
 30
0.0000
  0
VERTEX
  8
16
 10
32.3850
 20
21.5900
 30
0.0000
  0
SEQEND
  8
0
  0
POLYLINE
  8
16
 66
1
 10
0.0000
 20
0.0000
 30
0.0000
 40
1.2700
 41
1.2700
 70
0
  0
VERTEX
  8
16
 10
33.0200
 20
21.5900
 30
0.0000
 42
1.0000
  0
VERTEX
  8
16
 10
31.7500
 20
21.5900
 30
0.0000
  0
SEQEND
  8
0
  0
POLYLINE
  8
16
 66
1
 10
0.0000
 20
0.0000
 30
0.0000
 40
1.2700
 41
1.2700
 70
0
  0
VERTEX
  8
16
 10
31.7500
 20
19.6850
 30
0.0000
 42
1.0000
  0
VERTEX
  8
16
 10
33.0200
 20
19.6850
 30
0.0000
  0
SEQEND
  8
0
  0
POLYLINE
  8
16
 66
1
 10
0.0000
 20
0.0000
 30
0.0000
 40
0.8128
 41
0.8128
 70
0
  0
VERTEX
  8
16
 10
5.7150
 20
36.8300
 30
0.0000
  0
VERTEX
  8
16
 10
5.7150
 20
95.8850
 30
0.0000
  0
SEQEND
  8
0
  0
POLYLINE
  8
16
 66
1
 10
0.0000
 20
0.0000
 30
0.0000
 40
0.4064
 41
0.4064
 70
0
  0
VERTEX
  8
16
 10
5.9182
 20
95.8850
 30
0.0000
 42
1.0000
  0
VERTEX
  8
16
 10
5.5118
 20
95.8850
 30
0.0000
  0
SEQEND
  8
0
  0
POLYLINE
  8
16
 66
1
 10
0.0000
 20
0.0000
 30
0.0000
 40
0.4064
 41
0.4064
 70
0
  0
VERTEX
  8
16
 10
5.5118
 20
36.8300
 30
0.0000
 42
1.0000
  0
VERTEX
  8
16
 10
5.9182
 20
36.8300
 30
0.0000
  0
SEQEND
  8
0
  0
POLYLINE
  8
16
 66
1
 10
0.0000
 20
0.0000
 30
0.0000
 40
0.8128
 41
0.8128
 70
0
  0
VERTEX
  8
16
 10
29.2100
 20
106.0450
 30
0.0000
  0
VERTEX
  8
16
 10
26.6700
 20
106.0450
 30
0.0000
  0
SEQEND
  8
0
  0
POLYLINE
  8
16
 66
1
 10
0.0000
 20
0.0000
 30
0.0000
 40
0.4064
 41
0.4064
 70
0
  0
VERTEX
  8
16
 10
26.6700
 20
106.2482
 30
0.0000
 42
1.0000
  0
VERTEX
  8
16
 10
26.6700
 20
105.8418
 30
0.0000
  0
SEQEND
  8
0
  0
POLYLINE
  8
16
 66
1
 10
0.0000
 20
0.0000
 30
0.0000
 40
0.4064
 41
0.4064
 70
0
  0
VERTEX
  8
16
 10
29.2100
 20
105.8418
 30
0.0000
 42
1.0000
  0
VERTEX
  8
16
 10
29.2100
 20
106.2482
 30
0.0000
  0
SEQEND
  8
0
  0
POLYLINE
  8
16
 66
1
 10
0.0000
 20
0.0000
 30
0.0000
 40
0.8128
 41
0.8128
 70
0
  0
VERTEX
  8
16
 10
26.6700
 20
63.5000
 30
0.0000
  0
VERTEX
  8
16
 10
26.6700
 20
106.0450
 30
0.0000
  0
SEQEND
  8
0
  0
POLYLINE
  8
16
 66
1
 10
0.0000
 20
0.0000
 30
0.0000
 40
0.4064
 41
0.4064
 70
0
  0
VERTEX
  8
16
 10
26.8732
 20
106.0450
 30
0.0000
 42
1.0000
  0
VERTEX
  8
16
 10
26.4668
 20
106.0450
 30
0.0000
  0
SEQEND
  8
0
  0
POLYLINE
  8
16
 66
1
 10
0.0000
 20
0.0000
 30
0.0000
 40
0.4064
 41
0.4064
 70
0
  0
VERTEX
  8
16
 10
26.4668
 20
63.5000
 30
0.0000
 42
1.0000
  0
VERTEX
  8
16
 10
26.8732
 20
63.5000
 30
0.0000
  0
SEQEND
  8
0
  0
POLYLINE
  8
16
 66
1
 10
0.0000
 20
0.0000
 30
0.0000
 40
1.9304
 41
1.9304
 70
0
  0
VERTEX
  8
16
 10
20.9550
 20
102.2350
 30
0.0000
  0
VERTEX
  8
16
 10
19.0500
 20
104.7750
 30
0.0000
  0
SEQEND
  8
0
  0
POLYLINE
  8
16
 66
1
 10
0.0000
 20
0.0000
 30
0.0000
 40
0.9652
 41
0.9652
 70
0
  0
VERTEX
  8
16
 10
19.4361
 20
105.0646
 30
0.0000
 42
1.0000
  0
VERTEX
  8
16
 10
18.6639
 20
104.4854
 30
0.0000
  0
SEQEND
  8
0
  0
POLYLINE
  8
16
 66
1
 10
0.0000
 20
0.0000
 30
0.0000
 40
0.9652
 41
0.9652
 70
0
  0
VERTEX
  8
16
 10
20.5689
 20
101.9454
 30
0.0000
 42
1.0000
  0
VERTEX
  8
16
 10
21.3411
 20
102.5246
 30
0.0000
  0
SEQEND
  8
0
  0
POLYLINE
  8
16
 66
1
 10
0.0000
 20
0.0000
 30
0.0000
 40
0.4064
 41
0.4064
 70
0
  0
VERTEX
  8
16
 10
3.1750
 20
118.7450
 30
0.0000
  0
VERTEX
  8
16
 10
8.8900
 20
118.7450
 30
0.0000
  0
SEQEND
  8
0
  0
POLYLINE
  8
16
 66
1
 10
0.0000
 20
0.0000
 30
0.0000
 40
0.2032
 41
0.2032
 70
0
  0
VERTEX
  8
16
 10
8.8900
 20
118.6434
 30
0.0000
 42
1.0000
  0
VERTEX
  8
16
 10
8.8900
 20
118.8466
 30
0.0000
  0
SEQEND
  8
0
  0
POLYLINE
  8
16
 66
1
 10
0.0000
 20
0.0000
 30
0.0000
 40
0.2032
 41
0.2032
 70
0
  0
VERTEX
  8
16
 10
3.1750
 20
118.8466
 30
0.0000
 42
1.0000
  0
VERTEX
  8
16
 10
3.1750
 20
118.6434
 30
0.0000
  0
SEQEND
  8
0
  0
POLYLINE
  8
16
 66
1
 10
0.0000
 20
0.0000
 30
0.0000
 40
0.4064
 41
0.4064
 70
0
  0
VERTEX
  8
16
 10
3.1750
 20
26.0350
 30
0.0000
  0
VERTEX
  8
16
 10
8.2550
 20
26.0350
 30
0.0000
  0
SEQEND
  8
0
  0
POLYLINE
  8
16
 66
1
 10
0.0000
 20
0.0000
 30
0.0000
 40
0.2032
 41
0.2032
 70
0
  0
VERTEX
  8
16
 10
8.2550
 20
25.9334
 30
0.0000
 42
1.0000
  0
VERTEX
  8
16
 10
8.2550
 20
26.1366
 30
0.0000
  0
SEQEND
  8
0
  0
POLYLINE
  8
16
 66
1
 10
0.0000
 20
0.0000
 30
0.0000
 40
0.2032
 41
0.2032
 70
0
  0
VERTEX
  8
16
 10
3.1750
 20
26.1366
 30
0.0000
 42
1.0000
  0
VERTEX
  8
16
 10
3.1750
 20
25.9334
 30
0.0000
  0
SEQEND
  8
0
  0
POLYLINE
  8
16
 66
1
 10
0.0000
 20
0.0000
 30
0.0000
 40
0.4064
 41
0.4064
 70
0
  0
VERTEX
  8
16
 10
5.7150
 20
28.5750
 30
0.0000
  0
VERTEX
  8
16
 10
5.7150
 20
23.4950
 30
0.0000
  0
SEQEND
  8
0
  0
POLYLINE
  8
16
 66
1
 10
0.0000
 20
0.0000
 30
0.0000
 40
0.2032
 41
0.2032
 70
0
  0
VERTEX
  8
16
 10
5.6134
 20
23.4950
 30
0.0000
 42
1.0000
  0
VERTEX
  8
16
 10
5.8166
 20
23.4950
 30
0.0000
  0
SEQEND
  8
0
  0
POLYLINE
  8
16
 66
1
 10
0.0000
 20
0.0000
 30
0.0000
 40
0.2032
 41
0.2032
 70
0
  0
VERTEX
  8
16
 10
5.8166
 20
28.5750
 30
0.0000
 42
1.0000
  0
VERTEX
  8
16
 10
5.6134
 20
28.5750
 30
0.0000
  0
SEQEND
  8
0
  0
POLYLINE
  8
16
 66
1
 10
0.0000
 20
0.0000
 30
0.0000
 40
1.7780
 41
1.7780
 70
0
  0
VERTEX
  8
16
 10
29.2100
 20
46.3550
 30
0.0000
  0
VERTEX
  8
16
 10
29.8450
 20
46.3550
 30
0.0000
  0
SEQEND
  8
0
  0
POLYLINE
  8
16
 66
1
 10
0.0000
 20
0.0000
 30
0.0000
 40
0.8890
 41
0.8890
 70
0
  0
VERTEX
  8
16
 10
29.8450
 20
45.9105
 30
0.0000
 42
1.0000
  0
VERTEX
  8
16
 10
29.8450
 20
46.7995
 30
0.0000
  0
SEQEND
  8
0
  0
POLYLINE
  8
16
 66
1
 10
0.0000
 20
0.0000
 30
0.0000
 40
0.8890
 41
0.8890
 70
0
  0
VERTEX
  8
16
 10
29.2100
 20
46.7995
 30
0.0000
 42
1.0000
  0
VERTEX
  8
16
 10
29.2100
 20
45.9105
 30
0.0000
  0
SEQEND
  8
0
  0
POLYLINE
  8
16
 66
1
 10
0.0000
 20
0.0000
 30
0.0000
 40
0.8128
 41
0.8128
 70
0
  0
VERTEX
  8
16
 10
28.5750
 20
53.9750
 30
0.0000
  0
VERTEX
  8
16
 10
26.6700
 20
53.9750
 30
0.0000
  0
SEQEND
  8
0
  0
POLYLINE
  8
16
 66
1
 10
0.0000
 20
0.0000
 30
0.0000
 40
0.4064
 41
0.4064
 70
0
  0
VERTEX
  8
16
 10
26.6700
 20
54.1782
 30
0.0000
 42
1.0000
  0
VERTEX
  8
16
 10
26.6700
 20
53.7718
 30
0.0000
  0
SEQEND
  8
0
  0
POLYLINE
  8
16
 66
1
 10
0.0000
 20
0.0000
 30
0.0000
 40
0.4064
 41
0.4064
 70
0
  0
VERTEX
  8
16
 10
28.5750
 20
53.7718
 30
0.0000
 42
1.0000
  0
VERTEX
  8
16
 10
28.5750
 20
54.1782
 30
0.0000
  0
SEQEND
  8
0
  0
POLYLINE
  8
16
 66
1
 10
0.0000
 20
0.0000
 30
0.0000
 40
0.8128
 41
0.8128
 70
0
  0
VERTEX
  8
16
 10
26.6700
 20
17.1450
 30
0.0000
  0
VERTEX
  8
16
 10
23.4950
 20
11.4300
 30
0.0000
  0
SEQEND
  8
0
  0
POLYLINE
  8
16
 66
1
 10
0.0000
 20
0.0000
 30
0.0000
 40
0.4064
 41
0.4064
 70
0
  0
VERTEX
  8
16
 10
23.3174
 20
11.5287
 30
0.0000
 42
1.0000
  0
VERTEX
  8
16
 10
23.6726
 20
11.3313
 30
0.0000
  0
SEQEND
  8
0
  0
POLYLINE
  8
16
 66
1
 10
0.0000
 20
0.0000
 30
0.0000
 40
0.4064
 41
0.4064
 70
0
  0
VERTEX
  8
16
 10
26.8476
 20
17.0463
 30
0.0000
 42
1.0000
  0
VERTEX
  8
16
 10
26.4924
 20
17.2437
 30
0.0000
  0
SEQEND
  8
0
  0
POLYLINE
  8
16
 66
1
 10
0.0000
 20
0.0000
 30
0.0000
 40
2.1844
 41
2.1844
 70
0
  0
VERTEX
  8
16
 10
23.4950
 20
11.4300
 30
0.0000
  0
VERTEX
  8
16
 10
23.4950
 20
12.7000
 30
0.0000
  0
SEQEND
  8
0
  0
POLYLINE
  8
16
 66
1
 10
0.0000
 20
0.0000
 30
0.0000
 40
1.0922
 41
1.0922
 70
0
  0
VERTEX
  8
16
 10
24.0411
 20
12.7000
 30
0.0000
 42
1.0000
  0
VERTEX
  8
16
 10
22.9489
 20
12.7000
 30
0.0000
  0
SEQEND
  8
0
  0
POLYLINE
  8
16
 66
1
 10
0.0000
 20
0.0000
 30
0.0000
 40
1.0922
 41
1.0922
 70
0
  0
VERTEX
  8
16
 10
22.9489
 20
11.4300
 30
0.0000
 42
1.0000
  0
VERTEX
  8
16
 10
24.0411
 20
11.4300
 30
0.0000
  0
SEQEND
  8
0
  0
POLYLINE
  8
16
 66
1
 10
0.0000
 20
0.0000
 30
0.0000
 40
0.8128
 41
0.8128
 70
0
  0
VERTEX
  8
16
 10
26.6700
 20
53.9750
 30
0.0000
  0
VERTEX
  8
16
 10
26.6700
 20
17.1450
 30
0.0000
  0
SEQEND
  8
0
  0
POLYLINE
  8
16
 66
1
 10
0.0000
 20
0.0000
 30
0.0000
 40
0.4064
 41
0.4064
 70
0
  0
VERTEX
  8
16
 10
26.4668
 20
17.1450
 30
0.0000
 42
1.0000
  0
VERTEX
  8
16
 10
26.8732
 20
17.1450
 30
0.0000
  0
SEQEND
  8
0
  0
POLYLINE
  8
16
 66
1
 10
0.0000
 20
0.0000
 30
0.0000
 40
0.4064
 41
0.4064
 70
0
  0
VERTEX
  8
16
 10
26.8732
 20
53.9750
 30
0.0000
 42
1.0000
  0
VERTEX
  8
16
 10
26.4668
 20
53.9750
 30
0.0000
  0
SEQEND
  8
0
  0
POLYLINE
  8
16
 66
1
 10
0.0000
 20
0.0000
 30
0.0000
 40
0.8128
 41
0.8128
 70
0
  0
VERTEX
  8
16
 10
22.8600
 20
58.4200
 30
0.0000
  0
VERTEX
  8
16
 10
24.1300
 20
64.7700
 30
0.0000
  0
SEQEND
  8
0
  0
POLYLINE
  8
16
 66
1
 10
0.0000
 20
0.0000
 30
0.0000
 40
0.4064
 41
0.4064
 70
0
  0
VERTEX
  8
16
 10
24.3293
 20
64.7301
 30
0.0000
 42
1.0000
  0
VERTEX
  8
16
 10
23.9307
 20
64.8099
 30
0.0000
  0
SEQEND
  8
0
  0
POLYLINE
  8
16
 66
1
 10
0.0000
 20
0.0000
 30
0.0000
 40
0.4064
 41
0.4064
 70
0
  0
VERTEX
  8
16
 10
22.6607
 20
58.4599
 30
0.0000
 42
1.0000
  0
VERTEX
  8
16
 10
23.0593
 20
58.3801
 30
0.0000
  0
SEQEND
  8
0
  0
POLYLINE
  8
16
 66
1
 10
0.0000
 20
0.0000
 30
0.0000
 40
0.8128
 41
0.8128
 70
0
  0
VERTEX
  8
16
 10
24.1300
 20
64.7700
 30
0.0000
  0
VERTEX
  8
16
 10
24.1300
 20
112.3950
 30
0.0000
  0
SEQEND
  8
0
  0
POLYLINE
  8
16
 66
1
 10
0.0000
 20
0.0000
 30
0.0000
 40
0.4064
 41
0.4064
 70
0
  0
VERTEX
  8
16
 10
24.3332
 20
112.3950
 30
0.0000
 42
1.0000
  0
VERTEX
  8
16
 10
23.9268
 20
112.3950
 30
0.0000
  0
SEQEND
  8
0
  0
POLYLINE
  8
16
 66
1
 10
0.0000
 20
0.0000
 30
0.0000
 40
0.4064
 41
0.4064
 70
0
  0
VERTEX
  8
16
 10
23.9268
 20
64.7700
 30
0.0000
 42
1.0000
  0
VERTEX
  8
16
 10
24.3332
 20
64.7700
 30
0.0000
  0
SEQEND
  8
0
  0
POLYLINE
  8
16
 66
1
 10
0.0000
 20
0.0000
 30
0.0000
 40
1.7780
 41
1.7780
 70
0
  0
VERTEX
  8
16
 10
30.4800
 20
112.3950
 30
0.0000
  0
VERTEX
  8
16
 10
29.8450
 20
112.3950
 30
0.0000
  0
SEQEND
  8
0
  0
POLYLINE
  8
16
 66
1
 10
0.0000
 20
0.0000
 30
0.0000
 40
0.8890
 41
0.8890
 70
0
  0
VERTEX
  8
16
 10
29.8450
 20
112.8395
 30
0.0000
 42
1.0000
  0
VERTEX
  8
16
 10
29.8450
 20
111.9505
 30
0.0000
  0
SEQEND
  8
0
  0
POLYLINE
  8
16
 66
1
 10
0.0000
 20
0.0000
 30
0.0000
 40
0.8890
 41
0.8890
 70
0
  0
VERTEX
  8
16
 10
30.4800
 20
111.9505
 30
0.0000
 42
1.0000
  0
VERTEX
  8
16
 10
30.4800
 20
112.8395
 30
0.0000
  0
SEQEND
  8
0
  0
POLYLINE
  8
16
 66
1
 10
0.0000
 20
0.0000
 30
0.0000
 40
0.8128
 41
0.8128
 70
0
  0
VERTEX
  8
16
 10
24.1300
 20
112.3950
 30
0.0000
  0
VERTEX
  8
16
 10
29.8450
 20
112.3950
 30
0.0000
  0
SEQEND
  8
0
  0
POLYLINE
  8
16
 66
1
 10
0.0000
 20
0.0000
 30
0.0000
 40
0.4064
 41
0.4064
 70
0
  0
VERTEX
  8
16
 10
29.8450
 20
112.1918
 30
0.0000
 42
1.0000
  0
VERTEX
  8
16
 10
29.8450
 20
112.5982
 30
0.0000
  0
SEQEND
  8
0
  0
POLYLINE
  8
16
 66
1
 10
0.0000
 20
0.0000
 30
0.0000
 40
0.4064
 41
0.4064
 70
0
  0
VERTEX
  8
16
 10
24.1300
 20
112.5982
 30
0.0000
 42
1.0000
  0
VERTEX
  8
16
 10
24.1300
 20
112.1918
 30
0.0000
  0
SEQEND
  8
0
  0
POLYLINE
  8
16
 66
1
 10
0.0000
 20
0.0000
 30
0.0000
 40
0.8128
 41
0.8128
 70
0
  0
VERTEX
  8
16
 10
19.0500
 20
13.9700
 30
0.0000
  0
VERTEX
  8
16
 10
22.8600
 20
19.0500
 30
0.0000
  0
SEQEND
  8
0
  0
POLYLINE
  8
16
 66
1
 10
0.0000
 20
0.0000
 30
0.0000
 40
0.4064
 41
0.4064
 70
0
  0
VERTEX
  8
16
 10
23.0226
 20
18.9281
 30
0.0000
 42
1.0000
  0
VERTEX
  8
16
 10
22.6974
 20
19.1719
 30
0.0000
  0
SEQEND
  8
0
  0
POLYLINE
  8
16
 66
1
 10
0.0000
 20
0.0000
 30
0.0000
 40
0.4064
 41
0.4064
 70
0
  0
VERTEX
  8
16
 10
18.8874
 20
14.0919
 30
0.0000
 42
1.0000
  0
VERTEX
  8
16
 10
19.2126
 20
13.8481
 30
0.0000
  0
SEQEND
  8
0
  0
POLYLINE
  8
16
 66
1
 10
0.0000
 20
0.0000
 30
0.0000
 40
0.8128
 41
0.8128
 70
0
  0
VERTEX
  8
16
 10
6.9850
 20
13.3350
 30
0.0000
  0
VERTEX
  8
16
 10
10.1600
 20
12.0650
 30
0.0000
  0
SEQEND
  8
0
  0
POLYLINE
  8
16
 66
1
 10
0.0000
 20
0.0000
 30
0.0000
 40
0.4064
 41
0.4064
 70
0
  0
VERTEX
  8
16
 10
10.0845
 20
11.8763
 30
0.0000
 42
1.0000
  0
VERTEX
  8
16
 10
10.2355
 20
12.2537
 30
0.0000
  0
SEQEND
  8
0
  0
POLYLINE
  8
16
 66
1
 10
0.0000
 20
0.0000
 30
0.0000
 40
0.4064
 41
0.4064
 70
0
  0
VERTEX
  8
16
 10
7.0605
 20
13.5237
 30
0.0000
 42
1.0000
  0
VERTEX
  8
16
 10
6.9095
 20
13.1463
 30
0.0000
  0
SEQEND
  8
0
  0
POLYLINE
  8
16
 66
1
 10
0.0000
 20
0.0000
 30
0.0000
 40
0.8128
 41
0.8128
 70
0
  0
VERTEX
  8
16
 10
19.0500
 20
13.9700
 30
0.0000
  0
VERTEX
  8
16
 10
19.0500
 20
8.8900
 30
0.0000
  0
SEQEND
  8
0
  0
POLYLINE
  8
16
 66
1
 10
0.0000
 20
0.0000
 30
0.0000
 40
0.4064
 41
0.4064
 70
0
  0
VERTEX
  8
16
 10
18.8468
 20
8.8900
 30
0.0000
 42
1.0000
  0
VERTEX
  8
16
 10
19.2532
 20
8.8900
 30
0.0000
  0
SEQEND
  8
0
  0
POLYLINE
  8
16
 66
1
 10
0.0000
 20
0.0000
 30
0.0000
 40
0.4064
 41
0.4064
 70
0
  0
VERTEX
  8
16
 10
19.2532
 20
13.9700
 30
0.0000
 42
1.0000
  0
VERTEX
  8
16
 10
18.8468
 20
13.9700
 30
0.0000
  0
SEQEND
  8
0
  0
POLYLINE
  8
16
 66
1
 10
0.0000
 20
0.0000
 30
0.0000
 40
0.8128
 41
0.8128
 70
0
  0
VERTEX
  8
16
 10
19.0500
 20
8.8900
 30
0.0000
  0
VERTEX
  8
16
 10
10.1600
 20
8.8900
 30
0.0000
  0
SEQEND
  8
0
  0
POLYLINE
  8
16
 66
1
 10
0.0000
 20
0.0000
 30
0.0000
 40
0.4064
 41
0.4064
 70
0
  0
VERTEX
  8
16
 10
10.1600
 20
9.0932
 30
0.0000
 42
1.0000
  0
VERTEX
  8
16
 10
10.1600
 20
8.6868
 30
0.0000
  0
SEQEND
  8
0
  0
POLYLINE
  8
16
 66
1
 10
0.0000
 20
0.0000
 30
0.0000
 40
0.4064
 41
0.4064
 70
0
  0
VERTEX
  8
16
 10
19.0500
 20
8.6868
 30
0.0000
 42
1.0000
  0
VERTEX
  8
16
 10
19.0500
 20
9.0932
 30
0.0000
  0
SEQEND
  8
0
  0
POLYLINE
  8
16
 66
1
 10
0.0000
 20
0.0000
 30
0.0000
 40
0.8128
 41
0.8128
 70
0
  0
VERTEX
  8
16
 10
10.1600
 20
8.8900
 30
0.0000
  0
VERTEX
  8
16
 10
10.1600
 20
12.0650
 30
0.0000
  0
SEQEND
  8
0
  0
POLYLINE
  8
16
 66
1
 10
0.0000
 20
0.0000
 30
0.0000
 40
0.4064
 41
0.4064
 70
0
  0
VERTEX
  8
16
 10
10.3632
 20
12.0650
 30
0.0000
 42
1.0000
  0
VERTEX
  8
16
 10
9.9568
 20
12.0650
 30
0.0000
  0
SEQEND
  8
0
  0
POLYLINE
  8
16
 66
1
 10
0.0000
 20
0.0000
 30
0.0000
 40
0.4064
 41
0.4064
 70
0
  0
VERTEX
  8
16
 10
9.9568
 20
8.8900
 30
0.0000
 42
1.0000
  0
VERTEX
  8
16
 10
10.3632
 20
8.8900
 30
0.0000
  0
SEQEND
  8
0
  0
POLYLINE
  8
16
 66
1
 10
0.0000
 20
0.0000
 30
0.0000
 40
0.8128
 41
0.8128
 70
0
  0
VERTEX
  8
16
 10
22.8600
 20
58.4200
 30
0.0000
  0
VERTEX
  8
16
 10
22.8600
 20
19.0500
 30
0.0000
  0
SEQEND
  8
0
  0
POLYLINE
  8
16
 66
1
 10
0.0000
 20
0.0000
 30
0.0000
 40
0.4064
 41
0.4064
 70
0
  0
VERTEX
  8
16
 10
22.6568
 20
19.0500
 30
0.0000
 42
1.0000
  0
VERTEX
  8
16
 10
23.0632
 20
19.0500
 30
0.0000
  0
SEQEND
  8
0
  0
POLYLINE
  8
16
 66
1
 10
0.0000
 20
0.0000
 30
0.0000
 40
0.4064
 41
0.4064
 70
0
  0
VERTEX
  8
16
 10
23.0632
 20
58.4200
 30
0.0000
 42
1.0000
  0
VERTEX
  8
16
 10
22.6568
 20
58.4200
 30
0.0000
  0
SEQEND
  8
0
  0
POLYLINE
  8
16
 66
1
 10
0.0000
 20
0.0000
 30
0.0000
 40
0.8128
 41
0.8128
 70
0
  0
VERTEX
  8
16
 10
23.4950
 20
10.7950
 30
0.0000
  0
VERTEX
  8
16
 10
23.4950
 20
4.4450
 30
0.0000
  0
SEQEND
  8
0
  0
POLYLINE
  8
16
 66
1
 10
0.0000
 20
0.0000
 30
0.0000
 40
0.4064
 41
0.4064
 70
0
  0
VERTEX
  8
16
 10
23.2918
 20
4.4450
 30
0.0000
 42
1.0000
  0
VERTEX
  8
16
 10
23.6982
 20
4.4450
 30
0.0000
  0
SEQEND
  8
0
  0
POLYLINE
  8
16
 66
1
 10
0.0000
 20
0.0000
 30
0.0000
 40
0.4064
 41
0.4064
 70
0
  0
VERTEX
  8
16
 10
23.6982
 20
10.7950
 30
0.0000
 42
1.0000
  0
VERTEX
  8
16
 10
23.2918
 20
10.7950
 30
0.0000
  0
SEQEND
  8
0
  0
POLYLINE
  8
16
 66
1
 10
0.0000
 20
0.0000
 30
0.0000
 40
0.8128
 41
0.8128
 70
0
  0
VERTEX
  8
16
 10
28.5750
 20
10.7950
 30
0.0000
  0
VERTEX
  8
16
 10
28.5750
 20
4.4450
 30
0.0000
  0
SEQEND
  8
0
  0
POLYLINE
  8
16
 66
1
 10
0.0000
 20
0.0000
 30
0.0000
 40
0.4064
 41
0.4064
 70
0
  0
VERTEX
  8
16
 10
28.3718
 20
4.4450
 30
0.0000
 42
1.0000
  0
VERTEX
  8
16
 10
28.7782
 20
4.4450
 30
0.0000
  0
SEQEND
  8
0
  0
POLYLINE
  8
16
 66
1
 10
0.0000
 20
0.0000
 30
0.0000
 40
0.4064
 41
0.4064
 70
0
  0
VERTEX
  8
16
 10
28.7782
 20
10.7950
 30
0.0000
 42
1.0000
  0
VERTEX
  8
16
 10
28.3718
 20
10.7950
 30
0.0000
  0
SEQEND
  8
0
  0
POLYLINE
  8
16
 66
1
 10
0.0000
 20
0.0000
 30
0.0000
 40
0.8128
 41
0.8128
 70
0
  0
VERTEX
  8
16
 10
29.2100
 20
17.7800
 30
0.0000
  0
VERTEX
  8
16
 10
29.2100
 20
45.7200
 30
0.0000
  0
SEQEND
  8
0
  0
POLYLINE
  8
16
 66
1
 10
0.0000
 20
0.0000
 30
0.0000
 40
0.4064
 41
0.4064
 70
0
  0
VERTEX
  8
16
 10
29.4132
 20
45.7200
 30
0.0000
 42
1.0000
  0
VERTEX
  8
16
 10
29.0068
 20
45.7200
 30
0.0000
  0
SEQEND
  8
0
  0
POLYLINE
  8
16
 66
1
 10
0.0000
 20
0.0000
 30
0.0000
 40
0.4064
 41
0.4064
 70
0
  0
VERTEX
  8
16
 10
29.0068
 20
17.7800
 30
0.0000
 42
1.0000
  0
VERTEX
  8
16
 10
29.4132
 20
17.7800
 30
0.0000
  0
SEQEND
  8
0
  0
POLYLINE
  8
16
 66
1
 10
0.0000
 20
0.0000
 30
0.0000
 40
1.6764
 41
1.6764
 70
0
  0
VERTEX
  8
16
 10
6.3500
 20
36.1950
 30
0.0000
  0
VERTEX
  8
16
 10
5.7150
 20
36.1950
 30
0.0000
  0
SEQEND
  8
0
  0
POLYLINE
  8
16
 66
1
 10
0.0000
 20
0.0000
 30
0.0000
 40
0.8382
 41
0.8382
 70
0
  0
VERTEX
  8
16
 10
5.7150
 20
36.6141
 30
0.0000
 42
1.0000
  0
VERTEX
  8
16
 10
5.7150
 20
35.7759
 30
0.0000
  0
SEQEND
  8
0
  0
POLYLINE
  8
16
 66
1
 10
0.0000
 20
0.0000
 30
0.0000
 40
0.8382
 41
0.8382
 70
0
  0
VERTEX
  8
16
 10
6.3500
 20
35.7759
 30
0.0000
 42
1.0000
  0
VERTEX
  8
16
 10
6.3500
 20
36.6141
 30
0.0000
  0
SEQEND
  8
0
  0
POLYLINE
  8
16
 66
1
 10
0.0000
 20
0.0000
 30
0.0000
 40
1.6764
 41
1.6764
 70
0
  0
VERTEX
  8
16
 10
6.3500
 20
33.6550
 30
0.0000
  0
VERTEX
  8
16
 10
5.7150
 20
33.6550
 30
0.0000
  0
SEQEND
  8
0
  0
POLYLINE
  8
16
 66
1
 10
0.0000
 20
0.0000
 30
0.0000
 40
0.8382
 41
0.8382
 70
0
  0
VERTEX
  8
16
 10
5.7150
 20
34.0741
 30
0.0000
 42
1.0000
  0
VERTEX
  8
16
 10
5.7150
 20
33.2359
 30
0.0000
  0
SEQEND
  8
0
  0
POLYLINE
  8
16
 66
1
 10
0.0000
 20
0.0000
 30
0.0000
 40
0.8382
 41
0.8382
 70
0
  0
VERTEX
  8
16
 10
6.3500
 20
33.2359
 30
0.0000
 42
1.0000
  0
VERTEX
  8
16
 10
6.3500
 20
34.0741
 30
0.0000
  0
SEQEND
  8
0
  0
POLYLINE
  8
16
 66
1
 10
0.0000
 20
0.0000
 30
0.0000
 40
1.6764
 41
1.6764
 70
0
  0
VERTEX
  8
16
 10
6.3500
 20
31.1150
 30
0.0000
  0
VERTEX
  8
16
 10
5.7150
 20
31.1150
 30
0.0000
  0
SEQEND
  8
0
  0
POLYLINE
  8
16
 66
1
 10
0.0000
 20
0.0000
 30
0.0000
 40
0.8382
 41
0.8382
 70
0
  0
VERTEX
  8
16
 10
5.7150
 20
31.5341
 30
0.0000
 42
1.0000
  0
VERTEX
  8
16
 10
5.7150
 20
30.6959
 30
0.0000
  0
SEQEND
  8
0
  0
POLYLINE
  8
16
 66
1
 10
0.0000
 20
0.0000
 30
0.0000
 40
0.8382
 41
0.8382
 70
0
  0
VERTEX
  8
16
 10
6.3500
 20
30.6959
 30
0.0000
 42
1.0000
  0
VERTEX
  8
16
 10
6.3500
 20
31.5341
 30
0.0000
  0
SEQEND
  8
0
  0
POLYLINE
  8
16
 66
1
 10
0.0000
 20
0.0000
 30
0.0000
 40
1.6764
 41
1.6764
 70
0
  0
VERTEX
  8
16
 10
6.3500
 20
13.3350
 30
0.0000
  0
VERTEX
  8
16
 10
5.7150
 20
13.3350
 30
0.0000
  0
SEQEND
  8
0
  0
POLYLINE
  8
16
 66
1
 10
0.0000
 20
0.0000
 30
0.0000
 40
0.8382
 41
0.8382
 70
0
  0
VERTEX
  8
16
 10
5.7150
 20
13.7541
 30
0.0000
 42
1.0000
  0
VERTEX
  8
16
 10
5.7150
 20
12.9159
 30
0.0000
  0
SEQEND
  8
0
  0
POLYLINE
  8
16
 66
1
 10
0.0000
 20
0.0000
 30
0.0000
 40
0.8382
 41
0.8382
 70
0
  0
VERTEX
  8
16
 10
6.3500
 20
12.9159
 30
0.0000
 42
1.0000
  0
VERTEX
  8
16
 10
6.3500
 20
13.7541
 30
0.0000
  0
SEQEND
  8
0
  0
POLYLINE
  8
16
 66
1
 10
0.0000
 20
0.0000
 30
0.0000
 40
1.6764
 41
1.6764
 70
0
  0
VERTEX
  8
16
 10
6.3500
 20
10.7950
 30
0.0000
  0
VERTEX
  8
16
 10
5.7150
 20
10.7950
 30
0.0000
  0
SEQEND
  8
0
  0
POLYLINE
  8
16
 66
1
 10
0.0000
 20
0.0000
 30
0.0000
 40
0.8382
 41
0.8382
 70
0
  0
VERTEX
  8
16
 10
5.7150
 20
11.2141
 30
0.0000
 42
1.0000
  0
VERTEX
  8
16
 10
5.7150
 20
10.3759
 30
0.0000
  0
SEQEND
  8
0
  0
POLYLINE
  8
16
 66
1
 10
0.0000
 20
0.0000
 30
0.0000
 40
0.8382
 41
0.8382
 70
0
  0
VERTEX
  8
16
 10
6.3500
 20
10.3759
 30
0.0000
 42
1.0000
  0
VERTEX
  8
16
 10
6.3500
 20
11.2141
 30
0.0000
  0
SEQEND
  8
0
  0
POLYLINE
  8
16
 66
1
 10
0.0000
 20
0.0000
 30
0.0000
 40
3.8100
 41
3.8100
 70
0
  0
VERTEX
  8
16
 10
6.9850
 20
133.3500
 30
0.0000
  0
VERTEX
  8
16
 10
6.9850
 20
124.4600
 30
0.0000
  0
SEQEND
  8
0
  0
POLYLINE
  8
16
 66
1
 10
0.0000
 20
0.0000
 30
0.0000
 40
1.9050
 41
1.9050
 70
0
  0
VERTEX
  8
16
 10
6.0325
 20
124.4600
 30
0.0000
 42
1.0000
  0
VERTEX
  8
16
 10
7.9375
 20
124.4600
 30
0.0000
  0
SEQEND
  8
0
  0
POLYLINE
  8
16
 66
1
 10
0.0000
 20
0.0000
 30
0.0000
 40
1.9050
 41
1.9050
 70
0
  0
VERTEX
  8
16
 10
7.9375
 20
133.3500
 30
0.0000
 42
1.0000
  0
VERTEX
  8
16
 10
6.0325
 20
133.3500
 30
0.0000
  0
SEQEND
  8
0
  0
POLYLINE
  8
16
 66
1
 10
0.0000
 20
0.0000
 30
0.0000
 40
3.8100
 41
3.8100
 70
0
  0
VERTEX
  8
16
 10
28.5750
 20
133.3500
 30
0.0000
  0
VERTEX
  8
16
 10
28.5750
 20
124.4600
 30
0.0000
  0
SEQEND
  8
0
  0
POLYLINE
  8
16
 66
1
 10
0.0000
 20
0.0000
 30
0.0000
 40
1.9050
 41
1.9050
 70
0
  0
VERTEX
  8
16
 10
27.6225
 20
124.4600
 30
0.0000
 42
1.0000
  0
VERTEX
  8
16
 10
29.5275
 20
124.4600
 30
0.0000
  0
SEQEND
  8
0
  0
POLYLINE
  8
16
 66
1
 10
0.0000
 20
0.0000
 30
0.0000
 40
1.9050
 41
1.9050
 70
0
  0
VERTEX
  8
16
 10
29.5275
 20
133.3500
 30
0.0000
 42
1.0000
  0
VERTEX
  8
16
 10
27.6225
 20
133.3500
 30
0.0000
  0
SEQEND
  8
0
  0
POLYLINE
  8
16
 66
1
 10
0.0000
 20
0.0000
 30
0.0000
 40
1.6764
 41
1.6764
 70
0
  0
VERTEX
  8
16
 10
6.9850
 20
113.6650
 30
0.0000
  0
VERTEX
  8
16
 10
6.3500
 20
113.6650
 30
0.0000
  0
SEQEND
  8
0
  0
POLYLINE
  8
16
 66
1
 10
0.0000
 20
0.0000
 30
0.0000
 40
0.8382
 41
0.8382
 70
0
  0
VERTEX
  8
16
 10
6.3500
 20
114.0841
 30
0.0000
 42
1.0000
  0
VERTEX
  8
16
 10
6.3500
 20
113.2459
 30
0.0000
  0
SEQEND
  8
0
  0
POLYLINE
  8
16
 66
1
 10
0.0000
 20
0.0000
 30
0.0000
 40
0.8382
 41
0.8382
 70
0
  0
VERTEX
  8
16
 10
6.9850
 20
113.2459
 30
0.0000
 42
1.0000
  0
VERTEX
  8
16
 10
6.9850
 20
114.0841
 30
0.0000
  0
SEQEND
  8
0
  0
POLYLINE
  8
16
 66
1
 10
0.0000
 20
0.0000
 30
0.0000
 40
1.7780
 41
1.7780
 70
0
  0
VERTEX
  8
16
 10
17.1450
 20
18.4150
 30
0.0000
  0
VERTEX
  8
16
 10
18.4150
 20
18.4150
 30
0.0000
  0
SEQEND
  8
0
  0
POLYLINE
  8
16
 66
1
 10
0.0000
 20
0.0000
 30
0.0000
 40
0.8890
 41
0.8890
 70
0
  0
VERTEX
  8
16
 10
18.4150
 20
17.9705
 30
0.0000
 42
1.0000
  0
VERTEX
  8
16
 10
18.4150
 20
18.8595
 30
0.0000
  0
SEQEND
  8
0
  0
POLYLINE
  8
16
 66
1
 10
0.0000
 20
0.0000
 30
0.0000
 40
0.8890
 41
0.8890
 70
0
  0
VERTEX
  8
16
 10
17.1450
 20
18.8595
 30
0.0000
 42
1.0000
  0
VERTEX
  8
16
 10
17.1450
 20
17.9705
 30
0.0000
  0
SEQEND
  8
0
  0
POLYLINE
  8
16
 66
1
 10
0.0000
 20
0.0000
 30
0.0000
 40
0.8128
 41
0.8128
 70
0
  0
VERTEX
  8
16
 10
6.9850
 20
20.9550
 30
0.0000
  0
VERTEX
  8
16
 10
12.0650
 20
18.4150
 30
0.0000
  0
SEQEND
  8
0
  0
POLYLINE
  8
16
 66
1
 10
0.0000
 20
0.0000
 30
0.0000
 40
0.4064
 41
0.4064
 70
0
  0
VERTEX
  8
16
 10
11.9741
 20
18.2333
 30
0.0000
 42
1.0000
  0
VERTEX
  8
16
 10
12.1559
 20
18.5967
 30
0.0000
  0
SEQEND
  8
0
  0
POLYLINE
  8
16
 66
1
 10
0.0000
 20
0.0000
 30
0.0000
 40
0.4064
 41
0.4064
 70
0
  0
VERTEX
  8
16
 10
7.0759
 20
21.1367
 30
0.0000
 42
1.0000
  0
VERTEX
  8
16
 10
6.8941
 20
20.7733
 30
0.0000
  0
SEQEND
  8
0
  0
POLYLINE
  8
16
 66
1
 10
0.0000
 20
0.0000
 30
0.0000
 40
0.8128
 41
0.8128
 70
0
  0
VERTEX
  8
16
 10
12.0650
 20
18.4150
 30
0.0000
  0
VERTEX
  8
16
 10
12.0650
 20
17.7800
 30
0.0000
  0
SEQEND
  8
0
  0
POLYLINE
  8
16
 66
1
 10
0.0000
 20
0.0000
 30
0.0000
 40
0.4064
 41
0.4064
 70
0
  0
VERTEX
  8
16
 10
11.8618
 20
17.7800
 30
0.0000
 42
1.0000
  0
VERTEX
  8
16
 10
12.2682
 20
17.7800
 30
0.0000
  0
SEQEND
  8
0
  0
POLYLINE
  8
16
 66
1
 10
0.0000
 20
0.0000
 30
0.0000
 40
0.4064
 41
0.4064
 70
0
  0
VERTEX
  8
16
 10
12.2682
 20
18.4150
 30
0.0000
 42
1.0000
  0
VERTEX
  8
16
 10
11.8618
 20
18.4150
 30
0.0000
  0
SEQEND
  8
0
  0
POLYLINE
  8
16
 66
1
 10
0.0000
 20
0.0000
 30
0.0000
 40
1.7780
 41
1.7780
 70
0
  0
VERTEX
  8
16
 10
12.0650
 20
17.7800
 30
0.0000
  0
VERTEX
  8
16
 10
12.0650
 20
19.0500
 30
0.0000
  0
SEQEND
  8
0
  0
POLYLINE
  8
16
 66
1
 10
0.0000
 20
0.0000
 30
0.0000
 40
0.8890
 41
0.8890
 70
0
  0
VERTEX
  8
16
 10
12.5095
 20
19.0500
 30
0.0000
 42
1.0000
  0
VERTEX
  8
16
 10
11.6205
 20
19.0500
 30
0.0000
  0
SEQEND
  8
0
  0
POLYLINE
  8
16
 66
1
 10
0.0000
 20
0.0000
 30
0.0000
 40
0.8890
 41
0.8890
 70
0
  0
VERTEX
  8
16
 10
11.6205
 20
17.7800
 30
0.0000
 42
1.0000
  0
VERTEX
  8
16
 10
12.5095
 20
17.7800
 30
0.0000
  0
SEQEND
  8
0
  0
POLYLINE
  8
16
 66
1
 10
0.0000
 20
0.0000
 30
0.0000
 40
0.8128
 41
0.8128
 70
0
  0
VERTEX
  8
16
 10
12.0650
 20
14.6050
 30
0.0000
  0
VERTEX
  8
16
 10
12.0650
 20
17.7800
 30
0.0000
  0
SEQEND
  8
0
  0
POLYLINE
  8
16
 66
1
 10
0.0000
 20
0.0000
 30
0.0000
 40
0.4064
 41
0.4064
 70
0
  0
VERTEX
  8
16
 10
12.2682
 20
17.7800
 30
0.0000
 42
1.0000
  0
VERTEX
  8
16
 10
11.8618
 20
17.7800
 30
0.0000
  0
SEQEND
  8
0
  0
POLYLINE
  8
16
 66
1
 10
0.0000
 20
0.0000
 30
0.0000
 40
0.4064
 41
0.4064
 70
0
  0
VERTEX
  8
16
 10
11.8618
 20
14.6050
 30
0.0000
 42
1.0000
  0
VERTEX
  8
16
 10
12.2682
 20
14.6050
 30
0.0000
  0
SEQEND
  8
0
  0
POLYLINE
  8
16
 66
1
 10
0.0000
 20
0.0000
 30
0.0000
 40
0.8128
 41
0.8128
 70
0
  0
VERTEX
  8
16
 10
12.0650
 20
14.6050
 30
0.0000
  0
VERTEX
  8
16
 10
16.5100
 20
14.6050
 30
0.0000
  0
SEQEND
  8
0
  0
POLYLINE
  8
16
 66
1
 10
0.0000
 20
0.0000
 30
0.0000
 40
0.4064
 41
0.4064
 70
0
  0
VERTEX
  8
16
 10
16.5100
 20
14.4018
 30
0.0000
 42
1.0000
  0
VERTEX
  8
16
 10
16.5100
 20
14.8082
 30
0.0000
  0
SEQEND
  8
0
  0
POLYLINE
  8
16
 66
1
 10
0.0000
 20
0.0000
 30
0.0000
 40
0.4064
 41
0.4064
 70
0
  0
VERTEX
  8
16
 10
12.0650
 20
14.8082
 30
0.0000
 42
1.0000
  0
VERTEX
  8
16
 10
12.0650
 20
14.4018
 30
0.0000
  0
SEQEND
  8
0
  0
POLYLINE
  8
16
 66
1
 10
0.0000
 20
0.0000
 30
0.0000
 40
1.7780
 41
1.7780
 70
0
  0
VERTEX
  8
16
 10
16.5100
 20
14.6050
 30
0.0000
  0
VERTEX
  8
16
 10
15.8750
 20
14.6050
 30
0.0000
  0
SEQEND
  8
0
  0
POLYLINE
  8
16
 66
1
 10
0.0000
 20
0.0000
 30
0.0000
 40
0.8890
 41
0.8890
 70
0
  0
VERTEX
  8
16
 10
15.8750
 20
15.0495
 30
0.0000
 42
1.0000
  0
VERTEX
  8
16
 10
15.8750
 20
14.1605
 30
0.0000
  0
SEQEND
  8
0
  0
POLYLINE
  8
16
 66
1
 10
0.0000
 20
0.0000
 30
0.0000
 40
0.8890
 41
0.8890
 70
0
  0
VERTEX
  8
16
 10
16.5100
 20
14.1605
 30
0.0000
 42
1.0000
  0
VERTEX
  8
16
 10
16.5100
 20
15.0495
 30
0.0000
  0
SEQEND
  8
0
  0
POLYLINE
  8
16
 66
1
 10
0.0000
 20
0.0000
 30
0.0000
 40
0.8128
 41
0.8128
 70
0
  0
VERTEX
  8
16
 10
6.9850
 20
33.6550
 30
0.0000
  0
VERTEX
  8
16
 10
8.8900
 20
33.6550
 30
0.0000
  0
SEQEND
  8
0
  0
POLYLINE
  8
16
 66
1
 10
0.0000
 20
0.0000
 30
0.0000
 40
0.4064
 41
0.4064
 70
0
  0
VERTEX
  8
16
 10
8.8900
 20
33.4518
 30
0.0000
 42
1.0000
  0
VERTEX
  8
16
 10
8.8900
 20
33.8582
 30
0.0000
  0
SEQEND
  8
0
  0
POLYLINE
  8
16
 66
1
 10
0.0000
 20
0.0000
 30
0.0000
 40
0.4064
 41
0.4064
 70
0
  0
VERTEX
  8
16
 10
6.9850
 20
33.8582
 30
0.0000
 42
1.0000
  0
VERTEX
  8
16
 10
6.9850
 20
33.4518
 30
0.0000
  0
SEQEND
  8
0
  0
POLYLINE
  8
16
 66
1
 10
0.0000
 20
0.0000
 30
0.0000
 40
0.8128
 41
0.8128
 70
0
  0
VERTEX
  8
16
 10
8.8900
 20
33.6550
 30
0.0000
  0
VERTEX
  8
16
 10
8.8900
 20
100.9650
 30
0.0000
  0
SEQEND
  8
0
  0
POLYLINE
  8
16
 66
1
 10
0.0000
 20
0.0000
 30
0.0000
 40
0.4064
 41
0.4064
 70
0
  0
VERTEX
  8
16
 10
9.0932
 20
100.9650
 30
0.0000
 42
1.0000
  0
VERTEX
  8
16
 10
8.6868
 20
100.9650
 30
0.0000
  0
SEQEND
  8
0
  0
POLYLINE
  8
16
 66
1
 10
0.0000
 20
0.0000
 30
0.0000
 40
0.4064
 41
0.4064
 70
0
  0
VERTEX
  8
16
 10
8.6868
 20
33.6550
 30
0.0000
 42
1.0000
  0
VERTEX
  8
16
 10
9.0932
 20
33.6550
 30
0.0000
  0
SEQEND
  8
0
  0
POLYLINE
  8
16
 66
1
 10
0.0000
 20
0.0000
 30
0.0000
 40
0.8128
 41
0.8128
 70
0
  0
VERTEX
  8
16
 10
11.4300
 20
103.5050
 30
0.0000
  0
VERTEX
  8
16
 10
7.6200
 20
103.5050
 30
0.0000
  0
SEQEND
  8
0
  0
POLYLINE
  8
16
 66
1
 10
0.0000
 20
0.0000
 30
0.0000
 40
0.4064
 41
0.4064
 70
0
  0
VERTEX
  8
16
 10
7.6200
 20
103.7082
 30
0.0000
 42
1.0000
  0
VERTEX
  8
16
 10
7.6200
 20
103.3018
 30
0.0000
  0
SEQEND
  8
0
  0
POLYLINE
  8
16
 66
1
 10
0.0000
 20
0.0000
 30
0.0000
 40
0.4064
 41
0.4064
 70
0
  0
VERTEX
  8
16
 10
11.4300
 20
103.3018
 30
0.0000
 42
1.0000
  0
VERTEX
  8
16
 10
11.4300
 20
103.7082
 30
0.0000
  0
SEQEND
  8
0
  0
POLYLINE
  8
16
 66
1
 10
0.0000
 20
0.0000
 30
0.0000
 40
0.8128
 41
0.8128
 70
0
  0
VERTEX
  8
16
 10
6.9850
 20
31.1150
 30
0.0000
  0
VERTEX
  8
16
 10
11.4300
 20
31.1150
 30
0.0000
  0
SEQEND
  8
0
  0
POLYLINE
  8
16
 66
1
 10
0.0000
 20
0.0000
 30
0.0000
 40
0.4064
 41
0.4064
 70
0
  0
VERTEX
  8
16
 10
11.4300
 20
30.9118
 30
0.0000
 42
1.0000
  0
VERTEX
  8
16
 10
11.4300
 20
31.3182
 30
0.0000
  0
SEQEND
  8
0
  0
POLYLINE
  8
16
 66
1
 10
0.0000
 20
0.0000
 30
0.0000
 40
0.4064
 41
0.4064
 70
0
  0
VERTEX
  8
16
 10
6.9850
 20
31.3182
 30
0.0000
 42
1.0000
  0
VERTEX
  8
16
 10
6.9850
 20
30.9118
 30
0.0000
  0
SEQEND
  8
0
  0
POLYLINE
  8
16
 66
1
 10
0.0000
 20
0.0000
 30
0.0000
 40
0.8128
 41
0.8128
 70
0
  0
VERTEX
  8
16
 10
11.4300
 20
103.5050
 30
0.0000
  0
VERTEX
  8
16
 10
11.4300
 20
31.1150
 30
0.0000
  0
SEQEND
  8
0
  0
POLYLINE
  8
16
 66
1
 10
0.0000
 20
0.0000
 30
0.0000
 40
0.4064
 41
0.4064
 70
0
  0
VERTEX
  8
16
 10
11.2268
 20
31.1150
 30
0.0000
 42
1.0000
  0
VERTEX
  8
16
 10
11.6332
 20
31.1150
 30
0.0000
  0
SEQEND
  8
0
  0
POLYLINE
  8
16
 66
1
 10
0.0000
 20
0.0000
 30
0.0000
 40
0.4064
 41
0.4064
 70
0
  0
VERTEX
  8
16
 10
11.6332
 20
103.5050
 30
0.0000
 42
1.0000
  0
VERTEX
  8
16
 10
11.2268
 20
103.5050
 30
0.0000
  0
SEQEND
  8
0
  0
POLYLINE
  8
16
 66
1
 10
0.0000
 20
0.0000
 30
0.0000
 40
1.9304
 41
1.9304
 70
0
  0
VERTEX
  8
16
 10
5.7150
 20
20.9550
 30
0.0000
  0
VERTEX
  8
16
 10
6.3500
 20
20.9550
 30
0.0000
  0
SEQEND
  8
0
  0
POLYLINE
  8
16
 66
1
 10
0.0000
 20
0.0000
 30
0.0000
 40
0.9652
 41
0.9652
 70
0
  0
VERTEX
  8
16
 10
6.3500
 20
20.4724
 30
0.0000
 42
1.0000
  0
VERTEX
  8
16
 10
6.3500
 20
21.4376
 30
0.0000
  0
SEQEND
  8
0
  0
POLYLINE
  8
16
 66
1
 10
0.0000
 20
0.0000
 30
0.0000
 40
0.9652
 41
0.9652
 70
0
  0
VERTEX
  8
16
 10
5.7150
 20
21.4376
 30
0.0000
 42
1.0000
  0
VERTEX
  8
16
 10
5.7150
 20
20.4724
 30
0.0000
  0
SEQEND
  8
0
  0
POLYLINE
  8
16
 66
1
 10
0.0000
 20
0.0000
 30
0.0000
 40
0.8128
 41
0.8128
 70
0
  0
VERTEX
  8
16
 10
4.4450
 20
116.2050
 30
0.0000
  0
VERTEX
  8
16
 10
15.2400
 20
116.2050
 30
0.0000
  0
SEQEND
  8
0
  0
POLYLINE
  8
16
 66
1
 10
0.0000
 20
0.0000
 30
0.0000
 40
0.4064
 41
0.4064
 70
0
  0
VERTEX
  8
16
 10
15.2400
 20
116.0018
 30
0.0000
 42
1.0000
  0
VERTEX
  8
16
 10
15.2400
 20
116.4082
 30
0.0000
  0
SEQEND
  8
0
  0
POLYLINE
  8
16
 66
1
 10
0.0000
 20
0.0000
 30
0.0000
 40
0.4064
 41
0.4064
 70
0
  0
VERTEX
  8
16
 10
4.4450
 20
116.4082
 30
0.0000
 42
1.0000
  0
VERTEX
  8
16
 10
4.4450
 20
116.0018
 30
0.0000
  0
SEQEND
  8
0
  0
POLYLINE
  8
16
 66
1
 10
0.0000
 20
0.0000
 30
0.0000
 40
0.8128
 41
0.8128
 70
0
  0
VERTEX
  8
16
 10
4.4450
 20
116.2050
 30
0.0000
  0
VERTEX
  8
16
 10
4.4450
 20
98.4250
 30
0.0000
  0
SEQEND
  8
0
  0
POLYLINE
  8
16
 66
1
 10
0.0000
 20
0.0000
 30
0.0000
 40
0.4064
 41
0.4064
 70
0
  0
VERTEX
  8
16
 10
4.2418
 20
98.4250
 30
0.0000
 42
1.0000
  0
VERTEX
  8
16
 10
4.6482
 20
98.4250
 30
0.0000
  0
SEQEND
  8
0
  0
POLYLINE
  8
16
 66
1
 10
0.0000
 20
0.0000
 30
0.0000
 40
0.4064
 41
0.4064
 70
0
  0
VERTEX
  8
16
 10
4.6482
 20
116.2050
 30
0.0000
 42
1.0000
  0
VERTEX
  8
16
 10
4.2418
 20
116.2050
 30
0.0000
  0
SEQEND
  8
0
  0
POLYLINE
  8
16
 66
1
 10
0.0000
 20
0.0000
 30
0.0000
 40
0.8128
 41
0.8128
 70
0
  0
VERTEX
  8
16
 10
4.4450
 20
98.4250
 30
0.0000
  0
VERTEX
  8
16
 10
5.7150
 20
98.4250
 30
0.0000
  0
SEQEND
  8
0
  0
POLYLINE
  8
16
 66
1
 10
0.0000
 20
0.0000
 30
0.0000
 40
0.4064
 41
0.4064
 70
0
  0
VERTEX
  8
16
 10
5.7150
 20
98.2218
 30
0.0000
 42
1.0000
  0
VERTEX
  8
16
 10
5.7150
 20
98.6282
 30
0.0000
  0
SEQEND
  8
0
  0
POLYLINE
  8
16
 66
1
 10
0.0000
 20
0.0000
 30
0.0000
 40
0.4064
 41
0.4064
 70
0
  0
VERTEX
  8
16
 10
4.4450
 20
98.6282
 30
0.0000
 42
1.0000
  0
VERTEX
  8
16
 10
4.4450
 20
98.2218
 30
0.0000
  0
SEQEND
  8
0
  0
POLYLINE
  8
16
 66
1
 10
0.0000
 20
0.0000
 30
0.0000
 40
6.4516
 41
6.4516
 70
0
  0
VERTEX
  8
16
 10
17.7800
 20
137.7950
 30
0.0000
  0
VERTEX
  8
16
 10
17.7800
 20
119.3800
 30
0.0000
  0
SEQEND
  8
0
  0
POLYLINE
  8
16
 66
1
 10
0.0000
 20
0.0000
 30
0.0000
 40
3.2258
 41
3.2258
 70
0
  0
VERTEX
  8
16
 10
16.1671
 20
119.3800
 30
0.0000
 42
1.0000
  0
VERTEX
  8
16
 10
19.3929
 20
119.3800
 30
0.0000
  0
SEQEND
  8
0
  0
POLYLINE
  8
16
 66
1
 10
0.0000
 20
0.0000
 30
0.0000
 40
3.2258
 41
3.2258
 70
0
  0
VERTEX
  8
16
 10
19.3929
 20
137.7950
 30
0.0000
 42
1.0000
  0
VERTEX
  8
16
 10
16.1671
 20
137.7950
 30
0.0000
  0
SEQEND
  8
0
  0
POLYLINE
  8
16
 66
1
 10
0.0000
 20
0.0000
 30
0.0000
 40
0.8128
 41
0.8128
 70
0
  0
VERTEX
  8
16
 10
17.7800
 20
18.4150
 30
0.0000
  0
VERTEX
  8
16
 10
17.7800
 20
22.2250
 30
0.0000
  0
SEQEND
  8
0
  0
POLYLINE
  8
16
 66
1
 10
0.0000
 20
0.0000
 30
0.0000
 40
0.4064
 41
0.4064
 70
0
  0
VERTEX
  8
16
 10
17.9832
 20
22.2250
 30
0.0000
 42
1.0000
  0
VERTEX
  8
16
 10
17.5768
 20
22.2250
 30
0.0000
  0
SEQEND
  8
0
  0
POLYLINE
  8
16
 66
1
 10
0.0000
 20
0.0000
 30
0.0000
 40
0.4064
 41
0.4064
 70
0
  0
VERTEX
  8
16
 10
17.5768
 20
18.4150
 30
0.0000
 42
1.0000
  0
VERTEX
  8
16
 10
17.9832
 20
18.4150
 30
0.0000
  0
SEQEND
  8
0
  0
POLYLINE
  8
16
 66
1
 10
0.0000
 20
0.0000
 30
0.0000
 40
0.8128
 41
0.8128
 70
0
  0
VERTEX
  8
16
 10
29.8450
 20
16.5100
 30
0.0000
  0
VERTEX
  8
16
 10
28.5750
 20
12.7000
 30
0.0000
  0
SEQEND
  8
0
  0
POLYLINE
  8
16
 66
1
 10
0.0000
 20
0.0000
 30
0.0000
 40
0.4064
 41
0.4064
 70
0
  0
VERTEX
  8
16
 10
28.3822
 20
12.7643
 30
0.0000
 42
1.0000
  0
VERTEX
  8
16
 10
28.7678
 20
12.6357
 30
0.0000
  0
SEQEND
  8
0
  0
POLYLINE
  8
16
 66
1
 10
0.0000
 20
0.0000
 30
0.0000
 40
0.4064
 41
0.4064
 70
0
  0
VERTEX
  8
16
 10
30.0378
 20
16.4457
 30
0.0000
 42
1.0000
  0
VERTEX
  8
16
 10
29.6522
 20
16.5743
 30
0.0000
  0
SEQEND
  8
0
  0
POLYLINE
  8
16
 66
1
 10
0.0000
 20
0.0000
 30
0.0000
 40
1.7780
 41
1.7780
 70
0
  0
VERTEX
  8
16
 10
29.8450
 20
17.7800
 30
0.0000
  0
VERTEX
  8
16
 10
29.8450
 20
16.5100
 30
0.0000
  0
SEQEND
  8
0
  0
POLYLINE
  8
16
 66
1
 10
0.0000
 20
0.0000
 30
0.0000
 40
0.8890
 41
0.8890
 70
0
  0
VERTEX
  8
16
 10
29.4005
 20
16.5100
 30
0.0000
 42
1.0000
  0
VERTEX
  8
16
 10
30.2895
 20
16.5100
 30
0.0000
  0
SEQEND
  8
0
  0
POLYLINE
  8
16
 66
1
 10
0.0000
 20
0.0000
 30
0.0000
 40
0.8890
 41
0.8890
 70
0
  0
VERTEX
  8
16
 10
30.2895
 20
17.7800
 30
0.0000
 42
1.0000
  0
VERTEX
  8
16
 10
29.4005
 20
17.7800
 30
0.0000
  0
SEQEND
  8
0
  0
POLYLINE
  8
16
 66
1
 10
0.0000
 20
0.0000
 30
0.0000
 40
2.1844
 41
2.1844
 70
0
  0
VERTEX
  8
16
 10
28.5750
 20
11.4300
 30
0.0000
  0
VERTEX
  8
16
 10
28.5750
 20
12.7000
 30
0.0000
  0
SEQEND
  8
0
  0
POLYLINE
  8
16
 66
1
 10
0.0000
 20
0.0000
 30
0.0000
 40
1.0922
 41
1.0922
 70
0
  0
VERTEX
  8
16
 10
29.1211
 20
12.7000
 30
0.0000
 42
1.0000
  0
VERTEX
  8
16
 10
28.0289
 20
12.7000
 30
0.0000
  0
SEQEND
  8
0
  0
POLYLINE
  8
16
 66
1
 10
0.0000
 20
0.0000
 30
0.0000
 40
1.0922
 41
1.0922
 70
0
  0
VERTEX
  8
16
 10
28.0289
 20
11.4300
 30
0.0000
 42
1.0000
  0
VERTEX
  8
16
 10
29.1211
 20
11.4300
 30
0.0000
  0
SEQEND
  8
0
  0
POLYLINE
  8
16
 66
1
 10
0.0000
 20
0.0000
 30
0.0000
 40
0.8128
 41
0.8128
 70
0
  0
VERTEX
  8
16
 10
29.2100
 20
118.7450
 30
0.0000
  0
VERTEX
  8
16
 10
20.3200
 20
118.7450
 30
0.0000
  0
SEQEND
  8
0
  0
POLYLINE
  8
16
 66
1
 10
0.0000
 20
0.0000
 30
0.0000
 40
0.4064
 41
0.4064
 70
0
  0
VERTEX
  8
16
 10
20.3200
 20
118.9482
 30
0.0000
 42
1.0000
  0
VERTEX
  8
16
 10
20.3200
 20
118.5418
 30
0.0000
  0
SEQEND
  8
0
  0
POLYLINE
  8
16
 66
1
 10
0.0000
 20
0.0000
 30
0.0000
 40
0.4064
 41
0.4064
 70
0
  0
VERTEX
  8
16
 10
29.2100
 20
118.5418
 30
0.0000
 42
1.0000
  0
VERTEX
  8
16
 10
29.2100
 20
118.9482
 30
0.0000
  0
SEQEND
  8
0
  0
POLYLINE
  8
16
 66
1
 10
0.0000
 20
0.0000
 30
0.0000
 40
1.7780
 41
1.7780
 70
0
  0
VERTEX
  8
16
 10
29.8450
 20
106.0450
 30
0.0000
  0
VERTEX
  8
16
 10
30.4800
 20
106.0450
 30
0.0000
  0
SEQEND
  8
0
  0
POLYLINE
  8
16
 66
1
 10
0.0000
 20
0.0000
 30
0.0000
 40
0.8890
 41
0.8890
 70
0
  0
VERTEX
  8
16
 10
30.4800
 20
105.6005
 30
0.0000
 42
1.0000
  0
VERTEX
  8
16
 10
30.4800
 20
106.4895
 30
0.0000
  0
SEQEND
  8
0
  0
POLYLINE
  8
16
 66
1
 10
0.0000
 20
0.0000
 30
0.0000
 40
0.8890
 41
0.8890
 70
0
  0
VERTEX
  8
16
 10
29.8450
 20
106.4895
 30
0.0000
 42
1.0000
  0
VERTEX
  8
16
 10
29.8450
 20
105.6005
 30
0.0000
  0
SEQEND
  8
0
  0
POLYLINE
  8
16
 66
1
 10
0.0000
 20
0.0000
 30
0.0000
 40
1.6764
 41
1.6764
 70
0
  0
VERTEX
  8
16
 10
6.9850
 20
111.1250
 30
0.0000
  0
VERTEX
  8
16
 10
6.3500
 20
111.1250
 30
0.0000
  0
SEQEND
  8
0
  0
POLYLINE
  8
16
 66
1
 10
0.0000
 20
0.0000
 30
0.0000
 40
0.8382
 41
0.8382
 70
0
  0
VERTEX
  8
16
 10
6.3500
 20
111.5441
 30
0.0000
 42
1.0000
  0
VERTEX
  8
16
 10
6.3500
 20
110.7059
 30
0.0000
  0
SEQEND
  8
0
  0
POLYLINE
  8
16
 66
1
 10
0.0000
 20
0.0000
 30
0.0000
 40
0.8382
 41
0.8382
 70
0
  0
VERTEX
  8
16
 10
6.9850
 20
110.7059
 30
0.0000
 42
1.0000
  0
VERTEX
  8
16
 10
6.9850
 20
111.5441
 30
0.0000
  0
SEQEND
  8
0
  0
POLYLINE
  8
16
 66
1
 10
0.0000
 20
0.0000
 30
0.0000
 40
1.6764
 41
1.6764
 70
0
  0
VERTEX
  8
16
 10
6.9850
 20
108.5850
 30
0.0000
  0
VERTEX
  8
16
 10
6.3500
 20
108.5850
 30
0.0000
  0
SEQEND
  8
0
  0
POLYLINE
  8
16
 66
1
 10
0.0000
 20
0.0000
 30
0.0000
 40
0.8382
 41
0.8382
 70
0
  0
VERTEX
  8
16
 10
6.3500
 20
109.0041
 30
0.0000
 42
1.0000
  0
VERTEX
  8
16
 10
6.3500
 20
108.1659
 30
0.0000
  0
SEQEND
  8
0
  0
POLYLINE
  8
16
 66
1
 10
0.0000
 20
0.0000
 30
0.0000
 40
0.8382
 41
0.8382
 70
0
  0
VERTEX
  8
16
 10
6.9850
 20
108.1659
 30
0.0000
 42
1.0000
  0
VERTEX
  8
16
 10
6.9850
 20
109.0041
 30
0.0000
  0
SEQEND
  8
0
  0
POLYLINE
  8
16
 66
1
 10
0.0000
 20
0.0000
 30
0.0000
 40
1.9304
 41
1.9304
 70
0
  0
VERTEX
  8
16
 10
29.2100
 20
53.9750
 30
0.0000
  0
VERTEX
  8
16
 10
29.8450
 20
53.9750
 30
0.0000
  0
SEQEND
  8
0
  0
POLYLINE
  8
16
 66
1
 10
0.0000
 20
0.0000
 30
0.0000
 40
0.9652
 41
0.9652
 70
0
  0
VERTEX
  8
16
 10
29.8450
 20
53.4924
 30
0.0000
 42
1.0000
  0
VERTEX
  8
16
 10
29.8450
 20
54.4576
 30
0.0000
  0
SEQEND
  8
0
  0
POLYLINE
  8
16
 66
1
 10
0.0000
 20
0.0000
 30
0.0000
 40
0.9652
 41
0.9652
 70
0
  0
VERTEX
  8
16
 10
29.2100
 20
54.4576
 30
0.0000
 42
1.0000
  0
VERTEX
  8
16
 10
29.2100
 20
53.4924
 30
0.0000
  0
SEQEND
  8
0
  0
POLYLINE
  8
16
 66
1
 10
0.0000
 20
0.0000
 30
0.0000
 40
1.7780
 41
1.7780
 70
0
  0
VERTEX
  8
16
 10
6.9850
 20
106.0450
 30
0.0000
  0
VERTEX
  8
16
 10
6.3500
 20
106.0450
 30
0.0000
  0
SEQEND
  8
0
  0
POLYLINE
  8
16
 66
1
 10
0.0000
 20
0.0000
 30
0.0000
 40
0.8890
 41
0.8890
 70
0
  0
VERTEX
  8
16
 10
6.3500
 20
106.4895
 30
0.0000
 42
1.0000
  0
VERTEX
  8
16
 10
6.3500
 20
105.6005
 30
0.0000
  0
SEQEND
  8
0
  0
POLYLINE
  8
16
 66
1
 10
0.0000
 20
0.0000
 30
0.0000
 40
0.8890
 41
0.8890
 70
0
  0
VERTEX
  8
16
 10
6.9850
 20
105.6005
 30
0.0000
 42
1.0000
  0
VERTEX
  8
16
 10
6.9850
 20
106.4895
 30
0.0000
  0
SEQEND
  8
0
  0
POLYLINE
  8
16
 66
1
 10
0.0000
 20
0.0000
 30
0.0000
 40
6.4516
 41
6.4516
 70
0
  0
VERTEX
  8
16
 10
18.4150
 20
24.7650
 30
0.0000
  0
VERTEX
  8
16
 10
18.4150
 20
56.5150
 30
0.0000
  0
SEQEND
  8
0
  0
POLYLINE
  8
16
 66
1
 10
0.0000
 20
0.0000
 30
0.0000
 40
3.2258
 41
3.2258
 70
0
  0
VERTEX
  8
16
 10
20.0279
 20
56.5150
 30
0.0000
 42
1.0000
  0
VERTEX
  8
16
 10
16.8021
 20
56.5150
 30
0.0000
  0
SEQEND
  8
0
  0
POLYLINE
  8
16
 66
1
 10
0.0000
 20
0.0000
 30
0.0000
 40
3.2258
 41
3.2258
 70
0
  0
VERTEX
  8
16
 10
16.8021
 20
24.7650
 30
0.0000
 42
1.0000
  0
VERTEX
  8
16
 10
20.0279
 20
24.7650
 30
0.0000
  0
SEQEND
  8
0
  0
POLYLINE
  8
16
 66
1
 10
0.0000
 20
0.0000
 30
0.0000
 40
6.4516
 41
6.4516
 70
0
  0
VERTEX
  8
16
 10
17.1450
 20
24.7650
 30
0.0000
  0
VERTEX
  8
16
 10
17.1450
 20
56.5150
 30
0.0000
  0
SEQEND
  8
0
  0
POLYLINE
  8
16
 66
1
 10
0.0000
 20
0.0000
 30
0.0000
 40
3.2258
 41
3.2258
 70
0
  0
VERTEX
  8
16
 10
18.7579
 20
56.5150
 30
0.0000
 42
1.0000
  0
VERTEX
  8
16
 10
15.5321
 20
56.5150
 30
0.0000
  0
SEQEND
  8
0
  0
POLYLINE
  8
16
 66
1
 10
0.0000
 20
0.0000
 30
0.0000
 40
3.2258
 41
3.2258
 70
0
  0
VERTEX
  8
16
 10
15.5321
 20
24.7650
 30
0.0000
 42
1.0000
  0
VERTEX
  8
16
 10
18.7579
 20
24.7650
 30
0.0000
  0
SEQEND
  8
0
  0
POLYLINE
  8
16
 66
1
 10
0.0000
 20
0.0000
 30
0.0000
 40
6.4516
 41
6.4516
 70
0
  0
VERTEX
  8
16
 10
18.4150
 20
137.7950
 30
0.0000
  0
VERTEX
  8
16
 10
18.4150
 20
107.3150
 30
0.0000
  0
SEQEND
  8
0
  0
POLYLINE
  8
16
 66
1
 10
0.0000
 20
0.0000
 30
0.0000
 40
3.2258
 41
3.2258
 70
0
  0
VERTEX
  8
16
 10
16.8021
 20
107.3150
 30
0.0000
 42
1.0000
  0
VERTEX
  8
16
 10
20.0279
 20
107.3150
 30
0.0000
  0
SEQEND
  8
0
  0
POLYLINE
  8
16
 66
1
 10
0.0000
 20
0.0000
 30
0.0000
 40
3.2258
 41
3.2258
 70
0
  0
VERTEX
  8
16
 10
20.0279
 20
137.7950
 30
0.0000
 42
1.0000
  0
VERTEX
  8
16
 10
16.8021
 20
137.7950
 30
0.0000
  0
SEQEND
  8
0
  0
POLYLINE
  8
16
 66
1
 10
0.0000
 20
0.0000
 30
0.0000
 40
6.4516
 41
6.4516
 70
0
  0
VERTEX
  8
16
 10
17.1450
 20
137.7950
 30
0.0000
  0
VERTEX
  8
16
 10
17.1450
 20
107.3150
 30
0.0000
  0
SEQEND
  8
0
  0
POLYLINE
  8
16
 66
1
 10
0.0000
 20
0.0000
 30
0.0000
 40
3.2258
 41
3.2258
 70
0
  0
VERTEX
  8
16
 10
15.5321
 20
107.3150
 30
0.0000
 42
1.0000
  0
VERTEX
  8
16
 10
18.7579
 20
107.3150
 30
0.0000
  0
SEQEND
  8
0
  0
POLYLINE
  8
16
 66
1
 10
0.0000
 20
0.0000
 30
0.0000
 40
3.2258
 41
3.2258
 70
0
  0
VERTEX
  8
16
 10
18.7579
 20
137.7950
 30
0.0000
 42
1.0000
  0
VERTEX
  8
16
 10
15.5321
 20
137.7950
 30
0.0000
  0
SEQEND
  8
0
  0
POLYLINE
  8
16
 66
1
 10
0.0000
 20
0.0000
 30
0.0000
 40
1.7780
 41
1.7780
 70
0
  0
VERTEX
  8
16
 10
29.8450
 20
118.7450
 30
0.0000
  0
VERTEX
  8
16
 10
30.4800
 20
118.7450
 30
0.0000
  0
SEQEND
  8
0
  0
POLYLINE
  8
16
 66
1
 10
0.0000
 20
0.0000
 30
0.0000
 40
0.8890
 41
0.8890
 70
0
  0
VERTEX
  8
16
 10
30.4800
 20
118.3005
 30
0.0000
 42
1.0000
  0
VERTEX
  8
16
 10
30.4800
 20
119.1895
 30
0.0000
  0
SEQEND
  8
0
  0
POLYLINE
  8
16
 66
1
 10
0.0000
 20
0.0000
 30
0.0000
 40
0.8890
 41
0.8890
 70
0
  0
VERTEX
  8
16
 10
29.8450
 20
119.1895
 30
0.0000
 42
1.0000
  0
VERTEX
  8
16
 10
29.8450
 20
118.3005
 30
0.0000
  0
SEQEND
  8
0
  0
POLYLINE
  8
16
 66
1
 10
0.0000
 20
0.0000
 30
0.0000
 40
1.6764
 41
1.6764
 70
0
  0
VERTEX
  8
16
 10
6.9850
 20
103.5050
 30
0.0000
  0
VERTEX
  8
16
 10
6.3500
 20
103.5050
 30
0.0000
  0
SEQEND
  8
0
  0
POLYLINE
  8
16
 66
1
 10
0.0000
 20
0.0000
 30
0.0000
 40
0.8382
 41
0.8382
 70
0
  0
VERTEX
  8
16
 10
6.3500
 20
103.9241
 30
0.0000
 42
1.0000
  0
VERTEX
  8
16
 10
6.3500
 20
103.0859
 30
0.0000
  0
SEQEND
  8
0
  0
POLYLINE
  8
16
 66
1
 10
0.0000
 20
0.0000
 30
0.0000
 40
0.8382
 41
0.8382
 70
0
  0
VERTEX
  8
16
 10
6.9850
 20
103.0859
 30
0.0000
 42
1.0000
  0
VERTEX
  8
16
 10
6.9850
 20
103.9241
 30
0.0000
  0
SEQEND
  8
0
  0
POLYLINE
  8
16
 66
1
 10
0.0000
 20
0.0000
 30
0.0000
 40
1.6764
 41
1.6764
 70
0
  0
VERTEX
  8
16
 10
6.9850
 20
100.9650
 30
0.0000
  0
VERTEX
  8
16
 10
6.3500
 20
100.9650
 30
0.0000
  0
SEQEND
  8
0
  0
POLYLINE
  8
16
 66
1
 10
0.0000
 20
0.0000
 30
0.0000
 40
0.8382
 41
0.8382
 70
0
  0
VERTEX
  8
16
 10
6.3500
 20
101.3841
 30
0.0000
 42
1.0000
  0
VERTEX
  8
16
 10
6.3500
 20
100.5459
 30
0.0000
  0
SEQEND
  8
0
  0
POLYLINE
  8
16
 66
1
 10
0.0000
 20
0.0000
 30
0.0000
 40
0.8382
 41
0.8382
 70
0
  0
VERTEX
  8
16
 10
6.9850
 20
100.5459
 30
0.0000
 42
1.0000
  0
VERTEX
  8
16
 10
6.9850
 20
101.3841
 30
0.0000
  0
SEQEND
  8
0
  0
POLYLINE
  8
16
 66
1
 10
0.0000
 20
0.0000
 30
0.0000
 40
1.6764
 41
1.6764
 70
0
  0
VERTEX
  8
16
 10
6.9850
 20
98.4250
 30
0.0000
  0
VERTEX
  8
16
 10
6.3500
 20
98.4250
 30
0.0000
  0
SEQEND
  8
0
  0
POLYLINE
  8
16
 66
1
 10
0.0000
 20
0.0000
 30
0.0000
 40
0.8382
 41
0.8382
 70
0
  0
VERTEX
  8
16
 10
6.3500
 20
98.8441
 30
0.0000
 42
1.0000
  0
VERTEX
  8
16
 10
6.3500
 20
98.0059
 30
0.0000
  0
SEQEND
  8
0
  0
POLYLINE
  8
16
 66
1
 10
0.0000
 20
0.0000
 30
0.0000
 40
0.8382
 41
0.8382
 70
0
  0
VERTEX
  8
16
 10
6.9850
 20
98.0059
 30
0.0000
 42
1.0000
  0
VERTEX
  8
16
 10
6.9850
 20
98.8441
 30
0.0000
  0
SEQEND
  8
0
  0
POLYLINE
  8
16
 66
1
 10
0.0000
 20
0.0000
 30
0.0000
 40
1.6764
 41
1.6764
 70
0
  0
VERTEX
  8
16
 10
6.9850
 20
95.8850
 30
0.0000
  0
VERTEX
  8
16
 10
6.3500
 20
95.8850
 30
0.0000
  0
SEQEND
  8
0
  0
POLYLINE
  8
16
 66
1
 10
0.0000
 20
0.0000
 30
0.0000
 40
0.8382
 41
0.8382
 70
0
  0
VERTEX
  8
16
 10
6.3500
 20
96.3041
 30
0.0000
 42
1.0000
  0
VERTEX
  8
16
 10
6.3500
 20
95.4659
 30
0.0000
  0
SEQEND
  8
0
  0
POLYLINE
  8
16
 66
1
 10
0.0000
 20
0.0000
 30
0.0000
 40
0.8382
 41
0.8382
 70
0
  0
VERTEX
  8
16
 10
6.9850
 20
95.4659
 30
0.0000
 42
1.0000
  0
VERTEX
  8
16
 10
6.9850
 20
96.3041
 30
0.0000
  0
SEQEND
  8
0
  0
POLYLINE
  8
16
 66
1
 10
0.0000
 20
0.0000
 30
0.0000
 40
0.8128
 41
0.8128
 70
0
  0
VERTEX
  8
16
 10
17.7800
 20
118.1100
 30
0.0000
  0
VERTEX
  8
16
 10
19.6850
 20
118.1100
 30
0.0000
  0
SEQEND
  8
0
  0
POLYLINE
  8
16
 66
1
 10
0.0000
 20
0.0000
 30
0.0000
 40
0.4064
 41
0.4064
 70
0
  0
VERTEX
  8
16
 10
19.6850
 20
117.9068
 30
0.0000
 42
1.0000
  0
VERTEX
  8
16
 10
19.6850
 20
118.3132
 30
0.0000
  0
SEQEND
  8
0
  0
POLYLINE
  8
16
 66
1
 10
0.0000
 20
0.0000
 30
0.0000
 40
0.4064
 41
0.4064
 70
0
  0
VERTEX
  8
16
 10
17.7800
 20
118.3132
 30
0.0000
 42
1.0000
  0
VERTEX
  8
16
 10
17.7800
 20
117.9068
 30
0.0000
  0
SEQEND
  8
0
  0
POLYLINE
  8
16
 66
1
 10
0.0000
 20
0.0000
 30
0.0000
 40
3.8100
 41
3.8100
 70
0
  0
VERTEX
  8
16
 10
3.8100
 20
3.8100
 30
0.0000
  0
VERTEX
  8
16
 10
3.8100
 20
5.0800
 30
0.0000
  0
SEQEND
  8
0
  0
POLYLINE
  8
16
 66
1
 10
0.0000
 20
0.0000
 30
0.0000
 40
1.9050
 41
1.9050
 70
0
  0
VERTEX
  8
16
 10
4.7625
 20
5.0800
 30
0.0000
 42
1.0000
  0
VERTEX
  8
16
 10
2.8575
 20
5.0800
 30
0.0000
  0
SEQEND
  8
0
  0
POLYLINE
  8
16
 66
1
 10
0.0000
 20
0.0000
 30
0.0000
 40
1.9050
 41
1.9050
 70
0
  0
VERTEX
  8
16
 10
2.8575
 20
3.8100
 30
0.0000
 42
1.0000
  0
VERTEX
  8
16
 10
4.7625
 20
3.8100
 30
0.0000
  0
SEQEND
  8
0
  0
POLYLINE
  8
16
 66
1
 10
0.0000
 20
0.0000
 30
0.0000
 40
3.8100
 41
3.8100
 70
0
  0
VERTEX
  8
16
 10
3.8100
 20
17.1450
 30
0.0000
  0
VERTEX
  8
16
 10
3.8100
 20
17.7800
 30
0.0000
  0
SEQEND
  8
0
  0
POLYLINE
  8
16
 66
1
 10
0.0000
 20
0.0000
 30
0.0000
 40
1.9050
 41
1.9050
 70
0
  0
VERTEX
  8
16
 10
4.7625
 20
17.7800
 30
0.0000
 42
1.0000
  0
VERTEX
  8
16
 10
2.8575
 20
17.7800
 30
0.0000
  0
SEQEND
  8
0
  0
POLYLINE
  8
16
 66
1
 10
0.0000
 20
0.0000
 30
0.0000
 40
1.9050
 41
1.9050
 70
0
  0
VERTEX
  8
16
 10
2.8575
 20
17.1450
 30
0.0000
 42
1.0000
  0
VERTEX
  8
16
 10
4.7625
 20
17.1450
 30
0.0000
  0
SEQEND
  8
0
  0
ENDSEC
  0
EOF
