  0
SECTION
  2
HEADER
  9
$ACADVER
  1
AC1009
  9
$LIMMIN
 10
0.000000
 20
0.000000
  9
$LIMMAX
 10
15.830833
 20
10.032917
  0
ENDSEC
  0
SECTION
  2
TABLES
  0
TABLE
  2
LTYPE
 70
     4
  0
LTYPE
  2
CONTINUOUS
 70
     0
  3
Solid line
 72
     65
 73
     0
 40
0.000000
  0
LTYPE
  2
HIDDEN
 70
     0
  3
 _ _ _ _ _ _ _ _ _ _ _
 72
     65
 73
     2
 40
0.375000
 49
0.250000
 49
-0.125000
  0
LTYPE
  2
DASHED
 70
     0
  3
 ___ ___ ___ ___ ___ ___ ___ 
 72
     65
 73
     2
 40
0.750000
 49
0.500000
 49
-0.250000
  0
LTYPE
  2
CENTER
 70
     0
  3
___ _ ___ _ ___ _ ___
 72
     65
 73
     4
 40
2.000000
 49
1.250000
 49
-0.250000
 49
0.250000
 49
-0.250000
  0
LTYPE
  2
BORDER
 70
     0
  3
___ ___ . ___ ___ . ___ ___
 72
     65
 73
     6
 40
1.750000
 49
0.500000
 49
-0.250000
 49
0.500000
 49
-0.250000
 49
0.000000
 49
-0.250000
  0
LTYPE
  2
DOT
 70
     0
  3
.................
 72
     65
 73
     2
 40
0.250000
 49
0.000000
 49
-0.250000
  0
LTYPE
  2
DASHDOT
 70
     0
  3
__ . __ . __ . __
 72
     65
 73
     4
 40
1.000000
 49
0.500000
 49
-0.250000
 49
0.000000
 49
-0.250000
  0
LTYPE
  2
DIVIDE
 70
     0
  3
___ .. ___ .. ___ .. ___
 72
     65
 73
     6
 40
1.250000
 49
0.500000
 49
-0.250000
 49
0.000000
 49
-0.250000
 49
0.000000
 49
-0.250000
  0
ENDTAB
  0
TABLE
  2
LAYER
 70
     8
  0
LAYER
  2
BLACK
 70
     0
 62
     1
  6
CONTINUOUS
  0
LAYER
  2
WHITE
 70
     0
 62
     7
  6
CONTINUOUS
  0
LAYER
  2
RED
 70
     0
 62
     1
  6
CONTINUOUS
  0
LAYER
  2
YELLOW
 70
     0
 62
     2
  6
CONTINUOUS
  0
LAYER
  2
GREEN
 70
     0
 62
     3
  6
CONTINUOUS
  0
LAYER
  2
CYAN
 70
     0
 62
     4
  6
CONTINUOUS
  0
LAYER
  2
BLUE
 70
     0
 62
     5
  6
CONTINUOUS
  0
LAYER
  2
MAGENTA
 70
     0
 62
     6
  6
CONTINUOUS
  0
ENDTAB
  0
TABLE
  2
APPID
 70
     1
  0
APPID
  2
TC_BEND_DATA
 70
     0
  0
ENDTAB
  0
ENDSEC
  0
SECTION
  2
BLOCKS
  0
ENDSEC
  0
SECTION
  2
ENTITIES
  0
LINE
  8
WHITE
 10
15.830833
 20
0.504167
 30
0.000000
 11
15.830833
 21
9.528750
 31
0.000000
  6
CONTINUOUS
  0
ARC
  8
WHITE
 10
15.326667
 20
9.528750
 30
0.000000
 40
0.504167
 50
0.000000
 51
90.000000
  6
CONTINUOUS
  0
LINE
  8
WHITE
 10
15.326667
 20
10.032917
 30
0.000000
 11
0.504167
 21
10.032917
 31
0.000000
  6
CONTINUOUS
  0
ARC
  8
WHITE
 10
0.504167
 20
9.528750
 30
0.000000
 40
0.504167
 50
90.000000
 51
180.000000
  6
CONTINUOUS
  0
LINE
  8
WHITE
 10
0.000000
 20
9.528750
 30
0.000000
 11
0.000000
 21
0.504167
 31
0.000000
  6
CONTINUOUS
  0
ARC
  8
WHITE
 10
0.504167
 20
0.504167
 30
0.000000
 40
0.504167
 50
180.000000
 51
270.000000
  6
CONTINUOUS
  0
LINE
  8
WHITE
 10
0.504167
 20
0.000000
 30
0.000000
 11
15.326667
 21
0.000000
 31
0.000000
  6
CONTINUOUS
  0
ARC
  8
WHITE
 10
15.326667
 20
0.504167
 30
0.000000
 40
0.504167
 50
-90.000000
 51
0.000000
  6
CONTINUOUS
  0
LINE
  8
WHITE
 10
9.545295
 20
0.824814
 30
0.000000
 11
11.322345
 21
0.824814
 31
0.000000
  6
CONTINUOUS
  0
ARC
  8
WHITE
 10
11.322345
 20
0.834897
 30
0.000000
 40
0.010083
 50
-90.000000
 51
0.000000
  6
CONTINUOUS
  0
LINE
  8
WHITE
 10
11.332429
 20
0.834897
 30
0.000000
 11
11.332429
 21
2.624231
 31
0.000000
  6
CONTINUOUS
  0
ARC
  8
WHITE
 10
11.322345
 20
2.624231
 30
0.000000
 40
0.010083
 50
0.000000
 51
90.000000
  6
CONTINUOUS
  0
LINE
  8
WHITE
 10
11.322345
 20
2.634314
 30
0.000000
 11
11.271929
 21
2.634314
 31
0.000000
  6
CONTINUOUS
  0
LINE
  8
WHITE
 10
11.271929
 20
2.634314
 30
0.000000
 11
11.271929
 21
5.364147
 31
0.000000
  6
CONTINUOUS
  0
ARC
  8
WHITE
 10
11.251762
 20
5.364147
 30
0.000000
 40
0.020167
 50
0.000000
 51
90.000000
  6
CONTINUOUS
  0
LINE
  8
WHITE
 10
11.251762
 20
5.384314
 30
0.000000
 11
10.660970
 21
5.384314
 31
0.000000
  6
CONTINUOUS
  0
ARC
  8
WHITE
 10
10.660970
 20
5.374231
 30
0.000000
 40
0.010083
 50
90.000000
 51
180.000000
  6
CONTINUOUS
  0
LINE
  8
WHITE
 10
10.650887
 20
5.374231
 30
0.000000
 11
10.650887
 21
4.905814
 31
0.000000
  6
CONTINUOUS
  0
LINE
  8
WHITE
 10
10.650887
 20
4.905814
 30
0.000000
 11
10.590387
 21
4.905814
 31
0.000000
  6
CONTINUOUS
  0
LINE
  8
WHITE
 10
10.590387
 20
4.905814
 30
0.000000
 11
10.590387
 21
5.374231
 31
0.000000
  6
CONTINUOUS
  0
ARC
  8
WHITE
 10
10.580304
 20
5.374231
 30
0.000000
 40
0.010083
 50
0.000000
 51
90.000000
  6
CONTINUOUS
  0
LINE
  8
WHITE
 10
10.580304
 20
5.384314
 30
0.000000
 11
10.297970
 21
5.384314
 31
0.000000
  6
CONTINUOUS
  0
ARC
  8
WHITE
 10
10.297970
 20
5.374231
 30
0.000000
 40
0.010083
 50
90.000000
 51
180.000000
  6
CONTINUOUS
  0
LINE
  8
WHITE
 10
10.287887
 20
5.374231
 30
0.000000
 11
10.287887
 21
4.905814
 31
0.000000
  6
CONTINUOUS
  0
LINE
  8
WHITE
 10
10.287887
 20
4.905814
 30
0.000000
 11
10.227387
 21
4.905814
 31
0.000000
  6
CONTINUOUS
  0
LINE
  8
WHITE
 10
10.227387
 20
4.905814
 30
0.000000
 11
10.227387
 21
5.374231
 31
0.000000
  6
CONTINUOUS
  0
ARC
  8
WHITE
 10
10.217304
 20
5.374231
 30
0.000000
 40
0.010083
 50
0.000000
 51
90.000000
  6
CONTINUOUS
  0
LINE
  8
WHITE
 10
10.217304
 20
5.384314
 30
0.000000
 11
9.625962
 21
5.384314
 31
0.000000
  6
CONTINUOUS
  0
ARC
  8
WHITE
 10
9.625962
 20
5.364147
 30
0.000000
 40
0.020167
 50
90.000000
 51
180.000000
  6
CONTINUOUS
  0
LINE
  8
WHITE
 10
9.605795
 20
5.364147
 30
0.000000
 11
9.605795
 21
2.639814
 31
0.000000
  6
CONTINUOUS
  0
LINE
  8
WHITE
 10
9.605795
 20
2.639814
 30
0.000000
 11
9.555379
 21
2.639814
 31
0.000000
  6
CONTINUOUS
  0
ARC
  8
WHITE
 10
9.555379
 20
2.629731
 30
0.000000
 40
0.010083
 50
90.000000
 51
180.000000
  6
CONTINUOUS
  0
LINE
  8
WHITE
 10
9.545295
 20
2.629731
 30
0.000000
 11
9.545295
 21
0.824814
 31
0.000000
  6
CONTINUOUS
  0
LINE
  8
WHITE
 10
10.023429
 20
3.360314
 30
0.000000
 11
10.023429
 21
1.743314
 31
0.000000
  6
CONTINUOUS
  0
LINE
  8
WHITE
 10
10.023429
 20
1.743314
 30
0.000000
 11
10.083929
 21
1.743314
 31
0.000000
  6
CONTINUOUS
  0
LINE
  8
WHITE
 10
10.083929
 20
1.743314
 30
0.000000
 11
10.083929
 21
3.360314
 31
0.000000
  6
CONTINUOUS
  0
LINE
  8
WHITE
 10
10.083929
 20
3.360314
 30
0.000000
 11
10.023429
 21
3.360314
 31
0.000000
  6
CONTINUOUS
  0
LINE
  8
WHITE
 10
10.793429
 20
3.360314
 30
0.000000
 11
10.793429
 21
1.743314
 31
0.000000
  6
CONTINUOUS
  0
LINE
  8
WHITE
 10
10.793429
 20
1.743314
 30
0.000000
 11
10.853929
 21
1.743314
 31
0.000000
  6
CONTINUOUS
  0
LINE
  8
WHITE
 10
10.853929
 20
1.743314
 30
0.000000
 11
10.853929
 21
3.360314
 31
0.000000
  6
CONTINUOUS
  0
LINE
  8
WHITE
 10
10.853929
 20
3.360314
 30
0.000000
 11
10.793429
 21
3.360314
 31
0.000000
  6
CONTINUOUS
  0
LINE
  8
WHITE
 10
9.825612
 20
0.995314
 30
0.000000
 11
10.276612
 21
0.995314
 31
0.000000
  6
CONTINUOUS
  0
LINE
  8
WHITE
 10
10.276612
 20
0.995314
 30
0.000000
 11
10.276612
 21
1.055814
 31
0.000000
  6
CONTINUOUS
  0
LINE
  8
WHITE
 10
10.276612
 20
1.055814
 30
0.000000
 11
9.825612
 21
1.055814
 31
0.000000
  6
CONTINUOUS
  0
LINE
  8
WHITE
 10
9.825612
 20
1.055814
 30
0.000000
 11
9.825612
 21
0.995314
 31
0.000000
  6
CONTINUOUS
  0
LINE
  8
WHITE
 10
10.600745
 20
0.995314
 30
0.000000
 11
11.051745
 21
0.995314
 31
0.000000
  6
CONTINUOUS
  0
LINE
  8
WHITE
 10
11.051745
 20
0.995314
 30
0.000000
 11
11.051745
 21
1.055814
 31
0.000000
  6
CONTINUOUS
  0
LINE
  8
WHITE
 10
11.051745
 20
1.055814
 30
0.000000
 11
10.600745
 21
1.055814
 31
0.000000
  6
CONTINUOUS
  0
LINE
  8
WHITE
 10
10.600745
 20
1.055814
 30
0.000000
 11
10.600745
 21
0.995314
 31
0.000000
  6
CONTINUOUS
  0
LINE
  8
WHITE
 10
9.606207
 20
5.771926
 30
0.000000
 11
11.251762
 21
5.771926
 31
0.000000
  6
CONTINUOUS
  0
ARC
  8
WHITE
 10
11.251762
 20
5.792092
 30
0.000000
 40
0.020167
 50
-90.000000
 51
0.000000
  6
CONTINUOUS
  0
LINE
  8
WHITE
 10
11.271929
 20
5.792092
 30
0.000000
 11
11.271929
 21
7.461661
 31
0.000000
  6
CONTINUOUS
  0
LINE
  8
WHITE
 10
11.271929
 20
7.461661
 30
0.000000
 11
11.322345
 21
7.461661
 31
0.000000
  6
CONTINUOUS
  0
ARC
  8
WHITE
 10
11.322345
 20
7.471744
 30
0.000000
 40
0.010083
 50
-90.000000
 51
0.000000
  6
CONTINUOUS
  0
LINE
  8
WHITE
 10
11.332429
 20
7.471744
 30
0.000000
 11
11.332429
 21
8.465367
 31
0.000000
  6
CONTINUOUS
  0
ARC
  8
WHITE
 10
11.322345
 20
8.465367
 30
0.000000
 40
0.010083
 50
0.000000
 51
90.000000
  6
CONTINUOUS
  0
LINE
  8
WHITE
 10
11.322345
 20
8.475451
 30
0.000000
 11
11.271929
 21
8.475451
 31
0.000000
  6
CONTINUOUS
  0
LINE
  8
WHITE
 10
11.271929
 20
8.475451
 30
0.000000
 11
11.271929
 21
9.612759
 31
0.000000
  6
CONTINUOUS
  0
ARC
  8
WHITE
 10
11.251762
 20
9.612759
 30
0.000000
 40
0.020167
 50
0.000000
 51
90.000000
  6
CONTINUOUS
  0
LINE
  8
WHITE
 10
11.251762
 20
9.632926
 30
0.000000
 11
10.660282
 21
9.632926
 31
0.000000
  6
CONTINUOUS
  0
ARC
  8
WHITE
 10
10.660282
 20
9.622842
 30
0.000000
 40
0.010083
 50
90.000000
 51
180.000000
  6
CONTINUOUS
  0
LINE
  8
WHITE
 10
10.650199
 20
9.622842
 30
0.000000
 11
10.650199
 21
9.176426
 31
0.000000
  6
CONTINUOUS
  0
LINE
  8
WHITE
 10
10.650199
 20
9.176426
 30
0.000000
 11
10.589699
 21
9.176426
 31
0.000000
  6
CONTINUOUS
  0
LINE
  8
WHITE
 10
10.589699
 20
9.176426
 30
0.000000
 11
10.589699
 21
9.622842
 31
0.000000
  6
CONTINUOUS
  0
ARC
  8
WHITE
 10
10.579615
 20
9.622842
 30
0.000000
 40
0.010083
 50
0.000000
 51
90.000000
  6
CONTINUOUS
  0
LINE
  8
WHITE
 10
10.579615
 20
9.632926
 30
0.000000
 11
10.297282
 21
9.632926
 31
0.000000
  6
CONTINUOUS
  0
ARC
  8
WHITE
 10
10.297282
 20
9.622842
 30
0.000000
 40
0.010083
 50
90.000000
 51
180.000000
  6
CONTINUOUS
  0
LINE
  8
WHITE
 10
10.287199
 20
9.622842
 30
0.000000
 11
10.287199
 21
9.176426
 31
0.000000
  6
CONTINUOUS
  0
LINE
  8
WHITE
 10
10.287199
 20
9.176426
 30
0.000000
 11
10.226699
 21
9.176426
 31
0.000000
  6
CONTINUOUS
  0
LINE
  8
WHITE
 10
10.226699
 20
9.176426
 30
0.000000
 11
10.226699
 21
9.622842
 31
0.000000
  6
CONTINUOUS
  0
ARC
  8
WHITE
 10
10.216615
 20
9.622842
 30
0.000000
 40
0.010083
 50
0.000000
 51
90.000000
  6
CONTINUOUS
  0
LINE
  8
WHITE
 10
10.216615
 20
9.632926
 30
0.000000
 11
9.626374
 21
9.632926
 31
0.000000
  6
CONTINUOUS
  0
ARC
  8
WHITE
 10
9.626374
 20
9.612759
 30
0.000000
 40
0.020167
 50
90.000000
 51
180.000000
  6
CONTINUOUS
  0
LINE
  8
WHITE
 10
9.606207
 20
9.612759
 30
0.000000
 11
9.606207
 21
8.475451
 31
0.000000
  6
CONTINUOUS
  0
LINE
  8
WHITE
 10
9.606207
 20
8.475451
 30
0.000000
 11
9.555790
 21
8.475451
 31
0.000000
  6
CONTINUOUS
  0
ARC
  8
WHITE
 10
9.555790
 20
8.465367
 30
0.000000
 40
0.010083
 50
90.000000
 51
180.000000
  6
CONTINUOUS
  0
LINE
  8
WHITE
 10
9.545707
 20
8.465367
 30
0.000000
 11
9.545707
 21
7.471744
 31
0.000000
  6
CONTINUOUS
  0
ARC
  8
WHITE
 10
9.555790
 20
7.471744
 30
0.000000
 40
0.010083
 50
180.000000
 51
270.000000
  6
CONTINUOUS
  0
LINE
  8
WHITE
 10
9.555790
 20
7.461661
 30
0.000000
 11
9.606207
 21
7.461661
 31
0.000000
  6
CONTINUOUS
  0
LINE
  8
WHITE
 10
9.606207
 20
7.461661
 30
0.000000
 11
9.606207
 21
5.771926
 31
0.000000
  6
CONTINUOUS
  0
LINE
  8
WHITE
 10
10.023429
 20
6.690426
 30
0.000000
 11
10.023429
 21
8.307426
 31
0.000000
  6
CONTINUOUS
  0
LINE
  8
WHITE
 10
10.023429
 20
8.307426
 30
0.000000
 11
10.083929
 21
8.307426
 31
0.000000
  6
CONTINUOUS
  0
LINE
  8
WHITE
 10
10.083929
 20
8.307426
 30
0.000000
 11
10.083929
 21
6.690426
 31
0.000000
  6
CONTINUOUS
  0
LINE
  8
WHITE
 10
10.083929
 20
6.690426
 30
0.000000
 11
10.023429
 21
6.690426
 31
0.000000
  6
CONTINUOUS
  0
LINE
  8
WHITE
 10
10.793429
 20
8.307426
 30
0.000000
 11
10.793429
 21
6.690426
 31
0.000000
  6
CONTINUOUS
  0
LINE
  8
WHITE
 10
10.793429
 20
6.690426
 30
0.000000
 11
10.853929
 21
6.690426
 31
0.000000
  6
CONTINUOUS
  0
LINE
  8
WHITE
 10
10.853929
 20
6.690426
 30
0.000000
 11
10.853929
 21
8.307426
 31
0.000000
  6
CONTINUOUS
  0
LINE
  8
WHITE
 10
10.853929
 20
8.307426
 30
0.000000
 11
10.793429
 21
8.307426
 31
0.000000
  6
CONTINUOUS
  0
LINE
  8
WHITE
 10
10.468929
 20
7.468646
 30
0.000000
 11
10.468929
 21
8.111963
 31
0.000000
  6
CONTINUOUS
  0
LINE
  8
WHITE
 10
10.468929
 20
8.111963
 30
0.000000
 11
10.408429
 21
8.111963
 31
0.000000
  6
CONTINUOUS
  0
LINE
  8
WHITE
 10
10.408429
 20
8.111963
 30
0.000000
 11
10.408429
 21
7.468646
 31
0.000000
  6
CONTINUOUS
  0
LINE
  8
WHITE
 10
10.408429
 20
7.468646
 30
0.000000
 11
10.468929
 21
7.468646
 31
0.000000
  6
CONTINUOUS
  0
LINE
  8
WHITE
 10
10.276612
 20
5.942426
 30
0.000000
 11
9.825612
 21
5.942426
 31
0.000000
  6
CONTINUOUS
  0
LINE
  8
WHITE
 10
9.825612
 20
5.942426
 30
0.000000
 11
9.825612
 21
6.002926
 31
0.000000
  6
CONTINUOUS
  0
LINE
  8
WHITE
 10
9.825612
 20
6.002926
 30
0.000000
 11
10.276612
 21
6.002926
 31
0.000000
  6
CONTINUOUS
  0
LINE
  8
WHITE
 10
10.276612
 20
6.002926
 30
0.000000
 11
10.276612
 21
5.942426
 31
0.000000
  6
CONTINUOUS
  0
LINE
  8
WHITE
 10
11.051745
 20
5.942426
 30
0.000000
 11
10.600745
 21
5.942426
 31
0.000000
  6
CONTINUOUS
  0
LINE
  8
WHITE
 10
10.600745
 20
5.942426
 30
0.000000
 11
10.600745
 21
6.002926
 31
0.000000
  6
CONTINUOUS
  0
LINE
  8
WHITE
 10
10.600745
 20
6.002926
 30
0.000000
 11
11.051745
 21
6.002926
 31
0.000000
  6
CONTINUOUS
  0
LINE
  8
WHITE
 10
11.051745
 20
6.002926
 30
0.000000
 11
11.051745
 21
5.942426
 31
0.000000
  6
CONTINUOUS
  0
LINE
  8
WHITE
 10
14.159725
 20
4.777948
 30
0.000000
 11
12.435493
 21
2.870012
 31
0.000000
  6
CONTINUOUS
  0
ARC
  8
WHITE
 10
12.457936
 20
2.849730
 30
0.000000
 40
0.030250
 50
137.895379
 51
180.000000
  6
CONTINUOUS
  0
LINE
  8
WHITE
 10
12.427686
 20
2.849730
 30
0.000000
 11
12.427686
 21
2.766450
 31
0.000000
  6
CONTINUOUS
  0
ARC
  8
WHITE
 10
12.457936
 20
2.766450
 30
0.000000
 40
0.030250
 50
180.000000
 51
270.000000
  6
CONTINUOUS
  0
LINE
  8
WHITE
 10
12.457936
 20
2.736200
 30
0.000000
 11
12.752919
 21
2.736200
 31
0.000000
  6
CONTINUOUS
  0
LINE
  8
WHITE
 10
12.752919
 20
2.736200
 30
0.000000
 11
12.752919
 21
2.152284
 31
0.000000
  6
CONTINUOUS
  0
ARC
  8
WHITE
 10
12.763003
 20
2.152284
 30
0.000000
 40
0.010083
 50
180.000000
 51
270.000000
  6
CONTINUOUS
  0
LINE
  8
WHITE
 10
12.763003
 20
2.142200
 30
0.000000
 11
13.006772
 21
2.142200
 31
0.000000
  6
CONTINUOUS
  0
LINE
  8
WHITE
 10
13.006772
 20
2.142200
 30
0.000000
 11
13.006772
 21
2.081700
 31
0.000000
  6
CONTINUOUS
  0
LINE
  8
WHITE
 10
13.006772
 20
2.081700
 30
0.000000
 11
12.765606
 21
2.081700
 31
0.000000
  6
CONTINUOUS
  0
ARC
  8
WHITE
 10
12.765606
 20
2.071617
 30
0.000000
 40
0.010083
 50
90.000000
 51
187.747702
  6
CONTINUOUS
  0
ARC
  8
WHITE
 10
12.911552
 20
2.091474
 30
0.000000
 40
0.157374
 50
-172.252292
 51
-103.888261
  6
CONTINUOUS
  0
LINE
  8
WHITE
 10
12.873778
 20
1.938700
 30
0.000000
 11
13.176603
 21
1.938700
 31
0.000000
  6
CONTINUOUS
  0
ARC
  8
WHITE
 10
13.176603
 20
1.948784
 30
0.000000
 40
0.010083
 50
-90.000000
 51
0.000000
  6
CONTINUOUS
  0
LINE
  8
WHITE
 10
13.186686
 20
1.948784
 30
0.000000
 11
13.186686
 21
2.741700
 31
0.000000
  6
CONTINUOUS
  0
LINE
  8
WHITE
 10
13.186686
 20
2.741700
 30
0.000000
 11
14.468736
 21
2.741700
 31
0.000000
  6
CONTINUOUS
  0
LINE
  8
WHITE
 10
14.468736
 20
2.741700
 30
0.000000
 11
14.468736
 21
1.968950
 31
0.000000
  6
CONTINUOUS
  0
ARC
  8
WHITE
 10
14.498986
 20
1.968950
 30
0.000000
 40
0.030250
 50
180.000000
 51
270.000000
  6
CONTINUOUS
  0
LINE
  8
WHITE
 10
14.498986
 20
1.938700
 30
0.000000
 11
14.932936
 21
1.938700
 31
0.000000
  6
CONTINUOUS
  0
ARC
  8
WHITE
 10
14.932936
 20
1.968950
 30
0.000000
 40
0.030250
 50
-90.000000
 51
0.000000
  6
CONTINUOUS
  0
LINE
  8
WHITE
 10
14.963186
 20
1.968950
 30
0.000000
 11
14.963186
 21
4.305809
 31
0.000000
  6
CONTINUOUS
  0
ARC
  8
WHITE
 10
14.932936
 20
4.305809
 30
0.000000
 40
0.030250
 50
0.000000
 51
60.504345
  6
CONTINUOUS
  0
LINE
  8
WHITE
 10
14.947830
 20
4.332138
 30
0.000000
 11
14.159725
 21
4.777948
 31
0.000000
  6
CONTINUOUS
  0
LINE
  8
WHITE
 10
13.725686
 20
3.181700
 30
0.000000
 11
14.363686
 21
3.181700
 31
0.000000
  6
CONTINUOUS
  0
LINE
  8
WHITE
 10
14.363686
 20
3.181700
 30
0.000000
 11
14.363686
 21
3.242200
 31
0.000000
  6
CONTINUOUS
  0
LINE
  8
WHITE
 10
14.363686
 20
3.242200
 30
0.000000
 11
13.725686
 21
3.242200
 31
0.000000
  6
CONTINUOUS
  0
LINE
  8
WHITE
 10
13.725686
 20
3.242200
 30
0.000000
 11
13.725686
 21
3.181700
 31
0.000000
  6
CONTINUOUS
  0
LINE
  8
WHITE
 10
13.725686
 20
3.687700
 30
0.000000
 11
14.358186
 21
3.687700
 31
0.000000
  6
CONTINUOUS
  0
LINE
  8
WHITE
 10
14.358186
 20
3.687700
 30
0.000000
 11
14.358186
 21
3.748200
 31
0.000000
  6
CONTINUOUS
  0
LINE
  8
WHITE
 10
14.358186
 20
3.748200
 30
0.000000
 11
13.725686
 21
3.748200
 31
0.000000
  6
CONTINUOUS
  0
LINE
  8
WHITE
 10
13.725686
 20
3.748200
 30
0.000000
 11
13.725686
 21
3.687700
 31
0.000000
  6
CONTINUOUS
  0
LINE
  8
WHITE
 10
4.830067
 20
3.066122
 30
0.000000
 11
4.041962
 21
2.620313
 31
0.000000
  6
CONTINUOUS
  0
ARC
  8
WHITE
 10
4.056856
 20
2.593983
 30
0.000000
 40
0.030250
 50
119.495655
 51
180.000000
  6
CONTINUOUS
  0
LINE
  8
WHITE
 10
4.026606
 20
2.593983
 30
0.000000
 11
4.026606
 21
0.257125
 31
0.000000
  6
CONTINUOUS
  0
ARC
  8
WHITE
 10
4.056856
 20
0.257125
 30
0.000000
 40
0.030250
 50
180.000000
 51
270.000000
  6
CONTINUOUS
  0
LINE
  8
WHITE
 10
4.056856
 20
0.226875
 30
0.000000
 11
4.490806
 21
0.226875
 31
0.000000
  6
CONTINUOUS
  0
ARC
  8
WHITE
 10
4.490806
 20
0.257125
 30
0.000000
 40
0.030250
 50
-90.000000
 51
0.000000
  6
CONTINUOUS
  0
LINE
  8
WHITE
 10
4.521056
 20
0.257125
 30
0.000000
 11
4.521056
 21
1.029875
 31
0.000000
  6
CONTINUOUS
  0
LINE
  8
WHITE
 10
4.521056
 20
1.029875
 30
0.000000
 11
5.803106
 21
1.029875
 31
0.000000
  6
CONTINUOUS
  0
LINE
  8
WHITE
 10
5.803106
 20
1.029875
 30
0.000000
 11
5.803106
 21
0.257125
 31
0.000000
  6
CONTINUOUS
  0
ARC
  8
WHITE
 10
5.833356
 20
0.257125
 30
0.000000
 40
0.030250
 50
180.000000
 51
270.000000
  6
CONTINUOUS
  0
LINE
  8
WHITE
 10
5.833356
 20
0.226875
 30
0.000000
 11
6.098327
 21
0.226875
 31
0.000000
  6
CONTINUOUS
  0
ARC
  8
WHITE
 10
6.042901
 20
0.420077
 30
0.000000
 40
0.200995
 50
-73.992794
 51
-18.407551
  6
CONTINUOUS
  0
ARC
  8
WHITE
 10
6.224166
 20
0.360139
 30
0.000000
 40
0.010083
 50
-20.498751
 51
74.925227
  6
CONTINUOUS
  0
LINE
  8
WHITE
 10
6.226789
 20
0.369875
 30
0.000000
 11
5.983019
 21
0.369875
 31
0.000000
  6
CONTINUOUS
  0
LINE
  8
WHITE
 10
5.983019
 20
0.369875
 30
0.000000
 11
5.983019
 21
0.430375
 31
0.000000
  6
CONTINUOUS
  0
LINE
  8
WHITE
 10
5.983019
 20
0.430375
 30
0.000000
 11
6.226789
 21
0.430375
 31
0.000000
  6
CONTINUOUS
  0
ARC
  8
WHITE
 10
6.226789
 20
0.440458
 30
0.000000
 40
0.010083
 50
-90.000000
 51
0.000000
  6
CONTINUOUS
  0
LINE
  8
WHITE
 10
6.236872
 20
0.440458
 30
0.000000
 11
6.236872
 21
1.024375
 31
0.000000
  6
CONTINUOUS
  0
LINE
  8
WHITE
 10
6.236872
 20
1.024375
 30
0.000000
 11
6.531856
 21
1.024375
 31
0.000000
  6
CONTINUOUS
  0
ARC
  8
WHITE
 10
6.531856
 20
1.054625
 30
0.000000
 40
0.030250
 50
-90.000000
 51
0.000000
  6
CONTINUOUS
  0
LINE
  8
WHITE
 10
6.562106
 20
1.054625
 30
0.000000
 11
6.562106
 21
1.137905
 31
0.000000
  6
CONTINUOUS
  0
ARC
  8
WHITE
 10
6.531856
 20
1.137905
 30
0.000000
 40
0.030250
 50
0.000000
 51
42.104621
  6
CONTINUOUS
  0
LINE
  8
WHITE
 10
6.554299
 20
1.158187
 30
0.000000
 11
4.830067
 21
3.066122
 31
0.000000
  6
CONTINUOUS
  0
LINE
  8
WHITE
 10
4.626106
 20
1.469875
 30
0.000000
 11
5.264106
 21
1.469875
 31
0.000000
  6
CONTINUOUS
  0
LINE
  8
WHITE
 10
5.264106
 20
1.469875
 30
0.000000
 11
5.264106
 21
1.530375
 31
0.000000
  6
CONTINUOUS
  0
LINE
  8
WHITE
 10
5.264106
 20
1.530375
 30
0.000000
 11
4.626106
 21
1.530375
 31
0.000000
  6
CONTINUOUS
  0
LINE
  8
WHITE
 10
4.626106
 20
1.530375
 30
0.000000
 11
4.626106
 21
1.469875
 31
0.000000
  6
CONTINUOUS
  0
LINE
  8
WHITE
 10
4.631606
 20
1.975875
 30
0.000000
 11
5.264106
 21
1.975875
 31
0.000000
  6
CONTINUOUS
  0
LINE
  8
WHITE
 10
5.264106
 20
1.975875
 30
0.000000
 11
5.264106
 21
2.036375
 31
0.000000
  6
CONTINUOUS
  0
LINE
  8
WHITE
 10
5.264106
 20
2.036375
 30
0.000000
 11
4.631606
 21
2.036375
 31
0.000000
  6
CONTINUOUS
  0
LINE
  8
WHITE
 10
4.631606
 20
2.036375
 30
0.000000
 11
4.631606
 21
1.975875
 31
0.000000
  6
CONTINUOUS
  0
ARC
  8
WHITE
 10
4.660035
 20
7.220167
 30
0.000000
 40
0.150922
 50
84.165718
 51
161.873110
  6
CONTINUOUS
  0
ARC
  8
WHITE
 10
10.045865
 20
5.753642
 30
0.000000
 40
5.732658
 50
164.691853
 51
176.693187
  6
CONTINUOUS
  0
ARC
  8
WHITE
 10
16.433191
 20
5.021752
 30
0.000000
 40
12.156963
 50
174.985730
 51
179.309048
  6
CONTINUOUS
  0
ARC
  8
WHITE
 10
4.920902
 20
5.170239
 30
0.000000
 40
0.643793
 50
-179.832224
 51
-145.783436
  6
CONTINUOUS
  0
ARC
  8
WHITE
 10
5.931612
 20
5.748697
 30
0.000000
 40
1.807090
 50
-148.638416
 51
-135.097035
  6
CONTINUOUS
  0
ARC
  8
WHITE
 10
9.012032
 20
5.054780
 30
0.000000
 40
4.399021
 50
-172.400992
 51
-150.341194
  6
CONTINUOUS
  0
ARC
  8
WHITE
 10
5.505092
 20
3.039960
 30
0.000000
 40
0.354871
 50
-152.844497
 51
-131.229797
  6
CONTINUOUS
  0
ARC
  8
WHITE
 10
5.292810
 20
2.800965
 30
0.000000
 40
0.035283
 50
-127.763079
 51
-18.838433
  6
CONTINUOUS
  0
ARC
  8
WHITE
 10
4.104457
 20
3.400841
 30
0.000000
 40
1.366131
 50
-26.579918
 51
-7.332879
  6
CONTINUOUS
  0
ARC
  8
WHITE
 10
-12.941541
 20
5.300963
 30
0.000000
 40
18.517524
 50
-6.432250
 51
6.094661
  6
CONTINUOUS
  0
ARC
  8
WHITE
 10
4.776770
 20
7.211958
 30
0.000000
 40
0.696725
 50
4.530694
 51
32.201569
  6
CONTINUOUS
  0
ARC
  8
WHITE
 10
5.254091
 20
7.480427
 30
0.000000
 40
0.152208
 50
42.492240
 51
82.951852
  6
CONTINUOUS
  0
ARC
  8
WHITE
 10
5.270293
 20
7.611471
 30
0.000000
 40
0.020167
 50
82.951852
 51
180.000000
  6
CONTINUOUS
  0
LINE
  8
WHITE
 10
5.250126
 20
7.611471
 30
0.000000
 11
5.250126
 21
6.433618
 31
0.000000
  6
CONTINUOUS
  0
LINE
  8
WHITE
 10
5.250126
 20
6.433618
 30
0.000000
 11
5.189626
 21
6.433618
 31
0.000000
  6
CONTINUOUS
  0
LINE
  8
WHITE
 10
5.189626
 20
6.433618
 30
0.000000
 11
5.189626
 21
6.896238
 31
0.000000
  6
CONTINUOUS
  0
ARC
  8
WHITE
 10
5.169459
 20
6.896238
 30
0.000000
 40
0.020167
 50
0.000000
 51
90.000000
  6
CONTINUOUS
  0
LINE
  8
WHITE
 10
5.169459
 20
6.916405
 30
0.000000
 11
4.967793
 21
6.916405
 31
0.000000
  6
CONTINUOUS
  0
ARC
  8
WHITE
 10
4.967793
 20
6.896238
 30
0.000000
 40
0.020167
 50
90.000000
 51
180.000000
  6
CONTINUOUS
  0
LINE
  8
WHITE
 10
4.947626
 20
6.896238
 30
0.000000
 11
4.947626
 21
6.318365
 31
0.000000
  6
CONTINUOUS
  0
LINE
  8
WHITE
 10
4.947626
 20
6.318365
 30
0.000000
 11
4.756043
 21
6.318365
 31
0.000000
  6
CONTINUOUS
  0
ARC
  8
WHITE
 10
4.756043
 20
6.298198
 30
0.000000
 40
0.020167
 50
90.000000
 51
180.000000
  6
CONTINUOUS
  0
LINE
  8
WHITE
 10
4.735876
 20
6.298198
 30
0.000000
 11
4.735876
 21
5.739294
 31
0.000000
  6
CONTINUOUS
  0
LINE
  8
WHITE
 10
4.735876
 20
5.739294
 30
0.000000
 11
4.675376
 21
5.739294
 31
0.000000
  6
CONTINUOUS
  0
LINE
  8
WHITE
 10
4.675376
 20
5.739294
 30
0.000000
 11
4.675376
 21
7.370306
 31
0.000000
  6
CONTINUOUS
  0
LINE
  8
WHITE
 10
5.100703
 20
5.099630
 30
0.000000
 11
5.100703
 21
4.489072
 31
0.000000
  6
CONTINUOUS
  0
LINE
  8
WHITE
 10
5.100703
 20
4.489072
 30
0.000000
 11
5.161203
 21
4.489072
 31
0.000000
  6
CONTINUOUS
  0
LINE
  8
WHITE
 10
5.161203
 20
4.489072
 30
0.000000
 11
5.161203
 21
5.099630
 31
0.000000
  6
CONTINUOUS
  0
LINE
  8
WHITE
 10
5.161203
 20
5.099630
 30
0.000000
 11
5.100703
 21
5.099630
 31
0.000000
  6
CONTINUOUS
  0
LINE
  8
WHITE
 10
6.126311
 20
9.254981
 30
0.000000
 11
7.443925
 21
9.254981
 31
0.000000
  6
CONTINUOUS
  0
ARC
  8
WHITE
 10
7.443925
 20
9.275148
 30
0.000000
 40
0.020167
 50
-90.000000
 51
-6.574257
  6
CONTINUOUS
  0
ARC
  8
WHITE
 10
8.119741
 20
9.197261
 30
0.000000
 40
0.660123
 50
151.344536
 51
173.425744
  6
CONTINUOUS
  0
ARC
  8
WHITE
 10
7.647485
 20
9.457102
 30
0.000000
 40
0.121115
 50
107.808976
 51
152.077717
  6
CONTINUOUS
  0
ARC
  8
WHITE
 10
7.634532
 20
9.527161
 30
0.000000
 40
0.051264
 50
51.804278
 51
118.026963
  6
CONTINUOUS
  0
ARC
  8
WHITE
 10
7.466766
 20
9.328752
 30
0.000000
 40
0.311067
 50
36.513903
 51
50.116533
  6
CONTINUOUS
  0
ARC
  8
WHITE
 10
6.957947
 20
9.123510
 30
0.000000
 40
0.853334
 50
8.416396
 51
27.220788
  6
CONTINUOUS
  0
ARC
  8
WHITE
 10
5.763426
 20
8.823923
 30
0.000000
 40
2.082388
 50
-1.005335
 51
11.761956
  6
CONTINUOUS
  0
ARC
  8
WHITE
 10
79.745372
 20
7.389908
 30
0.000000
 40
71.913457
 50
178.886513
 51
179.403210
  6
CONTINUOUS
  0
ARC
  8
WHITE
 10
3.812325
 20
7.122151
 30
0.000000
 40
4.149980
 50
-6.303962
 51
14.182474
  6
CONTINUOUS
  0
ARC
  8
WHITE
 10
-0.981585
 20
6.993006
 30
0.000000
 40
8.924773
 50
-10.890814
 51
-2.096780
  6
CONTINUOUS
  0
ARC
  8
WHITE
 10
7.073944
 20
5.498218
 30
0.000000
 40
0.733909
 50
-40.710924
 51
-15.120524
  6
CONTINUOUS
  0
ARC
  8
WHITE
 10
7.576047
 20
5.068316
 30
0.000000
 40
0.072927
 50
-133.513898
 51
-41.986101
  6
CONTINUOUS
  0
ARC
  8
WHITE
 10
8.263913
 20
5.496871
 30
0.000000
 40
0.881219
 50
-170.483158
 51
-146.883960
  6
CONTINUOUS
  0
ARC
  8
WHITE
 10
12.896574
 20
6.388902
 30
0.000000
 40
5.598764
 50
172.137076
 51
190.681530
  6
CONTINUOUS
  0
ARC
  8
WHITE
 10
1.504929
 20
8.227866
 30
0.000000
 40
5.943190
 50
-10.401705
 51
-1.921488
  6
CONTINUOUS
  0
ARC
  8
WHITE
 10
7.424621
 20
8.029267
 30
0.000000
 40
0.020167
 50
-1.921489
 51
62.226835
  6
CONTINUOUS
  0
LINE
  8
WHITE
 10
7.434019
 20
8.047111
 30
0.000000
 11
6.326136
 21
8.630568
 31
0.000000
  6
CONTINUOUS
  0
ARC
  8
WHITE
 10
6.316739
 20
8.612725
 30
0.000000
 40
0.020167
 50
62.226832
 51
145.989858
  6
CONTINUOUS
  0
LINE
  8
WHITE
 10
6.300022
 20
8.624005
 30
0.000000
 11
6.260173
 21
8.564948
 31
0.000000
  6
CONTINUOUS
  0
ARC
  8
WHITE
 10
6.243456
 20
8.576228
 30
0.000000
 40
0.020167
 50
-90.000000
 51
-34.010142
  6
CONTINUOUS
  0
LINE
  8
WHITE
 10
6.243456
 20
8.556061
 30
0.000000
 11
6.173162
 21
8.556061
 31
0.000000
  6
CONTINUOUS
  0
ARC
  8
WHITE
 10
6.173162
 20
8.576228
 30
0.000000
 40
0.020167
 50
-177.749999
 51
-90.000000
  6
CONTINUOUS
  0
LINE
  8
WHITE
 10
6.153011
 20
8.575436
 30
0.000000
 11
6.126311
 21
9.254981
 31
0.000000
  6
CONTINUOUS
  0
LINE
  8
WHITE
 10
7.631841
 20
8.536876
 30
0.000000
 11
7.624811
 21
8.534642
 31
0.000000
  6
CONTINUOUS
  0
ARC
  8
WHITE
 10
7.621758
 20
8.544253
 30
0.000000
 40
0.010083
 50
-72.376271
 51
0.000000
  6
CONTINUOUS
  0
LINE
  8
WHITE
 10
7.631841
 20
8.544253
 30
0.000000
 11
7.631841
 21
8.900177
 31
0.000000
  6
CONTINUOUS
  0
LINE
  8
WHITE
 10
7.631841
 20
8.900177
 30
0.000000
 11
7.571341
 21
8.900177
 31
0.000000
  6
CONTINUOUS
  0
LINE
  8
WHITE
 10
7.571341
 20
8.900177
 30
0.000000
 11
7.571341
 21
8.227711
 31
0.000000
  6
CONTINUOUS
  0
LINE
  8
WHITE
 10
7.571341
 20
8.227711
 30
0.000000
 11
7.631841
 21
8.227711
 31
0.000000
  6
CONTINUOUS
  0
LINE
  8
WHITE
 10
7.631841
 20
8.227711
 30
0.000000
 11
7.631841
 21
8.536876
 31
0.000000
  6
CONTINUOUS
  0
LINE
  8
WHITE
 10
7.631841
 20
7.148565
 30
0.000000
 11
7.631841
 21
7.642923
 31
0.000000
  6
CONTINUOUS
  0
LINE
  8
WHITE
 10
7.631841
 20
7.642923
 30
0.000000
 11
7.571341
 21
7.642923
 31
0.000000
  6
CONTINUOUS
  0
LINE
  8
WHITE
 10
7.571341
 20
7.642923
 30
0.000000
 11
7.571341
 21
7.148565
 31
0.000000
  6
CONTINUOUS
  0
LINE
  8
WHITE
 10
7.571341
 20
7.148565
 30
0.000000
 11
7.631841
 21
7.148565
 31
0.000000
  6
CONTINUOUS
  0
LINE
  8
WHITE
 10
7.631841
 20
5.659451
 30
0.000000
 11
7.625944
 21
5.656760
 31
0.000000
  6
CONTINUOUS
  0
ARC
  8
WHITE
 10
7.621758
 20
5.665933
 30
0.000000
 40
0.010083
 50
-65.472351
 51
0.000000
  6
CONTINUOUS
  0
LINE
  8
WHITE
 10
7.631841
 20
5.665933
 30
0.000000
 11
7.631841
 21
5.865781
 31
0.000000
  6
CONTINUOUS
  0
LINE
  8
WHITE
 10
7.631841
 20
5.865781
 30
0.000000
 11
7.571341
 21
5.865781
 31
0.000000
  6
CONTINUOUS
  0
LINE
  8
WHITE
 10
7.571341
 20
5.865781
 30
0.000000
 11
7.571341
 21
5.432408
 31
0.000000
  6
CONTINUOUS
  0
LINE
  8
WHITE
 10
7.571341
 20
5.432408
 30
0.000000
 11
7.631841
 21
5.432408
 31
0.000000
  6
CONTINUOUS
  0
LINE
  8
WHITE
 10
7.631841
 20
5.432408
 30
0.000000
 11
7.631841
 21
5.659451
 31
0.000000
  6
CONTINUOUS
  0
LINE
  8
WHITE
 10
8.346583
 20
3.942443
 30
0.000000
 11
7.010748
 21
3.942443
 31
0.000000
  6
CONTINUOUS
  0
ARC
  8
WHITE
 10
6.353153
 20
4.000163
 30
0.000000
 40
0.660123
 50
-28.655464
 51
-5.016270
  6
CONTINUOUS
  0
ARC
  8
WHITE
 10
6.825408
 20
3.740321
 30
0.000000
 40
0.121115
 50
-72.191024
 51
-27.922283
  6
CONTINUOUS
  0
ARC
  8
WHITE
 10
6.838362
 20
3.670263
 30
0.000000
 40
0.051264
 50
-128.195722
 51
-61.973038
  6
CONTINUOUS
  0
ARC
  8
WHITE
 10
7.006128
 20
3.868671
 30
0.000000
 40
0.311067
 50
-143.486097
 51
-129.883467
  6
CONTINUOUS
  0
ARC
  8
WHITE
 10
7.514947
 20
4.073913
 30
0.000000
 40
0.853334
 50
-171.583604
 51
-152.779212
  6
CONTINUOUS
  0
ARC
  8
WHITE
 10
8.709467
 20
4.373501
 30
0.000000
 40
2.082388
 50
178.994665
 51
191.761956
  6
CONTINUOUS
  0
ARC
  8
WHITE
 10
-65.272478
 20
5.807516
 30
0.000000
 40
71.913457
 50
-1.113487
 51
-0.596790
  6
CONTINUOUS
  0
ARC
  8
WHITE
 10
10.660569
 20
6.075272
 30
0.000000
 40
4.149980
 50
173.696038
 51
194.182474
  6
CONTINUOUS
  0
ARC
  8
WHITE
 10
15.454479
 20
6.204417
 30
0.000000
 40
8.924773
 50
169.109186
 51
177.903220
  6
CONTINUOUS
  0
ARC
  8
WHITE
 10
7.398950
 20
7.699206
 30
0.000000
 40
0.733909
 50
139.289076
 51
164.879476
  6
CONTINUOUS
  0
ARC
  8
WHITE
 10
6.896847
 20
8.129108
 30
0.000000
 40
0.072927
 50
46.486102
 51
138.013899
  6
CONTINUOUS
  0
ARC
  8
WHITE
 10
6.208981
 20
7.700553
 30
0.000000
 40
0.881219
 50
9.516842
 51
33.116040
  6
CONTINUOUS
  0
ARC
  8
WHITE
 10
1.576320
 20
6.808522
 30
0.000000
 40
5.598764
 50
-7.862924
 51
10.681530
  6
CONTINUOUS
  0
ARC
  8
WHITE
 10
12.967965
 20
4.969557
 30
0.000000
 40
5.943190
 50
169.598295
 51
178.200411
  6
CONTINUOUS
  0
LINE
  8
WHITE
 10
7.027707
 20
5.156195
 30
0.000000
 11
8.146758
 21
4.566856
 31
0.000000
  6
CONTINUOUS
  0
ARC
  8
WHITE
 10
8.156155
 20
4.584699
 30
0.000000
 40
0.020167
 50
-117.773165
 51
-34.010142
  6
CONTINUOUS
  0
LINE
  8
WHITE
 10
8.172872
 20
4.573419
 30
0.000000
 11
8.212721
 21
4.632476
 31
0.000000
  6
CONTINUOUS
  0
ARC
  8
WHITE
 10
8.229438
 20
4.621196
 30
0.000000
 40
0.020167
 50
90.000000
 51
145.989857
  6
CONTINUOUS
  0
LINE
  8
WHITE
 10
8.229438
 20
4.641362
 30
0.000000
 11
8.299732
 21
4.641362
 31
0.000000
  6
CONTINUOUS
  0
ARC
  8
WHITE
 10
8.299732
 20
4.621196
 30
0.000000
 40
0.020167
 50
2.250001
 51
90.000000
  6
CONTINUOUS
  0
LINE
  8
WHITE
 10
8.319883
 20
4.621987
 30
0.000000
 11
8.346583
 21
3.942443
 31
0.000000
  6
CONTINUOUS
  0
LINE
  8
WHITE
 10
6.841053
 20
4.969713
 30
0.000000
 11
6.841053
 21
4.297246
 31
0.000000
  6
CONTINUOUS
  0
LINE
  8
WHITE
 10
6.841053
 20
4.297246
 30
0.000000
 11
6.901553
 21
4.297246
 31
0.000000
  6
CONTINUOUS
  0
LINE
  8
WHITE
 10
6.901553
 20
4.297246
 30
0.000000
 11
6.901553
 21
4.969713
 31
0.000000
  6
CONTINUOUS
  0
LINE
  8
WHITE
 10
6.901553
 20
4.969713
 30
0.000000
 11
6.841053
 21
4.969713
 31
0.000000
  6
CONTINUOUS
  0
LINE
  8
WHITE
 10
6.841053
 20
5.787297
 30
0.000000
 11
6.846615
 21
5.790087
 31
0.000000
  6
CONTINUOUS
  0
ARC
  8
WHITE
 10
6.851136
 20
5.781074
 30
0.000000
 40
0.010083
 50
116.636158
 51
180.000000
  6
CONTINUOUS
  0
LINE
  8
WHITE
 10
6.841053
 20
5.781074
 30
0.000000
 11
6.841053
 21
5.554501
 31
0.000000
  6
CONTINUOUS
  0
LINE
  8
WHITE
 10
6.841053
 20
5.554501
 30
0.000000
 11
6.901553
 21
5.554501
 31
0.000000
  6
CONTINUOUS
  0
LINE
  8
WHITE
 10
6.901553
 20
5.554501
 30
0.000000
 11
6.901553
 21
6.048859
 31
0.000000
  6
CONTINUOUS
  0
LINE
  8
WHITE
 10
6.901553
 20
6.048859
 30
0.000000
 11
6.841053
 21
6.048859
 31
0.000000
  6
CONTINUOUS
  0
LINE
  8
WHITE
 10
6.841053
 20
6.048859
 30
0.000000
 11
6.841053
 21
5.787297
 31
0.000000
  6
CONTINUOUS
  0
LINE
  8
WHITE
 10
6.841053
 20
7.765016
 30
0.000000
 11
6.841053
 21
7.331642
 31
0.000000
  6
CONTINUOUS
  0
LINE
  8
WHITE
 10
6.841053
 20
7.331642
 30
0.000000
 11
6.901553
 21
7.331642
 31
0.000000
  6
CONTINUOUS
  0
LINE
  8
WHITE
 10
6.901553
 20
7.331642
 30
0.000000
 11
6.901553
 21
7.765016
 31
0.000000
  6
CONTINUOUS
  0
LINE
  8
WHITE
 10
6.901553
 20
7.765016
 30
0.000000
 11
6.841053
 21
7.765016
 31
0.000000
  6
CONTINUOUS
  0
LINE
  8
WHITE
 10
8.613882
 20
4.877318
 30
0.000000
 11
8.613882
 21
3.249225
 31
0.000000
  6
CONTINUOUS
  0
LINE
  8
WHITE
 10
8.613882
 20
3.249225
 30
0.000000
 11
8.549856
 21
3.249225
 31
0.000000
  6
CONTINUOUS
  0
ARC
  8
WHITE
 10
8.549856
 20
3.229058
 30
0.000000
 40
0.020167
 50
90.000000
 51
165.711598
  6
CONTINUOUS
  0
ARC
  8
WHITE
 10
13.571942
 20
1.950027
 30
0.000000
 40
5.202567
 50
165.711599
 51
184.899059
  6
CONTINUOUS
  0
ARC
  8
WHITE
 10
13.024300
 20
1.674093
 30
0.000000
 40
4.638974
 50
-177.920028
 51
-165.048407
  6
CONTINUOUS
  0
ARC
  8
WHITE
 10
8.587978
 20
0.500021
 30
0.000000
 40
0.050978
 50
-153.436660
 51
-33.716009
  6
CONTINUOUS
  0
LINE
  8
WHITE
 10
8.630382
 20
0.471725
 30
0.000000
 11
9.100495
 21
1.046600
 31
0.000000
  6
CONTINUOUS
  0
ARC
  8
WHITE
 10
8.710211
 20
1.365760
 30
0.000000
 40
0.504167
 50
-39.275102
 51
-7.793319
  6
CONTINUOUS
  0
ARC
  8
WHITE
 10
-0.225785
 20
2.862210
 30
0.000000
 40
9.564383
 50
-9.416414
 51
2.582883
  6
CONTINUOUS
  0
ARC
  8
WHITE
 10
-2.447429
 20
2.658595
 30
0.000000
 40
11.793399
 50
3.084707
 51
10.762712
  6
CONTINUOUS
  0
ARC
  8
WHITE
 10
9.118700
 20
4.857152
 30
0.000000
 40
0.020167
 50
10.762710
 51
90.000000
  6
CONTINUOUS
  0
LINE
  8
WHITE
 10
9.118700
 20
4.877318
 30
0.000000
 11
8.613882
 21
4.877318
 31
0.000000
  6
CONTINUOUS
  0
LINE
  8
WHITE
 10
9.075882
 20
3.354504
 30
0.000000
 11
9.075882
 21
2.340946
 31
0.000000
  6
CONTINUOUS
  0
LINE
  8
WHITE
 10
9.075882
 20
2.340946
 30
0.000000
 11
9.136382
 21
2.340946
 31
0.000000
  6
CONTINUOUS
  0
LINE
  8
WHITE
 10
9.136382
 20
2.340946
 30
0.000000
 11
9.136382
 21
3.354504
 31
0.000000
  6
CONTINUOUS
  0
LINE
  8
WHITE
 10
9.136382
 20
3.354504
 30
0.000000
 11
9.075882
 21
3.354504
 31
0.000000
  6
CONTINUOUS
  0
LINE
  8
WHITE
 10
8.813898
 20
4.664466
 30
0.000000
 11
8.813898
 21
3.992000
 31
0.000000
  6
CONTINUOUS
  0
LINE
  8
WHITE
 10
8.813898
 20
3.992000
 30
0.000000
 11
8.874398
 21
3.992000
 31
0.000000
  6
CONTINUOUS
  0
LINE
  8
WHITE
 10
8.874398
 20
3.992000
 30
0.000000
 11
8.874398
 21
4.664466
 31
0.000000
  6
CONTINUOUS
  0
LINE
  8
WHITE
 10
8.874398
 20
4.664466
 30
0.000000
 11
8.813898
 21
4.664466
 31
0.000000
  6
CONTINUOUS
  0
LINE
  8
WHITE
 10
8.814265
 20
3.407212
 30
0.000000
 11
8.814265
 21
2.912854
 31
0.000000
  6
CONTINUOUS
  0
LINE
  8
WHITE
 10
8.814265
 20
2.912854
 30
0.000000
 11
8.874765
 21
2.912854
 31
0.000000
  6
CONTINUOUS
  0
LINE
  8
WHITE
 10
8.874765
 20
2.912854
 30
0.000000
 11
8.874765
 21
3.407212
 31
0.000000
  6
CONTINUOUS
  0
LINE
  8
WHITE
 10
8.874765
 20
3.407212
 30
0.000000
 11
8.814265
 21
3.407212
 31
0.000000
  6
CONTINUOUS
  0
LINE
  8
WHITE
 10
8.814082
 20
1.630071
 30
0.000000
 11
8.814082
 21
1.196212
 31
0.000000
  6
CONTINUOUS
  0
LINE
  8
WHITE
 10
8.814082
 20
1.196212
 30
0.000000
 11
8.874582
 21
1.196212
 31
0.000000
  6
CONTINUOUS
  0
LINE
  8
WHITE
 10
8.874582
 20
1.196212
 30
0.000000
 11
8.874582
 21
1.630071
 31
0.000000
  6
CONTINUOUS
  0
LINE
  8
WHITE
 10
8.874582
 20
1.630071
 30
0.000000
 11
8.814082
 21
1.630071
 31
0.000000
  6
CONTINUOUS
  0
LINE
  8
WHITE
 10
8.680939
 20
9.738121
 30
0.000000
 11
8.680939
 21
8.110027
 31
0.000000
  6
CONTINUOUS
  0
LINE
  8
WHITE
 10
8.680939
 20
8.110027
 30
0.000000
 11
8.616913
 21
8.110027
 31
0.000000
  6
CONTINUOUS
  0
ARC
  8
WHITE
 10
8.616913
 20
8.089860
 30
0.000000
 40
0.020167
 50
90.000000
 51
165.711598
  6
CONTINUOUS
  0
ARC
  8
WHITE
 10
13.639000
 20
6.810829
 30
0.000000
 40
5.202567
 50
165.711599
 51
184.899059
  6
CONTINUOUS
  0
ARC
  8
WHITE
 10
13.091357
 20
6.534896
 30
0.000000
 40
4.638974
 50
-177.920028
 51
-165.048407
  6
CONTINUOUS
  0
ARC
  8
WHITE
 10
8.655036
 20
5.360824
 30
0.000000
 40
0.050978
 50
-153.436659
 51
-33.716009
  6
CONTINUOUS
  0
LINE
  8
WHITE
 10
8.697439
 20
5.332527
 30
0.000000
 11
9.167552
 21
5.907402
 31
0.000000
  6
CONTINUOUS
  0
ARC
  8
WHITE
 10
8.777269
 20
6.226562
 30
0.000000
 40
0.504167
 50
-39.275102
 51
-7.793319
  6
CONTINUOUS
  0
ARC
  8
WHITE
 10
-0.158728
 20
7.723012
 30
0.000000
 40
9.564383
 50
-9.416414
 51
2.582883
  6
CONTINUOUS
  0
ARC
  8
WHITE
 10
-2.380372
 20
7.519397
 30
0.000000
 40
11.793399
 50
3.084707
 51
10.762712
  6
CONTINUOUS
  0
ARC
  8
WHITE
 10
9.185757
 20
9.717954
 30
0.000000
 40
0.020167
 50
10.762710
 51
90.000000
  6
CONTINUOUS
  0
LINE
  8
WHITE
 10
9.185757
 20
9.738121
 30
0.000000
 11
8.680939
 21
9.738121
 31
0.000000
  6
CONTINUOUS
  0
LINE
  8
WHITE
 10
9.142939
 20
8.215306
 30
0.000000
 11
9.142939
 21
7.201748
 31
0.000000
  6
CONTINUOUS
  0
LINE
  8
WHITE
 10
9.142939
 20
7.201748
 30
0.000000
 11
9.203439
 21
7.201748
 31
0.000000
  6
CONTINUOUS
  0
LINE
  8
WHITE
 10
9.203439
 20
7.201748
 30
0.000000
 11
9.203439
 21
8.215306
 31
0.000000
  6
CONTINUOUS
  0
LINE
  8
WHITE
 10
9.203439
 20
8.215306
 30
0.000000
 11
9.142939
 21
8.215306
 31
0.000000
  6
CONTINUOUS
  0
LINE
  8
WHITE
 10
8.880956
 20
9.525269
 30
0.000000
 11
8.880956
 21
8.852802
 31
0.000000
  6
CONTINUOUS
  0
LINE
  8
WHITE
 10
8.880956
 20
8.852802
 30
0.000000
 11
8.941456
 21
8.852802
 31
0.000000
  6
CONTINUOUS
  0
LINE
  8
WHITE
 10
8.941456
 20
8.852802
 30
0.000000
 11
8.941456
 21
9.525269
 31
0.000000
  6
CONTINUOUS
  0
LINE
  8
WHITE
 10
8.941456
 20
9.525269
 30
0.000000
 11
8.880956
 21
9.525269
 31
0.000000
  6
CONTINUOUS
  0
LINE
  8
WHITE
 10
8.881322
 20
8.268014
 30
0.000000
 11
8.881322
 21
7.773656
 31
0.000000
  6
CONTINUOUS
  0
LINE
  8
WHITE
 10
8.881322
 20
7.773656
 30
0.000000
 11
8.941822
 21
7.773656
 31
0.000000
  6
CONTINUOUS
  0
LINE
  8
WHITE
 10
8.941822
 20
7.773656
 30
0.000000
 11
8.941822
 21
8.268014
 31
0.000000
  6
CONTINUOUS
  0
LINE
  8
WHITE
 10
8.941822
 20
8.268014
 30
0.000000
 11
8.881322
 21
8.268014
 31
0.000000
  6
CONTINUOUS
  0
LINE
  8
WHITE
 10
8.881139
 20
6.490873
 30
0.000000
 11
8.881139
 21
6.057014
 31
0.000000
  6
CONTINUOUS
  0
LINE
  8
WHITE
 10
8.881139
 20
6.057014
 30
0.000000
 11
8.941639
 21
6.057014
 31
0.000000
  6
CONTINUOUS
  0
LINE
  8
WHITE
 10
8.941639
 20
6.057014
 30
0.000000
 11
8.941639
 21
6.490873
 31
0.000000
  6
CONTINUOUS
  0
LINE
  8
WHITE
 10
8.941639
 20
6.490873
 30
0.000000
 11
8.881139
 21
6.490873
 31
0.000000
  6
CONTINUOUS
  0
ARC
  8
WHITE
 10
3.103924
 20
4.427842
 30
0.000000
 40
0.223966
 50
113.064314
 51
166.046790
  6
CONTINUOUS
  0
ARC
  8
WHITE
 10
22.140614
 20
1.483819
 30
0.000000
 40
19.486060
 50
171.149602
 51
176.547475
  6
CONTINUOUS
  0
ARC
  8
WHITE
 10
3.583672
 20
2.697493
 30
0.000000
 40
0.894655
 50
-177.424946
 51
-152.375983
  6
CONTINUOUS
  0
ARC
  8
WHITE
 10
3.618470
 20
2.757497
 30
0.000000
 40
0.954027
 50
-150.151565
 51
-129.938713
  6
CONTINUOUS
  0
ARC
  8
WHITE
 10
6.726996
 20
2.639572
 30
0.000000
 40
3.771226
 50
-170.636678
 51
-153.700503
  6
CONTINUOUS
  0
ARC
  8
WHITE
 10
5.073675
 20
1.873756
 30
0.000000
 40
1.950277
 50
-152.349583
 51
-140.174535
  6
CONTINUOUS
  0
ARC
  8
WHITE
 10
3.598022
 20
0.638790
 30
0.000000
 40
0.026259
 50
-147.545354
 51
-23.233149
  6
CONTINUOUS
  0
ARC
  8
WHITE
 10
1.735234
 20
1.376941
 30
0.000000
 40
2.029957
 50
-21.637414
 51
-11.027123
  6
CONTINUOUS
  0
ARC
  8
WHITE
 10
-7.783575
 20
2.936590
 30
0.000000
 40
11.674936
 50
-9.604541
 51
9.031400
  6
CONTINUOUS
  0
ARC
  8
WHITE
 10
3.620264
 20
4.735411
 30
0.000000
 40
0.130814
 50
15.001424
 51
94.751238
  6
CONTINUOUS
  0
ARC
  8
WHITE
 10
3.611099
 20
4.845679
 30
0.000000
 40
0.020167
 50
94.751236
 51
180.000000
  6
CONTINUOUS
  0
LINE
  8
WHITE
 10
3.590932
 20
4.845679
 30
0.000000
 11
3.590932
 21
3.862935
 31
0.000000
  6
CONTINUOUS
  0
LINE
  8
WHITE
 10
3.590932
 20
3.862935
 30
0.000000
 11
3.530432
 21
3.862935
 31
0.000000
  6
CONTINUOUS
  0
LINE
  8
WHITE
 10
3.530432
 20
3.862935
 30
0.000000
 11
3.530432
 21
4.324874
 31
0.000000
  6
CONTINUOUS
  0
ARC
  8
WHITE
 10
3.510266
 20
4.324874
 30
0.000000
 40
0.020167
 50
0.000000
 51
90.000000
  6
CONTINUOUS
  0
LINE
  8
WHITE
 10
3.510266
 20
4.345041
 30
0.000000
 11
3.308599
 21
4.345041
 31
0.000000
  6
CONTINUOUS
  0
ARC
  8
WHITE
 10
3.308599
 20
4.324874
 30
0.000000
 40
0.020167
 50
90.000000
 51
180.000000
  6
CONTINUOUS
  0
LINE
  8
WHITE
 10
3.288432
 20
4.324874
 30
0.000000
 11
3.288432
 21
3.747682
 31
0.000000
  6
CONTINUOUS
  0
LINE
  8
WHITE
 10
3.288432
 20
3.747682
 30
0.000000
 11
3.096849
 21
3.747682
 31
0.000000
  6
CONTINUOUS
  0
ARC
  8
WHITE
 10
3.096849
 20
3.727515
 30
0.000000
 40
0.020167
 50
90.000000
 51
180.000000
  6
CONTINUOUS
  0
LINE
  8
WHITE
 10
3.076682
 20
3.727515
 30
0.000000
 11
3.076682
 21
3.168611
 31
0.000000
  6
CONTINUOUS
  0
LINE
  8
WHITE
 10
3.076682
 20
3.168611
 30
0.000000
 11
3.016182
 21
3.168611
 31
0.000000
  6
CONTINUOUS
  0
LINE
  8
WHITE
 10
3.016182
 20
3.168611
 30
0.000000
 11
3.016182
 21
4.633906
 31
0.000000
  6
CONTINUOUS
  0
LINE
  8
WHITE
 10
3.441642
 20
2.528615
 30
0.000000
 11
3.441642
 21
1.918057
 31
0.000000
  6
CONTINUOUS
  0
LINE
  8
WHITE
 10
3.441642
 20
1.918057
 30
0.000000
 11
3.502142
 21
1.918057
 31
0.000000
  6
CONTINUOUS
  0
LINE
  8
WHITE
 10
3.502142
 20
1.918057
 30
0.000000
 11
3.502142
 21
2.528615
 31
0.000000
  6
CONTINUOUS
  0
LINE
  8
WHITE
 10
3.502142
 20
2.528615
 30
0.000000
 11
3.441642
 21
2.528615
 31
0.000000
  6
CONTINUOUS
  0
ARC
  8
WHITE
 10
3.628168
 20
5.415923
 30
0.000000
 40
0.130814
 50
-102.957194
 51
-15.001424
  6
CONTINUOUS
  0
ARC
  8
WHITE
 10
-7.775671
 20
7.214744
 30
0.000000
 40
11.674936
 50
-9.031400
 51
9.604541
  6
CONTINUOUS
  0
ARC
  8
WHITE
 10
1.743138
 20
8.774394
 30
0.000000
 40
2.029957
 50
11.027123
 51
21.637413
  6
CONTINUOUS
  0
ARC
  8
WHITE
 10
3.605926
 20
9.512545
 30
0.000000
 40
0.026259
 50
23.233087
 51
147.545352
  6
CONTINUOUS
  0
ARC
  8
WHITE
 10
5.081580
 20
8.277579
 30
0.000000
 40
1.950277
 50
140.174535
 51
152.349583
  6
CONTINUOUS
  0
ARC
  8
WHITE
 10
6.734900
 20
7.511763
 30
0.000000
 40
3.771226
 50
153.700503
 51
170.636678
  6
CONTINUOUS
  0
ARC
  8
WHITE
 10
3.626375
 20
7.393838
 30
0.000000
 40
0.954027
 50
129.938713
 51
150.151565
  6
CONTINUOUS
  0
ARC
  8
WHITE
 10
3.591577
 20
7.453842
 30
0.000000
 40
0.894655
 50
152.375983
 51
177.424946
  6
CONTINUOUS
  0
ARC
  8
WHITE
 10
22.148519
 20
8.667516
 30
0.000000
 40
19.486060
 50
-176.547475
 51
-171.149602
  6
CONTINUOUS
  0
ARC
  8
WHITE
 10
3.111829
 20
5.723492
 30
0.000000
 40
0.223966
 50
-166.046791
 51
-121.970599
  6
CONTINUOUS
  0
ARC
  8
WHITE
 10
3.003920
 20
5.550605
 30
0.000000
 40
0.020167
 50
-121.970597
 51
0.000000
  6
CONTINUOUS
  0
LINE
  8
WHITE
 10
3.024087
 20
5.550605
 30
0.000000
 11
3.024087
 21
6.982723
 31
0.000000
  6
CONTINUOUS
  0
LINE
  8
WHITE
 10
3.024087
 20
6.982723
 30
0.000000
 11
3.084587
 21
6.982723
 31
0.000000
  6
CONTINUOUS
  0
LINE
  8
WHITE
 10
3.084587
 20
6.982723
 30
0.000000
 11
3.084587
 21
6.423819
 31
0.000000
  6
CONTINUOUS
  0
ARC
  8
WHITE
 10
3.104753
 20
6.423819
 30
0.000000
 40
0.020167
 50
180.000000
 51
270.000000
  6
CONTINUOUS
  0
LINE
  8
WHITE
 10
3.104753
 20
6.403653
 30
0.000000
 11
3.296337
 21
6.403653
 31
0.000000
  6
CONTINUOUS
  0
LINE
  8
WHITE
 10
3.296337
 20
6.403653
 30
0.000000
 11
3.296337
 21
5.826461
 31
0.000000
  6
CONTINUOUS
  0
ARC
  8
WHITE
 10
3.316503
 20
5.826461
 30
0.000000
 40
0.020167
 50
180.000000
 51
270.000000
  6
CONTINUOUS
  0
LINE
  8
WHITE
 10
3.316503
 20
5.806294
 30
0.000000
 11
3.518170
 21
5.806294
 31
0.000000
  6
CONTINUOUS
  0
ARC
  8
WHITE
 10
3.518170
 20
5.826461
 30
0.000000
 40
0.020167
 50
-90.000000
 51
0.000000
  6
CONTINUOUS
  0
LINE
  8
WHITE
 10
3.538337
 20
5.826461
 30
0.000000
 11
3.538337
 21
6.288400
 31
0.000000
  6
CONTINUOUS
  0
LINE
  8
WHITE
 10
3.538337
 20
6.288400
 30
0.000000
 11
3.598837
 21
6.288400
 31
0.000000
  6
CONTINUOUS
  0
LINE
  8
WHITE
 10
3.598837
 20
6.288400
 30
0.000000
 11
3.598837
 21
5.288440
 31
0.000000
  6
CONTINUOUS
  0
LINE
  8
WHITE
 10
3.449547
 20
8.233278
 30
0.000000
 11
3.449547
 21
7.622720
 31
0.000000
  6
CONTINUOUS
  0
LINE
  8
WHITE
 10
3.449547
 20
7.622720
 30
0.000000
 11
3.510047
 21
7.622720
 31
0.000000
  6
CONTINUOUS
  0
LINE
  8
WHITE
 10
3.510047
 20
7.622720
 30
0.000000
 11
3.510047
 21
8.233278
 31
0.000000
  6
CONTINUOUS
  0
LINE
  8
WHITE
 10
3.510047
 20
8.233278
 30
0.000000
 11
3.449547
 21
8.233278
 31
0.000000
  6
CONTINUOUS
  0
LINE
  8
WHITE
 10
12.821285
 20
0.595642
 30
0.000000
 11
12.025565
 21
0.595642
 31
0.000000
  6
CONTINUOUS
  0
ARC
  8
WHITE
 10
12.131074
 20
0.604819
 30
0.000000
 40
0.105907
 50
-175.028606
 51
-120.774299
  6
CONTINUOUS
  0
ARC
  8
WHITE
 10
12.632457
 20
1.429078
 30
0.000000
 40
1.070677
 50
-121.258321
 51
-92.626116
  6
CONTINUOUS
  0
ARC
  8
WHITE
 10
13.488688
 20
14.125859
 30
0.000000
 40
13.796067
 50
-93.762411
 51
-82.145948
  6
CONTINUOUS
  0
ARC
  8
WHITE
 10
15.341456
 20
0.681223
 30
0.000000
 40
0.224377
 50
-81.680202
 51
-47.573982
  6
CONTINUOUS
  0
ARC
  8
WHITE
 10
15.429145
 20
0.611536
 30
0.000000
 40
0.115150
 50
-56.422991
 51
34.756989
  6
CONTINUOUS
  0
ARC
  8
WHITE
 10
15.367116
 20
0.598205
 30
0.000000
 40
0.175418
 50
26.758080
 51
59.568615
  6
CONTINUOUS
  0
ARC
  8
WHITE
 10
14.307875
 20
-0.934297
 30
0.000000
 40
2.037925
 50
55.711337
 51
81.517739
  6
CONTINUOUS
  0
ARC
  8
WHITE
 10
15.219450
 20
1.976529
 30
0.000000
 40
1.083816
 50
-140.285386
 51
-124.313760
  6
CONTINUOUS
  0
ARC
  8
WHITE
 10
14.090608
 20
0.975437
 30
0.000000
 40
0.426988
 50
46.275464
 51
91.469178
  6
CONTINUOUS
  0
ARC
  8
WHITE
 10
13.623623
 20
-4.360691
 30
0.000000
 40
5.780991
 50
85.475483
 51
101.855446
  6
CONTINUOUS
  0
ARC
  8
WHITE
 10
12.469743
 20
1.146047
 30
0.000000
 40
0.154674
 50
102.616907
 51
160.675345
  6
CONTINUOUS
  0
ARC
  8
WHITE
 10
12.342814
 20
1.190558
 30
0.000000
 40
0.020167
 50
160.675343
 51
270.000000
  6
CONTINUOUS
  0
LINE
  8
WHITE
 10
12.342814
 20
1.170392
 30
0.000000
 11
13.515609
 21
1.170392
 31
0.000000
  6
CONTINUOUS
  0
LINE
  8
WHITE
 10
13.515609
 20
1.170392
 30
0.000000
 11
13.515609
 21
1.109892
 31
0.000000
  6
CONTINUOUS
  0
LINE
  8
WHITE
 10
13.515609
 20
1.109892
 30
0.000000
 11
12.956705
 21
1.109892
 31
0.000000
  6
CONTINUOUS
  0
ARC
  8
WHITE
 10
12.956705
 20
1.089725
 30
0.000000
 40
0.020167
 50
90.000000
 51
180.000000
  6
CONTINUOUS
  0
LINE
  8
WHITE
 10
12.936538
 20
1.089725
 30
0.000000
 11
12.936538
 21
0.898142
 31
0.000000
  6
CONTINUOUS
  0
LINE
  8
WHITE
 10
12.936538
 20
0.898142
 30
0.000000
 11
12.359005
 21
0.898142
 31
0.000000
  6
CONTINUOUS
  0
ARC
  8
WHITE
 10
12.359005
 20
0.877975
 30
0.000000
 40
0.020167
 50
90.000000
 51
180.000000
  6
CONTINUOUS
  0
LINE
  8
WHITE
 10
12.338839
 20
0.877975
 30
0.000000
 11
12.338839
 21
0.676308
 31
0.000000
  6
CONTINUOUS
  0
ARC
  8
WHITE
 10
12.359005
 20
0.676308
 30
0.000000
 40
0.020167
 50
180.000000
 51
270.000000
  6
CONTINUOUS
  0
LINE
  8
WHITE
 10
12.359005
 20
0.656142
 30
0.000000
 11
12.821285
 21
0.656142
 31
0.000000
  6
CONTINUOUS
  0
LINE
  8
WHITE
 10
12.821285
 20
0.656142
 30
0.000000
 11
12.821285
 21
0.595642
 31
0.000000
  6
CONTINUOUS
  0
LINE
  8
WHITE
 10
14.766263
 20
0.745025
 30
0.000000
 11
14.155274
 21
0.745025
 31
0.000000
  6
CONTINUOUS
  0
LINE
  8
WHITE
 10
14.155274
 20
0.745025
 30
0.000000
 11
14.155274
 21
0.684525
 31
0.000000
  6
CONTINUOUS
  0
LINE
  8
WHITE
 10
14.155274
 20
0.684525
 30
0.000000
 11
14.766263
 21
0.684525
 31
0.000000
  6
CONTINUOUS
  0
LINE
  8
WHITE
 10
14.766263
 20
0.684525
 30
0.000000
 11
14.766263
 21
0.745025
 31
0.000000
  6
CONTINUOUS
  0
ARC
  8
WHITE
 10
1.764364
 20
4.287401
 30
0.000000
 40
0.154674
 50
99.055620
 51
167.383093
  6
CONTINUOUS
  0
ARC
  8
WHITE
 10
7.271102
 20
3.133521
 30
0.000000
 40
5.780991
 50
168.144554
 51
184.524517
  6
CONTINUOUS
  0
ARC
  8
WHITE
 10
1.934974
 20
2.666536
 30
0.000000
 40
0.426988
 50
178.530822
 51
223.724536
  6
CONTINUOUS
  0
ARC
  8
WHITE
 10
0.933883
 20
1.537695
 30
0.000000
 40
1.083816
 50
34.313760
 51
50.285386
  6
CONTINUOUS
  0
ARC
  8
WHITE
 10
3.844708
 20
2.449269
 30
0.000000
 40
2.037925
 50
-171.517739
 51
-145.711337
  6
CONTINUOUS
  0
ARC
  8
WHITE
 10
2.312206
 20
1.390028
 30
0.000000
 40
0.175418
 50
-149.568615
 51
-116.758080
  6
CONTINUOUS
  0
ARC
  8
WHITE
 10
2.298875
 20
1.328000
 30
0.000000
 40
0.115150
 50
-124.756989
 51
-33.577010
  6
CONTINUOUS
  0
ARC
  8
WHITE
 10
2.229188
 20
1.415688
 30
0.000000
 40
0.224377
 50
-42.426019
 51
-8.319798
  6
CONTINUOUS
  0
ARC
  8
WHITE
 10
-11.215447
 20
3.268456
 30
0.000000
 40
13.796067
 50
-7.854052
 51
3.762411
  6
CONTINUOUS
  0
ARC
  8
WHITE
 10
1.481333
 20
4.124688
 30
0.000000
 40
1.070677
 50
2.626116
 51
31.258321
  6
CONTINUOUS
  0
ARC
  8
WHITE
 10
2.305592
 20
4.626071
 30
0.000000
 40
0.105907
 50
30.774300
 51
69.986242
  6
CONTINUOUS
  0
ARC
  8
WHITE
 10
2.334936
 20
4.706634
 30
0.000000
 40
0.020167
 50
69.986239
 51
180.000000
  6
CONTINUOUS
  0
LINE
  8
WHITE
 10
2.314770
 20
4.706634
 30
0.000000
 11
2.314770
 21
3.935859
 31
0.000000
  6
CONTINUOUS
  0
LINE
  8
WHITE
 10
2.314770
 20
3.935859
 30
0.000000
 11
2.254270
 21
3.935859
 31
0.000000
  6
CONTINUOUS
  0
LINE
  8
WHITE
 10
2.254270
 20
3.935859
 30
0.000000
 11
2.254270
 21
4.398139
 31
0.000000
  6
CONTINUOUS
  0
ARC
  8
WHITE
 10
2.234103
 20
4.398139
 30
0.000000
 40
0.020167
 50
0.000000
 51
90.000000
  6
CONTINUOUS
  0
LINE
  8
WHITE
 10
2.234103
 20
4.418306
 30
0.000000
 11
2.032436
 21
4.418306
 31
0.000000
  6
CONTINUOUS
  0
ARC
  8
WHITE
 10
2.032436
 20
4.398139
 30
0.000000
 40
0.020167
 50
90.000000
 51
180.000000
  6
CONTINUOUS
  0
LINE
  8
WHITE
 10
2.012270
 20
4.398139
 30
0.000000
 11
2.012270
 21
3.820606
 31
0.000000
  6
CONTINUOUS
  0
LINE
  8
WHITE
 10
2.012270
 20
3.820606
 30
0.000000
 11
1.820686
 21
3.820606
 31
0.000000
  6
CONTINUOUS
  0
ARC
  8
WHITE
 10
1.820686
 20
3.800439
 30
0.000000
 40
0.020167
 50
90.000000
 51
180.000000
  6
CONTINUOUS
  0
LINE
  8
WHITE
 10
1.800520
 20
3.800439
 30
0.000000
 11
1.800520
 21
3.241535
 31
0.000000
  6
CONTINUOUS
  0
LINE
  8
WHITE
 10
1.800520
 20
3.241535
 30
0.000000
 11
1.740020
 21
3.241535
 31
0.000000
  6
CONTINUOUS
  0
LINE
  8
WHITE
 10
1.740020
 20
3.241535
 30
0.000000
 11
1.740020
 21
4.440148
 31
0.000000
  6
CONTINUOUS
  0
LINE
  8
WHITE
 10
2.165386
 20
2.601871
 30
0.000000
 11
2.165386
 21
1.990881
 31
0.000000
  6
CONTINUOUS
  0
LINE
  8
WHITE
 10
2.165386
 20
1.990881
 30
0.000000
 11
2.225886
 21
1.990881
 31
0.000000
  6
CONTINUOUS
  0
LINE
  8
WHITE
 10
2.225886
 20
1.990881
 30
0.000000
 11
2.225886
 21
2.601871
 31
0.000000
  6
CONTINUOUS
  0
LINE
  8
WHITE
 10
2.225886
 20
2.601871
 30
0.000000
 11
2.165386
 21
2.601871
 31
0.000000
  6
CONTINUOUS
  0
LINE
  8
WHITE
 10
12.235980
 20
3.181351
 30
0.000000
 11
12.243226
 21
3.183476
 31
0.000000
  6
CONTINUOUS
  0
ARC
  8
WHITE
 10
12.246063
 20
3.173800
 30
0.000000
 40
0.010083
 50
106.341363
 51
180.000000
  6
CONTINUOUS
  0
LINE
  8
WHITE
 10
12.235980
 20
3.173800
 30
0.000000
 11
12.235980
 21
1.169144
 31
0.000000
  6
CONTINUOUS
  0
ARC
  8
WHITE
 10
12.069500
 20
1.202095
 30
0.000000
 40
0.169710
 50
-62.455508
 51
-11.195707
  6
CONTINUOUS
  0
ARC
  8
WHITE
 10
12.144386
 20
1.234878
 30
0.000000
 40
0.183292
 50
-132.527867
 51
-88.876493
  6
CONTINUOUS
  0
ARC
  8
WHITE
 10
14.748733
 20
2.975184
 30
0.000000
 40
3.310645
 50
179.096153
 51
214.504464
  6
CONTINUOUS
  0
LINE
  8
WHITE
 10
11.438500
 20
3.027407
 30
0.000000
 11
11.799647
 21
3.027407
 31
0.000000
  6
CONTINUOUS
  0
LINE
  8
WHITE
 10
11.799647
 20
3.027407
 30
0.000000
 11
11.799647
 21
3.081857
 31
0.000000
  6
CONTINUOUS
  0
LINE
  8
WHITE
 10
11.799647
 20
3.081857
 30
0.000000
 11
11.438500
 21
3.081857
 31
0.000000
  6
CONTINUOUS
  0
ARC
  8
WHITE
 10
14.748733
 20
3.134081
 30
0.000000
 40
3.310645
 50
145.495536
 51
180.903847
  6
CONTINUOUS
  0
ARC
  8
WHITE
 10
12.144386
 20
4.874387
 30
0.000000
 40
0.183292
 50
88.876493
 51
132.527867
  6
CONTINUOUS
  0
ARC
  8
WHITE
 10
12.069500
 20
4.907170
 30
0.000000
 40
0.169710
 50
11.195708
 51
62.455508
  6
CONTINUOUS
  0
LINE
  8
WHITE
 10
12.235980
 20
4.940121
 30
0.000000
 11
12.235980
 21
3.181351
 31
0.000000
  6
CONTINUOUS
  0
LINE
  8
WHITE
 10
2.552110
 20
8.590292
 30
0.000000
 11
2.552110
 21
9.003603
 31
0.000000
  6
CONTINUOUS
  0
ARC
  8
WHITE
 10
2.531943
 20
9.003603
 30
0.000000
 40
0.020167
 50
0.000000
 51
90.000000
  6
CONTINUOUS
  0
LINE
  8
WHITE
 10
2.531943
 20
9.023769
 30
0.000000
 11
2.304984
 21
9.023769
 31
0.000000
  6
CONTINUOUS
  0
LINE
  8
WHITE
 10
2.304984
 20
9.023769
 30
0.000000
 11
2.304984
 21
9.084269
 31
0.000000
  6
CONTINUOUS
  0
LINE
  8
WHITE
 10
2.304984
 20
9.084269
 30
0.000000
 11
1.606110
 21
9.084269
 31
0.000000
  6
CONTINUOUS
  0
LINE
  8
WHITE
 10
1.606110
 20
9.084269
 30
0.000000
 11
1.606110
 21
9.144769
 31
0.000000
  6
CONTINUOUS
  0
LINE
  8
WHITE
 10
1.606110
 20
9.144769
 30
0.000000
 11
2.259175
 21
9.144769
 31
0.000000
  6
CONTINUOUS
  0
ARC
  8
WHITE
 10
2.259175
 20
9.164936
 30
0.000000
 40
0.020167
 50
-90.000000
 51
31.719176
  6
CONTINUOUS
  0
ARC
  8
WHITE
 10
1.812899
 20
8.889104
 30
0.000000
 40
0.544806
 50
31.719178
 51
82.461137
  6
CONTINUOUS
  0
ARC
  8
WHITE
 10
1.932456
 20
6.983027
 30
0.000000
 40
2.446646
 50
91.126007
 51
120.583735
  6
CONTINUOUS
  0
LINE
  8
WHITE
 10
0.687610
 20
9.089311
 30
0.000000
 11
0.687610
 21
9.023769
 31
0.000000
  6
CONTINUOUS
  0
LINE
  8
WHITE
 10
0.687610
 20
9.023769
 30
0.000000
 11
0.454777
 21
9.023769
 31
0.000000
  6
CONTINUOUS
  0
ARC
  8
WHITE
 10
0.454777
 20
9.003603
 30
0.000000
 40
0.020167
 50
90.000000
 51
180.000000
  6
CONTINUOUS
  0
LINE
  8
WHITE
 10
0.434610
 20
9.003603
 30
0.000000
 11
0.434610
 21
8.590292
 31
0.000000
  6
CONTINUOUS
  0
ARC
  8
WHITE
 10
0.454777
 20
8.590292
 30
0.000000
 40
0.020167
 50
180.000000
 51
270.000000
  6
CONTINUOUS
  0
LINE
  8
WHITE
 10
0.454777
 20
8.570125
 30
0.000000
 11
0.687610
 21
8.570125
 31
0.000000
  6
CONTINUOUS
  0
LINE
  8
WHITE
 10
0.687610
 20
8.570125
 30
0.000000
 11
0.687610
 21
8.504583
 31
0.000000
  6
CONTINUOUS
  0
ARC
  8
WHITE
 10
1.932456
 20
10.610868
 30
0.000000
 40
2.446646
 50
-120.583735
 51
-91.126007
  6
CONTINUOUS
  0
ARC
  8
WHITE
 10
1.715492
 20
8.836897
 30
0.000000
 40
0.693093
 50
-75.896931
 51
-37.316377
  6
CONTINUOUS
  0
ARC
  8
WHITE
 10
2.250671
 20
8.428958
 30
0.000000
 40
0.020167
 50
-37.316375
 51
90.000000
  6
CONTINUOUS
  0
LINE
  8
WHITE
 10
2.250671
 20
8.449125
 30
0.000000
 11
1.606110
 21
8.449125
 31
0.000000
  6
CONTINUOUS
  0
LINE
  8
WHITE
 10
1.606110
 20
8.449125
 30
0.000000
 11
1.606110
 21
8.509625
 31
0.000000
  6
CONTINUOUS
  0
LINE
  8
WHITE
 10
1.606110
 20
8.509625
 30
0.000000
 11
2.304984
 21
8.509625
 31
0.000000
  6
CONTINUOUS
  0
LINE
  8
WHITE
 10
2.304984
 20
8.509625
 30
0.000000
 11
2.304984
 21
8.570125
 31
0.000000
  6
CONTINUOUS
  0
LINE
  8
WHITE
 10
2.304984
 20
8.570125
 30
0.000000
 11
2.531943
 21
8.570125
 31
0.000000
  6
CONTINUOUS
  0
ARC
  8
WHITE
 10
2.531943
 20
8.590292
 30
0.000000
 40
0.020167
 50
-90.000000
 51
0.000000
  6
CONTINUOUS
  0
LINE
  8
WHITE
 10
1.112577
 20
8.826739
 30
0.000000
 11
1.112577
 21
8.767156
 31
0.000000
  6
CONTINUOUS
  0
LINE
  8
WHITE
 10
1.112577
 20
8.767156
 30
0.000000
 11
1.606477
 21
8.767156
 31
0.000000
  6
CONTINUOUS
  0
LINE
  8
WHITE
 10
1.606477
 20
8.767156
 30
0.000000
 11
1.606477
 21
8.826739
 31
0.000000
  6
CONTINUOUS
  0
LINE
  8
WHITE
 10
1.606477
 20
8.826739
 30
0.000000
 11
1.112577
 21
8.826739
 31
0.000000
  6
CONTINUOUS
  0
LINE
  8
WHITE
 10
2.573835
 20
7.118417
 30
0.000000
 11
2.573835
 21
7.531728
 31
0.000000
  6
CONTINUOUS
  0
ARC
  8
WHITE
 10
2.553668
 20
7.531728
 30
0.000000
 40
0.020167
 50
0.000000
 51
90.000000
  6
CONTINUOUS
  0
LINE
  8
WHITE
 10
2.553668
 20
7.551895
 30
0.000000
 11
2.326710
 21
7.551895
 31
0.000000
  6
CONTINUOUS
  0
LINE
  8
WHITE
 10
2.326710
 20
7.551895
 30
0.000000
 11
2.326710
 21
7.612395
 31
0.000000
  6
CONTINUOUS
  0
LINE
  8
WHITE
 10
2.326710
 20
7.612395
 30
0.000000
 11
1.627835
 21
7.612395
 31
0.000000
  6
CONTINUOUS
  0
LINE
  8
WHITE
 10
1.627835
 20
7.612395
 30
0.000000
 11
1.627835
 21
7.672895
 31
0.000000
  6
CONTINUOUS
  0
LINE
  8
WHITE
 10
1.627835
 20
7.672895
 30
0.000000
 11
2.280900
 21
7.672895
 31
0.000000
  6
CONTINUOUS
  0
ARC
  8
WHITE
 10
2.280900
 20
7.693061
 30
0.000000
 40
0.020167
 50
-90.000000
 51
31.719178
  6
CONTINUOUS
  0
ARC
  8
WHITE
 10
1.834624
 20
7.417229
 30
0.000000
 40
0.544806
 50
31.719178
 51
82.461137
  6
CONTINUOUS
  0
ARC
  8
WHITE
 10
1.954181
 20
5.511152
 30
0.000000
 40
2.446646
 50
91.126007
 51
120.583735
  6
CONTINUOUS
  0
LINE
  8
WHITE
 10
0.709335
 20
7.617436
 30
0.000000
 11
0.709335
 21
7.551895
 31
0.000000
  6
CONTINUOUS
  0
LINE
  8
WHITE
 10
0.709335
 20
7.551895
 30
0.000000
 11
0.476502
 21
7.551895
 31
0.000000
  6
CONTINUOUS
  0
ARC
  8
WHITE
 10
0.476502
 20
7.531728
 30
0.000000
 40
0.020167
 50
90.000000
 51
180.000000
  6
CONTINUOUS
  0
LINE
  8
WHITE
 10
0.456335
 20
7.531728
 30
0.000000
 11
0.456335
 21
7.118417
 31
0.000000
  6
CONTINUOUS
  0
ARC
  8
WHITE
 10
0.476502
 20
7.118417
 30
0.000000
 40
0.020167
 50
180.000000
 51
270.000000
  6
CONTINUOUS
  0
LINE
  8
WHITE
 10
0.476502
 20
7.098250
 30
0.000000
 11
0.709335
 21
7.098250
 31
0.000000
  6
CONTINUOUS
  0
LINE
  8
WHITE
 10
0.709335
 20
7.098250
 30
0.000000
 11
0.709335
 21
7.032709
 31
0.000000
  6
CONTINUOUS
  0
ARC
  8
WHITE
 10
1.954181
 20
9.138993
 30
0.000000
 40
2.446646
 50
-120.583735
 51
-91.126007
  6
CONTINUOUS
  0
ARC
  8
WHITE
 10
1.737218
 20
7.365022
 30
0.000000
 40
0.693093
 50
-75.896931
 51
-37.316377
  6
CONTINUOUS
  0
ARC
  8
WHITE
 10
2.272396
 20
6.957084
 30
0.000000
 40
0.020167
 50
-37.316377
 51
90.000000
  6
CONTINUOUS
  0
LINE
  8
WHITE
 10
2.272396
 20
6.977250
 30
0.000000
 11
1.627835
 21
6.977250
 31
0.000000
  6
CONTINUOUS
  0
LINE
  8
WHITE
 10
1.627835
 20
6.977250
 30
0.000000
 11
1.627835
 21
7.037750
 31
0.000000
  6
CONTINUOUS
  0
LINE
  8
WHITE
 10
1.627835
 20
7.037750
 30
0.000000
 11
2.326710
 21
7.037750
 31
0.000000
  6
CONTINUOUS
  0
LINE
  8
WHITE
 10
2.326710
 20
7.037750
 30
0.000000
 11
2.326710
 21
7.098250
 31
0.000000
  6
CONTINUOUS
  0
LINE
  8
WHITE
 10
2.326710
 20
7.098250
 30
0.000000
 11
2.553668
 21
7.098250
 31
0.000000
  6
CONTINUOUS
  0
ARC
  8
WHITE
 10
2.553668
 20
7.118417
 30
0.000000
 40
0.020167
 50
-90.000000
 51
0.000000
  6
CONTINUOUS
  0
LINE
  8
WHITE
 10
1.134302
 20
7.354864
 30
0.000000
 11
1.628202
 21
7.354864
 31
0.000000
  6
CONTINUOUS
  0
LINE
  8
WHITE
 10
1.628202
 20
7.354864
 30
0.000000
 11
1.628202
 21
7.295281
 31
0.000000
  6
CONTINUOUS
  0
LINE
  8
WHITE
 10
1.628202
 20
7.295281
 30
0.000000
 11
1.134302
 21
7.295281
 31
0.000000
  6
CONTINUOUS
  0
LINE
  8
WHITE
 10
1.134302
 20
7.295281
 30
0.000000
 11
1.134302
 21
7.354864
 31
0.000000
  6
CONTINUOUS
  0
LINE
  8
WHITE
 10
6.772775
 20
2.779787
 30
0.000000
 11
6.772775
 21
0.940037
 31
0.000000
  6
CONTINUOUS
  0
ARC
  8
WHITE
 10
6.803025
 20
0.940037
 30
0.000000
 40
0.030250
 50
180.000000
 51
270.000000
  6
CONTINUOUS
  0
LINE
  8
WHITE
 10
6.803025
 20
0.909787
 30
0.000000
 11
7.182525
 21
0.909787
 31
0.000000
  6
CONTINUOUS
  0
ARC
  8
WHITE
 10
7.182525
 20
0.940037
 30
0.000000
 40
0.030250
 50
-90.000000
 51
0.000000
  6
CONTINUOUS
  0
LINE
  8
WHITE
 10
7.212775
 20
0.940037
 30
0.000000
 11
7.212775
 21
1.542287
 31
0.000000
  6
CONTINUOUS
  0
LINE
  8
WHITE
 10
7.212775
 20
1.542287
 30
0.000000
 11
7.273275
 21
1.542287
 31
0.000000
  6
CONTINUOUS
  0
LINE
  8
WHITE
 10
7.273275
 20
1.542287
 30
0.000000
 11
7.273275
 21
0.940037
 31
0.000000
  6
CONTINUOUS
  0
ARC
  8
WHITE
 10
7.303525
 20
0.940037
 30
0.000000
 40
0.030250
 50
180.000000
 51
270.000000
  6
CONTINUOUS
  0
LINE
  8
WHITE
 10
7.303525
 20
0.909787
 30
0.000000
 11
7.688708
 21
0.909787
 31
0.000000
  6
CONTINUOUS
  0
ARC
  8
WHITE
 10
7.688708
 20
0.940037
 30
0.000000
 40
0.030250
 50
-90.000000
 51
0.000000
  6
CONTINUOUS
  0
LINE
  8
WHITE
 10
7.718958
 20
0.940037
 30
0.000000
 11
7.718958
 21
1.542287
 31
0.000000
  6
CONTINUOUS
  0
LINE
  8
WHITE
 10
7.718958
 20
1.542287
 30
0.000000
 11
7.779458
 21
1.542287
 31
0.000000
  6
CONTINUOUS
  0
LINE
  8
WHITE
 10
7.779458
 20
1.542287
 30
0.000000
 11
7.779458
 21
0.940037
 31
0.000000
  6
CONTINUOUS
  0
ARC
  8
WHITE
 10
7.809708
 20
0.940037
 30
0.000000
 40
0.030250
 50
180.000000
 51
270.000000
  6
CONTINUOUS
  0
LINE
  8
WHITE
 10
7.809708
 20
0.909787
 30
0.000000
 11
8.227525
 21
0.909787
 31
0.000000
  6
CONTINUOUS
  0
ARC
  8
WHITE
 10
8.227525
 20
0.940037
 30
0.000000
 40
0.030250
 50
-90.000000
 51
0.000000
  6
CONTINUOUS
  0
LINE
  8
WHITE
 10
8.257775
 20
0.940037
 30
0.000000
 11
8.257775
 21
1.506657
 31
0.000000
  6
CONTINUOUS
  0
ARC
  8
WHITE
 10
8.227525
 20
1.506657
 30
0.000000
 40
0.030250
 50
0.000000
 51
48.509316
  6
CONTINUOUS
  0
LINE
  8
WHITE
 10
8.247565
 20
1.529316
 30
0.000000
 11
6.839424
 21
2.774726
 31
0.000000
  6
CONTINUOUS
  0
ARC
  8
WHITE
 10
6.826064
 20
2.759620
 30
0.000000
 40
0.020167
 50
48.509318
 51
90.000000
  6
CONTINUOUS
  0
LINE
  8
WHITE
 10
6.826064
 20
2.779787
 30
0.000000
 11
6.772775
 21
2.779787
 31
0.000000
  6
CONTINUOUS
  0
LINE
  8
WHITE
 10
8.260379
 20
1.648905
 30
0.000000
 11
8.260379
 21
3.488655
 31
0.000000
  6
CONTINUOUS
  0
ARC
  8
WHITE
 10
8.230129
 20
3.488655
 30
0.000000
 40
0.030250
 50
0.000000
 51
90.000000
  6
CONTINUOUS
  0
LINE
  8
WHITE
 10
8.230129
 20
3.518905
 30
0.000000
 11
7.850629
 21
3.518905
 31
0.000000
  6
CONTINUOUS
  0
ARC
  8
WHITE
 10
7.850629
 20
3.488655
 30
0.000000
 40
0.030250
 50
90.000000
 51
180.000000
  6
CONTINUOUS
  0
LINE
  8
WHITE
 10
7.820379
 20
3.488655
 30
0.000000
 11
7.820379
 21
2.886405
 31
0.000000
  6
CONTINUOUS
  0
LINE
  8
WHITE
 10
7.820379
 20
2.886405
 30
0.000000
 11
7.759879
 21
2.886405
 31
0.000000
  6
CONTINUOUS
  0
LINE
  8
WHITE
 10
7.759879
 20
2.886405
 30
0.000000
 11
7.759879
 21
3.488655
 31
0.000000
  6
CONTINUOUS
  0
ARC
  8
WHITE
 10
7.729629
 20
3.488655
 30
0.000000
 40
0.030250
 50
0.000000
 51
90.000000
  6
CONTINUOUS
  0
LINE
  8
WHITE
 10
7.729629
 20
3.518905
 30
0.000000
 11
7.344446
 21
3.518905
 31
0.000000
  6
CONTINUOUS
  0
ARC
  8
WHITE
 10
7.344446
 20
3.488655
 30
0.000000
 40
0.030250
 50
90.000000
 51
180.000000
  6
CONTINUOUS
  0
LINE
  8
WHITE
 10
7.314196
 20
3.488655
 30
0.000000
 11
7.314196
 21
2.886405
 31
0.000000
  6
CONTINUOUS
  0
LINE
  8
WHITE
 10
7.314196
 20
2.886405
 30
0.000000
 11
7.253696
 21
2.886405
 31
0.000000
  6
CONTINUOUS
  0
LINE
  8
WHITE
 10
7.253696
 20
2.886405
 30
0.000000
 11
7.253696
 21
3.488655
 31
0.000000
  6
CONTINUOUS
  0
ARC
  8
WHITE
 10
7.223446
 20
3.488655
 30
0.000000
 40
0.030250
 50
0.000000
 51
90.000000
  6
CONTINUOUS
  0
LINE
  8
WHITE
 10
7.223446
 20
3.518905
 30
0.000000
 11
6.805629
 21
3.518905
 31
0.000000
  6
CONTINUOUS
  0
ARC
  8
WHITE
 10
6.805629
 20
3.488655
 30
0.000000
 40
0.030250
 50
90.000000
 51
180.000000
  6
CONTINUOUS
  0
LINE
  8
WHITE
 10
6.775379
 20
3.488655
 30
0.000000
 11
6.775379
 21
2.922035
 31
0.000000
  6
CONTINUOUS
  0
ARC
  8
WHITE
 10
6.805629
 20
2.922035
 30
0.000000
 40
0.030250
 50
180.000000
 51
228.509316
  6
CONTINUOUS
  0
LINE
  8
WHITE
 10
6.785588
 20
2.899376
 30
0.000000
 11
8.193730
 21
1.653966
 31
0.000000
  6
CONTINUOUS
  0
ARC
  8
WHITE
 10
8.207090
 20
1.669072
 30
0.000000
 40
0.020167
 50
-131.490685
 51
-90.000000
  6
CONTINUOUS
  0
LINE
  8
WHITE
 10
8.207090
 20
1.648905
 30
0.000000
 11
8.260379
 21
1.648905
 31
0.000000
  6
CONTINUOUS
  0
ARC
  8
WHITE
 10
0.693132
 20
0.690217
 30
0.000000
 40
0.173637
 50
-164.278575
 51
-111.299761
  6
CONTINUOUS
  0
ARC
  8
WHITE
 10
0.872574
 20
1.049591
 30
0.000000
 40
0.574814
 50
-114.954653
 51
-96.303615
  6
CONTINUOUS
  0
ARC
  8
WHITE
 10
2.146822
 20
12.606727
 30
0.000000
 40
12.201984
 50
-96.292370
 51
-89.932698
  6
CONTINUOUS
  0
ARC
  8
WHITE
 10
2.132209
 20
4.831762
 30
0.000000
 40
4.427106
 50
-89.625371
 51
-79.026206
  6
CONTINUOUS
  0
ARC
  8
WHITE
 10
2.927118
 20
0.975977
 30
0.000000
 40
0.492696
 50
-84.428557
 51
-55.665768
  6
CONTINUOUS
  0
ARC
  8
WHITE
 10
3.097747
 20
0.676059
 30
0.000000
 40
0.151457
 50
-44.911715
 51
25.021986
  6
CONTINUOUS
  0
ARC
  8
WHITE
 10
2.787930
 20
0.548906
 30
0.000000
 40
0.486235
 50
23.157103
 51
61.671555
  6
CONTINUOUS
  0
ARC
  8
WHITE
 10
2.472168
 20
0.106348
 30
0.000000
 40
1.027878
 50
57.881580
 51
69.806831
  6
CONTINUOUS
  0
ARC
  8
WHITE
 10
2.800502
 20
0.977174
 30
0.000000
 40
0.097536
 50
74.250009
 51
118.541981
  6
CONTINUOUS
  0
ARC
  8
WHITE
 10
2.516564
 20
1.364035
 30
0.000000
 40
0.383455
 50
-64.167639
 51
-51.761138
  6
CONTINUOUS
  0
ARC
  8
WHITE
 10
2.557513
 20
1.520195
 30
0.000000
 40
0.516923
 50
-102.633904
 51
-75.876419
  6
CONTINUOUS
  0
ARC
  8
WHITE
 10
2.874802
 20
3.239503
 30
0.000000
 40
2.264974
 50
-123.192967
 51
-100.952909
  6
CONTINUOUS
  0
ARC
  8
WHITE
 10
1.435162
 20
-0.589181
 30
0.000000
 40
1.943564
 50
84.103818
 51
99.684258
  6
CONTINUOUS
  0
ARC
  8
WHITE
 10
1.114594
 20
1.213648
 30
0.000000
 40
0.113218
 50
93.227991
 51
148.004882
  6
CONTINUOUS
  0
ARC
  8
WHITE
 10
1.177580
 20
1.180618
 30
0.000000
 40
0.184215
 50
149.672334
 51
159.494095
  6
CONTINUOUS
  0
ARC
  8
WHITE
 10
1.023927
 20
1.238085
 30
0.000000
 40
0.020167
 50
159.494096
 51
270.000000
  6
CONTINUOUS
  0
LINE
  8
WHITE
 10
1.023927
 20
1.217918
 30
0.000000
 11
1.704843
 21
1.217918
 31
0.000000
  6
CONTINUOUS
  0
LINE
  8
WHITE
 10
1.704843
 20
1.217918
 30
0.000000
 11
1.704843
 21
1.157418
 31
0.000000
  6
CONTINUOUS
  0
LINE
  8
WHITE
 10
1.704843
 20
1.157418
 30
0.000000
 11
1.145939
 21
1.157418
 31
0.000000
  6
CONTINUOUS
  0
ARC
  8
WHITE
 10
1.145939
 20
1.137252
 30
0.000000
 40
0.020167
 50
90.000000
 51
180.000000
  6
CONTINUOUS
  0
LINE
  8
WHITE
 10
1.125772
 20
1.137252
 30
0.000000
 11
1.125772
 21
0.945668
 31
0.000000
  6
CONTINUOUS
  0
LINE
  8
WHITE
 10
1.125772
 20
0.945668
 30
0.000000
 11
0.547737
 21
0.945668
 31
0.000000
  6
CONTINUOUS
  0
ARC
  8
WHITE
 10
0.547737
 20
0.925502
 30
0.000000
 40
0.020167
 50
90.000000
 51
180.000000
  6
CONTINUOUS
  0
LINE
  8
WHITE
 10
0.527570
 20
0.925502
 30
0.000000
 11
0.527570
 21
0.723835
 31
0.000000
  6
CONTINUOUS
  0
ARC
  8
WHITE
 10
0.547737
 20
0.723835
 30
0.000000
 40
0.020167
 50
180.000000
 51
270.000000
  6
CONTINUOUS
  0
LINE
  8
WHITE
 10
0.547737
 20
0.703668
 30
0.000000
 11
1.010519
 21
0.703668
 31
0.000000
  6
CONTINUOUS
  0
LINE
  8
WHITE
 10
1.010519
 20
0.703668
 30
0.000000
 11
1.010519
 21
0.643168
 31
0.000000
  6
CONTINUOUS
  0
LINE
  8
WHITE
 10
1.010519
 20
0.643168
 30
0.000000
 11
0.525991
 21
0.643168
 31
0.000000
  6
CONTINUOUS
  0
ARC
  8
WHITE
 10
0.580673
 20
4.156437
 30
0.000000
 40
0.184215
 50
101.682109
 51
120.327665
  6
CONTINUOUS
  0
ARC
  8
WHITE
 10
0.547643
 20
4.219423
 30
0.000000
 40
0.113218
 50
121.995118
 51
176.772009
  6
CONTINUOUS
  0
ARC
  8
WHITE
 10
2.350472
 20
3.898855
 30
0.000000
 40
1.943564
 50
170.315742
 51
185.896182
  6
CONTINUOUS
  0
ARC
  8
WHITE
 10
-1.478212
 20
2.459216
 30
0.000000
 40
2.264974
 50
10.952909
 51
33.192967
  6
CONTINUOUS
  0
ARC
  8
WHITE
 10
0.241096
 20
2.776504
 30
0.000000
 40
0.516923
 50
-14.123581
 51
12.633904
  6
CONTINUOUS
  0
ARC
  8
WHITE
 10
0.397256
 20
2.817454
 30
0.000000
 40
0.383455
 50
-38.238862
 51
-25.832361
  6
CONTINUOUS
  0
ARC
  8
WHITE
 10
0.784117
 20
2.533515
 30
0.000000
 40
0.097536
 50
151.458019
 51
195.749991
  6
CONTINUOUS
  0
ARC
  8
WHITE
 10
1.654943
 20
2.861850
 30
0.000000
 40
1.027878
 50
-159.806831
 51
-147.881580
  6
CONTINUOUS
  0
ARC
  8
WHITE
 10
1.212385
 20
2.546087
 30
0.000000
 40
0.486235
 50
-151.671555
 51
-113.157103
  6
CONTINUOUS
  0
ARC
  8
WHITE
 10
1.085232
 20
2.236271
 30
0.000000
 40
0.151457
 50
-115.021986
 51
-45.088285
  6
CONTINUOUS
  0
ARC
  8
WHITE
 10
0.785314
 20
2.406899
 30
0.000000
 40
0.492696
 50
-34.334232
 51
-5.571443
  6
CONTINUOUS
  0
ARC
  8
WHITE
 10
-3.070471
 20
3.201809
 30
0.000000
 40
4.427106
 50
-10.973794
 51
-0.374629
  6
CONTINUOUS
  0
ARC
  8
WHITE
 10
-10.845436
 20
3.187195
 30
0.000000
 40
12.201984
 50
-0.067302
 51
6.292370
  6
CONTINUOUS
  0
ARC
  8
WHITE
 10
0.711700
 20
4.461444
 30
0.000000
 40
0.574814
 50
6.303615
 51
24.954653
  6
CONTINUOUS
  0
ARC
  8
WHITE
 10
1.071074
 20
4.640885
 30
0.000000
 40
0.173637
 50
21.299761
 51
64.025583
  6
CONTINUOUS
  0
ARC
  8
WHITE
 10
1.138289
 20
4.778853
 30
0.000000
 40
0.020167
 50
64.025582
 51
180.000000
  6
CONTINUOUS
  0
LINE
  8
WHITE
 10
1.118123
 20
4.778853
 30
0.000000
 11
1.118123
 21
4.323498
 31
0.000000
  6
CONTINUOUS
  0
LINE
  8
WHITE
 10
1.118123
 20
4.323498
 30
0.000000
 11
1.057623
 21
4.323498
 31
0.000000
  6
CONTINUOUS
  0
LINE
  8
WHITE
 10
1.057623
 20
4.323498
 30
0.000000
 11
1.057623
 21
4.786281
 31
0.000000
  6
CONTINUOUS
  0
ARC
  8
WHITE
 10
1.037456
 20
4.786281
 30
0.000000
 40
0.020167
 50
0.000000
 51
90.000000
  6
CONTINUOUS
  0
LINE
  8
WHITE
 10
1.037456
 20
4.806447
 30
0.000000
 11
0.835789
 21
4.806447
 31
0.000000
  6
CONTINUOUS
  0
ARC
  8
WHITE
 10
0.835789
 20
4.786281
 30
0.000000
 40
0.020167
 50
90.000000
 51
180.000000
  6
CONTINUOUS
  0
LINE
  8
WHITE
 10
0.815623
 20
4.786281
 30
0.000000
 11
0.815623
 21
4.208245
 31
0.000000
  6
CONTINUOUS
  0
LINE
  8
WHITE
 10
0.815623
 20
4.208245
 30
0.000000
 11
0.624039
 21
4.208245
 31
0.000000
  6
CONTINUOUS
  0
ARC
  8
WHITE
 10
0.624039
 20
4.188078
 30
0.000000
 40
0.020167
 50
90.000000
 51
180.000000
  6
CONTINUOUS
  0
LINE
  8
WHITE
 10
0.603873
 20
4.188078
 30
0.000000
 11
0.603873
 21
3.629174
 31
0.000000
  6
CONTINUOUS
  0
LINE
  8
WHITE
 10
0.603873
 20
3.629174
 30
0.000000
 11
0.543373
 21
3.629174
 31
0.000000
  6
CONTINUOUS
  0
LINE
  8
WHITE
 10
0.543373
 20
3.629174
 30
0.000000
 11
0.543373
 21
4.336836
 31
0.000000
  6
CONTINUOUS
  0
LINE
  8
WHITE
 10
6.118893
 20
2.094203
 30
0.000000
 11
6.118893
 21
2.989084
 31
0.000000
  6
CONTINUOUS
  0
LINE
  8
WHITE
 10
6.118893
 20
2.989084
 30
0.000000
 11
6.058393
 21
2.989084
 31
0.000000
  6
CONTINUOUS
  0
LINE
  8
WHITE
 10
6.058393
 20
2.989084
 30
0.000000
 11
6.058393
 21
2.142084
 31
0.000000
  6
CONTINUOUS
  0
ARC
  8
WHITE
 10
6.030893
 20
2.233054
 30
0.000000
 40
0.095035
 50
-141.899950
 51
-73.179980
  6
CONTINUOUS
  0
ARC
  8
WHITE
 10
6.690658
 20
2.734649
 30
0.000000
 40
0.923812
 50
-174.935628
 51
-142.667595
  6
CONTINUOUS
  0
ARC
  8
WHITE
 10
16.977532
 20
3.828621
 30
0.000000
 40
11.268563
 50
177.106775
 51
185.987915
  6
CONTINUOUS
  0
ARC
  8
WHITE
 10
6.235849
 20
4.402564
 30
0.000000
 40
0.512542
 50
158.984032
 51
180.577274
  6
CONTINUOUS
  0
LINE
  8
WHITE
 10
5.757401
 20
4.586376
 30
0.000000
 11
6.349953
 21
4.586376
 31
0.000000
  6
CONTINUOUS
  0
ARC
  8
WHITE
 10
1.731895
 20
3.559227
 30
0.000000
 40
4.730908
 50
-16.525166
 51
12.539610
  6
CONTINUOUS
  0
ARC
  8
WHITE
 10
6.147832
 20
2.278145
 30
0.000000
 40
0.135878
 50
-83.879478
 51
-28.368320
  6
CONTINUOUS
  0
LINE
  8
WHITE
 10
6.162319
 20
2.143041
 30
0.000000
 11
6.118893
 21
2.094203
 31
0.000000
  6
CONTINUOUS
  0
ARC
  8
WHITE
 10
0.410818
 20
5.158804
 30
0.000000
 40
0.135878
 50
167.703102
 51
241.631681
  6
CONTINUOUS
  0
ARC
  8
WHITE
 10
1.691899
 20
9.574741
 30
0.000000
 40
4.730908
 50
-106.525166
 51
-77.460390
  6
CONTINUOUS
  0
LINE
  8
WHITE
 10
2.719048
 20
4.956683
 30
0.000000
 11
2.719048
 21
5.549235
 31
0.000000
  6
CONTINUOUS
  0
ARC
  8
WHITE
 10
2.535236
 20
5.070787
 30
0.000000
 40
0.512542
 50
68.984032
 51
90.577274
  6
CONTINUOUS
  0
ARC
  8
WHITE
 10
1.961293
 20
-5.670897
 30
0.000000
 40
11.268563
 50
87.106775
 51
95.987915
  6
CONTINUOUS
  0
ARC
  8
WHITE
 10
0.867321
 20
4.615978
 30
0.000000
 40
0.923812
 50
95.064372
 51
127.332404
  6
CONTINUOUS
  0
ARC
  8
WHITE
 10
0.365726
 20
5.275743
 30
0.000000
 40
0.095035
 50
128.100050
 51
196.820020
  6
CONTINUOUS
  0
LINE
  8
WHITE
 10
0.274757
 20
5.248243
 30
0.000000
 11
1.121757
 21
5.248243
 31
0.000000
  6
CONTINUOUS
  0
LINE
  8
WHITE
 10
1.121757
 20
5.248243
 30
0.000000
 11
1.121757
 21
5.187743
 31
0.000000
  6
CONTINUOUS
  0
LINE
  8
WHITE
 10
1.121757
 20
5.187743
 30
0.000000
 11
0.278057
 21
5.187743
 31
0.000000
  6
CONTINUOUS
  0
LINE
  8
WHITE
 10
0.274757
 20
6.083192
 30
0.000000
 11
1.121757
 21
6.083192
 31
0.000000
  6
CONTINUOUS
  0
LINE
  8
WHITE
 10
1.121757
 20
6.083192
 30
0.000000
 11
1.121757
 21
6.143692
 31
0.000000
  6
CONTINUOUS
  0
LINE
  8
WHITE
 10
1.121757
 20
6.143692
 30
0.000000
 11
0.278057
 21
6.143692
 31
0.000000
  6
CONTINUOUS
  0
ARC
  8
WHITE
 10
0.410818
 20
6.172631
 30
0.000000
 40
0.135878
 50
118.368319
 51
192.296898
  6
CONTINUOUS
  0
ARC
  8
WHITE
 10
1.691899
 20
1.756694
 30
0.000000
 40
4.730908
 50
77.460390
 51
106.525166
  6
CONTINUOUS
  0
LINE
  8
WHITE
 10
2.719048
 20
6.374752
 30
0.000000
 11
2.719048
 21
5.782201
 31
0.000000
  6
CONTINUOUS
  0
ARC
  8
WHITE
 10
2.535236
 20
6.260649
 30
0.000000
 40
0.512542
 50
-90.577274
 51
-68.984032
  6
CONTINUOUS
  0
ARC
  8
WHITE
 10
1.961293
 20
17.002332
 30
0.000000
 40
11.268563
 50
-95.987915
 51
-87.106775
  6
CONTINUOUS
  0
ARC
  8
WHITE
 10
0.867321
 20
6.715457
 30
0.000000
 40
0.923812
 50
-127.332404
 51
-95.064372
  6
CONTINUOUS
  0
ARC
  8
WHITE
 10
0.365726
 20
6.055692
 30
0.000000
 40
0.095035
 50
163.179979
 51
231.899950
  6
CONTINUOUS
  0
ARC
  8
WHITE
 10
6.086371
 20
4.824537
 30
0.000000
 40
0.095035
 50
-106.820020
 51
-38.100050
  6
CONTINUOUS
  0
ARC
  8
WHITE
 10
5.426606
 20
5.326132
 30
0.000000
 40
0.923812
 50
-37.332404
 51
-5.064372
  6
CONTINUOUS
  0
ARC
  8
WHITE
 10
-4.860269
 20
6.420104
 30
0.000000
 40
11.268563
 50
-5.987915
 51
2.893225
  6
CONTINUOUS
  0
ARC
  8
WHITE
 10
5.881414
 20
6.994047
 30
0.000000
 40
0.512542
 50
-0.577274
 51
21.015968
  6
CONTINUOUS
  0
LINE
  8
WHITE
 10
6.359863
 20
7.177859
 30
0.000000
 11
5.767311
 21
7.177859
 31
0.000000
  6
CONTINUOUS
  0
ARC
  8
WHITE
 10
10.385369
 20
6.150710
 30
0.000000
 40
4.730908
 50
167.460390
 51
196.525166
  6
CONTINUOUS
  0
ARC
  8
WHITE
 10
5.969432
 20
4.869628
 30
0.000000
 40
0.135878
 50
-151.631680
 51
-77.703102
  6
CONTINUOUS
  0
LINE
  8
WHITE
 10
5.998371
 20
4.736867
 30
0.000000
 11
5.998371
 21
5.580567
 31
0.000000
  6
CONTINUOUS
  0
LINE
  8
WHITE
 10
5.998371
 20
5.580567
 30
0.000000
 11
6.058871
 21
5.580567
 31
0.000000
  6
CONTINUOUS
  0
LINE
  8
WHITE
 10
6.058871
 20
5.580567
 30
0.000000
 11
6.058871
 21
4.733567
 31
0.000000
  6
CONTINUOUS
  0
LINE
  8
WHITE
 10
13.243949
 20
7.018429
 30
0.000000
 11
13.243949
 21
7.221929
 31
0.000000
  6
CONTINUOUS
  0
LINE
  8
WHITE
 10
13.243949
 20
7.221929
 30
0.000000
 11
13.394488
 21
7.221929
 31
0.000000
  6
CONTINUOUS
  0
ARC
  8
WHITE
 10
13.394488
 20
7.242096
 30
0.000000
 40
0.020167
 50
-90.000000
 51
0.000000
  6
CONTINUOUS
  0
LINE
  8
WHITE
 10
13.414655
 20
7.242096
 30
0.000000
 11
13.414655
 21
7.253844
 31
0.000000
  6
CONTINUOUS
  0
ARC
  8
WHITE
 10
13.394488
 20
7.253844
 30
0.000000
 40
0.020167
 50
0.000000
 51
36.165474
  6
CONTINUOUS
  0
LINE
  8
WHITE
 10
13.410769
 20
7.265745
 30
0.000000
 11
12.628697
 21
8.335663
 31
0.000000
  6
CONTINUOUS
  0
ARC
  8
WHITE
 10
12.612416
 20
8.323762
 30
0.000000
 40
0.020167
 50
36.165476
 51
90.000000
  6
CONTINUOUS
  0
LINE
  8
WHITE
 10
12.612416
 20
8.343929
 30
0.000000
 11
12.242686
 21
8.343929
 31
0.000000
  6
CONTINUOUS
  0
ARC
  8
WHITE
 10
12.242686
 20
8.323762
 30
0.000000
 40
0.020167
 50
90.000000
 51
180.000000
  6
CONTINUOUS
  0
LINE
  8
WHITE
 10
12.222520
 20
8.323762
 30
0.000000
 11
12.222520
 21
7.581838
 31
0.000000
  6
CONTINUOUS
  0
ARC
  8
WHITE
 10
12.242686
 20
7.581838
 30
0.000000
 40
0.020167
 50
180.000000
 51
210.764364
  6
CONTINUOUS
  0
LINE
  8
WHITE
 10
12.225358
 20
7.571522
 30
0.000000
 11
12.427598
 21
7.231780
 31
0.000000
  6
CONTINUOUS
  0
ARC
  8
WHITE
 10
12.444927
 20
7.242096
 30
0.000000
 40
0.020167
 50
-149.235636
 51
-90.000000
  6
CONTINUOUS
  0
LINE
  8
WHITE
 10
12.444927
 20
7.221929
 30
0.000000
 11
12.573361
 21
7.221929
 31
0.000000
  6
CONTINUOUS
  0
LINE
  8
WHITE
 10
12.573361
 20
7.221929
 30
0.000000
 11
12.573361
 21
7.018429
 31
0.000000
  6
CONTINUOUS
  0
LINE
  8
WHITE
 10
12.573361
 20
7.018429
 30
0.000000
 11
13.243949
 21
7.018429
 31
0.000000
  6
CONTINUOUS
  0
LINE
  8
WHITE
 10
12.881202
 20
8.545170
 30
0.000000
 11
12.881202
 21
8.341670
 31
0.000000
  6
CONTINUOUS
  0
LINE
  8
WHITE
 10
12.881202
 20
8.341670
 30
0.000000
 11
12.730663
 21
8.341670
 31
0.000000
  6
CONTINUOUS
  0
ARC
  8
WHITE
 10
12.730663
 20
8.321503
 30
0.000000
 40
0.020167
 50
90.000000
 51
180.000000
  6
CONTINUOUS
  0
LINE
  8
WHITE
 10
12.710496
 20
8.321503
 30
0.000000
 11
12.710496
 21
8.309754
 31
0.000000
  6
CONTINUOUS
  0
ARC
  8
WHITE
 10
12.730663
 20
8.309754
 30
0.000000
 40
0.020167
 50
180.000000
 51
216.165475
  6
CONTINUOUS
  0
LINE
  8
WHITE
 10
12.714382
 20
8.297854
 30
0.000000
 11
13.496454
 21
7.227936
 31
0.000000
  6
CONTINUOUS
  0
ARC
  8
WHITE
 10
13.512735
 20
7.239836
 30
0.000000
 40
0.020167
 50
-143.834522
 51
-90.000000
  6
CONTINUOUS
  0
LINE
  8
WHITE
 10
13.512735
 20
7.219670
 30
0.000000
 11
13.882464
 21
7.219670
 31
0.000000
  6
CONTINUOUS
  0
ARC
  8
WHITE
 10
13.882464
 20
7.239836
 30
0.000000
 40
0.020167
 50
-90.000000
 51
0.000000
  6
CONTINUOUS
  0
LINE
  8
WHITE
 10
13.902631
 20
7.239836
 30
0.000000
 11
13.902631
 21
7.981761
 31
0.000000
  6
CONTINUOUS
  0
ARC
  8
WHITE
 10
13.882464
 20
7.981761
 30
0.000000
 40
0.020167
 50
0.000000
 51
30.764364
  6
CONTINUOUS
  0
LINE
  8
WHITE
 10
13.899793
 20
7.992076
 30
0.000000
 11
13.697552
 21
8.331818
 31
0.000000
  6
CONTINUOUS
  0
ARC
  8
WHITE
 10
13.680224
 20
8.321503
 30
0.000000
 40
0.020167
 50
30.764364
 51
90.000000
  6
CONTINUOUS
  0
LINE
  8
WHITE
 10
13.680224
 20
8.341670
 30
0.000000
 11
13.551790
 21
8.341670
 31
0.000000
  6
CONTINUOUS
  0
LINE
  8
WHITE
 10
13.551790
 20
8.341670
 30
0.000000
 11
13.551790
 21
8.545170
 31
0.000000
  6
CONTINUOUS
  0
LINE
  8
WHITE
 10
13.551790
 20
8.545170
 30
0.000000
 11
12.881202
 21
8.545170
 31
0.000000
  6
CONTINUOUS
  0
LINE
  8
WHITE
 10
14.183075
 20
7.121244
 30
0.000000
 11
14.183075
 21
7.014147
 31
0.000000
  6
CONTINUOUS
  0
ARC
  8
WHITE
 10
14.076002
 20
7.009943
 30
0.000000
 40
0.107156
 50
-40.982247
 51
2.248616
  6
CONTINUOUS
  0
ARC
  8
WHITE
 10
14.250703
 20
6.842858
 30
0.000000
 40
0.134803
 50
134.097962
 51
176.137560
  6
CONTINUOUS
  0
ARC
  8
WHITE
 10
14.342647
 20
6.870442
 30
0.000000
 40
0.227195
 50
-175.328512
 51
-152.063454
  6
CONTINUOUS
  0
ARC
  8
WHITE
 10
14.218505
 20
6.795068
 30
0.000000
 40
0.082639
 50
-157.919295
 51
-81.385388
  6
CONTINUOUS
  0
LINE
  8
WHITE
 10
14.230884
 20
6.713361
 30
0.000000
 11
14.477511
 21
6.713361
 31
0.000000
  6
CONTINUOUS
  0
ARC
  8
WHITE
 10
14.451412
 20
6.448998
 30
0.000000
 40
0.265648
 50
59.107503
 51
84.361726
  6
CONTINUOUS
  0
ARC
  8
WHITE
 10
14.332558
 20
6.413934
 30
0.000000
 40
0.366513
 50
19.488774
 51
45.860016
  6
CONTINUOUS
  0
ARC
  8
WHITE
 10
14.047041
 20
6.315609
 30
0.000000
 40
0.668481
 50
1.746409
 51
19.269118
  6
CONTINUOUS
  0
ARC
  8
WHITE
 10
14.273219
 20
6.323414
 30
0.000000
 40
0.442170
 50
-26.822983
 51
1.628698
  6
CONTINUOUS
  0
ARC
  8
WHITE
 10
14.543033
 20
6.182586
 30
0.000000
 40
0.137896
 50
-83.094167
 51
-25.191479
  6
CONTINUOUS
  0
ARC
  8
WHITE
 10
14.557189
 20
6.065710
 30
0.000000
 40
0.020167
 50
180.000000
 51
276.905834
  6
CONTINUOUS
  0
LINE
  8
WHITE
 10
14.537022
 20
6.065710
 30
0.000000
 11
14.537022
 21
6.340953
 31
0.000000
  6
CONTINUOUS
  0
LINE
  8
WHITE
 10
14.537022
 20
6.340953
 30
0.000000
 11
14.476522
 21
6.340953
 31
0.000000
  6
CONTINUOUS
  0
LINE
  8
WHITE
 10
14.476522
 20
6.340953
 30
0.000000
 11
14.476522
 21
6.096474
 31
0.000000
  6
CONTINUOUS
  0
ARC
  8
WHITE
 10
14.456356
 20
6.096474
 30
0.000000
 40
0.020167
 50
-90.000000
 51
0.000000
  6
CONTINUOUS
  0
LINE
  8
WHITE
 10
14.456356
 20
6.076307
 30
0.000000
 11
14.416022
 21
6.076307
 31
0.000000
  6
CONTINUOUS
  0
LINE
  8
WHITE
 10
14.416022
 20
6.076307
 30
0.000000
 11
14.416022
 21
5.791556
 31
0.000000
  6
CONTINUOUS
  0
ARC
  8
WHITE
 10
14.405939
 20
5.791556
 30
0.000000
 40
0.010083
 50
-64.821167
 51
0.000000
  6
CONTINUOUS
  0
LINE
  8
WHITE
 10
14.410229
 20
5.782430
 30
0.000000
 11
14.228021
 21
5.696772
 31
0.000000
  6
CONTINUOUS
  0
ARC
  8
WHITE
 10
14.275178
 20
5.646681
 30
0.000000
 40
0.068796
 50
133.272184
 51
171.995727
  6
CONTINUOUS
  0
ARC
  8
WHITE
 10
12.565844
 20
5.766702
 30
0.000000
 40
1.644920
 50
-10.064163
 51
-3.849777
  6
CONTINUOUS
  0
ARC
  8
WHITE
 10
14.069364
 20
5.496555
 30
0.000000
 40
0.117372
 50
-64.513373
 51
-8.478281
  6
CONTINUOUS
  0
ARC
  8
WHITE
 10
14.026684
 20
5.549921
 30
0.000000
 40
0.184567
 50
-119.339133
 51
-59.676476
  6
CONTINUOUS
  0
ARC
  8
WHITE
 10
14.028848
 20
5.544743
 30
0.000000
 40
0.181167
 50
-158.206861
 51
-120.738392
  6
CONTINUOUS
  0
ARC
  8
WHITE
 10
14.286859
 20
5.662392
 30
0.000000
 40
0.464611
 50
-176.175360
 51
-156.547703
  6
CONTINUOUS
  0
LINE
  8
WHITE
 10
13.823283
 20
5.631401
 30
0.000000
 11
13.823283
 21
6.699408
 31
0.000000
  6
CONTINUOUS
  0
ARC
  8
WHITE
 10
14.180615
 20
6.548245
 30
0.000000
 40
0.387990
 50
135.555238
 51
157.070056
  6
CONTINUOUS
  0
ARC
  8
WHITE
 10
13.861118
 20
6.856030
 30
0.000000
 40
0.055767
 50
-40.348915
 51
38.858592
  6
CONTINUOUS
  0
ARC
  8
WHITE
 10
13.991414
 20
7.035769
 30
0.000000
 40
0.168817
 50
-156.132074
 51
-120.969479
  6
CONTINUOUS
  0
LINE
  8
WHITE
 10
13.837034
 20
6.967461
 30
0.000000
 11
13.837034
 21
7.101077
 31
0.000000
  6
CONTINUOUS
  0
ARC
  8
WHITE
 10
13.857201
 20
7.101077
 30
0.000000
 40
0.020167
 50
90.000000
 51
180.000000
  6
CONTINUOUS
  0
LINE
  8
WHITE
 10
13.857201
 20
7.121244
 30
0.000000
 11
14.183075
 21
7.121244
 31
0.000000
  6
CONTINUOUS
  0
LINE
  8
WHITE
 10
12.013175
 20
5.982145
 30
0.000000
 11
12.013175
 21
5.656270
 31
0.000000
  6
CONTINUOUS
  0
ARC
  8
WHITE
 10
12.033342
 20
5.656270
 30
0.000000
 40
0.020167
 50
180.000000
 51
270.000000
  6
CONTINUOUS
  0
LINE
  8
WHITE
 10
12.033342
 20
5.636104
 30
0.000000
 11
12.120272
 21
5.636104
 31
0.000000
  6
CONTINUOUS
  0
ARC
  8
WHITE
 10
12.124476
 20
5.743177
 30
0.000000
 40
0.107156
 50
-92.248616
 51
-49.017753
  6
CONTINUOUS
  0
ARC
  8
WHITE
 10
12.291561
 20
5.568476
 30
0.000000
 40
0.134803
 50
93.862440
 51
135.902038
  6
CONTINUOUS
  0
ARC
  8
WHITE
 10
12.263977
 20
5.476532
 30
0.000000
 40
0.227195
 50
62.063454
 51
85.328512
  6
CONTINUOUS
  0
ARC
  8
WHITE
 10
12.339351
 20
5.600674
 30
0.000000
 40
0.082639
 50
-8.614612
 51
67.919294
  6
CONTINUOUS
  0
LINE
  8
WHITE
 10
12.421058
 20
5.588295
 30
0.000000
 11
12.421058
 21
5.341668
 31
0.000000
  6
CONTINUOUS
  0
ARC
  8
WHITE
 10
12.685421
 20
5.367767
 30
0.000000
 40
0.265648
 50
-174.361726
 51
-149.107503
  6
CONTINUOUS
  0
ARC
  8
WHITE
 10
12.720485
 20
5.486621
 30
0.000000
 40
0.366513
 50
-135.860016
 51
-109.488774
  6
CONTINUOUS
  0
ARC
  8
WHITE
 10
12.818810
 20
5.772138
 30
0.000000
 40
0.668481
 50
-109.269118
 51
-91.746409
  6
CONTINUOUS
  0
ARC
  8
WHITE
 10
12.811005
 20
5.545960
 30
0.000000
 40
0.442170
 50
-91.628698
 51
-63.177017
  6
CONTINUOUS
  0
ARC
  8
WHITE
 10
12.951833
 20
5.276146
 30
0.000000
 40
0.137896
 50
-64.808520
 51
-6.905832
  6
CONTINUOUS
  0
ARC
  8
WHITE
 10
13.068709
 20
5.261990
 30
0.000000
 40
0.020167
 50
-6.905834
 51
90.000000
  6
CONTINUOUS
  0
LINE
  8
WHITE
 10
13.068709
 20
5.282157
 30
0.000000
 11
12.793466
 21
5.282157
 31
0.000000
  6
CONTINUOUS
  0
LINE
  8
WHITE
 10
12.793466
 20
5.282157
 30
0.000000
 11
12.793466
 21
5.342657
 31
0.000000
  6
CONTINUOUS
  0
LINE
  8
WHITE
 10
12.793466
 20
5.342657
 30
0.000000
 11
13.037945
 21
5.342657
 31
0.000000
  6
CONTINUOUS
  0
ARC
  8
WHITE
 10
13.037945
 20
5.362823
 30
0.000000
 40
0.020167
 50
-90.000000
 51
0.000000
  6
CONTINUOUS
  0
LINE
  8
WHITE
 10
13.058112
 20
5.362823
 30
0.000000
 11
13.058112
 21
5.403157
 31
0.000000
  6
CONTINUOUS
  0
LINE
  8
WHITE
 10
13.058112
 20
5.403157
 30
0.000000
 11
13.342863
 21
5.403157
 31
0.000000
  6
CONTINUOUS
  0
ARC
  8
WHITE
 10
13.342863
 20
5.413240
 30
0.000000
 40
0.010083
 50
-90.000000
 51
-25.178835
  6
CONTINUOUS
  0
LINE
  8
WHITE
 10
13.351989
 20
5.408950
 30
0.000000
 11
13.437647
 21
5.591158
 31
0.000000
  6
CONTINUOUS
  0
ARC
  8
WHITE
 10
13.487738
 20
5.544001
 30
0.000000
 40
0.068796
 50
98.004274
 51
136.727816
  6
CONTINUOUS
  0
ARC
  8
WHITE
 10
13.367717
 20
7.253335
 30
0.000000
 40
1.644920
 50
-86.150223
 51
-79.935837
  6
CONTINUOUS
  0
ARC
  8
WHITE
 10
13.637864
 20
5.749815
 30
0.000000
 40
0.117372
 50
-81.521719
 51
-25.486627
  6
CONTINUOUS
  0
ARC
  8
WHITE
 10
13.536349
 20
5.792908
 30
0.000000
 40
0.227602
 50
-24.282567
 51
23.298176
  6
CONTINUOUS
  0
ARC
  8
WHITE
 10
13.587732
 20
5.788056
 30
0.000000
 40
0.184004
 50
31.037678
 51
67.907575
  6
CONTINUOUS
  0
ARC
  8
WHITE
 10
13.472028
 20
5.532320
 30
0.000000
 40
0.464611
 50
66.547703
 51
86.175361
  6
CONTINUOUS
  0
LINE
  8
WHITE
 10
13.503018
 20
5.995895
 30
0.000000
 11
12.435011
 21
5.995895
 31
0.000000
  6
CONTINUOUS
  0
ARC
  8
WHITE
 10
12.586174
 20
5.638564
 30
0.000000
 40
0.387990
 50
112.929944
 51
134.444762
  6
CONTINUOUS
  0
ARC
  8
WHITE
 10
12.278389
 20
5.958061
 30
0.000000
 40
0.055767
 50
-128.858592
 51
-49.651085
  6
CONTINUOUS
  0
ARC
  8
WHITE
 10
12.098650
 20
5.827765
 30
0.000000
 40
0.168817
 50
30.969478
 51
66.132074
  6
CONTINUOUS
  0
LINE
  8
WHITE
 10
12.166959
 20
5.982145
 30
0.000000
 11
12.013175
 21
5.982145
 31
0.000000
  6
CONTINUOUS
  0
LINE
  8
WHITE
 10
12.353768
 20
4.145392
 30
0.000000
 11
12.516705
 21
3.863176
 31
0.000000
  6
CONTINUOUS
  0
ARC
  8
WHITE
 10
12.534170
 20
3.873259
 30
0.000000
 40
0.020167
 50
-150.000000
 51
-59.999997
  6
CONTINUOUS
  0
LINE
  8
WHITE
 10
12.544254
 20
3.855794
 30
0.000000
 11
12.659969
 21
3.922602
 31
0.000000
  6
CONTINUOUS
  0
ARC
  8
WHITE
 10
12.523622
 20
4.022145
 30
0.000000
 40
0.168817
 50
-36.132074
 51
-0.969479
  6
CONTINUOUS
  0
ARC
  8
WHITE
 10
12.744428
 20
3.999176
 30
0.000000
 40
0.055767
 50
79.651086
 51
158.858593
  6
CONTINUOUS
  0
ARC
  8
WHITE
 10
12.851229
 20
4.429760
 30
0.000000
 40
0.387990
 50
-104.444762
 51
-82.929944
  6
CONTINUOUS
  0
LINE
  8
WHITE
 10
12.898984
 20
4.044720
 30
0.000000
 11
13.823906
 21
4.578724
 31
0.000000
  6
CONTINUOUS
  0
ARC
  8
WHITE
 10
13.565279
 20
4.964697
 30
0.000000
 40
0.464611
 50
-56.175361
 51
-36.547703
  6
CONTINUOUS
  0
ARC
  8
WHITE
 10
13.793350
 20
4.801075
 30
0.000000
 40
0.184004
 50
-37.907575
 51
-1.037678
  6
CONTINUOUS
  0
ARC
  8
WHITE
 10
13.919704
 20
4.783846
 30
0.000000
 40
0.059271
 50
13.560014
 51
64.320714
  6
CONTINUOUS
  0
LINE
  8
WHITE
 10
13.945388
 20
4.837263
 30
0.000000
 11
13.164901
 21
4.386649
 31
0.000000
  6
CONTINUOUS
  0
LINE
  8
WHITE
 10
13.164901
 20
4.386649
 30
0.000000
 11
13.134651
 21
4.439043
 31
0.000000
  6
CONTINUOUS
  0
LINE
  8
WHITE
 10
13.134651
 20
4.439043
 30
0.000000
 11
13.891614
 21
4.876076
 31
0.000000
  6
CONTINUOUS
  0
ARC
  8
WHITE
 10
13.773836
 20
4.979819
 30
0.000000
 40
0.156953
 50
-41.374471
 51
-32.755632
  6
CONTINUOUS
  0
ARC
  8
WHITE
 10
13.855973
 20
4.916547
 30
0.000000
 40
0.054356
 50
-23.470942
 51
11.998226
  6
CONTINUOUS
  0
ARC
  8
WHITE
 10
13.799590
 20
4.855665
 30
0.000000
 40
0.131193
 50
33.380481
 51
49.869552
  6
CONTINUOUS
  0
ARC
  8
WHITE
 10
13.817645
 20
4.859258
 30
0.000000
 40
0.117372
 50
55.486627
 51
111.521719
  6
CONTINUOUS
  0
ARC
  8
WHITE
 10
14.335451
 20
3.422099
 30
0.000000
 40
1.644920
 50
109.935837
 51
116.150223
  6
CONTINUOUS
  0
ARC
  8
WHITE
 10
13.584725
 20
4.962436
 30
0.000000
 40
0.068796
 50
-106.727817
 51
-68.004273
  6
CONTINUOUS
  0
LINE
  8
WHITE
 10
13.564924
 20
4.896551
 30
0.000000
 11
13.399638
 21
5.011519
 31
0.000000
  6
CONTINUOUS
  0
ARC
  8
WHITE
 10
13.393880
 20
5.003241
 30
0.000000
 40
0.010083
 50
55.178829
 51
120.000004
  6
CONTINUOUS
  0
LINE
  8
WHITE
 10
13.388838
 20
5.011974
 30
0.000000
 11
13.142236
 21
4.869598
 31
0.000000
  6
CONTINUOUS
  0
LINE
  8
WHITE
 10
13.142236
 20
4.869598
 30
0.000000
 11
13.122070
 21
4.904528
 31
0.000000
  6
CONTINUOUS
  0
ARC
  8
WHITE
 10
13.104605
 20
4.894444
 30
0.000000
 40
0.020167
 50
29.999999
 51
120.000000
  6
CONTINUOUS
  0
LINE
  8
WHITE
 10
13.094521
 20
4.911909
 30
0.000000
 11
12.882796
 21
4.789670
 31
0.000000
  6
CONTINUOUS
  0
LINE
  8
WHITE
 10
12.882796
 20
4.789670
 30
0.000000
 11
12.852546
 21
4.842064
 31
0.000000
  6
CONTINUOUS
  0
LINE
  8
WHITE
 10
12.852546
 20
4.842064
 30
0.000000
 11
13.100329
 21
4.985122
 31
0.000000
  6
CONTINUOUS
  0
ARC
  8
WHITE
 10
13.095288
 20
4.993854
 30
0.000000
 40
0.010083
 50
-59.999999
 51
31.825806
  6
CONTINUOUS
  0
ARC
  8
WHITE
 10
12.986691
 20
4.926453
 30
0.000000
 40
0.137896
 50
31.825804
 51
94.808520
  6
CONTINUOUS
  0
ARC
  8
WHITE
 10
12.999637
 20
4.622374
 30
0.000000
 40
0.442170
 50
93.177017
 51
121.628698
  6
CONTINUOUS
  0
ARC
  8
WHITE
 10
13.119486
 20
4.430400
 30
0.000000
 40
0.668481
 50
121.746409
 51
139.269118
  6
CONTINUOUS
  0
ARC
  8
WHITE
 10
12.891575
 20
4.628502
 30
0.000000
 40
0.366513
 50
139.488774
 51
165.860015
  6
CONTINUOUS
  0
ARC
  8
WHITE
 10
12.801782
 20
4.713901
 30
0.000000
 40
0.265648
 50
179.107503
 51
204.361727
  6
CONTINUOUS
  0
LINE
  8
WHITE
 10
12.559787
 20
4.604322
 30
0.000000
 11
12.683101
 21
4.390736
 31
0.000000
  6
CONTINUOUS
  0
ARC
  8
WHITE
 10
12.618530
 20
4.339163
 30
0.000000
 40
0.082639
 50
-37.919294
 51
38.614612
  6
CONTINUOUS
  0
ARC
  8
WHITE
 10
12.491183
 20
4.408985
 30
0.000000
 40
0.227195
 50
-55.328512
 51
-32.063454
  6
CONTINUOUS
  0
ARC
  8
WHITE
 10
12.561043
 20
4.343152
 30
0.000000
 40
0.134803
 50
-105.902038
 51
-63.862440
  6
CONTINUOUS
  0
ARC
  8
WHITE
 10
12.503694
 20
4.108314
 30
0.000000
 40
0.107156
 50
79.017753
 51
122.248616
  6
CONTINUOUS
  0
LINE
  8
WHITE
 10
12.446516
 20
4.198940
 30
0.000000
 11
12.353768
 21
4.145392
 31
0.000000
  6
CONTINUOUS
  0
LINE
  8
WHITE
 10
12.949770
 20
1.518073
 30
0.000000
 11
13.103553
 21
1.518073
 31
0.000000
  6
CONTINUOUS
  0
ARC
  8
WHITE
 10
13.035245
 20
1.672453
 30
0.000000
 40
0.168817
 50
-66.132073
 51
-30.969478
  6
CONTINUOUS
  0
ARC
  8
WHITE
 10
13.214984
 20
1.542157
 30
0.000000
 40
0.055767
 50
49.651086
 51
128.858591
  6
CONTINUOUS
  0
ARC
  8
WHITE
 10
13.522769
 20
1.861654
 30
0.000000
 40
0.387990
 50
-134.444762
 51
-112.929944
  6
CONTINUOUS
  0
LINE
  8
WHITE
 10
13.371606
 20
1.504322
 30
0.000000
 11
14.439613
 21
1.504322
 31
0.000000
  6
CONTINUOUS
  0
ARC
  8
WHITE
 10
14.408622
 20
1.967898
 30
0.000000
 40
0.464611
 50
-86.175361
 51
-66.547703
  6
CONTINUOUS
  0
ARC
  8
WHITE
 10
14.524326
 20
1.712162
 30
0.000000
 40
0.184004
 50
-67.907576
 51
-31.037678
  6
CONTINUOUS
  0
ARC
  8
WHITE
 10
14.625138
 20
1.634064
 30
0.000000
 40
0.059271
 50
-16.439986
 51
34.320714
  6
CONTINUOUS
  0
LINE
  8
WHITE
 10
14.674090
 20
1.667482
 30
0.000000
 11
13.772861
 21
1.667482
 31
0.000000
  6
CONTINUOUS
  0
LINE
  8
WHITE
 10
13.772861
 20
1.667482
 30
0.000000
 11
13.772861
 21
1.727982
 31
0.000000
  6
CONTINUOUS
  0
LINE
  8
WHITE
 10
13.772861
 20
1.727982
 30
0.000000
 11
14.646927
 21
1.727982
 31
0.000000
  6
CONTINUOUS
  0
ARC
  8
WHITE
 10
14.596799
 20
1.876715
 30
0.000000
 40
0.156953
 50
-71.374471
 51
-62.755632
  6
CONTINUOUS
  0
ARC
  8
WHITE
 10
14.636295
 20
1.780852
 30
0.000000
 40
0.054356
 50
-53.470943
 51
-18.001773
  6
CONTINUOUS
  0
ARC
  8
WHITE
 10
14.557025
 20
1.756318
 30
0.000000
 40
0.131193
 50
3.380481
 51
19.869552
  6
CONTINUOUS
  0
ARC
  8
WHITE
 10
14.574458
 20
1.750402
 30
0.000000
 40
0.117372
 50
25.486627
 51
81.521718
  6
CONTINUOUS
  0
ARC
  8
WHITE
 10
14.304312
 20
0.246883
 30
0.000000
 40
1.644920
 50
79.935837
 51
86.150223
  6
CONTINUOUS
  0
ARC
  8
WHITE
 10
14.424333
 20
1.956217
 30
0.000000
 40
0.068796
 50
-136.727816
 51
-98.004273
  6
CONTINUOUS
  0
LINE
  8
WHITE
 10
14.374242
 20
1.909059
 30
0.000000
 11
14.288583
 21
2.091268
 31
0.000000
  6
CONTINUOUS
  0
ARC
  8
WHITE
 10
14.279458
 20
2.086978
 30
0.000000
 40
0.010083
 50
25.178835
 51
90.000000
  6
CONTINUOUS
  0
LINE
  8
WHITE
 10
14.279458
 20
2.097061
 30
0.000000
 11
13.994707
 21
2.097061
 31
0.000000
  6
CONTINUOUS
  0
LINE
  8
WHITE
 10
13.994707
 20
2.097061
 30
0.000000
 11
13.994707
 21
2.137394
 31
0.000000
  6
CONTINUOUS
  0
ARC
  8
WHITE
 10
13.974540
 20
2.137394
 30
0.000000
 40
0.020167
 50
0.000000
 51
90.000000
  6
CONTINUOUS
  0
LINE
  8
WHITE
 10
13.974540
 20
2.157561
 30
0.000000
 11
13.730061
 21
2.157561
 31
0.000000
  6
CONTINUOUS
  0
LINE
  8
WHITE
 10
13.730061
 20
2.157561
 30
0.000000
 11
13.730061
 21
2.218061
 31
0.000000
  6
CONTINUOUS
  0
LINE
  8
WHITE
 10
13.730061
 20
2.218061
 30
0.000000
 11
14.005304
 21
2.218061
 31
0.000000
  6
CONTINUOUS
  0
ARC
  8
WHITE
 10
14.005304
 20
2.238228
 30
0.000000
 40
0.020167
 50
-90.000000
 51
6.905834
  6
CONTINUOUS
  0
ARC
  8
WHITE
 10
13.888428
 20
2.224072
 30
0.000000
 40
0.137896
 50
6.905833
 51
64.808520
  6
CONTINUOUS
  0
ARC
  8
WHITE
 10
13.747600
 20
1.954258
 30
0.000000
 40
0.442170
 50
63.177017
 51
91.628698
  6
CONTINUOUS
  0
ARC
  8
WHITE
 10
13.755405
 20
1.728079
 30
0.000000
 40
0.668481
 50
91.746409
 51
109.269118
  6
CONTINUOUS
  0
ARC
  8
WHITE
 10
13.657080
 20
2.013597
 30
0.000000
 40
0.366513
 50
109.488774
 51
135.860016
  6
CONTINUOUS
  0
ARC
  8
WHITE
 10
13.622016
 20
2.132450
 30
0.000000
 40
0.265648
 50
149.107503
 51
174.361726
  6
CONTINUOUS
  0
LINE
  8
WHITE
 10
13.357653
 20
2.158550
 30
0.000000
 11
13.357653
 21
1.911922
 31
0.000000
  6
CONTINUOUS
  0
ARC
  8
WHITE
 10
13.275946
 20
1.899544
 30
0.000000
 40
0.082639
 50
-67.919295
 51
8.614613
  6
CONTINUOUS
  0
ARC
  8
WHITE
 10
13.200572
 20
2.023685
 30
0.000000
 40
0.227195
 50
-85.328512
 51
-62.063454
  6
CONTINUOUS
  0
ARC
  8
WHITE
 10
13.228156
 20
1.931742
 30
0.000000
 40
0.134803
 50
-135.902038
 51
-93.862439
  6
CONTINUOUS
  0
ARC
  8
WHITE
 10
13.061071
 20
1.757041
 30
0.000000
 40
0.107156
 50
49.017754
 51
92.248616
  6
CONTINUOUS
  0
LINE
  8
WHITE
 10
13.056867
 20
1.864114
 30
0.000000
 11
12.969937
 21
1.864114
 31
0.000000
  6
CONTINUOUS
  0
ARC
  8
WHITE
 10
12.969937
 20
1.843947
 30
0.000000
 40
0.020167
 50
90.000000
 51
180.000000
  6
CONTINUOUS
  0
LINE
  8
WHITE
 10
12.949770
 20
1.843947
 30
0.000000
 11
12.949770
 21
1.518073
 31
0.000000
  6
CONTINUOUS
  0
LINE
  8
WHITE
 10
7.999488
 20
9.712246
 30
0.000000
 11
7.999488
 21
9.487021
 31
0.000000
  6
CONTINUOUS
  0
LINE
  8
WHITE
 10
7.999488
 20
9.487021
 30
0.000000
 11
7.955488
 21
9.487021
 31
0.000000
  6
CONTINUOUS
  0
LINE
  8
WHITE
 10
7.955488
 20
9.487021
 30
0.000000
 11
7.955488
 21
9.046104
 31
0.000000
  6
CONTINUOUS
  0
LINE
  8
WHITE
 10
7.955488
 20
9.046104
 30
0.000000
 11
7.999488
 21
9.046104
 31
0.000000
  6
CONTINUOUS
  0
LINE
  8
WHITE
 10
7.999488
 20
9.046104
 30
0.000000
 11
7.999488
 21
8.711888
 31
0.000000
  6
CONTINUOUS
  0
LINE
  8
WHITE
 10
7.999488
 20
8.711888
 30
0.000000
 11
7.955488
 21
8.711888
 31
0.000000
  6
CONTINUOUS
  0
LINE
  8
WHITE
 10
7.955488
 20
8.711888
 30
0.000000
 11
7.955488
 21
8.270971
 31
0.000000
  6
CONTINUOUS
  0
LINE
  8
WHITE
 10
7.955488
 20
8.270971
 30
0.000000
 11
7.999488
 21
8.270971
 31
0.000000
  6
CONTINUOUS
  0
LINE
  8
WHITE
 10
7.999488
 20
8.270971
 30
0.000000
 11
7.999488
 21
8.002113
 31
0.000000
  6
CONTINUOUS
  0
LINE
  8
WHITE
 10
7.999488
 20
8.002113
 30
0.000000
 11
8.453147
 21
8.002113
 31
0.000000
  6
CONTINUOUS
  0
LINE
  8
WHITE
 10
8.453147
 20
8.002113
 30
0.000000
 11
8.453147
 21
8.270971
 31
0.000000
  6
CONTINUOUS
  0
LINE
  8
WHITE
 10
8.453147
 20
8.270971
 30
0.000000
 11
8.497147
 21
8.272988
 31
0.000000
  6
CONTINUOUS
  0
LINE
  8
WHITE
 10
8.497147
 20
8.272988
 30
0.000000
 11
8.497147
 21
8.709871
 31
0.000000
  6
CONTINUOUS
  0
LINE
  8
WHITE
 10
8.497147
 20
8.709871
 30
0.000000
 11
8.453147
 21
8.711888
 31
0.000000
  6
CONTINUOUS
  0
LINE
  8
WHITE
 10
8.453147
 20
8.711888
 30
0.000000
 11
8.453147
 21
9.046104
 31
0.000000
  6
CONTINUOUS
  0
LINE
  8
WHITE
 10
8.453147
 20
9.046104
 30
0.000000
 11
8.497147
 21
9.046104
 31
0.000000
  6
CONTINUOUS
  0
LINE
  8
WHITE
 10
8.497147
 20
9.046104
 30
0.000000
 11
8.497147
 21
9.487021
 31
0.000000
  6
CONTINUOUS
  0
LINE
  8
WHITE
 10
8.497147
 20
9.487021
 30
0.000000
 11
8.453147
 21
9.487021
 31
0.000000
  6
CONTINUOUS
  0
LINE
  8
WHITE
 10
8.453147
 20
9.487021
 30
0.000000
 11
8.453147
 21
9.712246
 31
0.000000
  6
CONTINUOUS
  0
LINE
  8
WHITE
 10
8.453147
 20
9.712246
 30
0.000000
 11
7.999488
 21
9.712246
 31
0.000000
  6
CONTINUOUS
  0
CIRCLE
  8
WHITE
 10
8.226317
 20
8.491429
 30
0.000000
 40
0.126042
  6
CONTINUOUS
  0
CIRCLE
  8
WHITE
 10
8.226317
 20
9.266563
 30
0.000000
 40
0.126042
  6
CONTINUOUS
  0
LINE
  8
WHITE
 10
4.894146
 20
7.752990
 30
0.000000
 11
4.954646
 21
7.752990
 31
0.000000
  6
CONTINUOUS
  0
LINE
  8
WHITE
 10
4.954646
 20
7.752990
 30
0.000000
 11
4.954646
 21
7.477855
 31
0.000000
  6
CONTINUOUS
  0
ARC
  8
WHITE
 10
4.974813
 20
7.477855
 30
0.000000
 40
0.020167
 50
180.000000
 51
270.658920
  6
CONTINUOUS
  0
ARC
  8
WHITE
 10
4.972746
 20
7.657566
 30
0.000000
 40
0.199890
 50
-89.341082
 51
-26.199527
  6
CONTINUOUS
  0
ARC
  8
WHITE
 10
4.480063
 20
7.825427
 30
0.000000
 40
0.719184
 50
-20.861802
 51
-4.874877
  6
CONTINUOUS
  0
LINE
  8
WHITE
 10
5.196646
 20
7.764311
 30
0.000000
 11
5.196646
 21
8.017460
 31
0.000000
  6
CONTINUOUS
  0
LINE
  8
WHITE
 10
5.196646
 20
8.017460
 30
0.000000
 11
5.257146
 21
8.017460
 31
0.000000
  6
CONTINUOUS
  0
LINE
  8
WHITE
 10
5.257146
 20
8.017460
 30
0.000000
 11
5.257146
 21
7.785317
 31
0.000000
  6
CONTINUOUS
  0
ARC
  8
WHITE
 10
5.277313
 20
7.785317
 30
0.000000
 40
0.020167
 50
180.000000
 51
276.811453
  6
CONTINUOUS
  0
ARC
  8
WHITE
 10
5.261931
 20
7.914095
 30
0.000000
 40
0.149860
 50
-83.188548
 51
8.548781
  6
CONTINUOUS
  0
LINE
  8
WHITE
 10
5.410126
 20
7.936372
 30
0.000000
 11
5.410126
 21
8.979830
 31
0.000000
  6
CONTINUOUS
  0
LINE
  8
WHITE
 10
5.410126
 20
8.979830
 30
0.000000
 11
5.450459
 21
8.979830
 31
0.000000
  6
CONTINUOUS
  0
ARC
  8
WHITE
 10
5.450459
 20
8.999996
 30
0.000000
 40
0.020167
 50
-90.000000
 51
0.000000
  6
CONTINUOUS
  0
LINE
  8
WHITE
 10
5.470626
 20
8.999996
 30
0.000000
 11
5.470626
 21
9.488965
 31
0.000000
  6
CONTINUOUS
  0
ARC
  8
WHITE
 10
5.450459
 20
9.488965
 30
0.000000
 40
0.020167
 50
0.000000
 51
90.000000
  6
CONTINUOUS
  0
ARC
  8
WHITE
 10
5.449335
 20
9.488996
 30
0.000000
 40
0.020167
 50
86.803132
 51
142.015592
  6
CONTINUOUS
  0
LINE
  8
WHITE
 10
5.433440
 20
9.501408
 30
0.000000
 11
4.898442
 21
8.819042
 31
0.000000
  6
CONTINUOUS
  0
ARC
  8
WHITE
 10
4.914313
 20
8.806599
 30
0.000000
 40
0.020167
 50
141.902383
 51
180.000000
  6
CONTINUOUS
  0
LINE
  8
WHITE
 10
4.894146
 20
8.806599
 30
0.000000
 11
4.894146
 21
7.752990
 31
0.000000
  6
CONTINUOUS
  0
LINE
  8
WHITE
 10
4.647224
 20
7.752990
 30
0.000000
 11
4.647224
 21
8.806599
 31
0.000000
  6
CONTINUOUS
  0
ARC
  8
WHITE
 10
4.627057
 20
8.806599
 30
0.000000
 40
0.020167
 50
0.000000
 51
38.097617
  6
CONTINUOUS
  0
LINE
  8
WHITE
 10
4.642928
 20
8.819042
 30
0.000000
 11
4.101874
 21
9.509132
 31
0.000000
  6
CONTINUOUS
  0
LINE
  8
WHITE
 10
4.101874
 20
9.509132
 30
0.000000
 11
4.090911
 21
9.509132
 31
0.000000
  6
CONTINUOUS
  0
ARC
  8
WHITE
 10
4.090911
 20
9.488965
 30
0.000000
 40
0.020167
 50
90.000000
 51
180.000000
  6
CONTINUOUS
  0
LINE
  8
WHITE
 10
4.070744
 20
9.488965
 30
0.000000
 11
4.070744
 21
8.999996
 31
0.000000
  6
CONTINUOUS
  0
ARC
  8
WHITE
 10
4.090911
 20
8.999996
 30
0.000000
 40
0.020167
 50
180.000000
 51
270.000000
  6
CONTINUOUS
  0
LINE
  8
WHITE
 10
4.090911
 20
8.979830
 30
0.000000
 11
4.131244
 21
8.979830
 31
0.000000
  6
CONTINUOUS
  0
LINE
  8
WHITE
 10
4.131244
 20
8.979830
 30
0.000000
 11
4.131244
 21
7.946172
 31
0.000000
  6
CONTINUOUS
  0
ARC
  8
WHITE
 10
4.303746
 20
7.936006
 30
0.000000
 40
0.172801
 50
176.627491
 51
254.928460
  6
CONTINUOUS
  0
ARC
  8
WHITE
 10
4.264057
 20
7.788622
 30
0.000000
 40
0.020167
 50
-105.071541
 51
0.000000
  6
CONTINUOUS
  0
LINE
  8
WHITE
 10
4.284224
 20
7.788622
 30
0.000000
 11
4.284224
 21
8.017460
 31
0.000000
  6
CONTINUOUS
  0
LINE
  8
WHITE
 10
4.284224
 20
8.017460
 30
0.000000
 11
4.344724
 21
8.017460
 31
0.000000
  6
CONTINUOUS
  0
LINE
  8
WHITE
 10
4.344724
 20
8.017460
 30
0.000000
 11
4.344724
 21
7.765198
 31
0.000000
  6
CONTINUOUS
  0
ARC
  8
WHITE
 10
5.061403
 20
7.825175
 30
0.000000
 40
0.719184
 50
-175.216200
 51
-159.159740
  6
CONTINUOUS
  0
ARC
  8
WHITE
 10
4.568624
 20
7.657566
 30
0.000000
 40
0.199890
 50
-153.800473
 51
-90.658918
  6
CONTINUOUS
  0
ARC
  8
WHITE
 10
4.566557
 20
7.477855
 30
0.000000
 40
0.020167
 50
-90.658920
 51
0.000000
  6
CONTINUOUS
  0
LINE
  8
WHITE
 10
4.586724
 20
7.477855
 30
0.000000
 11
4.586724
 21
7.752990
 31
0.000000
  6
CONTINUOUS
  0
LINE
  8
WHITE
 10
4.586724
 20
7.752990
 30
0.000000
 11
4.647224
 21
7.752990
 31
0.000000
  6
CONTINUOUS
  0
ARC
  8
WHITE
 10
12.083644
 20
6.687115
 30
0.000000
 40
0.030250
 50
89.991126
 51
203.483540
  6
CONTINUOUS
  0
ARC
  8
WHITE
 10
12.211592
 20
6.744405
 30
0.000000
 40
0.170437
 50
-155.992178
 51
-97.149617
  6
CONTINUOUS
  0
ARC
  8
WHITE
 10
12.778784
 20
11.464385
 30
0.000000
 40
4.924371
 50
-96.862571
 51
-85.406388
  6
CONTINUOUS
  0
ARC
  8
WHITE
 10
13.014616
 20
8.144811
 30
0.000000
 40
1.596870
 50
-84.301809
 51
-66.822715
  6
CONTINUOUS
  0
ARC
  8
WHITE
 10
13.589239
 20
6.814395
 30
0.000000
 40
0.147744
 50
-68.616632
 51
-43.133054
  6
CONTINUOUS
  0
ARC
  8
WHITE
 10
13.649613
 20
6.745947
 30
0.000000
 40
0.057545
 50
-34.463322
 51
39.806189
  6
CONTINUOUS
  0
ARC
  8
WHITE
 10
13.318093
 20
6.344183
 30
0.000000
 40
0.577533
 50
49.415292
 51
88.364981
  6
CONTINUOUS
  0
ARC
  8
WHITE
 10
12.802854
 20
-1.329468
 30
0.000000
 40
8.268063
 50
86.312771
 51
94.687868
  6
CONTINUOUS
  0
ARC
  8
WHITE
 10
12.130112
 20
6.850510
 30
0.000000
 40
0.060500
 50
92.829753
 51
161.849999
  6
CONTINUOUS
  0
LINE
  8
WHITE
 10
12.072623
 20
6.869356
 30
0.000000
 11
12.055636
 21
6.817538
 31
0.000000
  6
CONTINUOUS
  0
ARC
  8
WHITE
 10
12.084381
 20
6.808115
 30
0.000000
 40
0.030250
 50
161.850002
 51
269.991128
  6
CONTINUOUS
  0
LINE
  8
WHITE
 10
12.084376
 20
6.777865
 30
0.000000
 11
12.817524
 21
6.777751
 31
0.000000
  6
CONTINUOUS
  0
LINE
  8
WHITE
 10
12.817524
 20
6.777751
 30
0.000000
 11
12.817524
 21
6.717251
 31
0.000000
  6
CONTINUOUS
  0
LINE
  8
WHITE
 10
12.817524
 20
6.717251
 30
0.000000
 11
12.083649
 21
6.717365
 31
0.000000
  6
CONTINUOUS
  0
LINE
  8
WHITE
 10
13.677283
 20
6.300707
 30
0.000000
 11
12.943405
 21
6.300821
 31
0.000000
  6
CONTINUOUS
  0
LINE
  8
WHITE
 10
12.943405
 20
6.300821
 30
0.000000
 11
12.943405
 21
6.240321
 31
0.000000
  6
CONTINUOUS
  0
LINE
  8
WHITE
 10
12.943405
 20
6.240321
 30
0.000000
 11
13.676553
 21
6.240207
 31
0.000000
  6
CONTINUOUS
  0
ARC
  8
WHITE
 10
13.676549
 20
6.209957
 30
0.000000
 40
0.030250
 50
-18.149999
 51
89.991126
  6
CONTINUOUS
  0
LINE
  8
WHITE
 10
13.705294
 20
6.200534
 30
0.000000
 11
13.688307
 21
6.148716
 31
0.000000
  6
CONTINUOUS
  0
ARC
  8
WHITE
 10
13.630817
 20
6.167562
 30
0.000000
 40
0.060500
 50
-87.170246
 51
-18.150000
  6
CONTINUOUS
  0
ARC
  8
WHITE
 10
12.958076
 20
14.347539
 30
0.000000
 40
8.268063
 50
-93.687229
 51
-85.312132
  6
CONTINUOUS
  0
ARC
  8
WHITE
 10
12.442836
 20
6.673889
 30
0.000000
 40
0.577533
 50
-130.584708
 51
-91.635019
  6
CONTINUOUS
  0
ARC
  8
WHITE
 10
12.111317
 20
6.272125
 30
0.000000
 40
0.057545
 50
145.536677
 51
219.806191
  6
CONTINUOUS
  0
ARC
  8
WHITE
 10
12.171690
 20
6.203677
 30
0.000000
 40
0.147744
 50
111.383369
 51
136.866946
  6
CONTINUOUS
  0
ARC
  8
WHITE
 10
12.746314
 20
4.873261
 30
0.000000
 40
1.596870
 50
95.698191
 51
113.177285
  6
CONTINUOUS
  0
ARC
  8
WHITE
 10
12.982145
 20
1.553687
 30
0.000000
 40
4.924371
 50
83.137429
 51
94.593612
  6
CONTINUOUS
  0
ARC
  8
WHITE
 10
13.549337
 20
6.273667
 30
0.000000
 40
0.170437
 50
24.007823
 51
82.850383
  6
CONTINUOUS
  0
ARC
  8
WHITE
 10
13.677285
 20
6.330957
 30
0.000000
 40
0.030250
 50
-90.002858
 51
23.483541
  6
CONTINUOUS
  0
LINE
  8
WHITE
 10
8.319243
 20
4.953913
 30
0.000000
 11
8.319243
 21
5.544247
 31
0.000000
  6
CONTINUOUS
  0
ARC
  8
WHITE
 10
8.299077
 20
5.544247
 30
0.000000
 40
0.020167
 50
0.000000
 51
90.000000
  6
CONTINUOUS
  0
LINE
  8
WHITE
 10
8.299077
 20
5.564413
 30
0.000000
 11
8.037368
 21
5.564413
 31
0.000000
  6
CONTINUOUS
  0
ARC
  8
WHITE
 10
8.037368
 20
5.544247
 30
0.000000
 40
0.020167
 50
90.000000
 51
180.000000
  6
CONTINUOUS
  0
LINE
  8
WHITE
 10
8.017202
 20
5.544247
 30
0.000000
 11
8.017202
 21
4.974080
 31
0.000000
  6
CONTINUOUS
  0
ARC
  8
WHITE
 10
8.037368
 20
4.974080
 30
0.000000
 40
0.020167
 50
180.000000
 51
270.000000
  6
CONTINUOUS
  0
LINE
  8
WHITE
 10
8.037368
 20
4.953913
 30
0.000000
 11
8.319243
 21
4.953913
 31
0.000000
  6
CONTINUOUS
  0
LINE
  8
WHITE
 10
14.304057
 20
9.111365
 30
0.000000
 11
14.304815
 21
9.138658
 31
0.000000
  6
CONTINUOUS
  0
ARC
  8
WHITE
 10
13.961379
 20
10.880224
 30
0.000000
 40
1.775106
 50
-78.844447
 51
-76.653193
  6
CONTINUOUS
  0
LINE
  8
WHITE
 10
14.371153
 20
9.153063
 30
0.000000
 11
14.378356
 21
9.157612
 31
0.000000
  6
CONTINUOUS
  0
ARC
  8
WHITE
 10
14.254471
 20
9.188493
 30
0.000000
 40
0.127675
 50
-13.997048
 51
0.091133
  6
CONTINUOUS
  0
LINE
  8
WHITE
 10
14.382146
 20
9.188696
 30
0.000000
 11
14.382146
 21
9.190970
 31
0.000000
  6
CONTINUOUS
  0
LINE
  8
WHITE
 10
14.382146
 20
9.190970
 30
0.000000
 11
14.380630
 21
9.278537
 31
0.000000
  6
CONTINUOUS
  0
LINE
  8
WHITE
 10
14.380630
 20
9.278537
 30
0.000000
 11
14.381009
 21
9.315307
 31
0.000000
  6
CONTINUOUS
  0
LINE
  8
WHITE
 10
14.381009
 20
9.315307
 30
0.000000
 11
14.379493
 21
9.369515
 31
0.000000
  6
CONTINUOUS
  0
LINE
  8
WHITE
 10
14.379493
 20
9.369515
 30
0.000000
 11
14.380251
 21
9.433958
 31
0.000000
  6
CONTINUOUS
  0
LINE
  8
WHITE
 10
14.380251
 20
9.433958
 30
0.000000
 11
14.375702
 21
9.560948
 31
0.000000
  6
CONTINUOUS
  0
LINE
  8
WHITE
 10
14.375702
 20
9.560948
 30
0.000000
 11
14.363667
 21
9.566255
 31
0.000000
  6
CONTINUOUS
  0
LINE
  8
WHITE
 10
14.363667
 20
9.566255
 30
0.000000
 11
14.338932
 21
9.571562
 31
0.000000
  6
CONTINUOUS
  0
LINE
  8
WHITE
 10
14.338932
 20
9.571562
 30
0.000000
 11
14.316946
 21
9.577627
 31
0.000000
  6
CONTINUOUS
  0
LINE
  8
WHITE
 10
14.316946
 20
9.577627
 30
0.000000
 11
14.307848
 21
9.579901
 31
0.000000
  6
CONTINUOUS
  0
LINE
  8
WHITE
 10
14.307848
 20
9.579901
 30
0.000000
 11
14.307848
 21
9.606437
 31
0.000000
  6
CONTINUOUS
  0
LINE
  8
WHITE
 10
14.307848
 20
9.606437
 30
0.000000
 11
14.357886
 21
9.604541
 31
0.000000
  6
CONTINUOUS
  0
ARC
  8
WHITE
 10
14.474220
 20
11.056277
 30
0.000000
 40
1.456390
 50
-94.581607
 51
-89.312357
  6
CONTINUOUS
  0
ARC
  8
WHITE
 10
14.489721
 20
11.562286
 30
0.000000
 40
1.962294
 50
-89.942246
 51
-87.240497
  6
CONTINUOUS
  0
LINE
  8
WHITE
 10
14.584193
 20
9.602267
 30
0.000000
 11
14.591396
 21
9.602646
 31
0.000000
  6
CONTINUOUS
  0
LINE
  8
WHITE
 10
14.591396
 20
9.602646
 30
0.000000
 11
14.609971
 21
9.602267
 31
0.000000
  6
CONTINUOUS
  0
LINE
  8
WHITE
 10
14.609971
 20
9.602267
 30
0.000000
 11
14.617552
 21
9.602646
 31
0.000000
  6
CONTINUOUS
  0
LINE
  8
WHITE
 10
14.617552
 20
9.602646
 30
0.000000
 11
14.633473
 21
9.602646
 31
0.000000
  6
CONTINUOUS
  0
LINE
  8
WHITE
 10
14.633473
 20
9.602646
 30
0.000000
 11
14.701328
 21
9.604920
 31
0.000000
  6
CONTINUOUS
  0
LINE
  8
WHITE
 10
14.701328
 20
9.604920
 30
0.000000
 11
14.727105
 21
9.606816
 31
0.000000
  6
CONTINUOUS
  0
LINE
  8
WHITE
 10
14.727105
 20
9.606816
 30
0.000000
 11
14.730137
 21
9.584071
 31
0.000000
  6
CONTINUOUS
  0
LINE
  8
WHITE
 10
14.730137
 20
9.584071
 30
0.000000
 11
14.735823
 21
9.512805
 31
0.000000
  6
CONTINUOUS
  0
ARC
  8
WHITE
 10
14.683972
 20
9.510701
 30
0.000000
 40
0.051894
 50
-17.186325
 51
2.323509
  6
CONTINUOUS
  0
LINE
  8
WHITE
 10
14.733549
 20
9.495368
 30
0.000000
 11
14.713458
 21
9.493472
 31
0.000000
  6
CONTINUOUS
  0
ARC
  8
WHITE
 10
14.712457
 20
9.513184
 30
0.000000
 40
0.019737
 50
-124.324330
 51
-87.092946
  6
CONTINUOUS
  0
LINE
  8
WHITE
 10
14.701328
 20
9.496884
 30
0.000000
 11
14.692609
 21
9.513942
 31
0.000000
  6
CONTINUOUS
  0
ARC
  8
WHITE
 10
14.467707
 20
9.423962
 30
0.000000
 40
0.242235
 50
21.805749
 51
29.817601
  6
CONTINUOUS
  0
LINE
  8
WHITE
 10
14.677872
 20
9.544411
 30
0.000000
 11
14.668375
 21
9.557000
 31
0.000000
  6
CONTINUOUS
  0
ARC
  8
WHITE
 10
14.647437
 20
9.529391
 30
0.000000
 40
0.034650
 50
52.823857
 51
88.960609
  6
CONTINUOUS
  0
ARC
  8
WHITE
 10
14.608399
 20
9.216816
 30
0.000000
 40
0.349478
 50
83.482803
 51
90.861064
  6
CONTINUOUS
  0
LINE
  8
WHITE
 10
14.603147
 20
9.566255
 30
0.000000
 11
14.550835
 21
9.564738
 31
0.000000
  6
CONTINUOUS
  0
ARC
  8
WHITE
 10
14.548869
 20
9.223962
 30
0.000000
 40
0.340782
 50
89.669491
 51
98.560327
  6
CONTINUOUS
  0
LINE
  8
WHITE
 10
14.498143
 20
9.560948
 30
0.000000
 11
14.486013
 21
9.557157
 31
0.000000
  6
CONTINUOUS
  0
ARC
  8
WHITE
 10
14.526147
 20
9.536588
 30
0.000000
 40
0.045098
 50
152.864908
 51
182.283207
  6
CONTINUOUS
  0
LINE
  8
WHITE
 10
14.481085
 20
9.534792
 30
0.000000
 11
14.482222
 21
9.489682
 31
0.000000
  6
CONTINUOUS
  0
LINE
  8
WHITE
 10
14.482222
 20
9.489682
 30
0.000000
 11
14.481085
 21
9.438127
 31
0.000000
  6
CONTINUOUS
  0
ARC
  8
WHITE
 10
14.729365
 20
9.427372
 30
0.000000
 40
0.248512
 50
177.519475
 51
188.741015
  6
CONTINUOUS
  0
LINE
  8
WHITE
 10
14.483739
 20
9.389606
 30
0.000000
 11
14.489425
 21
9.386952
 31
0.000000
  6
CONTINUOUS
  0
LINE
  8
WHITE
 10
14.489425
 20
9.386952
 30
0.000000
 11
14.516339
 21
9.386573
 31
0.000000
  6
CONTINUOUS
  0
LINE
  8
WHITE
 10
14.516339
 20
9.386573
 30
0.000000
 11
14.561828
 21
9.386573
 31
0.000000
  6
CONTINUOUS
  0
ARC
  8
WHITE
 10
14.559152
 20
9.743466
 30
0.000000
 40
0.356903
 50
-89.570371
 51
-82.059796
  6
CONTINUOUS
  0
ARC
  8
WHITE
 10
14.604938
 20
9.466445
 30
0.000000
 40
0.076541
 50
-87.367225
 51
-66.882772
  6
CONTINUOUS
  0
ARC
  8
WHITE
 10
14.616244
 20
9.425265
 30
0.000000
 40
0.034712
 50
-57.313929
 51
-23.538230
  6
CONTINUOUS
  0
ARC
  8
WHITE
 10
14.479251
 20
9.456330
 30
0.000000
 40
0.174693
 50
-14.902810
 51
0.121991
  6
CONTINUOUS
  0
LINE
  8
WHITE
 10
14.653943
 20
9.456702
 30
0.000000
 11
14.664178
 21
9.457081
 31
0.000000
  6
CONTINUOUS
  0
LINE
  8
WHITE
 10
14.664178
 20
9.457081
 30
0.000000
 11
14.671381
 21
9.457460
 31
0.000000
  6
CONTINUOUS
  0
LINE
  8
WHITE
 10
14.671381
 20
9.457460
 30
0.000000
 11
14.688060
 21
9.456323
 31
0.000000
  6
CONTINUOUS
  0
LINE
  8
WHITE
 10
14.688060
 20
9.456323
 30
0.000000
 11
14.685786
 21
9.395671
 31
0.000000
  6
CONTINUOUS
  0
LINE
  8
WHITE
 10
14.685786
 20
9.395671
 30
0.000000
 11
14.684269
 21
9.362312
 31
0.000000
  6
CONTINUOUS
  0
LINE
  8
WHITE
 10
14.684269
 20
9.362312
 30
0.000000
 11
14.685027
 21
9.353973
 31
0.000000
  6
CONTINUOUS
  0
LINE
  8
WHITE
 10
14.685027
 20
9.353973
 30
0.000000
 11
14.685406
 21
9.297870
 31
0.000000
  6
CONTINUOUS
  0
LINE
  8
WHITE
 10
14.685406
 20
9.297870
 30
0.000000
 11
14.685027
 21
9.286497
 31
0.000000
  6
CONTINUOUS
  0
LINE
  8
WHITE
 10
14.685027
 20
9.286497
 30
0.000000
 11
14.673655
 21
9.284981
 31
0.000000
  6
CONTINUOUS
  0
LINE
  8
WHITE
 10
14.673655
 20
9.284981
 30
0.000000
 11
14.658871
 21
9.287256
 31
0.000000
  6
CONTINUOUS
  0
LINE
  8
WHITE
 10
14.658871
 20
9.287256
 30
0.000000
 11
14.651290
 21
9.308105
 31
0.000000
  6
CONTINUOUS
  0
ARC
  8
WHITE
 10
14.532700
 20
9.276159
 30
0.000000
 40
0.122818
 50
15.076430
 51
26.937149
  6
CONTINUOUS
  0
ARC
  8
WHITE
 10
14.619241
 20
9.321503
 30
0.000000
 40
0.025154
 50
24.156092
 51
58.626970
  6
CONTINUOUS
  0
ARC
  8
WHITE
 10
14.592093
 20
9.228186
 30
0.000000
 40
0.121643
 50
70.681001
 51
88.810669
  6
CONTINUOUS
  0
ARC
  8
WHITE
 10
14.526112
 20
8.334233
 30
0.000000
 40
1.017878
 50
86.140919
 51
90.464769
  6
CONTINUOUS
  0
ARC
  8
WHITE
 10
14.520501
 20
9.117992
 30
0.000000
 40
0.234100
 50
90.647425
 51
98.659278
  6
CONTINUOUS
  0
ARC
  8
WHITE
 10
14.708454
 20
9.314836
 30
0.000000
 40
0.225863
 50
171.191221
 51
180.553595
  6
CONTINUOUS
  0
LINE
  8
WHITE
 10
14.482601
 20
9.312654
 30
0.000000
 11
14.484497
 21
9.198931
 31
0.000000
  6
CONTINUOUS
  0
ARC
  8
WHITE
 10
14.647685
 20
9.198340
 30
0.000000
 40
0.163190
 50
179.792328
 51
188.743458
  6
CONTINUOUS
  0
ARC
  8
WHITE
 10
14.514133
 20
9.176288
 30
0.000000
 40
0.027878
 50
-174.328837
 51
-144.918293
  6
CONTINUOUS
  0
LINE
  8
WHITE
 10
14.491320
 20
9.160265
 30
0.000000
 11
14.500513
 21
9.155716
 31
0.000000
  6
CONTINUOUS
  0
LINE
  8
WHITE
 10
14.500513
 20
9.155716
 30
0.000000
 11
14.519751
 21
9.151168
 31
0.000000
  6
CONTINUOUS
  0
LINE
  8
WHITE
 10
14.519751
 20
9.151168
 30
0.000000
 11
14.527332
 21
9.150409
 31
0.000000
  6
CONTINUOUS
  0
ARC
  8
WHITE
 10
14.519763
 20
9.010958
 30
0.000000
 40
0.139657
 50
74.417373
 51
86.893283
  6
CONTINUOUS
  0
LINE
  8
WHITE
 10
14.557279
 20
9.145481
 30
0.000000
 11
14.567514
 21
9.143207
 31
0.000000
  6
CONTINUOUS
  0
LINE
  8
WHITE
 10
14.567514
 20
9.143207
 30
0.000000
 11
14.569030
 21
9.128044
 31
0.000000
  6
CONTINUOUS
  0
LINE
  8
WHITE
 10
14.569030
 20
9.128044
 30
0.000000
 11
14.567893
 21
9.113639
 31
0.000000
  6
CONTINUOUS
  0
LINE
  8
WHITE
 10
14.567893
 20
9.113639
 30
0.000000
 11
14.560691
 21
9.114018
 31
0.000000
  6
CONTINUOUS
  0
LINE
  8
WHITE
 10
14.560691
 20
9.114018
 30
0.000000
 11
14.548939
 21
9.113639
 31
0.000000
  6
CONTINUOUS
  0
LINE
  8
WHITE
 10
14.548939
 20
9.113639
 30
0.000000
 11
14.495111
 21
9.116293
 31
0.000000
  6
CONTINUOUS
  0
ARC
  8
WHITE
 10
14.432548
 20
4.612627
 30
0.000000
 40
4.504100
 50
89.204124
 51
90.284310
  6
CONTINUOUS
  0
ARC
  8
WHITE
 10
14.409329
 20
8.782464
 30
0.000000
 40
0.334209
 50
89.851045
 51
96.689931
  6
CONTINUOUS
  0
LINE
  8
WHITE
 10
14.370395
 20
9.114397
 30
0.000000
 11
14.337795
 21
9.110986
 31
0.000000
  6
CONTINUOUS
  0
LINE
  8
WHITE
 10
14.337795
 20
9.110986
 30
0.000000
 11
14.304057
 21
9.111365
 31
0.000000
  6
CONTINUOUS
  0
ARC
  8
WHITE
 10
15.215281
 20
9.277980
 30
0.000000
 40
0.181500
 50
-52.240466
 51
-31.652686
  6
CONTINUOUS
  0
ARC
  8
WHITE
 10
15.232997
 20
9.271978
 30
0.000000
 40
0.166228
 50
-76.958034
 51
-55.803589
  6
CONTINUOUS
  0
ARC
  8
WHITE
 10
15.202517
 20
9.433785
 30
0.000000
 40
0.330809
 50
-90.993890
 51
-78.139348
  6
CONTINUOUS
  0
ARC
  8
WHITE
 10
15.191683
 20
9.246562
 30
0.000000
 40
0.143628
 50
-124.124879
 51
-87.966715
  6
CONTINUOUS
  0
ARC
  8
WHITE
 10
15.134953
 20
9.165018
 30
0.000000
 40
0.044315
 50
-179.736253
 51
-122.552425
  6
CONTINUOUS
  0
ARC
  8
WHITE
 10
15.131102
 20
9.164157
 30
0.000000
 40
0.040469
 50
88.788860
 51
179.069492
  6
CONTINUOUS
  0
ARC
  8
WHITE
 10
15.130825
 20
9.154157
 30
0.000000
 40
0.050473
 50
55.984333
 51
88.715418
  6
CONTINUOUS
  0
ARC
  8
WHITE
 10
15.094439
 20
9.099814
 30
0.000000
 40
0.115872
 50
37.355892
 51
56.103192
  6
CONTINUOUS
  0
ARC
  8
WHITE
 10
15.273351
 20
9.229687
 30
0.000000
 40
0.105279
 50
-145.543078
 51
-126.193025
  6
CONTINUOUS
  0
ARC
  8
WHITE
 10
15.239397
 20
9.196315
 30
0.000000
 40
0.058803
 50
-118.672343
 51
-89.049713
  6
CONTINUOUS
  0
ARC
  8
WHITE
 10
15.238158
 20
9.219862
 30
0.000000
 40
0.082371
 50
-88.459739
 51
-39.842479
  6
CONTINUOUS
  0
ARC
  8
WHITE
 10
15.204527
 20
9.246192
 30
0.000000
 40
0.125069
 50
-39.232756
 51
-2.722859
  6
CONTINUOUS
  0
ARC
  8
WHITE
 10
15.233429
 20
9.241792
 30
0.000000
 40
0.096039
 50
-0.919796
 51
44.139000
  6
CONTINUOUS
  0
ARC
  8
WHITE
 10
15.238296
 20
9.251307
 30
0.000000
 40
0.085988
 50
41.846631
 51
90.384383
  6
CONTINUOUS
  0
ARC
  8
WHITE
 10
15.235691
 20
9.224948
 30
0.000000
 40
0.112364
 50
88.965958
 51
106.391970
  6
CONTINUOUS
  0
ARC
  8
WHITE
 10
15.259203
 20
9.206041
 30
0.000000
 40
0.138214
 50
113.549355
 51
126.460487
  6
CONTINUOUS
  0
LINE
  8
WHITE
 10
15.177067
 20
9.317202
 30
0.000000
 11
15.160767
 21
9.306588
 31
0.000000
  6
CONTINUOUS
  0
LINE
  8
WHITE
 10
15.160767
 20
9.306588
 30
0.000000
 11
15.152048
 21
9.304693
 31
0.000000
  6
CONTINUOUS
  0
LINE
  8
WHITE
 10
15.152048
 20
9.304693
 30
0.000000
 11
15.142571
 21
9.307726
 31
0.000000
  6
CONTINUOUS
  0
LINE
  8
WHITE
 10
15.142571
 20
9.307726
 30
0.000000
 11
15.139917
 21
9.314928
 31
0.000000
  6
CONTINUOUS
  0
LINE
  8
WHITE
 10
15.139917
 20
9.314928
 30
0.000000
 11
15.144466
 21
9.435095
 31
0.000000
  6
CONTINUOUS
  0
LINE
  8
WHITE
 10
15.144466
 20
9.435095
 30
0.000000
 11
15.145935
 21
9.460066
 31
0.000000
  6
CONTINUOUS
  0
ARC
  8
WHITE
 10
17.234534
 20
9.417914
 30
0.000000
 40
2.089024
 50
177.271618
 51
178.843804
  6
CONTINUOUS
  0
LINE
  8
WHITE
 10
15.147878
 20
9.517354
 30
0.000000
 11
15.149394
 21
9.544268
 31
0.000000
  6
CONTINUOUS
  0
LINE
  8
WHITE
 10
15.149394
 20
9.544268
 30
0.000000
 11
15.150153
 21
9.559052
 31
0.000000
  6
CONTINUOUS
  0
LINE
  8
WHITE
 10
15.150153
 20
9.559052
 30
0.000000
 11
15.150532
 21
9.566255
 31
0.000000
  6
CONTINUOUS
  0
LINE
  8
WHITE
 10
15.150532
 20
9.566255
 30
0.000000
 11
15.150153
 21
9.580281
 31
0.000000
  6
CONTINUOUS
  0
ARC
  8
WHITE
 10
15.163929
 20
9.579058
 30
0.000000
 40
0.013830
 50
96.834823
 51
174.927985
  6
CONTINUOUS
  0
ARC
  8
WHITE
 10
15.206957
 20
9.134612
 30
0.000000
 40
0.460351
 50
88.010924
 51
95.568898
  6
CONTINUOUS
  0
LINE
  8
WHITE
 10
15.222935
 20
9.594685
 30
0.000000
 11
15.310122
 21
9.593548
 31
0.000000
  6
CONTINUOUS
  0
ARC
  8
WHITE
 10
15.315520
 20
9.669838
 30
0.000000
 40
0.076480
 50
-94.047120
 51
-73.807967
  6
CONTINUOUS
  0
ARC
  8
WHITE
 10
15.323905
 20
9.617644
 30
0.000000
 40
0.024883
 50
-58.659453
 51
-20.105385
  6
CONTINUOUS
  0
LINE
  8
WHITE
 10
15.347272
 20
9.609090
 30
0.000000
 11
15.361297
 21
9.609469
 31
0.000000
  6
CONTINUOUS
  0
LINE
  8
WHITE
 10
15.361297
 20
9.609469
 30
0.000000
 11
15.374944
 21
9.609090
 31
0.000000
  6
CONTINUOUS
  0
ARC
  8
WHITE
 10
14.100753
 20
9.868389
 30
0.000000
 40
1.300307
 50
-14.222828
 51
-11.502674
  6
CONTINUOUS
  0
ARC
  8
WHITE
 10
15.227525
 20
9.577834
 30
0.000000
 40
0.136770
 50
-24.661629
 51
-12.208269
  6
CONTINUOUS
  0
ARC
  8
WHITE
 10
15.337822
 20
9.526905
 30
0.000000
 40
0.015285
 50
-71.299817
 51
-23.679287
  6
CONTINUOUS
  0
LINE
  8
WHITE
 10
15.342723
 20
9.512426
 30
0.000000
 11
15.294580
 21
9.510531
 31
0.000000
  6
CONTINUOUS
  0
LINE
  8
WHITE
 10
15.294580
 20
9.510531
 30
0.000000
 11
15.284345
 21
9.510531
 31
0.000000
  6
CONTINUOUS
  0
LINE
  8
WHITE
 10
15.284345
 20
9.510531
 30
0.000000
 11
15.260084
 21
9.510152
 31
0.000000
  6
CONTINUOUS
  0
LINE
  8
WHITE
 10
15.260084
 20
9.510152
 30
0.000000
 11
15.241889
 21
9.510910
 31
0.000000
  6
CONTINUOUS
  0
LINE
  8
WHITE
 10
15.241889
 20
9.510910
 30
0.000000
 11
15.195642
 21
9.512047
 31
0.000000
  6
CONTINUOUS
  0
LINE
  8
WHITE
 10
15.195642
 20
9.512047
 30
0.000000
 11
15.183132
 21
9.511668
 31
0.000000
  6
CONTINUOUS
  0
LINE
  8
WHITE
 10
15.183132
 20
9.511668
 30
0.000000
 11
15.181616
 21
9.496505
 31
0.000000
  6
CONTINUOUS
  0
LINE
  8
WHITE
 10
15.181616
 20
9.496505
 30
0.000000
 11
15.179720
 21
9.447225
 31
0.000000
  6
CONTINUOUS
  0
LINE
  8
WHITE
 10
15.179720
 20
9.447225
 30
0.000000
 11
15.178204
 21
9.411592
 31
0.000000
  6
CONTINUOUS
  0
ARC
  8
WHITE
 10
15.248217
 20
9.265694
 30
0.000000
 40
0.161827
 50
89.422217
 51
115.635399
  6
CONTINUOUS
  0
ARC
  8
WHITE
 10
15.249234
 20
9.278636
 30
0.000000
 40
0.148879
 50
45.837221
 51
89.763192
  6
CONTINUOUS
  0
ARC
  8
WHITE
 10
15.216077
 20
9.254596
 30
0.000000
 40
0.189355
 50
28.474618
 51
43.707382
  6
CONTINUOUS
  0
ARC
  8
WHITE
 10
15.309743
 20
9.298533
 30
0.000000
 40
0.086284
 50
12.754058
 51
32.485671
  6
CONTINUOUS
  0
LINE
  8
WHITE
 10
15.393898
 20
9.317582
 30
0.000000
 11
15.398447
 21
9.282328
 31
0.000000
  6
CONTINUOUS
  0
ARC
  8
WHITE
 10
15.173580
 20
9.281065
 30
0.000000
 40
0.224870
 50
-10.153701
 51
0.321631
  6
CONTINUOUS
  0
ARC
  8
WHITE
 10
15.253251
 20
9.267396
 30
0.000000
 40
0.144039
 50
-35.998947
 51
-10.388463
  6
CONTINUOUS
  0
LINE
  8
WHITE
 10
14.889728
 20
9.393017
 30
0.000000
 11
14.888212
 21
9.422206
 31
0.000000
  6
CONTINUOUS
  0
LINE
  8
WHITE
 10
14.888212
 20
9.422206
 30
0.000000
 11
14.888591
 21
9.433578
 31
0.000000
  6
CONTINUOUS
  0
LINE
  8
WHITE
 10
14.888591
 20
9.433578
 30
0.000000
 11
14.889349
 21
9.443055
 31
0.000000
  6
CONTINUOUS
  0
LINE
  8
WHITE
 10
14.889349
 20
9.443055
 30
0.000000
 11
14.888212
 21
9.468832
 31
0.000000
  6
CONTINUOUS
  0
LINE
  8
WHITE
 10
14.888212
 20
9.468832
 30
0.000000
 11
14.889349
 21
9.480584
 31
0.000000
  6
CONTINUOUS
  0
LINE
  8
WHITE
 10
14.889349
 20
9.480584
 30
0.000000
 11
14.889728
 21
9.501812
 31
0.000000
  6
CONTINUOUS
  0
LINE
  8
WHITE
 10
14.889728
 20
9.501812
 30
0.000000
 11
14.889349
 21
9.533275
 31
0.000000
  6
CONTINUOUS
  0
ARC
  8
WHITE
 10
14.504398
 20
10.054579
 30
0.000000
 40
0.648031
 50
-60.048477
 51
-53.556392
  6
CONTINUOUS
  0
LINE
  8
WHITE
 10
14.827939
 20
9.493093
 30
0.000000
 11
14.793822
 21
9.477551
 31
0.000000
  6
CONTINUOUS
  0
ARC
  8
WHITE
 10
14.919853
 20
9.567390
 30
0.000000
 40
0.154773
 50
-156.164466
 51
-144.517315
  6
CONTINUOUS
  0
ARC
  8
WHITE
 10
14.506697
 20
10.051532
 30
0.000000
 40
0.610430
 50
-63.582808
 51
-57.701685
  6
CONTINUOUS
  0
ARC
  8
WHITE
 10
14.523096
 20
9.971258
 30
0.000000
 40
0.534602
 50
-54.588735
 51
-47.477771
  6
CONTINUOUS
  0
ARC
  8
WHITE
 10
14.649795
 20
9.815671
 30
0.000000
 40
0.334507
 50
-45.459936
 51
-37.727177
  6
CONTINUOUS
  0
LINE
  8
WHITE
 10
14.914368
 20
9.610986
 30
0.000000
 11
14.940145
 21
9.611744
 31
0.000000
  6
CONTINUOUS
  0
LINE
  8
WHITE
 10
14.940145
 20
9.611744
 30
0.000000
 11
14.952275
 21
9.611365
 31
0.000000
  6
CONTINUOUS
  0
LINE
  8
WHITE
 10
14.952275
 20
9.611365
 30
0.000000
 11
14.976157
 21
9.610986
 31
0.000000
  6
CONTINUOUS
  0
LINE
  8
WHITE
 10
14.976157
 20
9.610986
 30
0.000000
 11
14.977673
 21
9.593169
 31
0.000000
  6
CONTINUOUS
  0
LINE
  8
WHITE
 10
14.977673
 20
9.593169
 30
0.000000
 11
14.977294
 21
9.581418
 31
0.000000
  6
CONTINUOUS
  0
LINE
  8
WHITE
 10
14.977294
 20
9.581418
 30
0.000000
 11
14.976536
 21
9.540857
 31
0.000000
  6
CONTINUOUS
  0
LINE
  8
WHITE
 10
14.976536
 20
9.540857
 30
0.000000
 11
14.975778
 21
9.483616
 31
0.000000
  6
CONTINUOUS
  0
LINE
  8
WHITE
 10
14.975778
 20
9.483616
 30
0.000000
 11
14.976157
 21
9.447604
 31
0.000000
  6
CONTINUOUS
  0
LINE
  8
WHITE
 10
14.976157
 20
9.447604
 30
0.000000
 11
14.973504
 21
9.191729
 31
0.000000
  6
CONTINUOUS
  0
LINE
  8
WHITE
 10
14.973504
 20
9.191729
 30
0.000000
 11
14.973504
 21
9.170121
 31
0.000000
  6
CONTINUOUS
  0
ARC
  8
WHITE
 10
14.994822
 20
9.168048
 30
0.000000
 40
0.021419
 50
174.445936
 51
221.622639
  6
CONTINUOUS
  0
LINE
  8
WHITE
 10
14.978811
 20
9.153821
 30
0.000000
 11
14.988572
 21
9.149272
 31
0.000000
  6
CONTINUOUS
  0
LINE
  8
WHITE
 10
14.988572
 20
9.149272
 30
0.000000
 11
15.007241
 21
9.145481
 31
0.000000
  6
CONTINUOUS
  0
LINE
  8
WHITE
 10
15.007241
 20
9.145481
 30
0.000000
 11
15.043632
 21
9.139416
 31
0.000000
  6
CONTINUOUS
  0
LINE
  8
WHITE
 10
15.043632
 20
9.139416
 30
0.000000
 11
15.044391
 21
9.132214
 31
0.000000
  6
CONTINUOUS
  0
LINE
  8
WHITE
 10
15.044391
 20
9.132214
 30
0.000000
 11
15.043632
 21
9.114018
 31
0.000000
  6
CONTINUOUS
  0
LINE
  8
WHITE
 10
15.043632
 20
9.114018
 30
0.000000
 11
15.027332
 21
9.114018
 31
0.000000
  6
CONTINUOUS
  0
ARC
  8
WHITE
 10
15.037524
 20
10.217264
 30
0.000000
 40
1.103293
 50
-93.050530
 51
-90.529292
  6
CONTINUOUS
  0
LINE
  8
WHITE
 10
14.978811
 20
9.115535
 30
0.000000
 11
14.952275
 21
9.116672
 31
0.000000
  6
CONTINUOUS
  0
LINE
  8
WHITE
 10
14.952275
 20
9.116672
 30
0.000000
 11
14.885179
 21
9.114776
 31
0.000000
  6
CONTINUOUS
  0
LINE
  8
WHITE
 10
14.885179
 20
9.114776
 30
0.000000
 11
14.874565
 21
9.114397
 31
0.000000
  6
CONTINUOUS
  0
LINE
  8
WHITE
 10
14.874565
 20
9.114397
 30
0.000000
 11
14.867742
 21
9.114397
 31
0.000000
  6
CONTINUOUS
  0
LINE
  8
WHITE
 10
14.867742
 20
9.114397
 30
0.000000
 11
14.856748
 21
9.115155
 31
0.000000
  6
CONTINUOUS
  0
LINE
  8
WHITE
 10
14.856748
 20
9.115155
 30
0.000000
 11
14.846513
 21
9.114397
 31
0.000000
  6
CONTINUOUS
  0
LINE
  8
WHITE
 10
14.846513
 20
9.114397
 30
0.000000
 11
14.827560
 21
9.115155
 31
0.000000
  6
CONTINUOUS
  0
LINE
  8
WHITE
 10
14.827560
 20
9.115155
 30
0.000000
 11
14.812018
 21
9.114018
 31
0.000000
  6
CONTINUOUS
  0
LINE
  8
WHITE
 10
14.812018
 20
9.114018
 30
0.000000
 11
14.811259
 21
9.126907
 31
0.000000
  6
CONTINUOUS
  0
LINE
  8
WHITE
 10
14.811259
 20
9.126907
 30
0.000000
 11
14.812018
 21
9.139416
 31
0.000000
  6
CONTINUOUS
  0
ARC
  8
WHITE
 10
14.962186
 20
8.583297
 30
0.000000
 40
0.576037
 50
101.507216
 51
105.111141
  6
CONTINUOUS
  0
LINE
  8
WHITE
 10
14.847272
 20
9.147756
 30
0.000000
 11
14.869590
 21
9.153395
 31
0.000000
  6
CONTINUOUS
  0
ARC
  8
WHITE
 10
14.865039
 20
9.177399
 30
0.000000
 40
0.024432
 50
-79.265165
 51
-39.337577
  6
CONTINUOUS
  0
ARC
  8
WHITE
 10
14.868352
 20
9.172973
 30
0.000000
 40
0.019110
 50
-35.366650
 51
1.679032
  6
CONTINUOUS
  0
LINE
  8
WHITE
 10
14.887453
 20
9.173533
 30
0.000000
 11
14.887074
 21
9.199310
 31
0.000000
  6
CONTINUOUS
  0
LINE
  8
WHITE
 10
14.887074
 20
9.199310
 30
0.000000
 11
14.888591
 21
9.227362
 31
0.000000
  6
CONTINUOUS
  0
LINE
  8
WHITE
 10
14.888591
 20
9.227362
 30
0.000000
 11
14.888212
 21
9.284981
 31
0.000000
  6
CONTINUOUS
  0
LINE
  8
WHITE
 10
14.888212
 20
9.284981
 30
0.000000
 11
14.887833
 21
9.299765
 31
0.000000
  6
CONTINUOUS
  0
LINE
  8
WHITE
 10
14.887833
 20
9.299765
 30
0.000000
 11
14.888591
 21
9.322509
 31
0.000000
  6
CONTINUOUS
  0
LINE
  8
WHITE
 10
14.888591
 20
9.322509
 30
0.000000
 11
14.889349
 21
9.340705
 31
0.000000
  6
CONTINUOUS
  0
LINE
  8
WHITE
 10
14.889349
 20
9.340705
 30
0.000000
 11
14.888212
 21
9.371410
 31
0.000000
  6
CONTINUOUS
  0
LINE
  8
WHITE
 10
14.888212
 20
9.371410
 30
0.000000
 11
14.889728
 21
9.393017
 31
0.000000
  6
CONTINUOUS
  0
ARC
  8
WHITE
 10
14.765515
 20
8.814774
 30
0.000000
 40
0.066416
 50
-149.254231
 51
-113.889908
  6
CONTINUOUS
  0
ARC
  8
WHITE
 10
14.837375
 20
8.862483
 30
0.000000
 40
0.152626
 50
-166.820192
 51
-147.652429
  6
CONTINUOUS
  0
ARC
  8
WHITE
 10
14.914639
 20
8.874280
 30
0.000000
 40
0.230626
 50
179.286305
 51
191.656513
  6
CONTINUOUS
  0
ARC
  8
WHITE
 10
14.851313
 20
8.880903
 30
0.000000
 40
0.167324
 50
170.071270
 51
181.284176
  6
CONTINUOUS
  0
ARC
  8
WHITE
 10
14.920826
 20
8.868777
 30
0.000000
 40
0.237887
 50
159.857871
 51
170.081268
  6
CONTINUOUS
  0
ARC
  8
WHITE
 10
14.799424
 20
8.910073
 30
0.000000
 40
0.109731
 50
138.606520
 51
158.273383
  6
CONTINUOUS
  0
ARC
  8
WHITE
 10
14.772426
 20
8.932231
 30
0.000000
 40
0.074836
 50
113.015147
 51
137.665068
  6
CONTINUOUS
  0
ARC
  8
WHITE
 10
14.764055
 20
8.946113
 30
0.000000
 40
0.058830
 50
87.822604
 51
110.797277
  6
CONTINUOUS
  0
ARC
  8
WHITE
 10
14.763165
 20
8.941326
 30
0.000000
 40
0.063651
 50
33.283458
 51
87.185924
  6
CONTINUOUS
  0
ARC
  8
WHITE
 10
14.700302
 20
8.893602
 30
0.000000
 40
0.142495
 50
17.668739
 51
35.454473
  6
CONTINUOUS
  0
ARC
  8
WHITE
 10
14.651595
 20
8.884128
 30
0.000000
 40
0.191867
 50
-1.007586
 51
15.949535
  6
CONTINUOUS
  0
ARC
  8
WHITE
 10
14.606360
 20
8.879251
 30
0.000000
 40
0.237077
 50
-14.163889
 51
0.363233
  6
CONTINUOUS
  0
ARC
  8
WHITE
 10
14.707906
 20
8.856382
 30
0.000000
 40
0.133048
 50
-40.341835
 51
-15.315612
  6
CONTINUOUS
  0
ARC
  8
WHITE
 10
14.759732
 20
8.818086
 30
0.000000
 40
0.068895
 50
-81.360255
 51
-43.970117
  6
CONTINUOUS
  0
ARC
  8
WHITE
 10
14.766185
 20
8.843395
 30
0.000000
 40
0.093503
 50
-107.147334
 51
-87.612181
  6
CONTINUOUS
  0
ARC
  8
WHITE
 10
14.762866
 20
8.790037
 30
0.000000
 40
0.023602
 50
-142.591665
 51
-92.731585
  6
CONTINUOUS
  0
ARC
  8
WHITE
 10
14.762487
 20
8.789849
 30
0.000000
 40
0.023398
 50
-91.825522
 51
-33.708869
  6
CONTINUOUS
  0
ARC
  8
WHITE
 10
14.743715
 20
8.803684
 30
0.000000
 40
0.046705
 50
-35.047770
 51
-15.877045
  6
CONTINUOUS
  0
ARC
  8
WHITE
 10
14.659526
 20
8.824304
 30
0.000000
 40
0.133361
 50
-14.502436
 51
-3.517453
  6
CONTINUOUS
  0
ARC
  8
WHITE
 10
14.116471
 20
8.879909
 30
0.000000
 40
0.679167
 50
-5.389179
 51
-1.239993
  6
CONTINUOUS
  0
LINE
  8
WHITE
 10
14.795479
 20
8.865212
 30
0.000000
 11
14.794910
 21
8.890231
 31
0.000000
  6
CONTINUOUS
  0
LINE
  8
WHITE
 10
14.794910
 20
8.890231
 30
0.000000
 11
14.794910
 21
8.916956
 31
0.000000
  6
CONTINUOUS
  0
ARC
  8
WHITE
 10
14.575173
 20
8.918143
 30
0.000000
 40
0.219741
 50
-0.309621
 51
8.918559
  6
CONTINUOUS
  0
ARC
  8
WHITE
 10
14.706918
 20
8.940394
 30
0.000000
 40
0.086153
 50
7.882516
 51
21.157069
  6
CONTINUOUS
  0
ARC
  8
WHITE
 10
14.763035
 20
8.962317
 30
0.000000
 40
0.025907
 50
20.734710
 51
90.764411
  6
CONTINUOUS
  0
ARC
  8
WHITE
 10
14.766018
 20
8.960729
 30
0.000000
 40
0.027694
 50
96.905033
 51
157.069458
  6
CONTINUOUS
  0
ARC
  8
WHITE
 10
14.818188
 20
8.938971
 30
0.000000
 40
0.084219
 50
157.265154
 51
175.768725
  6
CONTINUOUS
  0
ARC
  8
WHITE
 10
15.242826
 20
8.899341
 30
0.000000
 40
0.510689
 50
174.849686
 51
180.681862
  6
CONTINUOUS
  0
LINE
  8
WHITE
 10
14.732173
 20
8.893263
 30
0.000000
 11
14.732553
 21
8.879806
 31
0.000000
  6
CONTINUOUS
  0
LINE
  8
WHITE
 10
14.732553
 20
8.879806
 30
0.000000
 11
14.733121
 21
8.852134
 31
0.000000
  6
CONTINUOUS
  0
ARC
  8
WHITE
 10
15.288387
 20
8.845935
 30
0.000000
 40
0.555300
 50
179.360364
 51
184.250332
  6
CONTINUOUS
  0
ARC
  8
WHITE
 10
14.785355
 20
8.805271
 30
0.000000
 40
0.050743
 50
-179.443922
 51
-144.354431
  6
CONTINUOUS
  0
ARC
  8
WHITE
 10
14.832728
 20
8.825057
 30
0.000000
 40
0.148516
 50
-0.887827
 51
10.337500
  6
CONTINUOUS
  0
ARC
  8
WHITE
 10
14.939798
 20
8.846762
 30
0.000000
 40
0.039347
 50
7.220721
 51
47.108064
  6
CONTINUOUS
  0
ARC
  8
WHITE
 10
14.948129
 20
8.855744
 30
0.000000
 40
0.027096
 50
47.087487
 51
90.553360
  6
CONTINUOUS
  0
ARC
  8
WHITE
 10
14.950643
 20
8.824825
 30
0.000000
 40
0.058080
 50
92.739854
 51
109.372972
  6
CONTINUOUS
  0
LINE
  8
WHITE
 10
14.931377
 20
8.879617
 30
0.000000
 11
14.931188
 21
8.885871
 31
0.000000
  6
CONTINUOUS
  0
LINE
  8
WHITE
 10
14.931188
 20
8.885871
 30
0.000000
 11
14.931377
 21
8.892316
 31
0.000000
  6
CONTINUOUS
  0
LINE
  8
WHITE
 10
14.931377
 20
8.892316
 30
0.000000
 11
14.938390
 21
8.895159
 31
0.000000
  6
CONTINUOUS
  0
ARC
  8
WHITE
 10
14.965041
 20
8.837675
 30
0.000000
 40
0.063362
 50
90.447580
 51
114.873665
  6
CONTINUOUS
  0
ARC
  8
WHITE
 10
14.965479
 20
8.844112
 30
0.000000
 40
0.056930
 50
41.320872
 51
90.938789
  6
CONTINUOUS
  0
ARC
  8
WHITE
 10
14.951078
 20
8.833152
 30
0.000000
 40
0.074993
 50
-3.166089
 51
40.344858
  6
CONTINUOUS
  0
ARC
  8
WHITE
 10
14.948383
 20
8.825147
 30
0.000000
 40
0.077670
 50
-43.797625
 51
2.850861
  6
CONTINUOUS
  0
ARC
  8
WHITE
 10
14.949623
 20
8.830348
 30
0.000000
 40
0.080507
 50
-93.274863
 51
-47.082089
  6
CONTINUOUS
  0
ARC
  8
WHITE
 10
14.943555
 20
8.812941
 30
0.000000
 40
0.062985
 50
-131.053343
 51
-88.663316
  6
CONTINUOUS
  0
ARC
  8
WHITE
 10
14.969846
 20
8.841446
 30
0.000000
 40
0.101754
 50
-158.057446
 51
-131.675938
  6
CONTINUOUS
  0
ARC
  8
WHITE
 10
15.002732
 20
8.851345
 30
0.000000
 40
0.135992
 50
179.508185
 51
200.633949
  6
CONTINUOUS
  0
ARC
  8
WHITE
 10
15.030867
 20
8.850522
 30
0.000000
 40
0.164134
 50
162.284817
 51
179.305058
  6
CONTINUOUS
  0
ARC
  8
WHITE
 10
15.000942
 20
8.862471
 30
0.000000
 40
0.132012
 50
130.614904
 51
163.272964
  6
CONTINUOUS
  0
ARC
  8
WHITE
 10
15.042956
 20
8.810439
 30
0.000000
 40
0.198870
 50
111.684584
 51
130.044814
  6
CONTINUOUS
  0
ARC
  8
WHITE
 10
15.025417
 20
8.861616
 30
0.000000
 40
0.144857
 50
94.438998
 51
112.717692
  6
CONTINUOUS
  0
ARC
  8
WHITE
 10
15.014160
 20
8.999750
 30
0.000000
 40
0.006288
 50
-13.643810
 51
89.587014
  6
CONTINUOUS
  0
LINE
  8
WHITE
 10
15.020271
 20
8.998267
 30
0.000000
 11
15.019323
 21
8.991633
 31
0.000000
  6
CONTINUOUS
  0
LINE
  8
WHITE
 10
15.019323
 20
8.991633
 30
0.000000
 11
15.004728
 21
8.987463
 31
0.000000
  6
CONTINUOUS
  0
ARC
  8
WHITE
 10
15.031651
 20
8.876970
 30
0.000000
 40
0.113726
 50
103.693924
 51
147.321686
  6
CONTINUOUS
  0
ARC
  8
WHITE
 10
15.058386
 20
8.868694
 30
0.000000
 40
0.140895
 50
150.360174
 51
170.465838
  6
CONTINUOUS
  0
ARC
  8
WHITE
 10
15.206224
 20
8.840748
 30
0.000000
 40
0.291336
 50
169.861520
 51
179.922808
  6
CONTINUOUS
  0
ARC
  8
WHITE
 10
15.154614
 20
8.836769
 30
0.000000
 40
0.239767
 50
178.955405
 51
190.127503
  6
CONTINUOUS
  0
ARC
  8
WHITE
 10
14.963674
 20
8.800570
 30
0.000000
 40
0.045483
 50
-172.469197
 51
-135.582013
  6
CONTINUOUS
  0
ARC
  8
WHITE
 10
14.946723
 20
8.790463
 30
0.000000
 40
0.026709
 50
-125.566843
 51
-86.323948
  6
CONTINUOUS
  0
LINE
  8
WHITE
 10
14.948436
 20
8.763809
 30
0.000000
 11
14.958481
 21
8.765705
 31
0.000000
  6
CONTINUOUS
  0
ARC
  8
WHITE
 10
14.944862
 20
8.795435
 30
0.000000
 40
0.032701
 50
-65.387216
 51
-39.119173
  6
CONTINUOUS
  0
ARC
  8
WHITE
 10
14.927286
 20
8.804848
 30
0.000000
 40
0.052413
 50
-34.976866
 51
-9.054812
  6
CONTINUOUS
  0
ARC
  8
WHITE
 10
14.829026
 20
8.822270
 30
0.000000
 40
0.152201
 50
-9.710075
 51
0.182791
  6
CONTINUOUS
  0
ARC
  8
WHITE
 10
14.623730
 20
8.778303
 30
0.000000
 40
0.027235
 50
5.002547
 51
92.733860
  6
CONTINUOUS
  0
ARC
  8
WHITE
 10
14.621434
 20
8.778456
 30
0.000000
 40
0.029511
 50
-34.537777
 51
4.318626
  6
CONTINUOUS
  0
ARC
  8
WHITE
 10
14.623746
 20
8.778718
 30
0.000000
 40
0.027798
 50
-89.975942
 51
-37.686962
  6
CONTINUOUS
  0
ARC
  8
WHITE
 10
14.622667
 20
8.777495
 30
0.000000
 40
0.026597
 50
178.042238
 51
272.351546
  6
CONTINUOUS
  0
ARC
  8
WHITE
 10
14.622612
 20
8.778760
 30
0.000000
 40
0.026528
 50
148.983160
 51
180.768824
  6
CONTINUOUS
  0
ARC
  8
WHITE
 10
14.629544
 20
8.772042
 30
0.000000
 40
0.035997
 50
120.546614
 51
145.503517
  6
CONTINUOUS
  0
LINE
  8
WHITE
 10
14.611249
 20
8.803043
 30
0.000000
 11
14.622431
 21
8.805507
 31
0.000000
  6
CONTINUOUS
  0
ARC
  8
WHITE
 10
0.605000
 20
0.605000
 30
0.000000
 40
0.504167
 50
180.000000
 51
270.000000
  6
CONTINUOUS
  0
LINE
  8
GREEN
 10
0.100833
 20
0.605000
 30
0.000000
 11
0.100833
 21
9.427917
 31
0.000000
  6
CONTINUOUS
  0
ARC
  8
WHITE
 10
0.605000
 20
9.427917
 30
0.000000
 40
0.504167
 50
90.000000
 51
180.000000
  6
CONTINUOUS
  0
LINE
  8
GREEN
 10
0.605000
 20
0.100833
 30
0.000000
 11
15.225833
 21
0.100833
 31
0.000000
  6
CONTINUOUS
  0
LINE
  8
GREEN
 10
0.605000
 20
9.932083
 30
0.000000
 11
15.225833
 21
9.932083
 31
0.000000
  6
CONTINUOUS
  0
LINE
  8
WHITE
 10
15.434619
 20
7.399562
 30
0.000000
 11
15.602931
 21
7.886783
 31
0.000000
  6
CONTINUOUS
  0
ARC
  8
WHITE
 10
15.507624
 20
7.919707
 30
0.000000
 40
0.100833
 50
-19.057586
 51
71.487116
  6
CONTINUOUS
  0
LINE
  8
WHITE
 10
15.539641
 20
8.015322
 30
0.000000
 11
15.382595
 21
8.067908
 31
0.000000
  6
CONTINUOUS
  0
ARC
  8
WHITE
 10
15.376192
 20
8.048785
 30
0.000000
 40
0.020167
 50
71.487114
 51
160.942413
  6
CONTINUOUS
  0
LINE
  8
WHITE
 10
15.357131
 20
8.055370
 30
0.000000
 11
15.287618
 21
7.854148
 31
0.000000
  6
CONTINUOUS
  0
LINE
  8
WHITE
 10
15.287618
 20
7.854148
 30
0.000000
 11
15.236153
 21
7.871927
 31
0.000000
  6
CONTINUOUS
  0
LINE
  8
WHITE
 10
15.236153
 20
7.871927
 30
0.000000
 11
15.325385
 21
8.130233
 31
0.000000
  6
CONTINUOUS
  0
ARC
  8
WHITE
 10
15.044698
 20
8.180011
 30
0.000000
 40
0.285066
 50
-10.056499
 51
62.066041
  6
CONTINUOUS
  0
ARC
  8
WHITE
 10
15.124590
 20
8.337377
 30
0.000000
 40
0.108655
 50
60.412244
 51
145.373427
  6
CONTINUOUS
  0
ARC
  8
WHITE
 10
14.540638
 20
8.553813
 30
0.000000
 40
0.518173
 50
-48.974973
 51
-17.369945
  6
CONTINUOUS
  0
ARC
  8
WHITE
 10
14.798756
 20
8.271639
 30
0.000000
 40
0.136201
 50
-116.645851
 51
-52.980943
  6
CONTINUOUS
  0
ARC
  8
WHITE
 10
14.764670
 20
8.264078
 30
0.000000
 40
0.117323
 50
-149.497306
 51
-103.303212
  6
CONTINUOUS
  0
ARC
  8
WHITE
 10
11.706918
 20
6.645270
 30
0.000000
 40
3.342628
 50
27.805819
 51
52.444630
  6
CONTINUOUS
  0
ARC
  8
WHITE
 10
12.759555
 20
7.958860
 30
0.000000
 40
1.659992
 50
53.612180
 51
114.425656
  6
CONTINUOUS
  0
ARC
  8
WHITE
 10
11.944403
 20
9.640638
 30
0.000000
 40
0.213522
 50
-134.498693
 51
-52.924416
  6
CONTINUOUS
  0
ARC
  8
WHITE
 10
11.182876
 20
9.088012
 30
0.000000
 40
0.731196
 50
33.195476
 51
57.291254
  6
CONTINUOUS
  0
LINE
  8
WHITE
 10
11.577992
 20
9.703261
 30
0.000000
 11
11.451492
 21
9.703486
 31
0.000000
  6
CONTINUOUS
  0
LINE
  8
WHITE
 10
11.451492
 20
9.703486
 30
0.000000
 11
11.449683
 21
8.685418
 31
0.000000
  6
CONTINUOUS
  0
LINE
  8
WHITE
 10
11.449683
 20
8.685418
 30
0.000000
 11
11.832049
 21
8.875186
 31
0.000000
  6
CONTINUOUS
  0
LINE
  8
WHITE
 10
11.832049
 20
8.875186
 30
0.000000
 11
11.859152
 21
8.821096
 31
0.000000
  6
CONTINUOUS
  0
LINE
  8
WHITE
 10
11.859152
 20
8.821096
 30
0.000000
 11
11.449563
 21
8.617818
 31
0.000000
  6
CONTINUOUS
  0
LINE
  8
WHITE
 10
11.449563
 20
8.617818
 30
0.000000
 11
11.443172
 21
5.020243
 31
0.000000
  6
CONTINUOUS
  0
ARC
  8
WHITE
 10
11.555446
 20
5.045737
 30
0.000000
 40
0.115132
 50
-167.206922
 51
-74.599532
  6
CONTINUOUS
  0
ARC
  8
WHITE
 10
11.518701
 20
5.207969
 30
0.000000
 40
0.281401
 50
-76.158866
 51
-11.226997
  6
CONTINUOUS
  0
LINE
  8
WHITE
 10
11.794717
 20
5.153181
 30
0.000000
 11
12.061232
 21
7.975070
 31
0.000000
  6
CONTINUOUS
  0
ARC
  8
WHITE
 10
13.243177
 20
7.952035
 30
0.000000
 40
1.182169
 50
132.731654
 51
178.883512
  6
CONTINUOUS
  0
ARC
  8
WHITE
 10
12.866871
 20
8.290325
 30
0.000000
 40
0.679950
 50
59.636395
 51
128.779913
  6
CONTINUOUS
  0
ARC
  8
WHITE
 10
12.283889
 20
6.922675
 30
0.000000
 40
2.162908
 50
26.392071
 51
64.631075
  6
CONTINUOUS
  0
LINE
  8
WHITE
 10
14.221364
 20
7.884112
 30
0.000000
 11
14.539123
 21
7.185047
 31
0.000000
  6
CONTINUOUS
  0
ARC
  8
WHITE
 10
15.179165
 20
7.474628
 30
0.000000
 40
0.702504
 50
-155.656039
 51
-132.410926
  6
CONTINUOUS
  0
ARC
  8
WHITE
 10
14.845115
 20
7.114975
 30
0.000000
 40
0.211704
 50
-131.308648
 51
-74.717849
  6
CONTINUOUS
  0
LINE
  8
WHITE
 10
14.900914
 20
6.910758
 30
0.000000
 11
15.099086
 21
7.484416
 31
0.000000
  6
CONTINUOUS
  0
LINE
  8
WHITE
 10
15.099086
 20
7.484416
 30
0.000000
 11
15.586950
 21
7.321057
 31
0.000000
  6
CONTINUOUS
  0
ARC
  8
WHITE
 10
15.225833
 20
0.605000
 30
0.000000
 40
0.504167
 50
-90.000000
 51
0.000000
  6
CONTINUOUS
  0
ARC
  8
WHITE
 10
15.225833
 20
9.427917
 30
0.000000
 40
0.504167
 50
0.000000
 51
90.000000
  6
CONTINUOUS
  0
LINE
  8
GREEN
 10
15.730000
 20
0.605000
 30
0.000000
 11
15.730000
 21
9.427917
 31
0.000000
  6
CONTINUOUS
  0
ENDSEC
  0
EOF
