  0
SECTION
  2
HEADER
  9
$ACADVER
  1
AC1009
  9
$DWGCODEPAGE
  3
ansi_1252
  9
$INSBASE
 10
0.0
 20
0.0
 30
0.0
  9
$EXTMIN
 10
35.125451
 20
-7.237753
 30
0.0
  9
$EXTMAX
 10
212.490451072651
 20
47.40914299759184
 30
0.0
  9
$LIMMIN
 10
0.0
 20
0.0
  9
$LIMMAX
 10
12.0
 20
9.0
  9
$ORTHOMODE
 70
     0
  9
$REGENMODE
 70
     1
  9
$FILLMODE
 70
     1
  9
$QTEXTMODE
 70
     0
  9
$MIRRTEXT
 70
     1
  9
$DRAGMODE
 70
     2
  9
$LTSCALE
 40
1.0
  9
$OSMODE
 70
    37
  9
$ATTMODE
 70
     1
  9
$TEXTSIZE
 40
0.2
  9
$TRACEWID
 40
0.05
  9
$TEXTSTYLE
  7
STANDARD
  9
$CLAYER
  8
0
  9
$CELTYPE
  6
BYLAYER
  9
$CECOLOR
 62
   256
  9
$DIMSCALE
 40
1.0
  9
$DIMASZ
 40
0.18
  9
$DIMEXO
 40
0.0625
  9
$DIMDLI
 40
0.38
  9
$DIMRND
 40
0.0
  9
$DIMDLE
 40
0.0
  9
$DIMEXE
 40
0.18
  9
$DIMTP
 40
0.0
  9
$DIMTM
 40
0.0
  9
$DIMTXT
 40
0.18
  9
$DIMCEN
 40
0.09
  9
$DIMTSZ
 40
0.0
  9
$DIMTOL
 70
     0
  9
$DIMLIM
 70
     0
  9
$DIMTIH
 70
     1
  9
$DIMTOH
 70
     1
  9
$DIMSE1
 70
     0
  9
$DIMSE2
 70
     0
  9
$DIMTAD
 70
     0
  9
$DIMZIN
 70
     0
  9
$DIMBLK
  1

  9
$DIMASO
 70
     1
  9
$DIMSHO
 70
     1
  9
$DIMPOST
  1

  9
$DIMAPOST
  1

  9
$DIMALT
 70
     0
  9
$DIMALTD
 70
     2
  9
$DIMALTF
 40
25.4
  9
$DIMLFAC
 40
1.0
  9
$DIMTOFL
 70
     0
  9
$DIMTVP
 40
0.0
  9
$DIMTIX
 70
     0
  9
$DIMSOXD
 70
     0
  9
$DIMSAH
 70
     0
  9
$DIMBLK1
  1

  9
$DIMBLK2
  1

  9
$DIMSTYLE
  2
STANDARD
  9
$DIMCLRD
 70
     0
  9
$DIMCLRE
 70
     0
  9
$DIMCLRT
 70
     0
  9
$DIMTFAC
 40
1.0
  9
$DIMGAP
 40
0.09
  9
$LUNITS
 70
     2
  9
$LUPREC
 70
     4
  9
$SKETCHINC
 40
0.1
  9
$FILLETRAD
 40
0.5
  9
$AUNITS
 70
     0
  9
$AUPREC
 70
     0
  9
$MENU
  1
.
  9
$ELEVATION
 40
0.0
  9
$PELEVATION
 40
0.0
  9
$THICKNESS
 40
0.0
  9
$LIMCHECK
 70
     0
  9
$CHAMFERA
 40
0.5
  9
$CHAMFERB
 40
0.5
  9
$SKPOLY
 70
     0
  9
$TDCREATE
 40
2454910.5
  9
$TDUPDATE
 40
2459648.802623333
  9
$TDINDWG
 40
0.0000000116
  9
$TDUSRTIMER
 40
0.0000000116
  9
$USRTIMER
 70
     1
  9
$ANGBASE
 50
0.0
  9
$ANGDIR
 70
     0
  9
$PDMODE
 70
     0
  9
$PDSIZE
 40
0.0
  9
$PLINEWID
 40
0.0
  9
$COORDS
 70
     1
  9
$SPLFRAME
 70
     0
  9
$SPLINETYPE
 70
     6
  9
$SPLINESEGS
 70
     8
  9
$ATTDIA
 70
     0
  9
$ATTREQ
 70
     1
  9
$HANDLING
 70
     1
  9
$HANDSEED
  5
14A
  9
$SURFTAB1
 70
     6
  9
$SURFTAB2
 70
     6
  9
$SURFTYPE
 70
     6
  9
$SURFU
 70
     6
  9
$SURFV
 70
     6
  9
$UCSNAME
  2

  9
$UCSORG
 10
0.0
 20
0.0
 30
0.0
  9
$UCSXDIR
 10
1.0
 20
0.0
 30
0.0
  9
$UCSYDIR
 10
0.0
 20
1.0
 30
0.0
  9
$PUCSNAME
  2

  9
$PUCSORG
 10
0.0
 20
0.0
 30
0.0
  9
$PUCSXDIR
 10
1.0
 20
0.0
 30
0.0
  9
$PUCSYDIR
 10
0.0
 20
1.0
 30
0.0
  9
$USERI1
 70
     0
  9
$USERI2
 70
     0
  9
$USERI3
 70
     0
  9
$USERI4
 70
     0
  9
$USERI5
 70
     0
  9
$USERR1
 40
0.0
  9
$USERR2
 40
0.0
  9
$USERR3
 40
0.0
  9
$USERR4
 40
0.0
  9
$USERR5
 40
0.0
  9
$WORLDVIEW
 70
     1
  9
$SHADEDGE
 70
     3
  9
$SHADEDIF
 70
    70
  9
$TILEMODE
 70
     1
  9
$MAXACTVP
 70
    64
  9
$PLIMCHECK
 70
     0
  9
$PEXTMIN
 10
1.000000000000000E+20
 20
1.000000000000000E+20
 30
1.000000000000000E+20
  9
$PEXTMAX
 10
-1.000000000000000E+20
 20
-1.000000000000000E+20
 30
-1.000000000000000E+20
  9
$PLIMMIN
 10
0.0
 20
0.0
  9
$PLIMMAX
 10
12.0
 20
9.0
  9
$UNITMODE
 70
     0
  9
$VISRETAIN
 70
     1
  9
$PLINEGEN
 70
     0
  9
$PSLTSCALE
 70
     1
  0
ENDSEC
  0
SECTION
  2
TABLES
  0
TABLE
  2
VPORT
 70
     1
  0
VPORT
  2
*ACTIVE
 70
     0
 10
0.0
 20
0.0
 11
1.0
 21
1.0
 12
10.42990654205607
 22
4.5
 13
0.0
 23
0.0
 14
0.5
 24
0.5
 15
0.5
 25
0.5
 16
0.0
 26
0.0
 36
1.0
 17
0.0
 27
0.0
 37
0.0
 40
9.0
 41
1.972972972850329
 42
50.0
 43
0.0
 44
0.0
 50
0.0
 51
0.0
 71
     0
 72
   100
 73
     1
 74
     3
 75
     0
 76
     0
 77
     0
 78
     0
  0
ENDTAB
  0
TABLE
  2
LTYPE
 70
     2
  0
LTYPE
  2
CONTINUOUS
 70
     0
  3
Solid line
 72
    65
 73
     0
 40
0.0
  0
LTYPE
  2
CONTINUOUS2
 70
     0
  3
Solid Line
 72
    65
 73
     0
 40
0.0
  0
ENDTAB
  0
TABLE
  2
LAYER
 70
     2
  0
LAYER
  2
0
 70
     0
 62
     7
  6
CONTINUOUS
  0
LAYER
  2
TEXT
 70
     0
 62
     8
  6
CONTINUOUS
  0
ENDTAB
  0
TABLE
  2
STYLE
 70
     1
  0
STYLE
  2
STANDARD
 70
     0
 40
0.0
 41
1.0
 50
0.0
 71
     0
 42
0.2
  3
txt
  4

  0
ENDTAB
  0
TABLE
  2
VIEW
 70
     0
  0
ENDTAB
  0
TABLE
  2
UCS
 70
     0
  0
ENDTAB
  0
TABLE
  2
APPID
 70
     1
  0
APPID
  2
ACAD
 70
     0
  0
ENDTAB
  0
TABLE
  2
DIMSTYLE
 70
     1
  0
DIMSTYLE
  2
STANDARD
 70
     0
  3

  4

  5

  6

  7

 40
1.0
 41
0.18
 42
0.0625
 43
0.38
 44
0.18
 45
0.0
 46
0.0
 47
0.0
 48
0.0
140
0.18
141
0.09
142
0.0
143
25.4
144
1.0
145
0.0
146
1.0
147
0.09
 71
     0
 72
     0
 73
     1
 74
     1
 75
     0
 76
     0
 77
     0
 78
     0
170
     0
171
     2
172
     0
173
     0
174
     0
175
     0
176
     0
177
     0
178
     0
  0
ENDTAB
  0
ENDSEC
  0
SECTION
  2
BLOCKS
  0
BLOCK
  8
0
  2
$MODEL_SPACE
 70
     0
 10
0.0
 20
0.0
 30
0.0
  3
$MODEL_SPACE
  1

  0
ENDBLK
  5
21
  8
0
  0
BLOCK
 67
     1
  8
0
  2
$PAPER_SPACE
 70
     0
 10
0.0
 20
0.0
 30
0.0
  3
$PAPER_SPACE
  1

  0
ENDBLK
  5
1D
 67
     1
  8
0
  0
ENDSEC
  0
SECTION
  2
ENTITIES
  0
POLYLINE
  5
3C
  8
0
 66
     1
 10
0.0
 20
0.0
 30
0.0
 70
     1
  0
VERTEX
  5
64
  8
0
 10
101.560054
 20
1.0
 30
0.0
 42
0.4142135623730951
  0
VERTEX
  5
65
  8
0
 10
100.060054
 20
-0.5
 30
0.0
 42
0.4142135623730951
  0
VERTEX
  5
66
  8
0
 10
101.560054
 20
-2.0
 30
0.0
 42
0.4142135623730951
  0
VERTEX
  5
67
  8
0
 10
103.060054
 20
-0.5
 30
0.0
 42
0.4142135623730951
  0
SEQEND
  5
68
  8
0
  0
POLYLINE
  5
3D
  8
0
 66
     1
 10
0.0
 20
0.0
 30
0.0
 70
     1
  0
VERTEX
  5
69
  8
0
 10
74.174549
 20
1.011585
 30
0.0
 42
0.4142135623730951
  0
VERTEX
  5
6A
  8
0
 10
72.674549
 20
-0.488415
 30
0.0
 42
0.4142135623730951
  0
VERTEX
  5
6B
  8
0
 10
74.174549
 20
-1.988415
 30
0.0
 42
0.4142135623730951
  0
VERTEX
  5
6C
  8
0
 10
75.674549
 20
-0.488415
 30
0.0
 42
0.4142135623730951
  0
SEQEND
  5
6D
  8
0
  0
POLYLINE
  5
3E
  8
0
 66
     1
 10
0.0
 20
0.0
 30
0.0
 70
     1
  0
VERTEX
  5
6E
  8
0
 10
109.674549
 20
45.411585
 30
0.0
 42
0.4142135623730951
  0
VERTEX
  5
6F
  8
0
 10
108.174549
 20
43.911585
 30
0.0
 42
0.4142135623730951
  0
VERTEX
  5
70
  8
0
 10
109.674549
 20
42.411585
 30
0.0
 42
0.4142135623730951
  0
VERTEX
  5
71
  8
0
 10
111.174549
 20
43.911585
 30
0.0
 42
0.4142135623730951
  0
SEQEND
  5
72
  8
0
  0
POLYLINE
  5
3F
  8
0
 66
     1
 10
0.0
 20
0.0
 30
0.0
 70
     1
  0
VERTEX
  5
73
  8
0
 10
38.622396
 20
44.457014
 30
0.0
 42
0.4142135623730951
  0
VERTEX
  5
74
  8
0
 10
37.122396
 20
42.957014
 30
0.0
 42
0.4142135623730951
  0
VERTEX
  5
75
  8
0
 10
38.622396
 20
41.457014
 30
0.0
 42
0.4142135623730951
  0
VERTEX
  5
76
  8
0
 10
40.122396
 20
42.957014
 30
0.0
 42
0.4142135623730951
  0
SEQEND
  5
77
  8
0
  0
POLYLINE
  5
40
  8
0
 66
     1
 10
0.0
 20
0.0
 30
0.0
 70
     1
  0
VERTEX
  5
78
  8
0
 10
38.622396
 20
0.557014
 30
0.0
 42
0.4142135623730951
  0
VERTEX
  5
79
  8
0
 10
37.122396
 20
-0.942986
 30
0.0
 42
0.4142135623730951
  0
VERTEX
  5
7A
  8
0
 10
38.622396
 20
-2.442986
 30
0.0
 42
0.4142135623730951
  0
VERTEX
  5
7B
  8
0
 10
40.122396
 20
-0.942986
 30
0.0
 42
0.4142135623730951
  0
SEQEND
  5
7C
  8
0
  0
POLYLINE
  5
41
  8
0
 66
     1
 10
0.0
 20
0.0
 30
0.0
 70
     1
  0
VERTEX
  5
7D
  8
0
 10
123.364878
 20
35.850639
 30
0.0
 42
0.4142135623730951
  0
VERTEX
  5
7E
  8
0
 10
122.764878
 20
35.250639
 30
0.0
 42
0.4142135623730951
  0
VERTEX
  5
7F
  8
0
 10
123.364878
 20
34.650639
 30
0.0
 42
0.4142135623730951
  0
VERTEX
  5
80
  8
0
 10
123.964878
 20
35.250639
 30
0.0
 42
0.4142135623730951
  0
SEQEND
  5
81
  8
0
  0
POLYLINE
  5
42
  8
0
 66
     1
 10
0.0
 20
0.0
 30
0.0
 70
     1
  0
VERTEX
  5
82
  8
0
 10
181.622396
 20
45.411585
 30
0.0
 42
0.4142135623730951
  0
VERTEX
  5
83
  8
0
 10
180.122396
 20
43.911585
 30
0.0
 42
0.4142135623730951
  0
VERTEX
  5
84
  8
0
 10
181.622396
 20
42.411585
 30
0.0
 42
0.4142135623730951
  0
VERTEX
  5
85
  8
0
 10
183.122396
 20
43.911585
 30
0.0
 42
0.4142135623730951
  0
SEQEND
  5
86
  8
0
  0
POLYLINE
  5
43
  8
0
 66
     1
 10
0.0
 20
0.0
 30
0.0
 70
     1
  0
VERTEX
  5
87
  8
0
 10
172.396945
 20
45.411585
 30
0.0
 42
0.4142135623730951
  0
VERTEX
  5
88
  8
0
 10
170.896945
 20
43.911585
 30
0.0
 42
0.4142135623730951
  0
VERTEX
  5
89
  8
0
 10
172.396945
 20
42.411585
 30
0.0
 42
0.4142135623730951
  0
VERTEX
  5
8A
  8
0
 10
173.896945
 20
43.911585
 30
0.0
 42
0.4142135623730951
  0
SEQEND
  5
8B
  8
0
  0
POLYLINE
  5
44
  8
0
 66
     1
 10
0.0
 20
0.0
 30
0.0
 70
     1
  0
VERTEX
  5
8C
  8
0
 10
38.633352
 20
44.454572
 30
0.0
 42
0.4142135623730951
  0
VERTEX
  5
8D
  8
0
 10
37.133352
 20
42.954572
 30
0.0
 42
0.4142135623730951
  0
VERTEX
  5
8E
  8
0
 10
38.633352
 20
41.454572
 30
0.0
 42
0.4142135623730951
  0
VERTEX
  5
8F
  8
0
 10
40.133352
 20
42.954572
 30
0.0
 42
0.4142135623730951
  0
SEQEND
  5
90
  8
0
  0
POLYLINE
  5
45
  8
0
 66
     1
 10
0.0
 20
0.0
 30
0.0
 70
     1
  0
VERTEX
  5
91
  8
0
 10
123.363622
 20
22.100639
 30
0.0
 42
0.4142135623730951
  0
VERTEX
  5
92
  8
0
 10
122.763622
 20
21.500639
 30
0.0
 42
0.4142135623730951
  0
VERTEX
  5
93
  8
0
 10
123.363622
 20
20.900639
 30
0.0
 42
0.4142135623730951
  0
VERTEX
  5
94
  8
0
 10
123.963622
 20
21.500639
 30
0.0
 42
0.4142135623730951
  0
SEQEND
  5
95
  8
0
  0
POLYLINE
  5
46
  8
0
 66
     1
 10
0.0
 20
0.0
 30
0.0
 70
     1
  0
VERTEX
  5
96
  8
0
 10
144.996945
 20
1.511585
 30
0.0
 42
0.4142135623730951
  0
VERTEX
  5
97
  8
0
 10
143.496945
 20
0.011585
 30
0.0
 42
0.4142135623730951
  0
VERTEX
  5
98
  8
0
 10
144.996945
 20
-1.488415
 30
0.0
 42
0.4142135623730951
  0
VERTEX
  5
99
  8
0
 10
146.496945
 20
0.011585
 30
0.0
 42
0.4142135623730951
  0
SEQEND
  5
9A
  8
0
  0
POLYLINE
  5
47
  8
0
 66
     1
 10
0.0
 20
0.0
 30
0.0
 70
     1
  0
VERTEX
  5
9B
  8
0
 10
209.022396
 20
45.411585
 30
0.0
 42
0.4142135623730951
  0
VERTEX
  5
9C
  8
0
 10
207.522396
 20
43.911585
 30
0.0
 42
0.4142135623730951
  0
VERTEX
  5
9D
  8
0
 10
209.022396
 20
42.411585
 30
0.0
 42
0.4142135623730951
  0
VERTEX
  5
9E
  8
0
 10
210.522396
 20
43.911585
 30
0.0
 42
0.4142135623730951
  0
SEQEND
  5
9F
  8
0
  0
POLYLINE
  5
48
  8
0
 66
     1
 10
0.0
 20
0.0
 30
0.0
 70
     1
  0
VERTEX
  5
A0
  8
0
 10
137.060054
 20
1.5
 30
0.0
 42
0.4142135623730951
  0
VERTEX
  5
A1
  8
0
 10
135.560054
 20
0.0
 30
0.0
 42
0.4142135623730951
  0
VERTEX
  5
A2
  8
0
 10
137.060054
 20
-1.5
 30
0.0
 42
0.4142135623730951
  0
VERTEX
  5
A3
  8
0
 10
138.560054
 20
0.0
 30
0.0
 42
0.4142135623730951
  0
SEQEND
  5
A4
  8
0
  0
POLYLINE
  5
49
  8
0
 66
     1
 10
0.0
 20
0.0
 30
0.0
 70
     1
  0
VERTEX
  5
A5
  8
0
 10
144.996945
 20
45.411585
 30
0.0
 42
0.4142135623730951
  0
VERTEX
  5
A6
  8
0
 10
143.496945
 20
43.911585
 30
0.0
 42
0.4142135623730951
  0
VERTEX
  5
A7
  8
0
 10
144.996945
 20
42.411585
 30
0.0
 42
0.4142135623730951
  0
VERTEX
  5
A8
  8
0
 10
146.496945
 20
43.911585
 30
0.0
 42
0.4142135623730951
  0
SEQEND
  5
A9
  8
0
  0
POLYLINE
  5
4A
  8
0
 66
     1
 10
0.0
 20
0.0
 30
0.0
 70
     1
  0
VERTEX
  5
AA
  8
0
 10
209.007901
 20
1.5
 30
0.0
 42
0.4142135623730951
  0
VERTEX
  5
AB
  8
0
 10
207.507901
 20
0.0
 30
0.0
 42
0.4142135623730951
  0
VERTEX
  5
AC
  8
0
 10
209.007901
 20
-1.5
 30
0.0
 42
0.4142135623730951
  0
VERTEX
  5
AD
  8
0
 10
210.507901
 20
0.0
 30
0.0
 42
0.4142135623730951
  0
SEQEND
  5
AE
  8
0
  0
POLYLINE
  5
4B
  8
0
 66
     1
 10
0.0
 20
0.0
 30
0.0
 70
     1
  0
VERTEX
  5
AF
  8
0
 10
109.674549
 20
1.511585
 30
0.0
 42
0.4142135623730951
  0
VERTEX
  5
B0
  8
0
 10
108.174549
 20
0.011585
 30
0.0
 42
0.4142135623730951
  0
VERTEX
  5
B1
  8
0
 10
109.674549
 20
-1.488415
 30
0.0
 42
0.4142135623730951
  0
VERTEX
  5
B2
  8
0
 10
111.174549
 20
0.011585
 30
0.0
 42
0.4142135623730951
  0
SEQEND
  5
B3
  8
0
  0
POLYLINE
  5
4C
  8
0
 66
     1
 10
0.0
 20
0.0
 30
0.0
 70
     1
  0
VERTEX
  5
B4
  8
0
 10
66.007901
 20
0.545429
 30
0.0
 42
0.4142135623730951
  0
VERTEX
  5
B5
  8
0
 10
64.507901
 20
-0.954571
 30
0.0
 42
0.4142135623730951
  0
VERTEX
  5
B6
  8
0
 10
66.007901
 20
-2.454571
 30
0.0
 42
0.4142135623730951
  0
VERTEX
  5
B7
  8
0
 10
67.507901
 20
-0.954571
 30
0.0
 42
0.4142135623730951
  0
SEQEND
  5
B8
  8
0
  0
POLYLINE
  5
4D
  8
0
 66
     1
 10
0.0
 20
0.0
 30
0.0
 70
     1
  0
VERTEX
  5
B9
  8
0
 10
101.574549
 20
44.911585
 30
0.0
 42
0.4142135623730951
  0
VERTEX
  5
BA
  8
0
 10
100.074549
 20
43.411585
 30
0.0
 42
0.4142135623730951
  0
VERTEX
  5
BB
  8
0
 10
101.574549
 20
41.911585
 30
0.0
 42
0.4142135623730951
  0
VERTEX
  5
BC
  8
0
 10
103.074549
 20
43.411585
 30
0.0
 42
0.4142135623730951
  0
SEQEND
  5
BD
  8
0
  0
POLYLINE
  5
4E
  8
0
 66
     1
 10
0.0
 20
0.0
 30
0.0
 70
     1
  0
VERTEX
  5
BE
  8
0
 10
109.685504
 20
45.409143
 30
0.0
 42
0.4142135623730951
  0
VERTEX
  5
BF
  8
0
 10
108.185504
 20
43.909143
 30
0.0
 42
0.4142135623730951
  0
VERTEX
  5
C0
  8
0
 10
109.685504
 20
42.409143
 30
0.0
 42
0.4142135623730951
  0
VERTEX
  5
C1
  8
0
 10
111.185504
 20
43.909143
 30
0.0
 42
0.4142135623730951
  0
SEQEND
  5
C2
  8
0
  0
POLYLINE
  5
4F
  8
0
 66
     1
 10
0.0
 20
0.0
 30
0.0
 70
     1
  0
VERTEX
  5
C3
  8
0
 10
181.633352
 20
45.409143
 30
0.0
 42
0.4142135623730951
  0
VERTEX
  5
C4
  8
0
 10
180.133352
 20
43.909143
 30
0.0
 42
0.4142135623730951
  0
VERTEX
  5
C5
  8
0
 10
181.633352
 20
42.409143
 30
0.0
 42
0.4142135623730951
  0
VERTEX
  5
C6
  8
0
 10
183.133352
 20
43.909143
 30
0.0
 42
0.4142135623730951
  0
SEQEND
  5
C7
  8
0
  0
POLYLINE
  5
50
  8
0
 66
     1
 10
0.0
 20
0.0
 30
0.0
 70
     1
  0
VERTEX
  5
C8
  8
0
 10
181.622396
 20
1.511585
 30
0.0
 42
0.4142135623730951
  0
VERTEX
  5
C9
  8
0
 10
180.122396
 20
0.011585
 30
0.0
 42
0.4142135623730951
  0
VERTEX
  5
CA
  8
0
 10
181.622396
 20
-1.488415
 30
0.0
 42
0.4142135623730951
  0
VERTEX
  5
CB
  8
0
 10
183.122396
 20
0.011585
 30
0.0
 42
0.4142135623730951
  0
SEQEND
  5
CC
  8
0
  0
POLYLINE
  5
51
  8
0
 66
     1
 10
0.0
 20
0.0
 30
0.0
 70
     1
  0
VERTEX
  5
CD
  8
0
 10
66.022396
 20
44.457014
 30
0.0
 42
0.4142135623730951
  0
VERTEX
  5
CE
  8
0
 10
64.522396
 20
42.957014
 30
0.0
 42
0.4142135623730951
  0
VERTEX
  5
CF
  8
0
 10
66.022396
 20
41.457014
 30
0.0
 42
0.4142135623730951
  0
VERTEX
  5
D0
  8
0
 10
67.522396
 20
42.957014
 30
0.0
 42
0.4142135623730951
  0
SEQEND
  5
D1
  8
0
  0
POLYLINE
  5
52
  8
0
 66
     1
 10
0.0
 20
0.0
 30
0.0
 70
     1
  0
VERTEX
  5
D2
  8
0
 10
137.074549
 20
45.411585
 30
0.0
 42
0.4142135623730951
  0
VERTEX
  5
D3
  8
0
 10
135.574549
 20
43.911585
 30
0.0
 42
0.4142135623730951
  0
VERTEX
  5
D4
  8
0
 10
137.074549
 20
42.411585
 30
0.0
 42
0.4142135623730951
  0
VERTEX
  5
D5
  8
0
 10
138.574549
 20
43.911585
 30
0.0
 42
0.4142135623730951
  0
SEQEND
  5
D6
  8
0
  0
POLYLINE
  5
53
  8
0
 66
     1
 10
0.0
 20
0.0
 30
0.0
 70
     1
  0
VERTEX
  5
D7
  8
0
 10
172.38245
 20
1.5
 30
0.0
 42
0.4142135623730951
  0
VERTEX
  5
D8
  8
0
 10
170.88245
 20
0.0
 30
0.0
 42
0.4142135623730951
  0
VERTEX
  5
D9
  8
0
 10
172.38245
 20
-1.5
 30
0.0
 42
0.4142135623730951
  0
VERTEX
  5
DA
  8
0
 10
173.88245
 20
0.0
 30
0.0
 42
0.4142135623730951
  0
SEQEND
  5
DB
  8
0
  0
POLYLINE
  5
54
  8
0
 66
     1
 10
0.0
 20
0.0
 30
0.0
 70
     1
  0
VERTEX
  5
DC
  8
0
 10
74.174549
 20
44.911585
 30
0.0
 42
0.4142135623730951
  0
VERTEX
  5
DD
  8
0
 10
72.674549
 20
43.411585
 30
0.0
 42
0.4142135623730951
  0
VERTEX
  5
DE
  8
0
 10
74.174549
 20
41.911585
 30
0.0
 42
0.4142135623730951
  0
VERTEX
  5
DF
  8
0
 10
75.674549
 20
43.411585
 30
0.0
 42
0.4142135623730951
  0
SEQEND
  5
E0
  8
0
  0
POLYLINE
  5
55
  8
0
 66
     1
 10
0.0
 20
0.0
 30
0.0
 70
     1
  0
VERTEX
  5
E1
  8
0
 10
145.007901
 20
45.409143
 30
0.0
 42
0.4142135623730951
  0
VERTEX
  5
E2
  8
0
 10
143.507901
 20
43.909143
 30
0.0
 42
0.4142135623730951
  0
VERTEX
  5
E3
  8
0
 10
145.007901
 20
42.409143
 30
0.0
 42
0.4142135623730951
  0
VERTEX
  5
E4
  8
0
 10
146.507901
 20
43.909143
 30
0.0
 42
0.4142135623730951
  0
SEQEND
  5
E5
  8
0
  0
POLYLINE
  5
57
  8
TEXT
 66
     1
 10
0.0
 20
0.0
 30
0.0
 70
     1
  0
VERTEX
  5
E6
  8
TEXT
 10
179.271099
 20
-3.500201
 30
0.0
  0
VERTEX
  5
E7
  8
TEXT
 10
184.845648
 20
-3.500201
 30
0.0
  0
VERTEX
  5
E8
  8
TEXT
 10
211.335254
 20
-3.500201
 30
0.0
 42
0.4142135623730967
  0
VERTEX
  5
E9
  8
TEXT
 10
212.490451
 20
-2.345004
 30
0.0
  0
VERTEX
  5
EA
  8
TEXT
 10
212.490451
 20
1.344602
 30
0.0
  0
VERTEX
  5
EB
  8
TEXT
 10
212.490451
 20
29.844602
 30
0.0
  0
VERTEX
  5
EC
  8
TEXT
 10
212.490451072651
 20
46.24159899757062
 30
0.0
 42
0.4172965291002907
  0
VERTEX
  5
ED
  8
TEXT
 10
211.335318
 20
47.396796
 30
0.0
  0
VERTEX
  5
EE
  8
TEXT
 10
179.275778
 20
47.402869
 30
0.0
 42
0.4142135623730957
  0
VERTEX
  5
EF
  8
TEXT
 10
178.115902
 20
46.253745
 30
0.0
  0
VERTEX
  5
F0
  8
TEXT
 10
178.115902
 20
-2.345004
 30
0.0
 42
0.4142135623730969
  0
SEQEND
  5
F1
  8
TEXT
  0
POLYLINE
  5
58
  8
TEXT
 66
     1
 10
0.0
 20
0.0
 30
0.0
 70
     1
  0
VERTEX
  5
F2
  8
TEXT
 10
76.374549
 20
3.711585
 30
0.0
  0
VERTEX
  5
F3
  8
TEXT
 10
99.374549
 20
3.711585
 30
0.0
  0
VERTEX
  5
F4
  8
TEXT
 10
99.374549
 20
5.711585
 30
0.0
  0
VERTEX
  5
F5
  8
TEXT
 10
99.374549
 20
39.211585
 30
0.0
  0
VERTEX
  5
F6
  8
TEXT
 10
76.374549
 20
39.211585
 30
0.0
  0
VERTEX
  5
F7
  8
TEXT
 10
76.374549
 20
5.711585
 30
0.0
  0
SEQEND
  5
F8
  8
TEXT
  0
POLYLINE
  5
59
  8
TEXT
 66
     1
 10
0.0
 20
0.0
 30
0.0
 70
     1
  0
VERTEX
  5
F9
  8
TEXT
 10
71.8328
 20
-4.0
 30
0.0
 42
-0.4142135623731005
  0
VERTEX
  5
FA
  8
TEXT
 10
70.677603
 20
-2.844803
 30
0.0
  0
VERTEX
  5
FB
  8
TEXT
 10
70.677603
 20
1.155197
 30
0.0
  0
VERTEX
  5
FC
  8
TEXT
 10
70.677603
 20
17.56434
 30
0.0
  0
VERTEX
  5
FD
  8
TEXT
 10
70.677603
 20
45.753946
 30
0.0
 42
-0.4142135623730993
  0
VERTEX
  5
FE
  8
TEXT
 10
71.8328
 20
46.909143
 30
0.0
  0
VERTEX
  5
FF
  8
TEXT
 10
98.322406
 20
46.909143
 30
0.0
  0
VERTEX
  5
100
  8
TEXT
 10
103.896956
 20
46.909143
 30
0.0
 42
-0.4142135623730993
  0
VERTEX
  5
101
  8
TEXT
 10
105.052153
 20
45.753946
 30
0.0
  0
VERTEX
  5
102
  8
TEXT
 10
105.052153
 20
29.344803
 30
0.0
  0
VERTEX
  5
103
  8
TEXT
 10
105.052153
 20
0.844803
 30
0.0
  0
VERTEX
  5
104
  8
TEXT
 10
105.052153
 20
-2.844803000000001
 30
0.0
 42
-0.4142135623731004
  0
VERTEX
  5
105
  8
TEXT
 10
103.896956
 20
-4.0
 30
0.0
  0
VERTEX
  5
106
  8
TEXT
 10
77.40735
 20
-4.0
 30
0.0
  0
SEQEND
  5
107
  8
TEXT
  0
POLYLINE
  5
5A
  8
TEXT
 66
     1
 10
0.0
 20
0.0
 30
0.0
 70
     1
  0
VERTEX
  5
108
  8
TEXT
 10
36.280648
 20
-4.454571
 30
0.0
  0
VERTEX
  5
109
  8
TEXT
 10
41.855197
 20
-4.454571
 30
0.0
  0
VERTEX
  5
10A
  8
TEXT
 10
68.344803
 20
-4.454571
 30
0.0
 42
0.4142135623731004
  0
VERTEX
  5
10B
  8
TEXT
 10
69.5
 20
-3.299374
 30
0.0
  0
VERTEX
  5
10C
  8
TEXT
 10
69.5
 20
45.299375
 30
0.0
 42
0.4142135623730993
  0
VERTEX
  5
10D
  8
TEXT
 10
68.344803
 20
46.454572
 30
0.0
  0
VERTEX
  5
10E
  8
TEXT
 10
62.770253
 20
46.454572
 30
0.0
  0
VERTEX
  5
10F
  8
TEXT
 10
36.280648
 20
46.454572
 30
0.0
 42
0.4142135623730931
  0
VERTEX
  5
110
  8
TEXT
 10
35.125451
 20
45.299375
 30
0.0
  0
VERTEX
  5
111
  8
TEXT
 10
35.125451
 20
17.109769
 30
0.0
  0
VERTEX
  5
112
  8
TEXT
 10
35.125451
 20
0.700626
 30
0.0
  0
VERTEX
  5
113
  8
TEXT
 10
35.125451
 20
-3.299374
 30
0.0
 42
0.4142135623730943
  0
SEQEND
  5
114
  8
TEXT
  0
POLYLINE
  5
5B
  8
TEXT
 66
     1
 10
0.0
 20
0.0
 30
0.0
 70
     1
  0
VERTEX
  5
115
  8
TEXT
 10
157.6828630892473
 20
31.89827410099985
 30
0.0
 42
0.9511298720736522
  0
VERTEX
  5
116
  8
TEXT
 10
158.6852989450752
 20
11.94852207453563
 30
0.0
 42
0.9511298720736476
  0
VERTEX
  5
117
  8
TEXT
 10
159.6828630857416
 20
31.89851819550785
 30
0.0
  0
VERTEX
  5
118
  8
TEXT
 10
159.682863
 20
35.250639
 30
0.0
 42
1.0
  0
VERTEX
  5
119
  8
TEXT
 10
157.682863
 20
35.250639
 30
0.0
  0
SEQEND
  5
11A
  8
TEXT
  0
POLYLINE
  5
5C
  8
TEXT
 66
     1
 10
0.0
 20
0.0
 30
0.0
 70
     1
  0
VERTEX
  5
11B
  8
TEXT
 10
107.3327997562312
 20
-3.499999997591835
 30
0.0
  0
VERTEX
  5
11C
  8
TEXT
 10
139.3898777562312
 20
-3.502927997591835
 30
0.0
 42
0.4142269353002017
  0
VERTEX
  5
11D
  8
TEXT
 10
140.545179999398
 20
-2.347809871884427
 30
0.0
  0
VERTEX
  5
11E
  8
TEXT
 10
140.5475335
 20
1.3432865
 30
0.0
  0
VERTEX
  5
11F
  8
TEXT
 10
140.552461
 20
29.843286
 30
0.0
  0
VERTEX
  5
120
  8
TEXT
 10
140.554267999398
 20
46.25093862811558
 30
0.0
 42
0.4142001895724212
  0
VERTEX
  5
121
  8
TEXT
 10
139.3991762437688
 20
47.40621499759184
 30
0.0
  0
VERTEX
  5
122
  8
TEXT
 10
107.3328002437688
 20
47.40914299759184
 30
0.0
 42
0.4142135623730913
  0
VERTEX
  5
123
  8
TEXT
 10
106.1774980024082
 20
46.2540517437688
 30
0.0
  0
VERTEX
  5
124
  8
TEXT
 10
106.176263
 20
18.064393
 30
0.0
  0
VERTEX
  5
125
  8
TEXT
 10
106.177089
 20
1.6552495
 30
0.0
  0
VERTEX
  5
126
  8
TEXT
 10
106.1777085024082
 20
-2.344697756231201
 30
0.0
 42
0.414213562373096
  0
SEQEND
  5
127
  8
TEXT
  0
POLYLINE
  5
5D
  8
TEXT
 66
     1
 10
0.0
 20
0.0
 30
0.0
  0
VERTEX
  5
128
  8
TEXT
 10
165.683206
 20
35.250639
 30
0.0
  0
VERTEX
  5
129
  8
TEXT
 10
172.999127
 20
35.250639
 30
0.0
  0
VERTEX
  5
12A
  8
TEXT
 10
172.999127
 20
31.500639
 30
0.0
  0
VERTEX
  5
12B
  8
TEXT
 10
165.683548
 20
31.499971
 30
0.0
  0
VERTEX
  5
12C
  8
TEXT
 10
165.682098
 20
47.387497
 30
0.0
  0
SEQEND
  5
12D
  8
TEXT
  0
POLYLINE
  5
5E
  8
TEXT
 66
     1
 10
0.0
 20
0.0
 30
0.0
  0
VERTEX
  5
12E
  8
TEXT
 10
143.998785
 20
31.500639
 30
0.0
  0
VERTEX
  5
12F
  8
TEXT
 10
151.682863
 20
31.500639
 30
0.0
  0
VERTEX
  5
130
  8
TEXT
 10
151.681413
 20
47.386219
 30
0.0
  0
SEQEND
  5
131
  8
TEXT
  0
POLYLINE
  5
5F
  8
TEXT
 66
     1
 10
0.0
 20
0.0
 30
0.0
  0
VERTEX
  5
132
  8
TEXT
 10
165.686058
 20
-3.488044
 30
0.0
  0
VERTEX
  5
133
  8
TEXT
 10
174.7202947569095
 20
-3.487218997590775
 30
0.0
 42
0.4118760032431544
  0
VERTEX
  5
134
  8
TEXT
 10
175.8754169924977
 20
-2.341077040983329
 30
0.0
  0
VERTEX
  5
135
  8
TEXT
 10
175.8662280436443
 20
46.231022915657
 30
0.0
 42
0.4147734113977594
  0
VERTEX
  5
136
  8
TEXT
 10
174.7086972562312
 20
47.38832149759183
 30
0.0
  0
VERTEX
  5
137
  8
TEXT
 10
142.6536521180346
 20
47.3899479993975
 30
0.0
 42
0.4142269353001954
  0
VERTEX
  5
138
  8
TEXT
 10
141.4951160024091
 20
46.23919874615021
 30
0.0
  0
VERTEX
  5
139
  8
TEXT
 10
141.4995520024082
 20
-2.335055743768799
 30
0.0
 42
0.4142135623731062
  0
VERTEX
  5
13A
  8
TEXT
 10
142.6548542437688
 20
-3.490146997591835
 30
0.0
  0
VERTEX
  5
13B
  8
TEXT
 10
151.686059
 20
-3.489323
 30
0.0
  0
VERTEX
  5
13C
  8
TEXT
 10
151.686401
 20
-7.237753
 30
0.0
  0
VERTEX
  5
13D
  8
TEXT
 10
165.686401
 20
-7.236474
 30
0.0
  0
VERTEX
  5
13E
  8
TEXT
 10
165.686058
 20
-3.488044
 30
0.0
  0
VERTEX
  5
13F
  8
TEXT
 10
165.68469
 20
11.49907
 30
0.0
  0
VERTEX
  5
140
  8
TEXT
 10
173.000954
 20
11.499738
 30
0.0
  0
VERTEX
  5
141
  8
TEXT
 10
172.999127
 20
31.500639
 30
0.0
  0
SEQEND
  5
142
  8
TEXT
  0
POLYLINE
  5
60
  8
TEXT
 66
     1
 10
0.0
 20
0.0
 30
0.0
  0
VERTEX
  5
143
  8
TEXT
 10
151.68606
 20
-3.5
 30
0.0
  0
VERTEX
  5
144
  8
TEXT
 10
151.68469
 20
11.501341
 30
0.0
  0
VERTEX
  5
145
  8
TEXT
 10
143.998785
 20
11.500639
 30
0.0
  0
VERTEX
  5
146
  8
TEXT
 10
143.998785
 20
31.500639
 30
0.0
  0
VERTEX
  5
147
  8
TEXT
 10
143.998785
 20
35.250639
 30
0.0
  0
VERTEX
  5
148
  8
TEXT
 10
151.682521
 20
35.250639
 30
0.0
  0
SEQEND
  5
149
  8
TEXT
  0
ENDSEC
  0
EOF
