  0
SECTION
  2
HEADER
  9
$ACADVER
  1
AC1003
  9
$EXTMIN
 10
0.386077
 20
0.200740
  9
$EXTMAX
 10
10.033400
 20
11.762959
  0
ENDSEC
  0
TABLE
  2
LAYER
 70
	256
  0
LAYER
  2
1
 70
	0
  6
CONTINUOUS
 62
1
  0
ENDTAB
  0
SECTION
  2
ENTITIES
  0
LINE
  8
1
  6
CONTINUOUS
 10
1.4110
 11
1.3867
 20
10.5546
 21
10.4991
 30
0.0000
 31
0.0000
 62
6
  0
LINE
  8
1
  6
CONTINUOUS
 10
1.3867
 11
1.3688
 20
10.4991
 21
10.4227
 30
0.0000
 31
0.0000
 62
6
  0
LINE
  8
1
  6
CONTINUOUS
 10
1.3688
 11
1.3624
 20
10.4227
 21
10.3810
 30
0.0000
 31
0.0000
 62
6
  0
LINE
  8
1
  6
CONTINUOUS
 10
1.3624
 11
1.3524
 20
10.3810
 21
10.3046
 30
0.0000
 31
0.0000
 62
6
  0
LINE
  8
1
  6
CONTINUOUS
 10
1.3524
 11
1.3574
 20
10.3046
 21
10.2421
 30
0.0000
 31
0.0000
 62
6
  0
LINE
  8
1
  6
CONTINUOUS
 10
1.3574
 11
1.3624
 20
10.2421
 21
10.1866
 30
0.0000
 31
0.0000
 62
6
  0
LINE
  8
1
  6
CONTINUOUS
 10
1.3624
 11
1.3941
 20
10.1866
 21
10.0928
 30
0.0000
 31
0.0000
 62
6
  0
LINE
  8
1
  6
CONTINUOUS
 10
1.3941
 11
1.4383
 20
10.0928
 21
10.0189
 30
0.0000
 31
0.0000
 62
6
  0
LINE
  8
1
  6
CONTINUOUS
 10
1.4383
 11
1.4770
 20
10.0189
 21
9.9782
 30
0.0000
 31
0.0000
 62
6
  0
LINE
  8
1
  6
CONTINUOUS
 10
1.4770
 11
1.5221
 20
9.9782
 21
9.9435
 30
0.0000
 31
0.0000
 62
6
  0
LINE
  8
1
  6
CONTINUOUS
 10
1.5221
 11
1.5846
 20
9.9435
 21
9.9053
 30
0.0000
 31
0.0000
 62
6
  0
LINE
  8
1
  6
CONTINUOUS
 10
1.5846
 11
1.6690
 20
9.9053
 21
9.8874
 30
0.0000
 31
0.0000
 62
6
  0
LINE
  8
1
  6
CONTINUOUS
 10
1.7327
 11
1.7964
 20
9.8877
 21
9.8880
 30
0.0000
 31
0.0000
 62
6
  0
LINE
  8
1
  6
CONTINUOUS
 10
1.7964
 11
1.8902
 20
9.8880
 21
9.8880
 30
0.0000
 31
0.0000
 62
6
  0
LINE
  8
1
  6
CONTINUOUS
 10
1.8902
 11
1.9943
 20
9.8880
 21
9.9010
 30
0.0000
 31
0.0000
 62
6
  0
LINE
  8
1
  6
CONTINUOUS
 10
1.9943
 11
2.0881
 20
9.9010
 21
9.9262
 30
0.0000
 31
0.0000
 62
6
  0
LINE
  8
1
  6
CONTINUOUS
 10
2.0881
 11
2.1888
 20
9.9262
 21
9.9575
 30
0.0000
 31
0.0000
 62
6
  0
LINE
  8
1
  6
CONTINUOUS
 10
2.1888
 11
2.2443
 20
9.9575
 21
9.9822
 30
0.0000
 31
0.0000
 62
6
  0
LINE
  8
1
  6
CONTINUOUS
 10
2.2443
 11
2.3207
 20
9.9822
 21
10.0294
 30
0.0000
 31
0.0000
 62
6
  0
LINE
  8
1
  6
CONTINUOUS
 10
2.3207
 11
2.3887
 20
10.0294
 21
10.0715
 30
0.0000
 31
0.0000
 62
6
  0
LINE
  8
1
  6
CONTINUOUS
 10
2.3887
 11
2.3768
 20
10.0715
 21
10.1796
 30
0.0000
 31
0.0000
 62
6
  0
LINE
  8
1
  6
CONTINUOUS
 10
2.3768
 11
2.3589
 20
10.1796
 21
10.2560
 30
0.0000
 31
0.0000
 62
6
  0
LINE
  8
1
  6
CONTINUOUS
 10
2.3589
 11
2.3346
 20
10.2560
 21
10.2977
 30
0.0000
 31
0.0000
 62
6
  0
LINE
  8
1
  6
CONTINUOUS
 10
2.3346
 11
2.3034
 20
10.2977
 21
10.3637
 30
0.0000
 31
0.0000
 62
6
  0
LINE
  8
1
  6
CONTINUOUS
 10
2.3034
 11
2.2582
 20
10.3637
 21
10.4366
 30
0.0000
 31
0.0000
 62
6
  0
LINE
  8
1
  6
CONTINUOUS
 10
2.2582
 11
2.2096
 20
10.4366
 21
10.5095
 30
0.0000
 31
0.0000
 62
6
  0
LINE
  8
1
  6
CONTINUOUS
 10
2.2096
 11
2.1740
 20
10.5095
 21
10.5576
 30
0.0000
 31
0.0000
 62
6
  0
LINE
  8
1
  6
CONTINUOUS
 10
2.1740
 11
2.1089
 20
10.5576
 21
10.6310
 30
0.0000
 31
0.0000
 62
6
  0
LINE
  8
1
  6
CONTINUOUS
 10
2.1089
 11
2.0221
 20
10.6310
 21
10.7213
 30
0.0000
 31
0.0000
 62
6
  0
LINE
  8
1
  6
CONTINUOUS
 10
2.0221
 11
1.9527
 20
10.7213
 21
10.7768
 30
0.0000
 31
0.0000
 62
6
  0
LINE
  8
1
  6
CONTINUOUS
 10
1.9527
 11
1.8711
 20
10.7768
 21
10.8046
 30
0.0000
 31
0.0000
 62
6
  0
LINE
  8
1
  6
CONTINUOUS
 10
1.8711
 11
1.7930
 20
10.8046
 21
10.8086
 30
0.0000
 31
0.0000
 62
6
  0
LINE
  8
1
  6
CONTINUOUS
 10
1.7930
 11
1.6957
 20
10.8086
 21
10.8106
 30
0.0000
 31
0.0000
 62
6
  0
LINE
  8
1
  6
CONTINUOUS
 10
1.6957
 11
1.6263
 20
10.8106
 21
10.7877
 30
0.0000
 31
0.0000
 62
6
  0
LINE
  8
1
  6
CONTINUOUS
 10
1.6263
 11
1.5846
 20
10.7877
 21
10.7630
 30
0.0000
 31
0.0000
 62
6
  0
LINE
  8
1
  6
CONTINUOUS
 10
1.5846
 11
1.5221
 20
10.7630
 21
10.7143
 30
0.0000
 31
0.0000
 62
6
  0
LINE
  8
1
  6
CONTINUOUS
 10
1.5221
 11
1.4943
 20
10.7143
 21
10.6762
 30
0.0000
 31
0.0000
 62
6
  0
LINE
  8
1
  6
CONTINUOUS
 10
1.4943
 11
1.4527
 20
10.6762
 21
10.6241
 30
0.0000
 31
0.0000
 62
6
  0
LINE
  8
1
  6
CONTINUOUS
 10
1.4527
 11
1.4214
 20
10.6241
 21
10.5824
 30
0.0000
 31
0.0000
 62
6
  0
LINE
  8
1
  6
CONTINUOUS
 10
1.4214
 11
1.4110
 20
10.5824
 21
10.5546
 30
0.0000
 31
0.0000
 62
6
  0
LINE
  8
1
  6
CONTINUOUS
 10
5.8103
 11
5.7848
 20
5.0037
 21
4.9667
 30
0.0000
 31
0.0000
 62
6
  0
LINE
  8
1
  6
CONTINUOUS
 10
5.7848
 11
5.7659
 20
4.9667
 21
4.9296
 30
0.0000
 31
0.0000
 62
6
  0
LINE
  8
1
  6
CONTINUOUS
 10
5.7659
 11
5.7564
 20
4.9296
 21
4.8903
 30
0.0000
 31
0.0000
 62
6
  0
LINE
  8
1
  6
CONTINUOUS
 10
5.7564
 11
5.7544
 20
4.8903
 21
4.8556
 30
0.0000
 31
0.0000
 62
6
  0
LINE
  8
1
  6
CONTINUOUS
 10
5.7544
 11
5.7549
 20
4.8556
 21
4.8509
 30
0.0000
 31
0.0000
 62
6
  0
LINE
  8
1
  6
CONTINUOUS
 10
5.7549
 11
5.7556
 20
4.8509
 21
4.8402
 30
0.0000
 31
0.0000
 62
6
  0
LINE
  8
1
  6
CONTINUOUS
 10
5.7556
 11
5.7555
 20
4.8402
 21
4.8340
 30
0.0000
 31
0.0000
 62
6
  0
LINE
  8
1
  6
CONTINUOUS
 10
5.7555
 11
5.7549
 20
4.8340
 21
4.8281
 30
0.0000
 31
0.0000
 62
6
  0
LINE
  8
1
  6
CONTINUOUS
 10
5.7549
 11
5.7536
 20
4.8281
 21
4.8231
 30
0.0000
 31
0.0000
 62
6
  0
LINE
  8
1
  6
CONTINUOUS
 10
5.7536
 11
5.7515
 20
4.8231
 21
4.8196
 30
0.0000
 31
0.0000
 62
6
  0
LINE
  8
1
  6
CONTINUOUS
 10
5.7515
 11
5.7496
 20
4.8196
 21
4.8150
 30
0.0000
 31
0.0000
 62
6
  0
LINE
  8
1
  6
CONTINUOUS
 10
5.7496
 11
5.7489
 20
4.8150
 21
4.8071
 30
0.0000
 31
0.0000
 62
6
  0
LINE
  8
1
  6
CONTINUOUS
 10
5.7489
 11
5.7491
 20
4.8071
 21
4.7973
 30
0.0000
 31
0.0000
 62
6
  0
LINE
  8
1
  6
CONTINUOUS
 10
5.7491
 11
5.7499
 20
4.7973
 21
4.7865
 30
0.0000
 31
0.0000
 62
6
  0
LINE
  8
1
  6
CONTINUOUS
 10
5.7499
 11
5.7522
 20
4.7865
 21
4.7672
 30
0.0000
 31
0.0000
 62
6
  0
LINE
  8
1
  6
CONTINUOUS
 10
5.7522
 11
5.7535
 20
4.7672
 21
4.7587
 30
0.0000
 31
0.0000
 62
6
  0
LINE
  8
1
  6
CONTINUOUS
 10
5.7535
 11
5.7573
 20
4.7587
 21
4.7143
 30
0.0000
 31
0.0000
 62
6
  0
LINE
  8
1
  6
CONTINUOUS
 10
5.7573
 11
5.7892
 20
4.7143
 21
4.6657
 30
0.0000
 31
0.0000
 62
6
  0
LINE
  8
1
  6
CONTINUOUS
 10
5.7892
 11
5.8103
 20
4.6657
 21
4.6333
 30
0.0000
 31
0.0000
 62
6
  0
LINE
  8
1
  6
CONTINUOUS
 10
5.8103
 11
5.8140
 20
4.6333
 21
4.6300
 30
0.0000
 31
0.0000
 62
6
  0
LINE
  8
1
  6
CONTINUOUS
 10
5.8140
 11
5.8222
 20
4.6300
 21
4.6222
 30
0.0000
 31
0.0000
 62
6
  0
LINE
  8
1
  6
CONTINUOUS
 10
5.8222
 11
5.8267
 20
4.6222
 21
4.6175
 30
0.0000
 31
0.0000
 62
6
  0
LINE
  8
1
  6
CONTINUOUS
 10
5.8267
 11
5.8308
 20
4.6175
 21
4.6130
 30
0.0000
 31
0.0000
 62
6
  0
LINE
  8
1
  6
CONTINUOUS
 10
5.8308
 11
5.8340
 20
4.6130
 21
4.6089
 30
0.0000
 31
0.0000
 62
6
  0
LINE
  8
1
  6
CONTINUOUS
 10
5.8340
 11
5.8358
 20
4.6089
 21
4.6058
 30
0.0000
 31
0.0000
 62
6
  0
LINE
  8
1
  6
CONTINUOUS
 10
5.8358
 11
5.8378
 20
4.6058
 21
4.6023
 30
0.0000
 31
0.0000
 62
6
  0
LINE
  8
1
  6
CONTINUOUS
 10
5.8378
 11
5.8418
 20
4.6023
 21
4.5974
 30
0.0000
 31
0.0000
 62
6
  0
LINE
  8
1
  6
CONTINUOUS
 10
5.8418
 11
5.8470
 20
4.5974
 21
4.5917
 30
0.0000
 31
0.0000
 62
6
  0
LINE
  8
1
  6
CONTINUOUS
 10
5.8470
 11
5.8528
 20
4.5917
 21
4.5857
 30
0.0000
 31
0.0000
 62
6
  0
LINE
  8
1
  6
CONTINUOUS
 10
5.8528
 11
5.8634
 20
4.5857
 21
4.5753
 30
0.0000
 31
0.0000
 62
6
  0
LINE
  8
1
  6
CONTINUOUS
 10
5.8634
 11
5.8682
 20
4.5753
 21
4.5708
 30
0.0000
 31
0.0000
 62
6
  0
LINE
  8
1
  6
CONTINUOUS
 10
5.8682
 11
5.8960
 20
4.5708
 21
4.5477
 30
0.0000
 31
0.0000
 62
6
  0
LINE
  8
1
  6
CONTINUOUS
 10
5.8960
 11
5.9446
 20
4.5477
 21
4.5106
 30
0.0000
 31
0.0000
 62
6
  0
LINE
  8
1
  6
CONTINUOUS
 10
5.9446
 11
5.9839
 20
4.5106
 21
4.4829
 30
0.0000
 31
0.0000
 62
6
  0
LINE
  8
1
  6
CONTINUOUS
 10
5.9839
 11
6.0117
 20
4.4829
 21
4.4643
 30
0.0000
 31
0.0000
 62
6
  0
LINE
  8
1
  6
CONTINUOUS
 10
6.0117
 11
6.0461
 20
4.4643
 21
4.4342
 30
0.0000
 31
0.0000
 62
6
  0
LINE
  8
1
  6
CONTINUOUS
 10
6.0461
 11
6.0811
 20
4.4342
 21
4.4134
 30
0.0000
 31
0.0000
 62
6
  0
LINE
  8
1
  6
CONTINUOUS
 10
6.0811
 11
6.1491
 20
4.4134
 21
4.3667
 30
0.0000
 31
0.0000
 62
6
  0
LINE
  8
1
  6
CONTINUOUS
 10
6.1491
 11
6.2154
 20
4.3667
 21
4.3307
 30
0.0000
 31
0.0000
 62
6
  0
LINE
  8
1
  6
CONTINUOUS
 10
6.2154
 11
6.2524
 20
4.3307
 21
4.3092
 30
0.0000
 31
0.0000
 62
6
  0
LINE
  8
1
  6
CONTINUOUS
 10
6.2524
 11
6.2907
 20
4.3092
 21
4.2876
 30
0.0000
 31
0.0000
 62
6
  0
LINE
  8
1
  6
CONTINUOUS
 10
6.2907
 11
6.3543
 20
4.2876
 21
4.2711
 30
0.0000
 31
0.0000
 62
6
  0
LINE
  8
1
  6
CONTINUOUS
 10
6.3543
 11
6.4307
 20
4.2711
 21
4.2731
 30
0.0000
 31
0.0000
 62
6
  0
LINE
  8
1
  6
CONTINUOUS
 10
6.4307
 11
6.4585
 20
4.2731
 21
4.2823
 30
0.0000
 31
0.0000
 62
6
  0
LINE
  8
1
  6
CONTINUOUS
 10
6.4585
 11
6.5047
 20
4.2823
 21
4.3248
 30
0.0000
 31
0.0000
 62
6
  0
LINE
  8
1
  6
CONTINUOUS
 10
6.5047
 11
6.5258
 20
4.3248
 21
4.3631
 30
0.0000
 31
0.0000
 62
6
  0
LINE
  8
1
  6
CONTINUOUS
 10
6.5258
 11
6.5545
 20
4.3631
 21
4.4273
 30
0.0000
 31
0.0000
 62
6
  0
LINE
  8
1
  6
CONTINUOUS
 10
6.5545
 11
6.5777
 20
4.4273
 21
4.5015
 30
0.0000
 31
0.0000
 62
6
  0
LINE
  8
1
  6
CONTINUOUS
 10
6.5777
 11
6.5895
 20
4.5015
 21
4.5801
 30
0.0000
 31
0.0000
 62
6
  0
LINE
  8
1
  6
CONTINUOUS
 10
6.5895
 11
6.5945
 20
4.5801
 21
4.6542
 30
0.0000
 31
0.0000
 62
6
  0
LINE
  8
1
  6
CONTINUOUS
 10
6.5965
 11
6.5985
 20
4.7942
 21
4.9342
 30
0.0000
 31
0.0000
 62
6
  0
LINE
  8
1
  6
CONTINUOUS
 10
6.5985
 11
6.5922
 20
4.9342
 21
4.9705
 30
0.0000
 31
0.0000
 62
6
  0
LINE
  8
1
  6
CONTINUOUS
 10
6.5922
 11
6.5596
 20
4.9705
 21
5.0037
 30
0.0000
 31
0.0000
 62
6
  0
LINE
  8
1
  6
CONTINUOUS
 10
6.5596
 11
6.5051
 20
5.0037
 21
5.0292
 30
0.0000
 31
0.0000
 62
6
  0
LINE
  8
1
  6
CONTINUOUS
 10
6.5051
 11
6.4261
 20
5.0292
 21
5.0670
 30
0.0000
 31
0.0000
 62
6
  0
LINE
  8
1
  6
CONTINUOUS
 10
6.4261
 11
6.3815
 20
5.0670
 21
5.0828
 30
0.0000
 31
0.0000
 62
6
  0
LINE
  8
1
  6
CONTINUOUS
 10
6.3815
 11
6.3329
 20
5.0828
 21
5.0980
 30
0.0000
 31
0.0000
 62
6
  0
LINE
  8
1
  6
CONTINUOUS
 10
6.3329
 11
6.2548
 20
5.0980
 21
5.1102
 30
0.0000
 31
0.0000
 62
6
  0
LINE
  8
1
  6
CONTINUOUS
 10
6.2548
 11
6.1714
 20
5.1102
 21
5.1212
 30
0.0000
 31
0.0000
 62
6
  0
LINE
  8
1
  6
CONTINUOUS
 10
6.1714
 11
6.0904
 20
5.1212
 21
5.1241
 30
0.0000
 31
0.0000
 62
6
  0
LINE
  8
1
  6
CONTINUOUS
 10
6.0904
 11
6.0233
 20
5.1241
 21
5.1194
 30
0.0000
 31
0.0000
 62
6
  0
LINE
  8
1
  6
CONTINUOUS
 10
6.0233
 11
5.9631
 20
5.1194
 21
5.1009
 30
0.0000
 31
0.0000
 62
6
  0
LINE
  8
1
  6
CONTINUOUS
 10
5.9631
 11
5.9098
 20
5.1009
 21
5.0847
 30
0.0000
 31
0.0000
 62
6
  0
LINE
  8
1
  6
CONTINUOUS
 10
5.9098
 11
5.8774
 20
5.0847
 21
5.0662
 30
0.0000
 31
0.0000
 62
6
  0
LINE
  8
1
  6
CONTINUOUS
 10
5.8774
 11
5.8386
 20
5.0662
 21
5.0348
 30
0.0000
 31
0.0000
 62
6
  0
LINE
  8
1
  6
CONTINUOUS
 10
5.8386
 11
5.8103
 20
5.0348
 21
5.0037
 30
0.0000
 31
0.0000
 62
6
  0
LINE
  8
1
  6
CONTINUOUS
 10
9.8850
 11
8.3488
 20
0.2007
 21
0.2007
 30
0.0000
 31
0.0000
 62
6
  0
LINE
  8
1
  6
CONTINUOUS
 10
8.3488
 11
8.3488
 20
0.2007
 21
0.4507
 30
0.0000
 31
0.0000
 62
6
  0
LINE
  8
1
  6
CONTINUOUS
 10
8.3488
 11
7.5954
 20
0.4507
 21
0.4507
 30
0.0000
 31
0.0000
 62
6
  0
LINE
  8
1
  6
CONTINUOUS
 10
7.5954
 11
7.5954
 20
0.4507
 21
0.2007
 30
0.0000
 31
0.0000
 62
6
  0
LINE
  8
1
  6
CONTINUOUS
 10
7.5954
 11
2.8523
 20
0.2007
 21
0.2007
 30
0.0000
 31
0.0000
 62
6
  0
LINE
  8
1
  6
CONTINUOUS
 10
2.8523
 11
2.8523
 20
0.2007
 21
0.4507
 30
0.0000
 31
0.0000
 62
6
  0
LINE
  8
1
  6
CONTINUOUS
 10
2.8523
 11
2.0988
 20
0.4507
 21
0.4507
 30
0.0000
 31
0.0000
 62
6
  0
LINE
  8
1
  6
CONTINUOUS
 10
2.0988
 11
2.0988
 20
0.4507
 21
0.2007
 30
0.0000
 31
0.0000
 62
6
  0
LINE
  8
1
  6
CONTINUOUS
 10
2.0988
 11
0.9318
 20
0.2007
 21
0.2007
 30
0.0000
 31
0.0000
 62
6
  0
LINE
  8
1
  6
CONTINUOUS
 10
0.9318
 11
0.9019
 20
0.2007
 21
0.2041
 30
0.0000
 31
0.0000
 62
6
  0
LINE
  8
1
  6
CONTINUOUS
 10
0.9019
 11
0.8740
 20
0.2041
 21
0.2138
 30
0.0000
 31
0.0000
 62
6
  0
LINE
  8
1
  6
CONTINUOUS
 10
0.8740
 11
0.8488
 20
0.2138
 21
0.2292
 30
0.0000
 31
0.0000
 62
6
  0
LINE
  8
1
  6
CONTINUOUS
 10
0.8488
 11
0.8269
 20
0.2292
 21
0.2496
 30
0.0000
 31
0.0000
 62
6
  0
LINE
  8
1
  6
CONTINUOUS
 10
0.8269
 11
0.8088
 20
0.2496
 21
0.2742
 30
0.0000
 31
0.0000
 62
6
  0
LINE
  8
1
  6
CONTINUOUS
 10
0.8088
 11
0.7951
 20
0.2742
 21
0.3025
 30
0.0000
 31
0.0000
 62
6
  0
LINE
  8
1
  6
CONTINUOUS
 10
0.7951
 11
0.7864
 20
0.3025
 21
0.3338
 30
0.0000
 31
0.0000
 62
6
  0
LINE
  8
1
  6
CONTINUOUS
 10
0.7864
 11
0.7834
 20
0.3338
 21
0.3674
 30
0.0000
 31
0.0000
 62
6
  0
LINE
  8
1
  6
CONTINUOUS
 10
0.7834
 11
0.7834
 20
0.3674
 21
2.0341
 30
0.0000
 31
0.0000
 62
6
  0
LINE
  8
1
  6
CONTINUOUS
 10
0.7834
 11
0.7864
 20
2.0341
 21
2.0677
 30
0.0000
 31
0.0000
 62
6
  0
LINE
  8
1
  6
CONTINUOUS
 10
0.7864
 11
0.7951
 20
2.0677
 21
2.0989
 30
0.0000
 31
0.0000
 62
6
  0
LINE
  8
1
  6
CONTINUOUS
 10
0.7951
 11
0.8088
 20
2.0989
 21
2.1273
 30
0.0000
 31
0.0000
 62
6
  0
LINE
  8
1
  6
CONTINUOUS
 10
0.8088
 11
0.8269
 20
2.1273
 21
2.1519
 30
0.0000
 31
0.0000
 62
6
  0
LINE
  8
1
  6
CONTINUOUS
 10
0.8269
 11
0.8488
 20
2.1519
 21
2.1723
 30
0.0000
 31
0.0000
 62
6
  0
LINE
  8
1
  6
CONTINUOUS
 10
0.8488
 11
0.8740
 20
2.1723
 21
2.1876
 30
0.0000
 31
0.0000
 62
6
  0
LINE
  8
1
  6
CONTINUOUS
 10
0.8740
 11
0.9019
 20
2.1876
 21
2.1974
 30
0.0000
 31
0.0000
 62
6
  0
LINE
  8
1
  6
CONTINUOUS
 10
0.9019
 11
0.9318
 20
2.1974
 21
2.2007
 30
0.0000
 31
0.0000
 62
6
  0
LINE
  8
1
  6
CONTINUOUS
 10
0.9318
 11
1.5096
 20
2.2007
 21
2.2007
 30
0.0000
 31
0.0000
 62
6
  0
LINE
  8
1
  6
CONTINUOUS
 10
9.8850
 11
9.9149
 20
2.2007
 21
2.1974
 30
0.0000
 31
0.0000
 62
6
  0
LINE
  8
1
  6
CONTINUOUS
 10
9.9149
 11
9.9428
 20
2.1974
 21
2.1876
 30
0.0000
 31
0.0000
 62
6
  0
LINE
  8
1
  6
CONTINUOUS
 10
9.9428
 11
9.9680
 20
2.1876
 21
2.1723
 30
0.0000
 31
0.0000
 62
6
  0
LINE
  8
1
  6
CONTINUOUS
 10
9.9680
 11
9.9899
 20
2.1723
 21
2.1519
 30
0.0000
 31
0.0000
 62
6
  0
LINE
  8
1
  6
CONTINUOUS
 10
9.9899
 11
10.0081
 20
2.1519
 21
2.1273
 30
0.0000
 31
0.0000
 62
6
  0
LINE
  8
1
  6
CONTINUOUS
 10
10.0081
 11
10.0217
 20
2.1273
 21
2.0989
 30
0.0000
 31
0.0000
 62
6
  0
LINE
  8
1
  6
CONTINUOUS
 10
10.0217
 11
10.0304
 20
2.0989
 21
2.0677
 30
0.0000
 31
0.0000
 62
6
  0
LINE
  8
1
  6
CONTINUOUS
 10
10.0304
 11
10.0334
 20
2.0677
 21
2.0341
 30
0.0000
 31
0.0000
 62
6
  0
LINE
  8
1
  6
CONTINUOUS
 10
10.0334
 11
10.0334
 20
2.0341
 21
0.3674
 30
0.0000
 31
0.0000
 62
6
  0
LINE
  8
1
  6
CONTINUOUS
 10
10.0334
 11
10.0304
 20
0.3674
 21
0.3338
 30
0.0000
 31
0.0000
 62
6
  0
LINE
  8
1
  6
CONTINUOUS
 10
10.0304
 11
10.0217
 20
0.3338
 21
0.3025
 30
0.0000
 31
0.0000
 62
6
  0
LINE
  8
1
  6
CONTINUOUS
 10
10.0217
 11
10.0081
 20
0.3025
 21
0.2742
 30
0.0000
 31
0.0000
 62
6
  0
LINE
  8
1
  6
CONTINUOUS
 10
10.0081
 11
9.9899
 20
0.2742
 21
0.2496
 30
0.0000
 31
0.0000
 62
6
  0
LINE
  8
1
  6
CONTINUOUS
 10
9.9899
 11
9.9680
 20
0.2496
 21
0.2292
 30
0.0000
 31
0.0000
 62
6
  0
LINE
  8
1
  6
CONTINUOUS
 10
9.9680
 11
9.9428
 20
0.2292
 21
0.2138
 30
0.0000
 31
0.0000
 62
6
  0
LINE
  8
1
  6
CONTINUOUS
 10
9.9428
 11
9.9149
 20
0.2138
 21
0.2041
 30
0.0000
 31
0.0000
 62
6
  0
LINE
  8
1
  6
CONTINUOUS
 10
9.9149
 11
9.8850
 20
0.2041
 21
0.2007
 30
0.0000
 31
0.0000
 62
6
  0
LINE
  8
1
  6
CONTINUOUS
 10
10.0185
 11
10.0013
 20
3.1414
 21
3.2560
 30
0.0000
 31
0.0000
 62
6
  0
LINE
  8
1
  6
CONTINUOUS
 10
10.0013
 11
9.9637
 20
3.2560
 21
3.4113
 30
0.0000
 31
0.0000
 62
6
  0
LINE
  8
1
  6
CONTINUOUS
 10
9.9637
 11
9.9387
 20
3.4113
 21
3.4921
 30
0.0000
 31
0.0000
 62
6
  0
LINE
  8
1
  6
CONTINUOUS
 10
9.9387
 11
9.9145
 20
3.4921
 21
3.5963
 30
0.0000
 31
0.0000
 62
6
  0
LINE
  8
1
  6
CONTINUOUS
 10
9.9145
 11
9.8908
 20
3.5963
 21
3.7178
 30
0.0000
 31
0.0000
 62
6
  0
LINE
  8
1
  6
CONTINUOUS
 10
9.8908
 11
9.8886
 20
3.7178
 21
4.2248
 30
0.0000
 31
0.0000
 62
6
  0
LINE
  8
1
  6
CONTINUOUS
 10
9.8886
 11
9.8618
 20
4.2248
 21
4.3498
 30
0.0000
 31
0.0000
 62
6
  0
LINE
  8
1
  6
CONTINUOUS
 10
9.8618
 11
9.8138
 20
4.3498
 21
4.5026
 30
0.0000
 31
0.0000
 62
6
  0
LINE
  8
1
  6
CONTINUOUS
 10
9.8138
 11
9.7964
 20
4.5026
 21
4.5963
 30
0.0000
 31
0.0000
 62
6
  0
LINE
  8
1
  6
CONTINUOUS
 10
9.7964
 11
9.7721
 20
4.5963
 21
4.7595
 30
0.0000
 31
0.0000
 62
6
  0
LINE
  8
1
  6
CONTINUOUS
 10
9.7721
 11
9.7825
 20
4.7595
 21
4.9053
 30
0.0000
 31
0.0000
 62
6
  0
LINE
  8
1
  6
CONTINUOUS
 10
9.7825
 11
9.7929
 20
4.9053
 21
5.0164
 30
0.0000
 31
0.0000
 62
6
  0
LINE
  8
1
  6
CONTINUOUS
 10
9.7929
 11
9.8311
 20
5.0164
 21
5.1831
 30
0.0000
 31
0.0000
 62
6
  0
LINE
  8
1
  6
CONTINUOUS
 10
9.8311
 11
9.8396
 20
5.1831
 21
5.3255
 30
0.0000
 31
0.0000
 62
6
  0
LINE
  8
1
  6
CONTINUOUS
 10
9.8396
 11
9.8242
 20
5.3255
 21
5.4644
 30
0.0000
 31
0.0000
 62
6
  0
LINE
  8
1
  6
CONTINUOUS
 10
9.8242
 11
9.7825
 20
5.4644
 21
5.6137
 30
0.0000
 31
0.0000
 62
6
  0
LINE
  8
1
  6
CONTINUOUS
 10
9.7825
 11
9.7374
 20
5.6137
 21
5.7248
 30
0.0000
 31
0.0000
 62
6
  0
LINE
  8
1
  6
CONTINUOUS
 10
9.7374
 11
9.6818
 20
5.7248
 21
5.8532
 30
0.0000
 31
0.0000
 62
6
  0
LINE
  8
1
  6
CONTINUOUS
 10
9.6818
 11
9.6263
 20
5.8532
 21
5.9470
 30
0.0000
 31
0.0000
 62
6
  0
LINE
  8
1
  6
CONTINUOUS
 10
9.6263
 11
9.5831
 20
5.9470
 21
6.0789
 30
0.0000
 31
0.0000
 62
6
  0
LINE
  8
1
  6
CONTINUOUS
 10
9.5831
 11
9.5638
 20
6.0789
 21
6.1518
 30
0.0000
 31
0.0000
 62
6
  0
LINE
  8
1
  6
CONTINUOUS
 10
9.5638
 11
9.5602
 20
6.1518
 21
6.3880
 30
0.0000
 31
0.0000
 62
6
  0
LINE
  8
1
  6
CONTINUOUS
 10
9.5602
 11
9.5777
 20
6.3880
 21
6.4574
 30
0.0000
 31
0.0000
 62
6
  0
LINE
  8
1
  6
CONTINUOUS
 10
9.5777
 11
9.6050
 20
6.4574
 21
6.5268
 30
0.0000
 31
0.0000
 62
6
  0
LINE
  8
1
  6
CONTINUOUS
 10
9.6050
 11
9.6263
 20
6.5268
 21
6.5998
 30
0.0000
 31
0.0000
 62
6
  0
LINE
  8
1
  6
CONTINUOUS
 10
9.6263
 11
9.6506
 20
6.5998
 21
6.6727
 30
0.0000
 31
0.0000
 62
6
  0
LINE
  8
1
  6
CONTINUOUS
 10
9.6506
 11
9.7048
 20
6.6727
 21
6.8498
 30
0.0000
 31
0.0000
 62
6
  0
LINE
  8
1
  6
CONTINUOUS
 10
9.7048
 11
9.7145
 20
6.8498
 21
6.9539
 30
0.0000
 31
0.0000
 62
6
  0
LINE
  8
1
  6
CONTINUOUS
 10
9.7145
 11
9.7189
 20
6.9539
 21
7.1484
 30
0.0000
 31
0.0000
 62
6
  0
LINE
  8
1
  6
CONTINUOUS
 10
9.7189
 11
9.6997
 20
7.1484
 21
7.3116
 30
0.0000
 31
0.0000
 62
6
  0
LINE
  8
1
  6
CONTINUOUS
 10
9.6997
 11
9.6610
 20
7.3116
 21
7.4539
 30
0.0000
 31
0.0000
 62
6
  0
LINE
  8
1
  6
CONTINUOUS
 10
9.6610
 11
9.6159
 20
7.4539
 21
7.5859
 30
0.0000
 31
0.0000
 62
6
  0
LINE
  8
1
  6
CONTINUOUS
 10
9.6159
 11
9.5117
 20
7.5859
 21
7.8185
 30
0.0000
 31
0.0000
 62
6
  0
LINE
  8
1
  6
CONTINUOUS
 10
9.5117
 11
9.4353
 20
7.8185
 21
7.9852
 30
0.0000
 31
0.0000
 62
6
  0
LINE
  8
1
  6
CONTINUOUS
 10
9.4353
 11
9.3971
 20
7.9852
 21
8.0581
 30
0.0000
 31
0.0000
 62
6
  0
LINE
  8
1
  6
CONTINUOUS
 10
9.3971
 11
9.3570
 20
8.0581
 21
8.1360
 30
0.0000
 31
0.0000
 62
6
  0
LINE
  8
1
  6
CONTINUOUS
 10
9.3570
 11
9.3068
 20
8.1360
 21
8.2070
 30
0.0000
 31
0.0000
 62
6
  0
LINE
  8
1
  6
CONTINUOUS
 10
9.3068
 11
9.2200
 20
8.2070
 21
8.3197
 30
0.0000
 31
0.0000
 62
6
  0
LINE
  8
1
  6
CONTINUOUS
 10
9.2200
 11
9.0778
 20
8.3197
 21
8.4678
 30
0.0000
 31
0.0000
 62
6
  0
LINE
  8
1
  6
CONTINUOUS
 10
9.0778
 11
8.9756
 20
8.4678
 21
8.5547
 30
0.0000
 31
0.0000
 62
6
  0
LINE
  8
1
  6
CONTINUOUS
 10
8.9756
 11
8.8485
 20
8.5547
 21
8.6588
 30
0.0000
 31
0.0000
 62
6
  0
LINE
  8
1
  6
CONTINUOUS
 10
8.8485
 11
8.7722
 20
8.6588
 21
8.7223
 30
0.0000
 31
0.0000
 62
6
  0
LINE
  8
1
  6
CONTINUOUS
 10
8.7722
 11
8.6883
 20
8.7223
 21
8.7812
 30
0.0000
 31
0.0000
 62
6
  0
LINE
  8
1
  6
CONTINUOUS
 10
8.6883
 11
8.5985
 20
8.7812
 21
8.8393
 30
0.0000
 31
0.0000
 62
6
  0
LINE
  8
1
  6
CONTINUOUS
 10
8.5985
 11
8.5117
 20
8.8393
 21
8.8984
 30
0.0000
 31
0.0000
 62
6
  0
LINE
  8
1
  6
CONTINUOUS
 10
8.5117
 11
8.4492
 20
8.8984
 21
8.9435
 30
0.0000
 31
0.0000
 62
6
  0
LINE
  8
1
  6
CONTINUOUS
 10
8.4492
 11
8.3416
 20
8.9435
 21
9.0105
 30
0.0000
 31
0.0000
 62
6
  0
LINE
  8
1
  6
CONTINUOUS
 10
8.3416
 11
8.2141
 20
9.0105
 21
9.0899
 30
0.0000
 31
0.0000
 62
6
  0
LINE
  8
1
  6
CONTINUOUS
 10
8.2141
 11
8.0916
 20
9.0899
 21
9.1643
 30
0.0000
 31
0.0000
 62
6
  0
LINE
  8
1
  6
CONTINUOUS
 10
8.0916
 11
8.0082
 20
9.1643
 21
9.2143
 30
0.0000
 31
0.0000
 62
6
  0
LINE
  8
1
  6
CONTINUOUS
 10
8.0082
 11
7.9423
 20
9.2143
 21
9.2460
 30
0.0000
 31
0.0000
 62
6
  0
LINE
  8
1
  6
CONTINUOUS
 10
7.9423
 11
7.8693
 20
9.2460
 21
9.2843
 30
0.0000
 31
0.0000
 62
6
  0
LINE
  8
1
  6
CONTINUOUS
 10
7.8693
 11
7.7890
 20
9.2843
 21
9.3077
 30
0.0000
 31
0.0000
 62
6
  0
LINE
  8
1
  6
CONTINUOUS
 10
7.7890
 11
7.7304
 20
9.3077
 21
9.3185
 30
0.0000
 31
0.0000
 62
6
  0
LINE
  8
1
  6
CONTINUOUS
 10
7.7304
 11
7.6436
 20
9.3185
 21
9.3339
 30
0.0000
 31
0.0000
 62
6
  0
LINE
  8
1
  6
CONTINUOUS
 10
7.6436
 11
7.5186
 20
9.3339
 21
9.3388
 30
0.0000
 31
0.0000
 62
6
  0
LINE
  8
1
  6
CONTINUOUS
 10
7.5186
 11
6.2513
 20
9.3388
 21
9.3582
 30
0.0000
 31
0.0000
 62
6
  0
LINE
  8
1
  6
CONTINUOUS
 10
6.2513
 11
6.0950
 20
9.3582
 21
9.3706
 30
0.0000
 31
0.0000
 62
6
  0
LINE
  8
1
  6
CONTINUOUS
 10
6.0950
 11
6.0013
 20
9.3706
 21
9.3804
 30
0.0000
 31
0.0000
 62
6
  0
LINE
  8
1
  6
CONTINUOUS
 10
6.0013
 11
5.8381
 20
9.3804
 21
9.4133
 30
0.0000
 31
0.0000
 62
6
  0
LINE
  8
1
  6
CONTINUOUS
 10
5.8381
 11
5.7374
 20
9.4133
 21
9.4351
 30
0.0000
 31
0.0000
 62
6
  0
LINE
  8
1
  6
CONTINUOUS
 10
5.7374
 11
5.6575
 20
9.4351
 21
9.4643
 30
0.0000
 31
0.0000
 62
6
  0
LINE
  8
1
  6
CONTINUOUS
 10
5.6575
 11
5.5013
 20
9.4643
 21
9.5893
 30
0.0000
 31
0.0000
 62
6
  0
LINE
  8
1
  6
CONTINUOUS
 10
5.5013
 11
5.4353
 20
9.5893
 21
9.6623
 30
0.0000
 31
0.0000
 62
6
  0
LINE
  8
1
  6
CONTINUOUS
 10
5.4353
 11
5.2929
 20
9.6623
 21
9.7838
 30
0.0000
 31
0.0000
 62
6
  0
LINE
  8
1
  6
CONTINUOUS
 10
5.2929
 11
5.2078
 20
9.7838
 21
9.8532
 30
0.0000
 31
0.0000
 62
6
  0
LINE
  8
1
  6
CONTINUOUS
 10
5.2078
 11
5.0603
 20
9.8532
 21
9.9400
 30
0.0000
 31
0.0000
 62
6
  0
LINE
  8
1
  6
CONTINUOUS
 10
5.0603
 11
4.9110
 20
9.9400
 21
9.9861
 30
0.0000
 31
0.0000
 62
6
  0
LINE
  8
1
  6
CONTINUOUS
 10
4.9110
 11
4.8138
 20
9.9861
 21
10.0243
 30
0.0000
 31
0.0000
 62
6
  0
LINE
  8
1
  6
CONTINUOUS
 10
4.8138
 11
4.7235
 20
10.0243
 21
10.0471
 30
0.0000
 31
0.0000
 62
6
  0
LINE
  8
1
  6
CONTINUOUS
 10
4.7235
 11
4.6298
 20
10.0471
 21
10.0754
 30
0.0000
 31
0.0000
 62
6
  0
LINE
  8
1
  6
CONTINUOUS
 10
4.6298
 11
4.5221
 20
10.0754
 21
10.0998
 30
0.0000
 31
0.0000
 62
6
  0
LINE
  8
1
  6
CONTINUOUS
 10
4.5221
 11
4.4353
 20
10.0998
 21
10.0998
 30
0.0000
 31
0.0000
 62
6
  0
LINE
  8
1
  6
CONTINUOUS
 10
4.4353
 11
3.9145
 20
10.0998
 21
10.1022
 30
0.0000
 31
0.0000
 62
6
  0
LINE
  8
1
  6
CONTINUOUS
 10
3.9145
 11
3.8346
 20
10.1022
 21
10.1171
 30
0.0000
 31
0.0000
 62
6
  0
LINE
  8
1
  6
CONTINUOUS
 10
3.8346
 11
3.7617
 20
10.1171
 21
10.1553
 30
0.0000
 31
0.0000
 62
6
  0
LINE
  8
1
  6
CONTINUOUS
 10
3.7617
 11
3.6784
 20
10.1553
 21
10.2109
 30
0.0000
 31
0.0000
 62
6
  0
LINE
  8
1
  6
CONTINUOUS
 10
3.6784
 11
3.6193
 20
10.2109
 21
10.2525
 30
0.0000
 31
0.0000
 62
6
  0
LINE
  8
1
  6
CONTINUOUS
 10
3.6193
 11
3.5568
 20
10.2525
 21
10.2987
 30
0.0000
 31
0.0000
 62
6
  0
LINE
  8
1
  6
CONTINUOUS
 10
3.5568
 11
3.5186
 20
10.2987
 21
10.3255
 30
0.0000
 31
0.0000
 62
6
  0
LINE
  8
1
  6
CONTINUOUS
 10
3.5186
 11
3.4492
 20
10.3255
 21
10.3706
 30
0.0000
 31
0.0000
 62
6
  0
LINE
  8
1
  6
CONTINUOUS
 10
3.4492
 11
3.3891
 20
10.3706
 21
10.3795
 30
0.0000
 31
0.0000
 62
6
  0
LINE
  8
1
  6
CONTINUOUS
 10
3.3891
 11
3.0221
 20
10.3795
 21
10.3795
 30
0.0000
 31
0.0000
 62
6
  0
LINE
  8
1
  6
CONTINUOUS
 10
3.0221
 11
2.9735
 20
10.3795
 21
10.4192
 30
0.0000
 31
0.0000
 62
6
  0
LINE
  8
1
  6
CONTINUOUS
 10
2.9735
 11
2.9664
 20
10.4192
 21
10.4259
 30
0.0000
 31
0.0000
 62
6
  0
LINE
  8
1
  6
CONTINUOUS
 10
2.9664
 11
2.9563
 20
10.4259
 21
10.4372
 30
0.0000
 31
0.0000
 62
6
  0
LINE
  8
1
  6
CONTINUOUS
 10
2.9563
 11
2.9443
 20
10.4372
 21
10.4513
 30
0.0000
 31
0.0000
 62
6
  0
LINE
  8
1
  6
CONTINUOUS
 10
2.9443
 11
2.9318
 20
10.4513
 21
10.4665
 30
0.0000
 31
0.0000
 62
6
  0
LINE
  8
1
  6
CONTINUOUS
 10
2.9318
 11
2.9100
 20
10.4665
 21
10.4939
 30
0.0000
 31
0.0000
 62
6
  0
LINE
  8
1
  6
CONTINUOUS
 10
2.9100
 11
2.9006
 20
10.4939
 21
10.5060
 30
0.0000
 31
0.0000
 62
6
  0
LINE
  8
1
  6
CONTINUOUS
 10
2.9006
 11
2.8589
 20
10.5060
 21
10.5859
 30
0.0000
 31
0.0000
 62
6
  0
LINE
  8
1
  6
CONTINUOUS
 10
2.8589
 11
2.8277
 20
10.5859
 21
10.6345
 30
0.0000
 31
0.0000
 62
6
  0
LINE
  8
1
  6
CONTINUOUS
 10
2.8277
 11
2.7582
 20
10.6345
 21
10.8359
 30
0.0000
 31
0.0000
 62
6
  0
LINE
  8
1
  6
CONTINUOUS
 10
2.7582
 11
2.7131
 20
10.8359
 21
10.9678
 30
0.0000
 31
0.0000
 62
6
  0
LINE
  8
1
  6
CONTINUOUS
 10
2.7131
 11
2.6436
 20
10.9678
 21
11.1414
 30
0.0000
 31
0.0000
 62
6
  0
LINE
  8
1
  6
CONTINUOUS
 10
2.6436
 11
2.5186
 20
11.1414
 21
11.3081
 30
0.0000
 31
0.0000
 62
6
  0
LINE
  8
1
  6
CONTINUOUS
 10
2.5186
 11
2.4353
 20
11.3081
 21
11.4111
 30
0.0000
 31
0.0000
 62
6
  0
LINE
  8
1
  6
CONTINUOUS
 10
2.4353
 11
2.3242
 20
11.4111
 21
11.5060
 30
0.0000
 31
0.0000
 62
6
  0
LINE
  8
1
  6
CONTINUOUS
 10
2.3242
 11
2.2061
 20
11.5060
 21
11.5893
 30
0.0000
 31
0.0000
 62
6
  0
LINE
  8
1
  6
CONTINUOUS
 10
2.2061
 11
2.0707
 20
11.5893
 21
11.6623
 30
0.0000
 31
0.0000
 62
6
  0
LINE
  8
1
  6
CONTINUOUS
 10
2.0707
 11
1.9110
 20
11.6623
 21
11.7213
 30
0.0000
 31
0.0000
 62
6
  0
LINE
  8
1
  6
CONTINUOUS
 10
1.9110
 11
1.7513
 20
11.7213
 21
11.7560
 30
0.0000
 31
0.0000
 62
6
  0
LINE
  8
1
  6
CONTINUOUS
 10
1.7513
 11
1.5286
 20
11.7560
 21
11.7630
 30
0.0000
 31
0.0000
 62
6
  0
LINE
  8
1
  6
CONTINUOUS
 10
1.5286
 11
1.3867
 20
11.7630
 21
11.7540
 30
0.0000
 31
0.0000
 62
6
  0
LINE
  8
1
  6
CONTINUOUS
 10
1.3867
 11
1.2582
 20
11.7540
 21
11.7303
 30
0.0000
 31
0.0000
 62
6
  0
LINE
  8
1
  6
CONTINUOUS
 10
1.2582
 11
1.1298
 20
11.7303
 21
11.6831
 30
0.0000
 31
0.0000
 62
6
  0
LINE
  8
1
  6
CONTINUOUS
 10
1.1298
 11
1.0395
 20
11.6831
 21
11.6380
 30
0.0000
 31
0.0000
 62
6
  0
LINE
  8
1
  6
CONTINUOUS
 10
1.0395
 11
0.9770
 20
11.6380
 21
11.5928
 30
0.0000
 31
0.0000
 62
6
  0
LINE
  8
1
  6
CONTINUOUS
 10
0.9770
 11
0.9075
 20
11.5928
 21
11.5422
 30
0.0000
 31
0.0000
 62
6
  0
LINE
  8
1
  6
CONTINUOUS
 10
0.9075
 11
0.8555
 20
11.5422
 21
11.4921
 30
0.0000
 31
0.0000
 62
6
  0
LINE
  8
1
  6
CONTINUOUS
 10
0.8555
 11
0.8103
 20
11.4921
 21
11.4435
 30
0.0000
 31
0.0000
 62
6
  0
LINE
  8
1
  6
CONTINUOUS
 10
0.8103
 11
0.7686
 20
11.4435
 21
11.4001
 30
0.0000
 31
0.0000
 62
6
  0
LINE
  8
1
  6
CONTINUOUS
 10
0.7686
 11
0.6668
 20
11.4001
 21
11.2444
 30
0.0000
 31
0.0000
 62
6
  0
LINE
  8
1
  6
CONTINUOUS
 10
0.6668
 11
0.5835
 20
11.2444
 21
11.1055
 30
0.0000
 31
0.0000
 62
6
  0
LINE
  8
1
  6
CONTINUOUS
 10
0.5835
 11
0.4895
 20
11.1055
 21
10.9234
 30
0.0000
 31
0.0000
 62
6
  0
LINE
  8
1
  6
CONTINUOUS
 10
0.4895
 11
0.4446
 20
10.9234
 21
10.8093
 30
0.0000
 31
0.0000
 62
6
  0
LINE
  8
1
  6
CONTINUOUS
 10
0.4446
 11
0.4100
 20
10.8093
 21
10.6333
 30
0.0000
 31
0.0000
 62
6
  0
LINE
  8
1
  6
CONTINUOUS
 10
0.4100
 11
0.4041
 20
10.6333
 21
10.5338
 30
0.0000
 31
0.0000
 62
6
  0
LINE
  8
1
  6
CONTINUOUS
 10
0.4041
 11
0.3861
 20
10.5338
 21
10.4296
 30
0.0000
 31
0.0000
 62
6
  0
LINE
  8
1
  6
CONTINUOUS
 10
0.3861
 11
0.3861
 20
10.4296
 21
10.2699
 30
0.0000
 31
0.0000
 62
6
  0
LINE
  8
1
  6
CONTINUOUS
 10
0.3861
 11
0.3861
 20
10.2699
 21
10.1484
 30
0.0000
 31
0.0000
 62
6
  0
LINE
  8
1
  6
CONTINUOUS
 10
0.3861
 11
0.3861
 20
10.1484
 21
10.0234
 30
0.0000
 31
0.0000
 62
6
  0
LINE
  8
1
  6
CONTINUOUS
 10
0.3861
 11
0.4041
 20
10.0234
 21
9.8775
 30
0.0000
 31
0.0000
 62
6
  0
LINE
  8
1
  6
CONTINUOUS
 10
0.4041
 11
0.4457
 20
9.8775
 21
9.7074
 30
0.0000
 31
0.0000
 62
6
  0
LINE
  8
1
  6
CONTINUOUS
 10
0.4457
 11
0.4978
 20
9.7074
 21
9.5338
 30
0.0000
 31
0.0000
 62
6
  0
LINE
  8
1
  6
CONTINUOUS
 10
0.4978
 11
0.5430
 20
9.5338
 21
9.3914
 30
0.0000
 31
0.0000
 62
6
  0
LINE
  8
1
  6
CONTINUOUS
 10
0.5430
 11
0.6332
 20
9.3914
 21
9.2178
 30
0.0000
 31
0.0000
 62
6
  0
LINE
  8
1
  6
CONTINUOUS
 10
0.6332
 11
0.7374
 20
9.2178
 21
9.0338
 30
0.0000
 31
0.0000
 62
6
  0
LINE
  8
1
  6
CONTINUOUS
 10
0.7374
 11
0.8416
 20
9.0338
 21
8.8775
 30
0.0000
 31
0.0000
 62
6
  0
LINE
  8
1
  6
CONTINUOUS
 10
0.8416
 11
0.9492
 20
8.8775
 21
8.7630
 30
0.0000
 31
0.0000
 62
6
  0
LINE
  8
1
  6
CONTINUOUS
 10
0.9492
 11
1.0673
 20
8.7630
 21
8.6831
 30
0.0000
 31
0.0000
 62
6
  0
LINE
  8
1
  6
CONTINUOUS
 10
1.0673
 11
1.1680
 20
8.6831
 21
8.6275
 30
0.0000
 31
0.0000
 62
6
  0
LINE
  8
1
  6
CONTINUOUS
 10
1.1680
 11
1.2860
 20
8.6275
 21
8.5824
 30
0.0000
 31
0.0000
 62
6
  0
LINE
  8
1
  6
CONTINUOUS
 10
1.2860
 11
1.3832
 20
8.5824
 21
8.5512
 30
0.0000
 31
0.0000
 62
6
  0
LINE
  8
1
  6
CONTINUOUS
 10
1.3832
 11
1.5325
 20
8.5512
 21
8.4921
 30
0.0000
 31
0.0000
 62
6
  0
LINE
  8
1
  6
CONTINUOUS
 10
1.5325
 11
1.7166
 20
8.4921
 21
8.4157
 30
0.0000
 31
0.0000
 62
6
  0
LINE
  8
1
  6
CONTINUOUS
 10
1.7166
 11
1.8416
 20
8.4157
 21
8.3428
 30
0.0000
 31
0.0000
 62
6
  0
LINE
  8
1
  6
CONTINUOUS
 10
1.8416
 11
1.8971
 20
8.3428
 21
8.2873
 30
0.0000
 31
0.0000
 62
6
  0
LINE
  8
1
  6
CONTINUOUS
 10
1.8971
 11
1.9631
 20
8.2873
 21
8.1727
 30
0.0000
 31
0.0000
 62
6
  0
LINE
  8
1
  6
CONTINUOUS
 10
1.9631
 11
1.9909
 20
8.1727
 21
8.0442
 30
0.0000
 31
0.0000
 62
6
  0
LINE
  8
1
  6
CONTINUOUS
 10
1.9909
 11
1.9909
 20
8.0442
 21
7.9609
 30
0.0000
 31
0.0000
 62
6
  0
LINE
  8
1
  6
CONTINUOUS
 10
1.9909
 11
2.0360
 20
7.9609
 21
7.8880
 30
0.0000
 31
0.0000
 62
6
  0
LINE
  8
1
  6
CONTINUOUS
 10
2.0360
 11
2.0811
 20
7.8880
 21
7.8255
 30
0.0000
 31
0.0000
 62
6
  0
LINE
  8
1
  6
CONTINUOUS
 10
2.0811
 11
2.1402
 20
7.8255
 21
7.7734
 30
0.0000
 31
0.0000
 62
6
  0
LINE
  8
1
  6
CONTINUOUS
 10
2.1402
 11
2.2409
 20
7.7734
 21
7.7734
 30
0.0000
 31
0.0000
 62
6
  0
LINE
  8
1
  6
CONTINUOUS
 10
2.2409
 11
2.4041
 20
7.7734
 21
7.7525
 30
0.0000
 31
0.0000
 62
6
  0
LINE
  8
1
  6
CONTINUOUS
 10
2.4041
 11
2.5325
 20
7.7525
 21
7.7525
 30
0.0000
 31
0.0000
 62
6
  0
LINE
  8
1
  6
CONTINUOUS
 10
2.5325
 11
2.5777
 20
7.7525
 21
7.6762
 30
0.0000
 31
0.0000
 62
6
  0
LINE
  8
1
  6
CONTINUOUS
 10
2.5777
 11
2.6228
 20
7.6762
 21
7.6241
 30
0.0000
 31
0.0000
 62
6
  0
LINE
  8
1
  6
CONTINUOUS
 10
2.6228
 11
2.6749
 20
7.6241
 21
7.5824
 30
0.0000
 31
0.0000
 62
6
  0
LINE
  8
1
  6
CONTINUOUS
 10
2.6749
 11
2.7305
 20
7.5824
 21
7.5268
 30
0.0000
 31
0.0000
 62
6
  0
LINE
  8
1
  6
CONTINUOUS
 10
2.7305
 11
2.7895
 20
7.5268
 21
7.4887
 30
0.0000
 31
0.0000
 62
6
  0
LINE
  8
1
  6
CONTINUOUS
 10
2.7895
 11
2.8485
 20
7.4887
 21
7.4643
 30
0.0000
 31
0.0000
 62
6
  0
LINE
  8
1
  6
CONTINUOUS
 10
2.8485
 11
2.9423
 20
7.4643
 21
7.4366
 30
0.0000
 31
0.0000
 62
6
  0
LINE
  8
1
  6
CONTINUOUS
 10
2.9423
 11
3.0013
 20
7.4366
 21
7.4366
 30
0.0000
 31
0.0000
 62
6
  0
LINE
  8
1
  6
CONTINUOUS
 10
3.0013
 11
3.0846
 20
7.4366
 21
7.3880
 30
0.0000
 31
0.0000
 62
6
  0
LINE
  8
1
  6
CONTINUOUS
 10
3.0846
 11
3.0977
 20
7.3880
 21
7.3791
 30
0.0000
 31
0.0000
 62
6
  0
LINE
  8
1
  6
CONTINUOUS
 10
3.0977
 11
3.1272
 20
7.3791
 21
7.3589
 30
0.0000
 31
0.0000
 62
6
  0
LINE
  8
1
  6
CONTINUOUS
 10
3.1272
 11
3.1433
 20
7.3589
 21
7.3474
 30
0.0000
 31
0.0000
 62
6
  0
LINE
  8
1
  6
CONTINUOUS
 10
3.1433
 11
3.1579
 20
7.3474
 21
7.3367
 30
0.0000
 31
0.0000
 62
6
  0
LINE
  8
1
  6
CONTINUOUS
 10
3.1579
 11
3.1690
 20
7.3367
 21
7.3278
 30
0.0000
 31
0.0000
 62
6
  0
LINE
  8
1
  6
CONTINUOUS
 10
3.1690
 11
3.1749
 20
7.3278
 21
7.3220
 30
0.0000
 31
0.0000
 62
6
  0
LINE
  8
1
  6
CONTINUOUS
 10
3.1749
 11
3.2791
 20
7.3220
 21
7.1866
 30
0.0000
 31
0.0000
 62
6
  0
LINE
  8
1
  6
CONTINUOUS
 10
3.2791
 11
3.3416
 20
7.1866
 21
7.0685
 30
0.0000
 31
0.0000
 62
6
  0
LINE
  8
1
  6
CONTINUOUS
 10
3.3416
 11
3.4075
 20
7.0685
 21
6.9412
 30
0.0000
 31
0.0000
 62
6
  0
LINE
  8
1
  6
CONTINUOUS
 10
3.4075
 11
3.4770
 20
6.9412
 21
6.8012
 30
0.0000
 31
0.0000
 62
6
  0
LINE
  8
1
  6
CONTINUOUS
 10
3.4770
 11
3.5395
 20
6.8012
 21
6.6866
 30
0.0000
 31
0.0000
 62
6
  0
LINE
  8
1
  6
CONTINUOUS
 10
3.5395
 11
3.5985
 20
6.6866
 21
6.5998
 30
0.0000
 31
0.0000
 62
6
  0
LINE
  8
1
  6
CONTINUOUS
 10
3.5985
 11
3.6596
 20
6.5998
 21
6.5442
 30
0.0000
 31
0.0000
 62
6
  0
LINE
  8
1
  6
CONTINUOUS
 10
3.6596
 11
3.6546
 20
6.5442
 21
6.4296
 30
0.0000
 31
0.0000
 62
6
  0
LINE
  8
1
  6
CONTINUOUS
 10
3.6546
 11
3.6193
 20
6.4296
 21
6.2803
 30
0.0000
 31
0.0000
 62
6
  0
LINE
  8
1
  6
CONTINUOUS
 10
3.6193
 11
3.5603
 20
6.2803
 21
6.1137
 30
0.0000
 31
0.0000
 62
6
  0
LINE
  8
1
  6
CONTINUOUS
 10
3.5603
 11
3.5221
 20
6.1137
 21
6.0025
 30
0.0000
 31
0.0000
 62
6
  0
LINE
  8
1
  6
CONTINUOUS
 10
3.5221
 11
3.4666
 20
6.0025
 21
5.8914
 30
0.0000
 31
0.0000
 62
6
  0
LINE
  8
1
  6
CONTINUOUS
 10
3.4666
 11
3.4214
 20
5.8914
 21
5.7803
 30
0.0000
 31
0.0000
 62
6
  0
LINE
  8
1
  6
CONTINUOUS
 10
3.4214
 11
3.3346
 20
5.7803
 21
5.5998
 30
0.0000
 31
0.0000
 62
6
  0
LINE
  8
1
  6
CONTINUOUS
 10
3.3346
 11
3.2825
 20
5.5998
 21
5.4817
 30
0.0000
 31
0.0000
 62
6
  0
LINE
  8
1
  6
CONTINUOUS
 10
3.2825
 11
3.2409
 20
5.4817
 21
5.4123
 30
0.0000
 31
0.0000
 62
6
  0
LINE
  8
1
  6
CONTINUOUS
 10
3.2409
 11
3.1981
 20
5.4123
 21
5.3081
 30
0.0000
 31
0.0000
 62
6
  0
LINE
  8
1
  6
CONTINUOUS
 10
3.1981
 11
3.1655
 20
5.3081
 21
5.2421
 30
0.0000
 31
0.0000
 62
6
  0
LINE
  8
1
  6
CONTINUOUS
 10
3.1655
 11
3.1193
 20
5.2421
 21
5.1032
 30
0.0000
 31
0.0000
 62
6
  0
LINE
  8
1
  6
CONTINUOUS
 10
3.1193
 11
3.0811
 20
5.1032
 21
5.0130
 30
0.0000
 31
0.0000
 62
6
  0
LINE
  8
1
  6
CONTINUOUS
 10
3.0811
 11
3.0484
 20
5.0130
 21
4.9192
 30
0.0000
 31
0.0000
 62
6
  0
LINE
  8
1
  6
CONTINUOUS
 10
3.0484
 11
3.0231
 20
4.9192
 21
4.8550
 30
0.0000
 31
0.0000
 62
6
  0
LINE
  8
1
  6
CONTINUOUS
 10
3.0231
 11
3.0037
 20
4.8550
 21
4.8012
 30
0.0000
 31
0.0000
 62
6
  0
LINE
  8
1
  6
CONTINUOUS
 10
3.0037
 11
2.9799
 20
4.8012
 21
4.7005
 30
0.0000
 31
0.0000
 62
6
  0
LINE
  8
1
  6
CONTINUOUS
 10
2.9799
 11
2.9472
 20
4.7005
 21
4.5998
 30
0.0000
 31
0.0000
 62
6
  0
LINE
  8
1
  6
CONTINUOUS
 10
2.9472
 11
2.9284
 20
4.5998
 21
4.5095
 30
0.0000
 31
0.0000
 62
6
  0
LINE
  8
1
  6
CONTINUOUS
 10
2.9284
 11
2.9214
 20
4.5095
 21
4.4435
 30
0.0000
 31
0.0000
 62
6
  0
LINE
  8
1
  6
CONTINUOUS
 10
2.9214
 11
2.9060
 20
4.4435
 21
4.3307
 30
0.0000
 31
0.0000
 62
6
  0
LINE
  8
1
  6
CONTINUOUS
 10
2.9060
 11
2.9020
 20
4.3307
 21
4.2282
 30
0.0000
 31
0.0000
 62
6
  0
LINE
  8
1
  6
CONTINUOUS
 10
2.9020
 11
2.9041
 20
4.2282
 21
4.0512
 30
0.0000
 31
0.0000
 62
6
  0
LINE
  8
1
  6
CONTINUOUS
 10
2.9041
 11
2.9075
 20
4.0512
 21
3.9053
 30
0.0000
 31
0.0000
 62
6
  0
LINE
  8
1
  6
CONTINUOUS
 10
2.9075
 11
2.9180
 20
3.9053
 21
3.7907
 30
0.0000
 31
0.0000
 62
6
  0
LINE
  8
1
  6
CONTINUOUS
 10
2.9180
 11
2.9288
 20
3.7907
 21
3.7109
 30
0.0000
 31
0.0000
 62
6
  0
LINE
  8
1
  6
CONTINUOUS
 10
2.9288
 11
2.9407
 20
3.7109
 21
3.5720
 30
0.0000
 31
0.0000
 62
6
  0
LINE
  8
1
  6
CONTINUOUS
 10
2.9407
 11
2.9492
 20
3.5720
 21
3.4678
 30
0.0000
 31
0.0000
 62
6
  0
LINE
  8
1
  6
CONTINUOUS
 10
2.9492
 11
2.9492
 20
3.4678
 21
3.3602
 30
0.0000
 31
0.0000
 62
6
  0
LINE
  8
1
  6
CONTINUOUS
 10
2.9492
 11
2.9457
 20
3.3602
 21
3.2317
 30
0.0000
 31
0.0000
 62
6
  0
LINE
  8
1
  6
CONTINUOUS
 10
2.9457
 11
2.9427
 20
3.2317
 21
3.1310
 30
0.0000
 31
0.0000
 62
6
  0
LINE
  8
1
  6
CONTINUOUS
 10
2.9427
 11
2.9388
 20
3.1310
 21
3.0373
 30
0.0000
 31
0.0000
 62
6
  0
LINE
  8
1
  6
CONTINUOUS
 10
2.9388
 11
2.9111
 20
3.0373
 21
2.9366
 30
0.0000
 31
0.0000
 62
6
  0
LINE
  8
1
  6
CONTINUOUS
 10
2.9111
 11
2.8778
 20
2.9366
 21
2.8498
 30
0.0000
 31
0.0000
 62
6
  0
LINE
  8
1
  6
CONTINUOUS
 10
2.8778
 11
2.8138
 20
2.8498
 21
2.7421
 30
0.0000
 31
0.0000
 62
6
  0
LINE
  8
1
  6
CONTINUOUS
 10
2.8138
 11
2.7611
 20
2.7421
 21
2.5859
 30
0.0000
 31
0.0000
 62
6
  0
LINE
  8
1
  6
CONTINUOUS
 10
2.7611
 11
3.0811
 20
2.5859
 21
2.5859
 30
0.0000
 31
0.0000
 62
6
  0
LINE
  8
1
  6
CONTINUOUS
 10
3.0811
 11
3.0811
 20
2.5859
 21
2.3359
 30
0.0000
 31
0.0000
 62
6
  0
LINE
  8
1
  6
CONTINUOUS
 10
3.0811
 11
3.8346
 20
2.3359
 21
2.3359
 30
0.0000
 31
0.0000
 62
6
  0
LINE
  8
1
  6
CONTINUOUS
 10
3.8346
 11
3.8346
 20
2.3359
 21
2.5859
 30
0.0000
 31
0.0000
 62
6
  0
LINE
  8
1
  6
CONTINUOUS
 10
3.8346
 11
4.2611
 20
2.5859
 21
2.5859
 30
0.0000
 31
0.0000
 62
6
  0
LINE
  8
1
  6
CONTINUOUS
 10
4.2611
 11
4.1784
 20
2.5859
 21
2.8845
 30
0.0000
 31
0.0000
 62
6
  0
LINE
  8
1
  6
CONTINUOUS
 10
4.1784
 11
4.1402
 20
2.8845
 21
3.0199
 30
0.0000
 31
0.0000
 62
6
  0
LINE
  8
1
  6
CONTINUOUS
 10
4.1402
 11
4.1228
 20
3.0199
 21
3.1762
 30
0.0000
 31
0.0000
 62
6
  0
LINE
  8
1
  6
CONTINUOUS
 10
4.1228
 11
4.1020
 20
3.1762
 21
3.3810
 30
0.0000
 31
0.0000
 62
6
  0
LINE
  8
1
  6
CONTINUOUS
 10
4.1020
 11
4.0990
 20
3.3810
 21
3.6137
 30
0.0000
 31
0.0000
 62
6
  0
LINE
  8
1
  6
CONTINUOUS
 10
4.0990
 11
4.1055
 20
3.6137
 21
3.8046
 30
0.0000
 31
0.0000
 62
6
  0
LINE
  8
1
  6
CONTINUOUS
 10
4.1055
 11
4.1228
 20
3.8046
 21
3.9505
 30
0.0000
 31
0.0000
 62
6
  0
LINE
  8
1
  6
CONTINUOUS
 10
4.1228
 11
4.1367
 20
3.9505
 21
4.0651
 30
0.0000
 31
0.0000
 62
6
  0
LINE
  8
1
  6
CONTINUOUS
 10
4.1367
 11
4.1644
 20
4.0651
 21
4.1762
 30
0.0000
 31
0.0000
 62
6
  0
LINE
  8
1
  6
CONTINUOUS
 10
4.1644
 11
4.1977
 20
4.1762
 21
4.2838
 30
0.0000
 31
0.0000
 62
6
  0
LINE
  8
1
  6
CONTINUOUS
 10
4.1977
 11
4.2250
 20
4.2838
 21
4.3706
 30
0.0000
 31
0.0000
 62
6
  0
LINE
  8
1
  6
CONTINUOUS
 10
4.2250
 11
4.2756
 20
4.3706
 21
4.4644
 30
0.0000
 31
0.0000
 62
6
  0
LINE
  8
1
  6
CONTINUOUS
 10
4.2756
 11
4.3252
 20
4.4644
 21
4.5442
 30
0.0000
 31
0.0000
 62
6
  0
LINE
  8
1
  6
CONTINUOUS
 10
4.3252
 11
4.4006
 20
4.5442
 21
4.6276
 30
0.0000
 31
0.0000
 62
6
  0
LINE
  8
1
  6
CONTINUOUS
 10
4.4006
 11
4.4457
 20
4.6276
 21
4.6623
 30
0.0000
 31
0.0000
 62
6
  0
LINE
  8
1
  6
CONTINUOUS
 10
4.4457
 11
4.4666
 20
4.6623
 21
4.6067
 30
0.0000
 31
0.0000
 62
6
  0
LINE
  8
1
  6
CONTINUOUS
 10
4.4666
 11
4.4874
 20
4.6067
 21
4.5234
 30
0.0000
 31
0.0000
 62
6
  0
LINE
  8
1
  6
CONTINUOUS
 10
4.4874
 11
4.5325
 20
4.5234
 21
4.3914
 30
0.0000
 31
0.0000
 62
6
  0
LINE
  8
1
  6
CONTINUOUS
 10
4.5325
 11
4.6853
 20
4.3914
 21
4.1276
 30
0.0000
 31
0.0000
 62
6
  0
LINE
  8
1
  6
CONTINUOUS
 10
4.6853
 11
4.7686
 20
4.1276
 21
3.9991
 30
0.0000
 31
0.0000
 62
6
  0
LINE
  8
1
  6
CONTINUOUS
 10
4.7686
 11
4.8450
 20
3.9991
 21
3.8880
 30
0.0000
 31
0.0000
 62
6
  0
LINE
  8
1
  6
CONTINUOUS
 10
4.8450
 11
4.9214
 20
3.8880
 21
3.8046
 30
0.0000
 31
0.0000
 62
6
  0
LINE
  8
1
  6
CONTINUOUS
 10
4.9214
 11
5.0013
 20
3.8046
 21
3.6970
 30
0.0000
 31
0.0000
 62
6
  0
LINE
  8
1
  6
CONTINUOUS
 10
5.0013
 11
5.0985
 20
3.6970
 21
3.5824
 30
0.0000
 31
0.0000
 62
6
  0
LINE
  8
1
  6
CONTINUOUS
 10
5.0985
 11
5.1541
 20
3.5824
 21
3.4887
 30
0.0000
 31
0.0000
 62
6
  0
LINE
  8
1
  6
CONTINUOUS
 10
5.1541
 11
5.2078
 20
3.4887
 21
3.4123
 30
0.0000
 31
0.0000
 62
6
  0
LINE
  8
1
  6
CONTINUOUS
 10
5.2078
 11
5.2791
 20
3.4123
 21
3.2907
 30
0.0000
 31
0.0000
 62
6
  0
LINE
  8
1
  6
CONTINUOUS
 10
5.2791
 11
5.3554
 20
3.2907
 21
3.1623
 30
0.0000
 31
0.0000
 62
6
  0
LINE
  8
1
  6
CONTINUOUS
 10
5.3554
 11
5.4145
 20
3.1623
 21
3.0303
 30
0.0000
 31
0.0000
 62
6
  0
LINE
  8
1
  6
CONTINUOUS
 10
5.4145
 11
5.4839
 20
3.0303
 21
2.9123
 30
0.0000
 31
0.0000
 62
6
  0
LINE
  8
1
  6
CONTINUOUS
 10
5.4839
 11
5.5568
 20
2.9123
 21
2.7977
 30
0.0000
 31
0.0000
 62
6
  0
LINE
  8
1
  6
CONTINUOUS
 10
5.5568
 11
5.6332
 20
2.7977
 21
2.6901
 30
0.0000
 31
0.0000
 62
6
  0
LINE
  8
1
  6
CONTINUOUS
 10
5.6332
 11
5.7611
 20
2.6901
 21
2.5859
 30
0.0000
 31
0.0000
 62
6
  0
LINE
  8
1
  6
CONTINUOUS
 10
5.7611
 11
6.7284
 20
2.5859
 21
2.5859
 30
0.0000
 31
0.0000
 62
6
  0
LINE
  8
1
  6
CONTINUOUS
 10
7.6957
 11
7.6679
 20
2.5859
 21
2.6796
 30
0.0000
 31
0.0000
 62
6
  0
LINE
  8
1
  6
CONTINUOUS
 10
7.6679
 11
7.6438
 20
2.6796
 21
2.7838
 30
0.0000
 31
0.0000
 62
6
  0
LINE
  8
1
  6
CONTINUOUS
 10
7.6438
 11
7.6159
 20
2.7838
 21
2.9331
 30
0.0000
 31
0.0000
 62
6
  0
LINE
  8
1
  6
CONTINUOUS
 10
7.6159
 11
7.6153
 20
2.9331
 21
3.5616
 30
0.0000
 31
0.0000
 62
6
  0
LINE
  8
1
  6
CONTINUOUS
 10
7.6153
 11
7.6402
 20
3.5616
 21
3.7213
 30
0.0000
 31
0.0000
 62
6
  0
LINE
  8
1
  6
CONTINUOUS
 10
7.6402
 11
7.6679
 20
3.7213
 21
3.8602
 30
0.0000
 31
0.0000
 62
6
  0
LINE
  8
1
  6
CONTINUOUS
 10
7.6679
 11
7.7271
 20
3.8602
 21
4.2005
 30
0.0000
 31
0.0000
 62
6
  0
LINE
  8
1
  6
CONTINUOUS
 10
7.7271
 11
7.7706
 20
4.2005
 21
4.3845
 30
0.0000
 31
0.0000
 62
6
  0
LINE
  8
1
  6
CONTINUOUS
 10
7.7706
 11
7.7999
 20
4.3845
 21
4.5442
 30
0.0000
 31
0.0000
 62
6
  0
LINE
  8
1
  6
CONTINUOUS
 10
7.7999
 11
7.8346
 20
4.5442
 21
4.6831
 30
0.0000
 31
0.0000
 62
6
  0
LINE
  8
1
  6
CONTINUOUS
 10
7.8346
 11
7.8520
 20
4.6831
 21
4.7907
 30
0.0000
 31
0.0000
 62
6
  0
LINE
  8
1
  6
CONTINUOUS
 10
7.8520
 11
7.8832
 20
4.7907
 21
4.9331
 30
0.0000
 31
0.0000
 62
6
  0
LINE
  8
1
  6
CONTINUOUS
 10
7.8832
 11
7.9006
 20
4.9331
 21
4.9852
 30
0.0000
 31
0.0000
 62
6
  0
LINE
  8
1
  6
CONTINUOUS
 10
7.9006
 11
7.9284
 20
4.9852
 21
5.0269
 30
0.0000
 31
0.0000
 62
6
  0
LINE
  8
1
  6
CONTINUOUS
 10
7.9284
 11
7.9527
 20
5.0269
 21
5.0512
 30
0.0000
 31
0.0000
 62
6
  0
LINE
  8
1
  6
CONTINUOUS
 10
7.9527
 11
7.9735
 20
5.0512
 21
5.0720
 30
0.0000
 31
0.0000
 62
6
  0
LINE
  8
1
  6
CONTINUOUS
 10
7.9735
 11
8.0048
 20
5.0720
 21
5.0963
 30
0.0000
 31
0.0000
 62
6
  0
LINE
  8
1
  6
CONTINUOUS
 10
8.0048
 11
8.0256
 20
5.0963
 21
5.1067
 30
0.0000
 31
0.0000
 62
6
  0
LINE
  8
1
  6
CONTINUOUS
 10
8.0256
 11
8.0707
 20
5.1067
 21
5.1171
 30
0.0000
 31
0.0000
 62
6
  0
LINE
  8
1
  6
CONTINUOUS
 10
8.0707
 11
8.1124
 20
5.1171
 21
5.1201
 30
0.0000
 31
0.0000
 62
6
  0
LINE
  8
1
  6
CONTINUOUS
 10
8.1124
 11
8.1506
 20
5.1201
 21
5.1206
 30
0.0000
 31
0.0000
 62
6
  0
LINE
  8
1
  6
CONTINUOUS
 10
8.1506
 11
8.1957
 20
5.1206
 21
5.1137
 30
0.0000
 31
0.0000
 62
6
  0
LINE
  8
1
  6
CONTINUOUS
 10
8.1957
 11
8.2270
 20
5.1137
 21
5.1032
 30
0.0000
 31
0.0000
 62
6
  0
LINE
  8
1
  6
CONTINUOUS
 10
8.2270
 11
8.2617
 20
5.1032
 21
5.0755
 30
0.0000
 31
0.0000
 62
6
  0
LINE
  8
1
  6
CONTINUOUS
 10
8.2617
 11
8.2929
 20
5.0755
 21
5.0477
 30
0.0000
 31
0.0000
 62
6
  0
LINE
  8
1
  6
CONTINUOUS
 10
8.2929
 11
8.3303
 20
5.0477
 21
5.0026
 30
0.0000
 31
0.0000
 62
6
  0
LINE
  8
1
  6
CONTINUOUS
 10
8.3303
 11
8.3520
 20
5.0026
 21
4.9748
 30
0.0000
 31
0.0000
 62
6
  0
LINE
  8
1
  6
CONTINUOUS
 10
8.3520
 11
8.3763
 20
4.9748
 21
4.9331
 30
0.0000
 31
0.0000
 62
6
  0
LINE
  8
1
  6
CONTINUOUS
 10
8.3763
 11
8.4041
 20
4.9331
 21
4.8706
 30
0.0000
 31
0.0000
 62
6
  0
LINE
  8
1
  6
CONTINUOUS
 10
8.4041
 11
8.4299
 20
4.8706
 21
4.8185
 30
0.0000
 31
0.0000
 62
6
  0
LINE
  8
1
  6
CONTINUOUS
 10
8.4299
 11
8.4633
 20
4.8185
 21
4.7526
 30
0.0000
 31
0.0000
 62
6
  0
LINE
  8
1
  6
CONTINUOUS
 10
8.4633
 11
8.4839
 20
4.7526
 21
4.6796
 30
0.0000
 31
0.0000
 62
6
  0
LINE
  8
1
  6
CONTINUOUS
 10
8.4839
 11
8.5030
 20
4.6796
 21
4.6171
 30
0.0000
 31
0.0000
 62
6
  0
LINE
  8
1
  6
CONTINUOUS
 10
8.5030
 11
8.5221
 20
4.6171
 21
4.5651
 30
0.0000
 31
0.0000
 62
6
  0
LINE
  8
1
  6
CONTINUOUS
 10
8.5221
 11
8.5429
 20
4.5651
 21
4.5026
 30
0.0000
 31
0.0000
 62
6
  0
LINE
  8
1
  6
CONTINUOUS
 10
8.5429
 11
8.5570
 20
4.5026
 21
4.4539
 30
0.0000
 31
0.0000
 62
6
  0
LINE
  8
1
  6
CONTINUOUS
 10
8.5570
 11
8.5777
 20
4.4539
 21
4.3845
 30
0.0000
 31
0.0000
 62
6
  0
LINE
  8
1
  6
CONTINUOUS
 10
8.5777
 11
8.5985
 20
4.3845
 21
4.2977
 30
0.0000
 31
0.0000
 62
6
  0
LINE
  8
1
  6
CONTINUOUS
 10
8.5985
 11
8.6228
 20
4.2977
 21
4.1970
 30
0.0000
 31
0.0000
 62
6
  0
LINE
  8
1
  6
CONTINUOUS
 10
8.6228
 11
8.6436
 20
4.1970
 21
4.0963
 30
0.0000
 31
0.0000
 62
6
  0
LINE
  8
1
  6
CONTINUOUS
 10
8.6436
 11
8.6517
 20
4.0963
 21
3.9991
 30
0.0000
 31
0.0000
 62
6
  0
LINE
  8
1
  6
CONTINUOUS
 10
8.6517
 11
8.6517
 20
3.9991
 21
3.5477
 30
0.0000
 31
0.0000
 62
6
  0
LINE
  8
1
  6
CONTINUOUS
 10
8.6517
 11
8.6324
 20
3.5477
 21
3.4296
 30
0.0000
 31
0.0000
 62
6
  0
LINE
  8
1
  6
CONTINUOUS
 10
8.6324
 11
8.6159
 20
3.4296
 21
3.3428
 30
0.0000
 31
0.0000
 62
6
  0
LINE
  8
1
  6
CONTINUOUS
 10
8.6159
 11
8.5997
 20
3.3428
 21
3.2907
 30
0.0000
 31
0.0000
 62
6
  0
LINE
  8
1
  6
CONTINUOUS
 10
8.5997
 11
8.5610
 20
3.2907
 21
3.1657
 30
0.0000
 31
0.0000
 62
6
  0
LINE
  8
1
  6
CONTINUOUS
 10
8.5610
 11
8.5088
 20
3.1657
 21
3.0442
 30
0.0000
 31
0.0000
 62
6
  0
LINE
  8
1
  6
CONTINUOUS
 10
8.5088
 11
8.4768
 20
3.0442
 21
2.9678
 30
0.0000
 31
0.0000
 62
6
  0
LINE
  8
1
  6
CONTINUOUS
 10
8.4768
 11
8.4284
 20
2.9678
 21
2.8428
 30
0.0000
 31
0.0000
 62
6
  0
LINE
  8
1
  6
CONTINUOUS
 10
8.4284
 11
8.3861
 20
2.8428
 21
2.5859
 30
0.0000
 31
0.0000
 62
6
  0
LINE
  8
1
  6
CONTINUOUS
 10
8.3861
 11
8.5777
 20
2.5859
 21
2.5859
 30
0.0000
 31
0.0000
 62
6
  0
LINE
  8
1
  6
CONTINUOUS
 10
8.5777
 11
8.5777
 20
2.5859
 21
2.3359
 30
0.0000
 31
0.0000
 62
6
  0
LINE
  8
1
  6
CONTINUOUS
 10
8.5777
 11
9.3311
 20
2.3359
 21
2.3359
 30
0.0000
 31
0.0000
 62
6
  0
LINE
  8
1
  6
CONTINUOUS
 10
9.3311
 11
9.3311
 20
2.3359
 21
2.5859
 30
0.0000
 31
0.0000
 62
6
  0
LINE
  8
1
  6
CONTINUOUS
 10
9.3311
 11
9.5111
 20
2.5859
 21
2.5859
 30
0.0000
 31
0.0000
 62
6
  0
LINE
  8
1
  6
CONTINUOUS
 10
9.5111
 11
9.7235
 20
2.5859
 21
2.6423
 30
0.0000
 31
0.0000
 62
6
  0
LINE
  8
1
  6
CONTINUOUS
 10
9.7235
 11
9.8520
 20
2.6423
 21
2.7033
 30
0.0000
 31
0.0000
 62
6
  0
LINE
  8
1
  6
CONTINUOUS
 10
9.8520
 11
9.9666
 20
2.7033
 21
2.7351
 30
0.0000
 31
0.0000
 62
6
  0
LINE
  8
1
  6
CONTINUOUS
 10
9.9666
 11
10.0296
 20
2.7351
 21
2.7734
 30
0.0000
 31
0.0000
 62
6
  0
LINE
  8
1
  6
CONTINUOUS
 10
10.0296
 11
10.0185
 20
2.7734
 21
3.1414
 30
0.0000
 31
0.0000
 62
6
  0
LINE
  8
1
  6
CONTINUOUS
 10
1.5096
 11
9.8850
 20
2.2007
 21
2.2007
 30
0.0000
 31
0.0000
 62
6
  0
LINE
  8
1
  6
CONTINUOUS
 10
1.4096
 11
1.8323
 20
2.3007
 21
9.9882
 30
0.0000
 31
0.0000
 62
3
  0
LINE
  8
1
  6
CONTINUOUS
 10
1.7327
 11
1.6690
 20
9.8877
 21
9.8874
 30
0.0000
 31
0.0000
 62
6
  0
LINE
  8
1
  6
CONTINUOUS
 10
1.6323
 11
6.4980
 20
9.9872
 21
4.8956
 30
0.0000
 31
0.0000
 62
3
  0
LINE
  8
1
  6
CONTINUOUS
 10
6.5965
 11
6.5945
 20
4.7942
 21
4.6542
 30
0.0000
 31
0.0000
 62
6
  0
LINE
  8
1
  6
CONTINUOUS
 10
6.4951
 11
6.6284
 20
4.6956
 21
2.4859
 30
0.0000
 31
0.0000
 62
3
  0
LINE
  8
1
  6
CONTINUOUS
 10
6.7284
 11
7.6957
 20
2.5859
 21
2.5859
 30
0.0000
 31
0.0000
 62
6
  0
ARC
  8
1
  6
CONTINUOUS
 10
1.5096
 20
2.3007
 30
0.0000
 40
0.1000
 50
270.0000
 51
0.0000
 62
6
  0
ARC
  8
1
  6
CONTINUOUS
 10
1.5096
 20
2.3007
 30
0.0000
 40
0.1000
 50
180.0000
 51
270.0000
 62
6
  0
ARC
  8
1
  6
CONTINUOUS
 10
1.7323
 20
9.9877
 30
0.0000
 40
0.1000
 50
270.2780
 51
0.2777
 62
6
  0
ARC
  8
1
  6
CONTINUOUS
 10
1.7323
 20
9.9877
 30
0.0000
 40
0.1000
 50
180.2776
 51
270.2780
 62
6
  0
ARC
  8
1
  6
CONTINUOUS
 10
6.4965
 20
4.7956
 30
0.0000
 40
0.1000
 50
359.1784
 51
89.1784
 62
6
  0
ARC
  8
1
  6
CONTINUOUS
 10
6.4965
 20
4.7956
 30
0.0000
 40
0.1000
 50
269.1784
 51
359.1784
 62
6
  0
ARC
  8
1
  6
CONTINUOUS
 10
6.7284
 20
2.4859
 30
0.0000
 40
0.1000
 50
90.0000
 51
180.0000
 62
6
  0
ARC
  8
1
  6
CONTINUOUS
 10
6.7284
 20
2.4859
 30
0.0000
 40
0.1000
 50
0.0000
 51
90.0000
 62
6
  0
ENDSEC
  0
EOF
