0
SECTION
2
HEADER
9
$INSUNITS
70
4
9
$ACADVER
1
AC1014
9
$HANDSEED
5
FFFF
0
ENDSEC
0
SECTION
2
TABLES
0
TABLE
2
VPORT
5
8
100
AcDbSymbolTable
0
ENDTAB
0
TABLE
2
LTYPE
5
5
100
AcDbSymbolTable
0
LTYPE
5
14
100
AcDbSymbolTableRecord
100
AcDbLinetypeTableRecord
2
BYBLOCK
70
0
0
LTYPE
5
15
100
AcDbSymbolTableRecord
100
AcDbLinetypeTableRecord
2
BYLAYER
70
0
0
ENDTAB
0
TABLE
2
LAYER
5
2
100
AcDbSymbolTable
70
2
0
LAYER
5
50
100
AcDbSymbolTableRecord
100
AcDbLayerTableRecord
2
0
70
0
6
CONTINUOUS
0
ENDTAB
0
TABLE
2
STYLE
5
3
100
AcDbSymbolTable
70
1
0
STYLE
5
11
100
AcDbSymbolTableRecord
100
AcDbTextStyleTableRecord
2
STANDARD
70
0
0
ENDTAB
0
TABLE
2
VIEW
5
6
100
AcDbSymbolTable
70
0
0
ENDTAB
0
TABLE
2
UCS
5
7
100
AcDbSymbolTable
70
0
0
ENDTAB
0
TABLE
2
APPID
5
9
100
AcDbSymbolTable
70
2
0
APPID
5
12
100
AcDbSymbolTableRecord
100
AcDbRegAppTableRecord
2
ACAD
70
0
0
ENDTAB
0
TABLE
2
DIMSTYLE
5
A
100
AcDbSymbolTable
70
1
0
ENDTAB
0
TABLE
2
BLOCK_RECORD
5
1
100
AcDbSymbolTable
70
1
0
BLOCK_RECORD
5
1F
100
AcDbSymbolTableRecord
100
AcDbBlockTableRecord
2
*MODEL_SPACE
0
BLOCK_RECORD
5
1B
100
AcDbSymbolTableRecord
100
AcDbBlockTableRecord
2
*PAPER_SPACE
0
ENDTAB
0
ENDSEC
0
SECTION
2
BLOCKS
0
BLOCK
5
20
100
AcDbEntity
100
AcDbBlockBegin
2
*MODEL_SPACE
0
ENDBLK
5
21
100
AcDbEntity
100
AcDbBlockEnd
0
BLOCK
5
1C
100
AcDbEntity
100
AcDbBlockBegin
2
*PAPER_SPACE
0
ENDBLK
5
1D
100
AcDbEntity
100
AcDbBlockEnd
0
ENDSEC
0
SECTION
2
ENTITIES
0
SPLINE
5
100
100
AcDbEntity
8
0
100
AcDbSpline
70
0
71
3
72
11
73
7
74
0
42
0.000000001
43
0.0000000001
44
0.0000000001
40
0
40
0
40
0
40
0
40
0.73246977623177334
40
0.73246977623177334
40
0.73246977623177334
40
1.000000001008774
40
1.000000001008774
40
1.000000001008774
40
1.000000001008774
10
-16.472574260186335
20
154.07243026149476
30
0
10
-18.023075315862457
20
154.07243026149476
30
0
10
-19.023848568108292
20
153.49601664368942
30
0
10
-19.44191390129642
20
152.35139747977817
30
0
10
-19.594609775158524
20
151.93333214501362
30
0
10
-19.67029275927462
20
151.43701008185926
30
0
10
-19.67029275927462
20
150.87471175604574
30
0
0
SPLINE
5
101
100
AcDbEntity
8
0
100
AcDbSpline
70
0
71
3
72
8
73
4
74
0
42
0.000000001
43
0.0000000001
44
0.0000000001
40
0
40
0
40
0
40
0
40
1
40
1
40
1
40
1
10
-13.274855761098047
20
150.87471176240649
30
0
10
-13.274855761098047
20
152.99152409513201
30
0
10
-14.355761927460811
20
154.07243026149476
30
0
10
-16.472574260186335
20
154.07243026149476
30
0
0
LINE
5
102
100
AcDbEntity
8
0
100
AcDbLine
10
-13.274855761098054
20
59.445973800283561
30
0
11
-13.274855761098047
21
150.87471176240649
31
0
0
SPLINE
5
103
100
AcDbEntity
8
0
100
AcDbSpline
70
0
71
3
72
8
73
4
74
0
42
0.000000001
43
0.0000000001
44
0.0000000001
40
0
40
0
40
0
40
0
40
1
40
1
40
1
40
1
10
-16.472574260186335
20
56.24825527575215
30
0
10
-14.355761927460811
20
56.24825527575215
30
0
10
-13.274855761098047
20
57.32916144211493
30
0
10
-13.274855761098047
20
59.445973774840475
30
0
0
SPLINE
5
104
100
AcDbEntity
8
0
100
AcDbSpline
70
0
71
3
72
8
73
4
74
0
42
0.000000001
43
0.0000000001
44
0.0000000001
40
2.003178289911034e-09
40
2.003178289911034e-09
40
2.003178289911034e-09
40
2.003178289911034e-09
40
1
40
1
40
1
40
1
10
-19.67029275927462
20
59.445973762119408
30
0
10
-19.670292755034268
20
57.32916143778445
30
0
10
-18.589386588671506
20
56.24825527575215
30
0
10
-16.472574260186335
20
56.24825527575215
30
0
0
LINE
5
105
100
AcDbEntity
8
0
100
AcDbLine
10
-19.67029275927462
20
59.445973762119408
30
0
11
-19.67031860627171
21
150.87471174967763
31
0
0
SPLINE
5
106
100
AcDbEntity
8
0
100
AcDbSpline
70
0
71
3
72
10
73
6
74
0
42
0.000000001
43
0.0000000001
44
0.0000000001
40
-0.49830780705147321
40
-0.49830780705147321
40
-0.49830780705147321
40
-0.49830780705147321
40
-0.25742792698924172
40
-0.25742792698924172
40
0
40
0
40
0
40
0
10
-16.426134325932615
20
37.516294387366415
30
0
10
-15.623124334711687
20
37.519512442579632
30
0
10
-14.837861037250057
20
37.644711657722276
30
0
10
-13.249766082030334
20
38.132070019615
30
0
10
-12.473639877284606
20
38.502505739105175
30
0
10
-11.743504087399614
20
38.95331110661229
30
0
0
SPLINE
5
107
100
AcDbEntity
8
0
100
AcDbSpline
70
0
71
3
72
16
73
12
74
0
42
0.000000001
43
0.0000000001
44
0.0000000001
40
-0.4630157489639567
40
-0.4630157489639567
40
-0.4630157489639567
40
-0.4630157489639567
40
-0.39739331767440456
40
-0.39739331767440456
40
-0.33159094638421421
40
-0.33159094638421421
40
-0.19942496360641448
40
-0.19942496360641448
40
-0.084658669629344416
40
-0.084658669629344416
40
0
40
0
40
0
40
0
10
-11.743504087399614
20
38.95331110661229
30
0
10
-11.556529248263265
20
39.068752915011736
30
0
10
-11.355538655792794
20
39.158239977099498
30
0
10
-10.935234793251755
20
39.288637213997738
30
0
10
-10.717349864618491
20
39.32896002042331
30
0
10
-10.05656599235823
20
39.382780709367459
30
0
10
-9.6030101360540794
20
39.328631333608378
30
0
10
-8.8125496268680834
20
39.086077909025597
30
0
10
-8.4577208050662929
20
38.913087209173888
30
0
10
-7.9269602007731361
20
38.511273723564365
30
0
10
-7.7262079170623128
20
38.307053945224197
30
0
10
-7.5717585807315402
20
38.070876597334973
30
0
0
SPLINE
5
108
100
AcDbEntity
8
0
100
AcDbSpline
70
0
71
3
72
14
73
10
74
0
42
0.000000001
43
0.0000000001
44
0.0000000001
40
-0.48432496683656989
40
-0.48432496683656989
40
-0.48432496683656989
40
-0.48432496683656989
40
-0.3859419293379559
40
-0.3859419293379559
40
-0.28711662142975591
40
-0.28711662142975591
40
-0.16911180595190223
40
-0.16911180595190223
40
0
40
0
40
0
40
0
10
-7.5717585807315402
20
38.070876597334973
30
0
10
-7.3930633742062648
20
37.797621545840244
30
0
10
-7.2528451441146338
20
37.50083397552784
30
0
10
-7.0757170416054915
20
36.871083707126118
30
0
10
-7.0416820853701303
20
36.546413921139433
30
0
10
-7.0978283784590888
20
35.829010134458628
30
0
10
-7.2114838694541961
20
35.456701536650279
30
0
10
-7.6470262600779426
20
34.60735167522153
30
0
10
-8.0272463308743536
20
34.174313428733967
30
0
10
-8.4541930900088857
20
33.806236070468067
30
0
0
SPLINE
5
109
100
AcDbEntity
8
0
100
AcDbSpline
70
0
71
3
72
10
73
6
74
0
42
0.000000001
43
0.0000000001
44
0.0000000001
40
-0.87684920619297635
40
-0.87684920619297635
40
-0.87684920619297635
40
-0.87684920619297635
40
-0.45641628288369324
40
-0.45641628288369324
40
0
40
0
40
0
40
0
10
-8.4541930900088857
20
33.806236070468067
30
0
10
-9.5159590449214786
20
32.890876220632791
30
0
10
-10.718739687943941
20
32.224958532354776
30
0
10
-13.500238538293726
20
31.324207069619554
30
0
10
-15.024851725962776
20
31.156357670403423
30
0
10
-16.545953901814592
20
31.185826794936283
30
0
0
SPLINE
5
110
100
AcDbEntity
8
0
100
AcDbSpline
70
0
71
3
72
12
73
8
74
0
42
0.000000001
43
0.0000000001
44
0.0000000001
40
-0.97701953159656507
40
-0.97701953159656507
40
-0.97701953159656507
40
-0.97701953159656507
40
-0.70034480225808216
40
-0.70034480225808216
40
-0.44288732261871772
40
-0.44288732261871772
40
0
40
0
40
0
40
0
10
-16.545953901814592
20
31.185826794936283
30
0
10
-17.467126743175839
20
31.142862720795158
30
0
10
-18.39198821629833
20
31.173908005979296
30
0
10
-20.155288707761315
20
31.420174557696882
30
0
10
-20.987061831875153
20
31.621300077974777
30
0
10
-23.177068357667711
20
32.429811626022804
30
0
10
-24.405367389600883
20
33.196800914710728
30
0
10
-25.485815490101942
20
34.202816442134001
30
0
0
SPLINE
5
111
100
AcDbEntity
8
0
100
AcDbSpline
70
0
71
3
72
16
73
12
74
0
42
0.000000001
43
0.0000000001
44
0.0000000001
40
-0.43378705896746417
40
-0.43378705896746417
40
-0.43378705896746417
40
-0.43378705896746417
40
-0.37677298893678185
40
-0.37677298893678185
40
-0.31532020639764302
40
-0.31532020639764302
40
-0.18540576559983457
40
-0.18540576559983457
40
-0.075079547530875243
40
-0.075079547530875243
40
0
40
0
40
0
40
0
10
-25.485815490101942
20
34.202816442134001
30
0
10
-25.624705862397352
20
34.332136615803535
30
0
10
-25.7427307419672
20
34.484705530728668
30
0
10
-25.947979904507829
20
34.821901111039843
30
0
10
-26.034239539861961
20
35.011552885106497
30
0
10
-26.24590369424444
20
35.613903623932842
30
0
10
-26.316747528613632
20
36.063861473468791
30
0
10
-26.314722765288373
20
36.868359971044995
30
0
10
-26.261860925717414
20
37.247455015341899
30
0
10
-26.060295159194634
20
37.832477989260795
30
0
10
-25.945840845050032
20
38.059721524676291
30
0
10
-25.791402378844381
20
38.256651486041157
30
0
0
SPLINE
5
112
100
AcDbEntity
8
0
100
AcDbSpline
70
0
71
3
72
14
73
10
74
0
42
0.000000001
43
0.0000000001
44
0.0000000001
40
-0.50109712865440525
40
-0.50109712865440525
40
-0.50109712865440525
40
-0.50109712865440525
40
-0.39304640507418531
40
-0.39304640507418531
40
-0.27372490482420347
40
-0.27372490482420347
40
-0.15147561730582945
40
-0.15147561730582945
40
0
40
0
40
0
40
0
10
-25.791402378844381
20
38.256651486041157
30
0
10
-25.570470190031124
20
38.5383674377196
30
0
10
-25.307192981535934
20
38.787919572509409
30
0
10
-24.686228412132508
20
39.215238358835038
30
0
10
-24.32427347544149
20
39.380992058379853
30
0
10
-23.545114150392305
20
39.569320839610285
30
0
10
-23.141843142270361
20
39.58493150416907
30
0
10
-22.242111211124151
20
39.449033931668119
30
0
10
-21.773012500413774
20
39.261102859442843
30
0
10
-21.340986963271291
20
38.999766192557445
30
0
0
SPLINE
5
113
100
AcDbEntity
8
0
100
AcDbSpline
70
0
71
3
72
10
73
6
74
0
42
0.000000001
43
0.0000000001
44
0.0000000001
40
-0.50005610878375029
40
-0.50005610878375029
40
-0.50005610878375029
40
-0.50005610878375029
40
-0.16948939145950973
40
-0.16948939145950973
40
0
40
0
40
0
40
0
10
-21.340986963271291
20
38.999766192557445
30
0
10
-20.291533796565485
20
38.364939223551396
30
0
10
-19.184732854151978
20
37.843275466059524
30
0
10
-17.555735204626803
20
37.493003353899155
30
0
10
-16.986626649481991
20
37.445347945194641
30
0
10
-16.426134325932615
20
37.516294387366415
30
0
0
CIRCLE
5
114
100
AcDbEntity
8
0
100
AcDbCircle
10
-16.464333553399193
20
45.589262839922753
30
0
40
3.1748577343750006
210
0
220
-0
230
1
0
SPLINE
5
115
100
AcDbEntity
8
0
100
AcDbSpline
70
0
71
3
72
10
73
6
74
0
42
0.000000001
43
0.0000000001
44
0.0000000001
40
-1.0389680920340119
40
-1.0389680920340119
40
-1.0389680920340119
40
-1.0389680920340119
40
-0.59496974415786918
40
-0.59496974415786918
40
0
40
0
40
0
40
0
10
-1.8628285227290675
20
27.327387963797676
30
0
10
-0.41313559664339361
20
27.654907351380796
30
0
10
1.2012960299320223
20
27.819975686189771
30
0
10
4.6640313216047211
20
28.012962383984895
30
0
10
6.7673792777263939
20
27.995120594518788
30
0
10
8.7491434291370851
20
27.918819087340438
30
0
0
LINE
5
116
100
AcDbEntity
8
0
100
AcDbLine
10
8.7491434291370833
20
27.918819087340438
30
0
11
8.7491434291370851
21
38.953326258303733
31
0
0
LINE
5
117
100
AcDbEntity
8
0
100
AcDbLine
10
8.7491434291370851
20
38.953326258303733
30
0
11
-0.061519686268951546
21
38.953326258303747
31
0
0
SPLINE
5
118
100
AcDbEntity
8
0
100
AcDbSpline
70
0
71
3
72
16
73
12
74
0
42
0.000000001
43
0.0000000001
44
0.0000000001
40
-2.0006668866018327
40
-2.0006668866018327
40
-2.0006668866018327
40
-2.0006668866018327
40
-1.841650385343474
40
-1.841650385343474
40
-1.6904832166980035
40
-1.6904832166980035
40
-1.4347613831142345
40
-1.4347613831142345
40
-1.0577787124052753
40
-1.0577787124052753
40
0
40
0
40
0
40
0
10
-0.061519686268951546
20
38.953326258303747
30
0
10
-0.3747048261132585
20
38.953326258303747
30
0
10
-0.6873471838275419
20
38.980626793784381
30
0
10
-1.2858652923850746
20
39.10377774204769
30
0
10
-1.567274248679924
20
39.195133352007034
30
0
10
-2.2922874141564189
20
39.53710165051406
30
0
10
-2.6833762694637953
20
39.840036996284255
30
0
10
-3.5186577412493576
20
40.764493903324208
30
0
10
-3.8792762495663609
20
41.446976905250025
30
0
10
-4.8989986245868069
20
44.072473655876678
30
0
10
-5.2301489527650578
20
46.838993457718743
30
0
10
-5.2522922005168482
20
50.364852967288122
30
0
0
SPLINE
5
119
100
AcDbEntity
8
0
100
AcDbSpline
70
0
71
3
72
10
73
6
74
0
42
0.000000001
43
0.0000000001
44
0.0000000001
40
-10.123889120245488
40
-10.123889120245488
40
-10.123889120245488
40
-10.123889120245488
40
-5.3943123137749485
40
-5.3943123137749485
40
0
40
0
40
0
40
0
10
-5.2522922005168482
20
50.364852967288122
30
0
10
-5.3532605292789937
20
66.438152827774587
30
0
10
-5.3950334987861295
20
85.895435379038517
30
0
10
-5.4374536311112687
20
119.64170578480807
30
0
10
-5.4380753192631568
20
137.62275604097002
30
0
10
-5.4380670892230398
20
155.60379708688464
30
0
0
SPLINE
5
120
100
AcDbEntity
8
0
100
AcDbSpline
70
0
71
3
72
16
73
12
74
0
42
0.000000001
43
0.0000000001
44
0.0000000001
40
-1.3700627286095652
40
-1.3700627286095652
40
-1.3700627286095652
40
-1.3700627286095652
40
-1.2294638712614714
40
-1.2294638712614714
40
-1.0861657435398828
40
-1.0861657435398828
40
-0.7841406215620621
40
-0.7841406215620621
40
-0.40495649760589458
40
-0.40495649760589458
40
0
40
0
40
0
40
0
10
-5.4380670892230398
20
155.60379708688464
30
0
10
-5.4380670892230398
20
155.95686449973027
30
0
10
-5.477601554487781
20
156.30804788922626
30
0
10
-5.6303239822088225
20
157.00448253164782
30
0
10
-5.7443099633395756
20
157.34680856164877
30
0
10
-6.197164583626952
20
158.36973372540928
30
0
10
-6.6413928480500353
20
158.99767299084871
30
0
10
-7.8476631897906879
20
160.21863809337987
30
0
10
-8.6934742520964203
20
160.79467780212855
30
0
10
-10.747205257737155
20
161.65269040770028
30
0
10
-11.9700007690784
20
161.9092265092155
30
0
10
-13.319855761098047
20
161.9092265092155
30
0
0
LINE
5
121
100
AcDbEntity
8
0
100
AcDbLine
10
-13.319855761098045
20
161.9092265092155
30
0
11
-19.625285183428893
21
161.9092265092155
31
0
0
SPLINE
5
122
100
AcDbEntity
8
0
100
AcDbSpline
70
0
71
3
72
16
73
12
74
0
42
0.000000001
43
0.0000000001
44
0.0000000001
40
-1.11320733858231
40
-1.11320733858231
40
-1.11320733858231
40
-1.11320733858231
40
-0.88938790507858823
40
-0.88938790507858823
40
-0.68555584047234452
40
-0.68555584047234452
40
-0.40919598716363181
40
-0.40919598716363181
40
-0.1868610979450594
40
-0.1868610979450594
40
0
40
0
40
0
40
0
10
-19.625285183428893
20
161.9092265092155
30
0
10
-20.379101290767423
20
161.9092265092155
30
0
10
-21.130163893632663
20
161.82912060915132
30
0
10
-22.531362433901421
20
161.5025952861514
30
0
10
-23.17957707216317
20
161.2727064436657
30
0
10
-24.62069055361717
20
160.54700543508301
30
0
10
-25.374986744983168
20
159.98942931218323
30
0
10
-26.489606258521295
20
158.7480874433123
30
0
10
-26.893600526668106
20
158.11430138308981
30
0
10
-27.384148095085639
20
156.84035166519652
30
0
10
-27.507073855303936
20
156.22666741336818
30
0
10
-27.507073855303936
20
155.60379708688464
30
0
0
LINE
5
123
100
AcDbEntity
8
0
100
AcDbLine
10
-27.507073855303936
20
155.60379708688464
30
0
11
-27.507073855303936
21
51.564185102965467
31
0
0
SPLINE
5
124
100
AcDbEntity
8
0
100
AcDbSpline
70
0
71
3
72
10
73
6
74
0
42
0.000000001
43
0.0000000001
44
0.0000000001
40
-0.88180806560886316
40
-0.88180806560886316
40
-0.88180806560886316
40
-0.88180806560886316
40
-0.42511521235688132
40
-0.42511521235688132
40
0
40
0
40
0
40
0
10
-27.507073855303936
20
51.564185102965467
30
0
10
-27.507073855303936
20
50.042034304656454
30
0
10
-27.752042388209965
20
48.551095639586791
30
0
10
-28.868479046674885
20
45.831977243337164
30
0
10
-29.657786189581842
20
44.684402595900835
30
0
10
-30.659792354392206
20
43.682396431090467
30
0
0
SPLINE
5
125
100
AcDbEntity
8
0
100
AcDbSpline
70
0
71
3
72
10
73
6
74
0
42
0.000000001
43
0.0000000001
44
0.0000000001
40
-0.71367555171903119
40
-0.71367555171903119
40
-0.71367555171903119
40
-0.71367555171903119
40
-0.35678615580259543
40
-0.35678615580259543
40
0
40
0
40
0
40
0
10
-30.659792354392206
20
43.682396431090467
30
0
10
-31.500892234270133
20
42.841296551212544
30
0
10
-32.207426450003787
20
41.844334601874209
30
0
10
-33.277012218653297
20
39.715948614792509
30
0
10
-33.654655939323021
20
38.555723971267795
30
0
10
-33.812510853480475
20
37.376959432913885
30
0
0
SPLINE
5
126
100
AcDbEntity
8
0
100
AcDbSpline
70
0
71
3
72
12
73
8
74
0
42
0.000000001
43
0.0000000001
44
0.0000000001
40
-0.82177382583347436
40
-0.82177382583347436
40
-0.82177382583347436
40
-0.82177382583347436
40
-0.53703103437971544
40
-0.53703103437971544
40
-0.25007932734480609
40
-0.25007932734480609
40
0
40
0
40
0
40
0
10
-33.812510853480475
20
37.376959432913885
30
0
10
-33.938360167645996
20
36.437194116316924
30
0
10
-33.980834644517344
20
35.464973170783608
30
0
10
-33.862927325703311
20
33.561843137718704
30
0
10
-33.699058934690555
20
32.596979533543092
30
0
10
-33.125585518130826
20
30.900925715828961
30
0
10
-32.749062516698281
20
30.152291463349826
30
0
10
-32.236151603936349
20
29.495170761038885
30
0
0
SPLINE
5
127
100
AcDbEntity
8
0
100
AcDbSpline
70
0
71
3
72
10
73
6
74
0
42
0.000000001
43
0.0000000001
44
0.0000000001
40
-0.61408176188539398
40
-0.61408176188539398
40
-0.61408176188539398
40
-0.61408176188539398
40
-0.30794743619358428
40
-0.30794743619358428
40
0
40
0
40
0
40
0
10
-32.236151603936349
20
29.495170761038885
30
0
10
-31.523166973338732
20
28.581734651370795
30
0
10
-30.667051601695338
20
27.73548429860195
30
0
10
-28.842049822636604
20
26.294184189997569
30
0
10
-27.872437754068482
20
25.699941215315008
30
0
10
-26.930271689843295
20
25.292500652148362
30
0
0
SPLINE
5
128
100
AcDbEntity
8
0
100
AcDbSpline
70
0
71
3
72
10
73
6
74
0
42
0.000000001
43
0.0000000001
44
0.0000000001
40
-1.5346674289064608
40
-1.5346674289064608
40
-1.5346674289064608
40
-1.5346674289064608
40
-0.81387496296876483
40
-0.81387496296876483
40
0
40
0
40
0
40
0
10
-26.930271689843295
20
25.292500652148362
30
0
10
-25.834374142156157
20
24.818582228105871
30
0
10
-24.80423212164165
20
24.390946424875828
30
0
10
-21.592206264168393
20
23.690185740024884
30
0
10
-19.50416613542842
20
23.494292518817748
30
0
10
-16.792214342736393
20
23.421948585822207
30
0
0
SPLINE
5
129
100
AcDbEntity
8
0
100
AcDbSpline
70
0
71
3
72
10
73
6
74
0
42
0.000000001
43
0.0000000001
44
0.0000000001
40
-0.83783850784796576
40
-0.83783850784796576
40
-0.83783850784796576
40
-0.83783850784796576
40
-0.23619274099964555
40
-0.23619274099964555
40
0
40
0
40
0
40
0
10
-16.792214342736393
20
23.421948585822207
30
0
10
-15.951600288429049
20
23.399516541598032
30
0
10
-13.733356970931272
20
23.493299965746051
30
0
10
-10.981243054581087
20
23.923110246147282
30
0
10
-10.013507124554831
20
24.11319048144874
30
0
10
-9.2792329921237382
20
24.397262963606934
30
0
0
SPLINE
5
130
100
AcDbEntity
8
0
100
AcDbSpline
70
0
71
3
72
10
73
6
74
0
42
0.000000001
43
0.0000000001
44
0.0000000001
40
-1.1677668594932831
40
-1.1677668594932831
40
-1.1677668594932831
40
-1.1677668594932831
40
-0.5836162687770291
40
-0.5836162687770291
40
0
40
0
40
0
40
0
10
-9.2792329921237382
20
24.397262963606934
30
0
10
-7.93935612707023
20
24.91562746580442
30
0
10
-7.031591006481638
20
25.434181376801796
30
0
10
-4.9386536837514932
20
26.426505728302697
30
0
10
-3.760392041506464
20
26.898685898389331
30
0
10
-1.8628285227290675
20
27.327387963797676
30
0
0
ENDSEC
0
SECTION
2
OBJECTS
0
DICTIONARY
5
C
100
AcDbDictionary
3
ACAD_GROUP
350
D
3
ACAD_MLINESTYLE
350
17
0
DICTIONARY
5
D
100
AcDbDictionary
0
DICTIONARY
5
1A
330
C
100
AcDbDictionary
0
DICTIONARY
5
17
100
AcDbDictionary
0
ENDSEC
0
EOF
