0
SECTION
2
HEADER
9
$INSUNITS
70
4
0
ENDSEC
0
SECTION
2
ENTITIES
0
CIRCLE
8
0
10
15.915494309189533
20
15.915494309189533
40
1.5
0
ARC
8
0
10
31.428248556701135
20
15.18515383632538
40
0.15
50
-6.785183320455567e-13
51
82.56859202882683
0
ARC
8
0
10
31.536523631136976
20
16.329936757090508
40
1
50
-114.37698324006243
51
-95.09884377611829
0
ARC
8
0
10
31.371988618379067
20
15.915494309189533
40
0.555
50
180
51
-116.5650511770781
0
ARC
8
0
10
31.371988618379067
20
15.915494309189535
40
0.555
50
116.5650511770781
51
-179.99999999999983
0
ARC
8
0
10
31.536523631136976
20
15.501051861288563
40
1
50
95.09884377611829
51
114.37698324006246
0
ARC
8
0
10
31.428248556701135
20
16.64583478205369
40
0.15
50
-82.5685920288269
51
-1.3570366640911133e-12
0
ARC
8
0
10
15.933738908911074
20
15.916642162110284
40
15.661494309189534
50
2.6686322803927784
51
4.531367719606527
0
ARC
8
0
10
31.397461789091352
20
17.13517644042506
40
0.15
50
7.200000000000559
51
89.76859202882805
0
ARC
8
0
10
31.361403737036394
20
18.28450287112333
40
1
50
-107.17698324006264
51
-87.8988437761188
0
ARC
8
0
10
31.250109544120036
20
17.852706720528523
40
0.555
50
-172.8
51
-109.36505117707786
0
ARC
8
0
10
31.250109544120036
20
17.852706720528523
40
0.555
50
123.7650511770781
51
-172.8
0
ARC
8
0
10
31.465290561279858
20
17.462153980300705
40
1
50
102.29884377611842
51
121.57698324006259
0
ARC
8
0
10
31.21438992295746
20
18.58433948061205
40
0.15
50
-75.36859202882763
51
7.200000000000559
0
ARC
8
0
10
15.933451180674714
20
15.918919765625056
40
15.661494309189534
50
9.868632280393857
51
11.731367719607595
0
ARC
8
0
10
31.12251514584443
20
19.06596392871237
40
0.15
50
14.399999999999462
51
96.96859202882774
0
ARC
8
0
10
30.942692624319605
20
20.201708304957343
40
1
50
-99.97698324006247
51
-80.69884377611847
0
ARC
8
0
10
30.88639442715103
20
19.759368134906097
40
0.555
50
-165.60000000000008
51
-102.16505117707811
0
ARC
8
0
10
30.88639442715103
20
19.7593681349061
40
0.555
50
130.96505117707824
51
-165.59999999999974
0
ARC
8
0
10
31.14882791552924
20
19.398864352369717
40
1
50
109.49884377611828
51
128.7769832400622
0
ARC
8
0
10
30.759258566267402
20
20.480754896526257
40
0.15
50
-68.16859202882716
51
14.399999999999462
0
ARC
8
0
10
15.93288026184799
20
15.921143347646183
40
15.661494309189534
50
17.06863228039262
51
18.931367719606364
0
ARC
8
0
10
30.607744699769547
20
20.94706662910048
40
0.15
50
21.599999999999763
51
104.16859202882804
0
ARC
8
0
10
30.286993617360075
20
22.051317583617962
40
1
50
-92.77698324006265
51
-73.49884377611863
0
ARC
8
0
10
30.286579272139537
20
21.6054093628332
40
0.555
50
-158.40000000000003
51
-94.96505117707854
0
ARC
8
0
10
30.286579272139537
20
21.6054093628332
40
0.555
50
138.16505117707834
51
-158.40000000000003
0
ARC
8
0
10
30.592126498854253
20
21.28063989799338
40
1
50
116.69884377611861
51
135.97698324006257
0
ARC
8
0
10
30.07003218000828
20
22.305173425823675
40
0.15
50
-60.9685920288269
51
21.599999999999763
0
ARC
8
0
10
15.932035156162083
20
15.923277840955869
40
15.661494309189534
50
24.268632280392936
51
26.131367719606686
0
ARC
8
0
10
29.861268688310258
20
22.748818428287986
40
0.15
50
28.799999999998708
51
111.36859202882745
0
ARC
8
0
10
29.40464748119314
20
23.804161263877695
40
1
50
-85.57698324006245
51
-66.29884377611846
0
ARC
8
0
10
29.460123522392287
20
23.361717231373845
40
0.555
50
-151.19999999999985
51
-87.76505117707823
0
ARC
8
0
10
29.460123522392283
20
23.36171723137385
40
0.555
50
145.36505117707827
51
-151.19999999999936
0
ARC
8
0
10
29.803965825153142
20
23.077803892698988
40
1
50
123.89884377611848
51
143.17698324006236
0
ARC
8
0
10
29.157580276015274
20
24.02882289844249
40
0.15
50
-53.76859202882736
51
28.799999999999898
0
ARC
8
0
10
15.930929191438358
20
15.925289583320042
40
15.661494309189534
50
31.46863228039287
51
33.331367719606625
0
ARC
8
0
10
28.894859484090432
20
24.442804624087337
40
0.15
50
36.00000000000119
51
118.56859202882848
0
ARC
8
0
10
28.30956934147419
20
25.432595953800767
40
1
50
-78.37698324006212
51
-59.098843776118166
0
ARC
8
0
10
28.420060878783534
20
25.000593716273677
40
0.555
50
-144.00000000000028
51
-80.56505117707829
0
ARC
8
0
10
28.42006087878353
20
25.00059371627368
40
0.555
50
152.56505117707846
51
-143.99999999999977
0
ARC
8
0
10
28.79677565907456
20
24.762013986716283
40
1
50
131.09884377611814
51
150.37698324006212
0
ARC
8
0
10
28.03629276588671
20
25.624520332541206
40
0.15
50
-46.568592028827844
51
36.000000000002274
0
ARC
8
0
10
15.92957980940131
20
15.92714684835964
40
15.661494309189534
50
38.66863228039336
51
40.53136771960713
0
ARC
8
0
10
27.72375793756548
20
26.002310042252486
40
0.15
50
43.20000000000041
51
125.7685920288266
0
ARC
8
0
10
27.019029234634566
20
26.910940265547378
40
1
50
-71.17698324006214
51
-51.898843776117964
0
ARC
8
0
10
27.18279375050629
20
26.496192756348474
40
0.555
50
-136.8
51
-73.36505117707846
0
ARC
8
0
10
27.182793750506285
20
26.496192756348474
40
0.555
50
159.76505117707788
51
-136.79999999999976
0
ARC
8
0
10
27.586439991203797
20
26.306709180764305
40
1
50
138.29884377611884
51
157.57698324006267
0
ARC
8
0
10
26.723853023481986
20
27.06710062636066
40
0.15
50
-39.368592028827614
51
43.20000000000041
0
ARC
8
0
10
15.92800829061153
20
15.928820345895799
40
15.661494309189534
50
45.86863228039312
51
47.731367719606865
0
ARC
8
0
10
26.36643301970627
20
27.40274035073558
40
0.15
50
50.399999999999785
51
132.96859202882672
0
ARC
8
0
10
25.553379749090418
20
28.215879826201192
40
1
50
-63.9769832400618
51
-44.69884377611783
0
ARC
8
0
10
25.767834579281043
20
27.824927861308694
40
0.555
50
-129.60000000000002
51
-66.165051177078
0
ARC
8
0
10
25.767834579281043
20
27.824927861308694
40
0.555
50
166.9650511770781
51
-129.60000000000002
0
ARC
8
0
10
26.192046538042657
20
27.687528708876698
40
1
50
145.49884377611858
51
164.77698324006266
0
ARC
8
0
10
25.240959007552345
20
28.33381342691161
40
0.15
50
-32.1685920288271
51
50.399999999999785
0
ARC
8
0
10
15.926239418859334
20
15.930283683872423
40
15.661494309189534
50
53.068632280393366
51
54.93136771960708
0
ARC
8
0
10
24.84429055529404
20
28.62200992699533
40
0.15
50
57.59999999999829
51
140.16859202882702
0
ARC
8
0
10
23.93573505276536
20
29.326834959357598
40
1
50
-56.776983240062705
51
-37.49884377611881
0
ARC
8
0
10
24.19749811649366
20
28.965844084801233
40
0.555
50
-122.39999999999986
51
-58.96505117707773
0
ARC
8
0
10
24.197498116493662
20
28.965844084801233
40
0.555
50
174.16505117707797
51
-122.40000000000016
0
ARC
8
0
10
24.635585717317763
20
28.882696222233537
40
1
50
152.6988437761184
51
171.97698324006234
0
ARC
8
0
10
23.610996842566937
20
29.40468191663182
40
0.15
50
-24.96859202882746
51
57.59999999999943
0
ARC
8
0
10
15.924301090308685
20
15.931513784575644
40
15.661494309189534
50
60.268632280392964
51
62.131367719606736
0
ARC
8
0
10
23.1813356402764
20
29.64089016145778
40
0.15
50
64.79999999999991
51
147.36859202882786
0
ARC
8
0
10
22.1916063688545
20
30.226285238914272
40
1
50
-49.57698324006239
51
-30.298843776118538
0
ARC
8
0
10
22.496549506235826
20
29.900948496431305
40
0.555
50
-115.2000000000001
51
-51.765051177078
0
ARC
8
0
10
22.496549506235826
20
29.900948496431308
40
0.555
50
-178.63494882292164
51
-115.19999999999996
0
ARC
8
0
10
22.94160384595658
20
29.873363215190725
40
1
50
159.89884377611818
51
179.17698324006201
0
ARC
8
0
10
21.85967200555978
20
30.26281785973258
40
0.15
50
-17.768592028827626
51
64.79999999999991
0
ARC
8
0
10
15.922223873559073
20
15.932491248582348
40
15.661494309189534
50
67.46863228039342
51
69.33136771960717
0
ARC
8
0
10
21.403794067064304
20
30.443312704175902
40
0.15
50
71.99999999999956
51
154.56859202882717
0
ARC
8
0
10
20.348499648595123
20
30.900045796657068
40
1
50
-42.37698324006249
51
-23.098843776118564
0
ARC
8
0
10
20.691813724188762
20
30.615493941023196
40
0.555
50
-108.00000000000028
51
-44.565051177077834
0
ARC
8
0
10
20.691813724188762
20
30.615493941023196
40
0.555
50
-171.434948822922
51
-108.00000000000028
0
ARC
8
0
10
21.136816030006187
20
30.643906277473555
40
1
50
167.09884377611823
51
-173.62301675993774
0
ARC
8
0
10
20.01460393540123
20
30.89468793976562
40
0.15
50
-10.568592028827865
51
71.99999999999956
0
ARC
8
0
10
15.920040527559056
20
15.933200660701448
40
15.661494309189534
50
74.66863228039288
51
76.53136771960664
0
ARC
8
0
10
19.539698728119163
20
31.016622872307046
40
0.15
50
79.2000000000005
51
161.76859202882835
0
ARC
8
0
10
18.435481785984283
20
31.337491026105337
40
1
50
-35.17698324006277
51
-15.898843776118982
0
ARC
8
0
10
18.81175253173224
20
31.098211610066944
40
0.555
50
-100.79999999999997
51
-37.36505117707795
0
ARC
8
0
10
18.81175253173224
20
31.098211610066944
40
0.555
50
-164.23494882292198
51
-100.79999999999997
0
ARC
8
0
10
19.24968485145211
20
31.18217348468971
40
1
50
174.29884377611845
51
-166.42301675993764
0
ARC
8
0
10
18.10489045774792
20
31.290327188107938
40
0.15
50
-3.368592028828179
51
79.20000000000184
0
ARC
8
0
10
15.917785484979857
20
15.93363083307987
40
15.661494309189534
50
81.86863228039346
51
83.73136771960719
0
ARC
8
0
10
17.618447520492715
20
31.351779222020884
40
0.15
50
86.39999999999937
51
168.96859202882672
0
ARC
8
0
10
16.482722215496835
20
31.531722154673542
40
1
50
-27.976983240062346
51
-8.698843776118265
0
ARC
8
0
10
16.886015616965416
20
31.34148875756016
40
0.555
50
-93.60000000000011
51
-30.165051177077988
0
ARC
8
0
10
16.886015616965416
20
31.34148875756016
40
0.555
50
-157.03494882292202
51
-93.60000000000011
0
ARC
8
0
10
17.30997149629766
20
31.47967604143614
40
1
50
-178.5011562238816
51
-159.22301675993754
0
ARC
8
0
10
16.160648894949976
20
31.443496137469733
40
0.15
50
3.831407971173133
51
86.39999999999937
0
ARC
8
0
10
15.915494309189537
20
15.93377498164234
40
15.661494309189534
50
89.06863228039315
51
90.93136771960691
0
ARC
8
0
10
15.670339723429084
20
31.443496137469733
40
0.15
50
93.59999999999998
51
176.16859202882682
0
ARC
8
0
10
14.521017122081401
20
31.479676041436143
40
1
50
-20.776983240062698
51
-1.4988437761186526
0
ARC
8
0
10
14.944973001413643
20
31.34148875756016
40
0.555
50
-86.40000000000009
51
-22.965051177077992
0
ARC
8
0
10
14.944973001413643
20
31.34148875756016
40
0.555
50
-149.83494882292203
51
-86.40000000000009
0
ARC
8
0
10
15.34826640288222
20
31.53172215467355
40
1
50
-171.30115622388112
51
-152.0230167599372
0
ARC
8
0
10
14.212541097886342
20
31.351779222020884
40
0.15
50
11.031407971171959
51
93.5999999999993
0
ARC
8
0
10
15.913203133399296
20
15.93363083307988
40
15.661494309189534
50
96.26863228039315
51
98.13136771960693
0
ARC
8
0
10
13.72609816063114
20
31.290327188107934
40
0.15
50
100.80000000000017
51
-176.63140797117316
0
ARC
8
0
10
12.58130376692695
20
31.18217348468971
40
1
50
-13.576983240062587
51
5.7011562238815285
0
ARC
8
0
10
13.01923608664682
20
31.09821161006694
40
0.555
50
-79.20000000000005
51
-15.765051177078032
0
ARC
8
0
10
13.01923608664682
20
31.09821161006694
40
0.555
50
-142.63494882292207
51
-79.20000000000005
0
ARC
8
0
10
13.395506832394775
20
31.337491026105333
40
1
50
-164.101156223881
51
-144.8230167599372
0
ARC
8
0
10
12.291289890259897
20
31.016622872307043
40
0.15
50
18.23140797117168
51
100.7999999999995
0
ARC
8
0
10
15.910948090819907
20
15.933200660701422
40
15.661494309189534
50
103.46863228039301
51
105.33136771960677
0
ARC
8
0
10
11.81638468297783
20
30.89468793976562
40
0.15
50
108.00000000000045
51
-169.43140797117212
0
ARC
8
0
10
10.69417258837287
20
30.64390627747356
40
1
50
-6.37698324006266
51
12.901156223881351
0
ARC
8
0
10
11.139174894190297
20
30.615493941023196
40
0.555
50
-71.99999999999973
51
-8.56505117707802
0
ARC
8
0
10
11.139174894190297
20
30.615493941023196
40
0.555
50
-135.43494882292205
51
-71.99999999999973
0
ARC
8
0
10
11.48248896978394
20
30.900045796657068
40
1
50
-156.9011562238815
51
-137.62301675993757
0
ARC
8
0
10
10.427194551314756
20
30.443312704175902
40
0.15
50
25.431407971172547
51
108.00000000000045
0
ARC
8
0
10
15.908764744819972
20
15.932491248582345
40
15.661494309189534
50
110.66863228039279
51
112.53136771960654
0
ARC
8
0
10
9.971316612819278
20
30.26281785973258
40
0.15
50
115.2000000000001
51
-162.23140797117216
0
ARC
8
0
10
8.889384772422478
20
29.873363215190736
40
1
50
0.8230167599371689
51
20.1011562238812
0
ARC
8
0
10
9.33443911214323
20
29.9009484964313
40
0.555
50
-64.80000000000004
51
-1.365051177077989
0
ARC
8
0
10
9.334439112143231
20
29.9009484964313
40
0.555
50
-128.23494882292215
51
-64.80000000000021
0
ARC
8
0
10
9.639382249524553
20
30.226285238914272
40
1
50
-149.7011562238813
51
-130.4230167599374
0
ARC
8
0
10
8.649652978102653
20
29.640890161457776
40
0.15
50
32.63140797117216
51
115.2000000000001
0
ARC
8
0
10
15.9066875280705
20
15.931513784575708
40
15.661494309189534
50
117.86863228039383
51
119.73136771960759
0
ARC
8
0
10
8.21999177581212
20
29.404681916631812
40
0.15
50
122.40000000000114
51
-155.03140797117254
0
ARC
8
0
10
7.19540290106129
20
28.882696222233537
40
1
50
8.023016759937255
51
27.301156223881147
0
ARC
8
0
10
7.633490501885395
20
28.96584408480123
40
0.555
50
-57.59999999999983
51
5.834948822921671
0
ARC
8
0
10
7.633490501885391
20
28.965844084801226
40
0.555
50
-121.03494882292149
51
-57.59999999999932
0
ARC
8
0
10
7.895253565613702
20
29.326834959357587
40
1
50
-142.50115622388154
51
-123.2230167599375
0
ARC
8
0
10
6.986698063085015
20
28.62200992699532
40
0.15
50
39.831407971173
51
122.40000000000059
0
ARC
8
0
10
15.904749199519712
20
15.930283683872403
40
15.661494309189534
50
125.06863228039286
51
126.93136771960658
0
ARC
8
0
10
6.590029610826714
20
28.333813426911604
40
0.15
50
129.60000000000022
51
-147.83140797117255
0
ARC
8
0
10
5.638942080336404
20
27.68752870887669
40
1
50
15.223016759937375
51
34.50115622388146
0
ARC
8
0
10
6.063154039098018
20
27.824927861308687
40
0.555
50
-50.400000000000134
51
13.034948822921914
0
ARC
8
0
10
6.063154039098016
20
27.824927861308687
40
0.555
50
-113.83494882292176
51
-50.4
0
ARC
8
0
10
6.277608869288633
20
28.215879826201192
40
1
50
-135.30115622388138
51
-116.02301675993743
0
ARC
8
0
10
5.464555598672788
20
27.402740350735574
40
0.15
50
47.03140797117212
51
129.59999999999997
0
ARC
8
0
10
15.902980327767498
20
15.928820345895764
40
15.661494309189534
50
132.26863228039295
51
134.13136771960671
0
ARC
8
0
10
5.107135594897074
20
27.067100626360656
40
0.15
50
136.7999999999994
51
-140.63140797117217
0
ARC
8
0
10
4.244548627175269
20
26.306709180764294
40
1
50
22.42301675993774
51
41.70115622388164
0
ARC
8
0
10
4.648194867872777
20
26.496192756348474
40
0.555
50
-43.200000000000045
51
20.234948822921723
0
ARC
8
0
10
4.648194867872777
20
26.496192756348474
40
0.555
50
-106.63494882292183
51
-43.200000000000045
0
ARC
8
0
10
4.811959383744491
20
26.91094026554738
40
1
50
-128.10115622388147
51
-108.82301675993746
0
ARC
8
0
10
4.107230680813581
20
26.002310042252482
40
0.15
50
54.23140797117258
51
136.7999999999997
0
ARC
8
0
10
15.901408808977802
20
15.9271468483597
40
15.661494309189534
50
139.4686322803932
51
141.33136771960687
0
ARC
8
0
10
3.794695852492361
20
25.624520332541213
40
0.15
50
143.9999999999992
51
-133.4314079711712
0
ARC
8
0
10
3.034212959304509
20
24.76201398671629
40
1
50
29.623016759937652
51
48.901156223881564
0
ARC
8
0
10
3.410927739595538
20
25.00059371627368
40
0.555
50
-35.99999999999986
51
27.434948822921825
0
ARC
8
0
10
3.4109277395955364
20
25.00059371627368
40
0.555
50
-99.43494882292167
51
-35.999999999999744
0
ARC
8
0
10
3.521419276904876
20
25.43259595380077
40
1
50
-120.90115622388174
51
-101.62301675993767
0
ARC
8
0
10
2.93612913428864
20
24.44280462408734
40
0.15
50
61.43140797117244
51
144.00000000000082
0
ARC
8
0
10
15.900059426940652
20
15.925289583319952
40
15.661494309189534
50
146.66863228039298
51
148.53136771960675
0
ARC
8
0
10
2.6734083423637918
20
24.028822898442492
40
0.15
50
151.2000000000001
51
-126.2314079711729
0
ARC
8
0
10
2.0270227932259233
20
23.07780389269899
40
1
50
36.82301675993763
51
56.10115622388155
0
ARC
8
0
10
2.3708650959867827
20
23.361717231373852
40
0.555
50
-28.80000000000012
51
34.63494882292177
0
ARC
8
0
10
2.3708650959867827
20
23.36171723137385
40
0.555
50
-92.23494882292195
51
-28.7999999999998
0
ARC
8
0
10
2.4263411371859256
20
23.8041612638777
40
1
50
-113.70115622388151
51
-94.4230167599375
0
ARC
8
0
10
1.9697199300688106
20
22.74881842828799
40
0.15
50
68.6314079711728
51
151.20000000000138
0
ARC
8
0
10
15.898953462216975
20
15.923277840955851
40
15.661494309189534
50
153.86863228039323
51
155.73136771960694
0
ARC
8
0
10
1.7609564383707894
20
22.305173425823686
40
0.15
50
158.4000000000001
51
-119.03140797117251
0
ARC
8
0
10
1.2388621195248186
20
21.280639897993392
40
1
50
44.023016759937455
51
63.30115622388142
0
ARC
8
0
10
1.5444093462395359
20
21.60540936283321
40
0.555
50
-21.600000000000033
51
41.83494882292184
0
ARC
8
0
10
1.5444093462395354
20
21.60540936283321
40
0.555
50
-85.03494882292192
51
-21.600000000000012
0
ARC
8
0
10
1.5439950010189951
20
22.051317583617973
40
1
50
-106.50115622388148
51
-87.22301675993747
0
ARC
8
0
10
1.223243918609522
20
20.94706662910049
40
0.15
50
75.83140797117255
51
158.4000000000001
0
ARC
8
0
10
15.898108356531027
20
15.921143347646044
40
15.661494309189534
50
161.06863228039308
51
162.93136771960678
0
ARC
8
0
10
1.071730052111666
20
20.48075489652627
40
0.15
50
165.59999999999923
51
-111.83140797117221
0
ARC
8
0
10
0.6821607028498284
20
19.39886435236973
40
1
50
51.2230167599377
51
70.50115622388162
0
ARC
8
0
10
0.9445941912280409
20
19.759368134906115
40
0.555
50
-14.400000000000272
51
49.034948822921784
0
ARC
8
0
10
0.9445941912280402
20
19.75936813490611
40
0.555
50
-77.83494882292186
51
-14.399999999999896
0
ARC
8
0
10
0.8882959940594635
20
20.201708304957357
40
1
50
-99.30115622388146
51
-80.0230167599375
0
ARC
8
0
10
0.7084734725346388
20
19.065963928712385
40
0.15
50
83.03140797117238
51
165.5999999999993
0
ARC
8
0
10
15.897537437704381
20
15.918919765625189
40
15.661494309189534
50
168.26863228039284
51
170.13136771960657
0
ARC
8
0
10
0.6165986954216138
20
18.584339480612066
40
0.15
50
172.79999999999941
51
-104.63140797117268
0
ARC
8
0
10
0.36569805709920894
20
17.46215398030072
40
1
50
58.4230167599373
51
77.70115622388133
0
ARC
8
0
10
0.580879074259034
20
17.852706720528538
40
0.555
50
-7.200000000000378
51
56.23494882292197
0
ARC
8
0
10
0.5808790742590341
20
17.852706720528538
40
0.555
50
-70.63494882292203
51
-7.200000000000378
0
ARC
8
0
10
0.469584881342675
20
18.284502871123344
40
1
50
-92.10115622388122
51
-72.82301675993722
0
ARC
8
0
10
0.4335268292877178
20
17.135176440425074
40
0.15
50
90.23140797117244
51
172.79999999999941
0
ARC
8
0
10
15.897249709467985
20
15.916642162110183
40
15.661494309189534
50
175.46863228039305
51
177.33136771960676
0
ARC
8
0
10
0.40274006167793386
20
16.64583478205371
40
0.15
50
180
51
-97.43140797117255
0
ARC
8
0
10
0.2944649872420883
20
15.501051861288584
40
1
50
65.62301675993744
51
84.90115622388142
0
ARC
8
0
10
0.45899999999999935
20
15.915494309189556
40
0.555
50
-1.833833329852839e-13
51
63.434948822921896
0
ARC
8
0
10
0.4589999999999993
20
15.915494309189556
40
0.555
50
-63.43494882292206
51
-1.8338333298528382e-13
0
ARC
8
0
10
0.29446498724209746
20
16.329936757090532
40
1
50
-84.901156223882
51
-65.6230167599381
0
ARC
8
0
10
0.40274006167793236
20
15.185153836325403
40
0.15
50
97.43140797117242
51
180
0
ARC
8
0
10
15.897249709467989
20
15.91434645626887
40
15.661494309189534
50
-177.331367719607
51
-175.46863228039325
0
ARC
8
0
10
0.4335268292877157
20
14.695812177954023
40
0.15
50
-172.8000000000001
51
-90.23140797117263
0
ARC
8
0
10
0.469584881342678
20
13.546485747255753
40
1
50
72.82301675993756
51
92.10115622388153
0
ARC
8
0
10
0.5808790742590298
20
13.978281897850561
40
0.555
50
7.2000000000000055
51
70.63494882292186
0
ARC
8
0
10
0.5808790742590301
20
13.978281897850561
40
0.555
50
-56.234948822922014
51
7.200000000000009
0
ARC
8
0
10
0.3656980570992048
20
14.368834638078381
40
1
50
-77.70115622388137
51
-58.42301675993737
0
ARC
8
0
10
0.6165986954216089
20
13.246649137767031
40
0.15
50
104.63140797117245
51
-172.8000000000001
0
ARC
8
0
10
15.897537437704395
20
15.912068852753794
40
15.661494309189534
50
-170.131367719607
51
-168.26863228039332
0
ARC
8
0
10
0.7084734725346277
20
12.765024689666726
40
0.15
50
-165.6
51
-83.03140797117264
0
ARC
8
0
10
0.8882959940594473
20
11.629280313421754
40
1
50
80.0230167599372
51
99.30115622388121
0
ARC
8
0
10
0.9445941912280296
20
12.071620483472998
40
0.555
50
14.399999999999896
51
77.8349488229219
0
ARC
8
0
10
0.9445941912280295
20
12.071620483472998
40
0.555
50
-49.03494882292203
51
14.399999999999894
0
ARC
8
0
10
0.6821607028498117
20
12.432124266009376
40
1
50
-70.50115622388142
51
-51.223016759937416
0
ARC
8
0
10
1.0717300521116526
20
11.350233721852838
40
0.15
50
111.8314079711723
51
-165.59999999999997
0
ARC
8
0
10
15.898108356531031
20
15.909845270733012
40
15.661494309189534
50
-162.93136771960698
51
-161.06863228039325
0
ARC
8
0
10
1.2232439186095094
20
10.883921989278612
40
0.15
50
-158.4000000000001
51
-75.83140797117264
0
ARC
8
0
10
1.5439950010189774
20
9.779671034761128
40
1
50
87.22301675993721
51
106.50115622388118
0
ARC
8
0
10
1.544409346239522
20
10.225579255545892
40
0.555
50
21.600000000000044
51
85.03494882292192
0
ARC
8
0
10
1.5444093462395219
20
10.225579255545892
40
0.555
50
-41.83494882292202
51
21.600000000000037
0
ARC
8
0
10
1.2388621195248046
20
10.550348720385708
40
1
50
-63.30115622388149
51
-44.023016759937484
0
ARC
8
0
10
1.7609564383707736
20
9.525815192555415
40
0.15
50
119.03140797117244
51
-158.4000000000001
0
ARC
8
0
10
15.898953462216953
20
15.90771077742326
40
15.661494309189534
50
-155.7313677196069
51
-153.86863228039314
0
ARC
8
0
10
1.969719930068798
20
9.082170190091107
40
0.15
50
-151.20000000000005
51
-68.63140797117265
0
ARC
8
0
10
2.426341137185914
20
8.026827354501396
40
1
50
94.42301675993747
51
113.70115622388151
0
ARC
8
0
10
2.3708650959867703
20
8.469271387005245
40
0.555
50
28.799999999999965
51
92.23494882292181
0
ARC
8
0
10
2.3708650959867708
20
8.469271387005245
40
0.555
50
-34.63494882292212
51
28.79999999999999
0
ARC
8
0
10
2.0270227932259095
20
8.7531847256801
40
1
50
-56.10115622388151
51
-36.823016759937516
0
ARC
8
0
10
2.6734083423637776
20
7.802165719936599
40
0.15
50
126.23140797117222
51
-151.2000000000003
0
ARC
8
0
10
15.900059426940683
20
15.905699035059067
40
15.661494309189534
50
-148.53136771960706
51
-146.66863228039335
0
ARC
8
0
10
2.9361291342886178
20
7.388183994291761
40
0.15
50
-144.00000000000028
51
-61.43140797117275
0
ARC
8
0
10
3.5214192769048496
20
6.398392664578324
40
1
50
101.62301675993739
51
120.90115622388139
0
ARC
8
0
10
3.4109277395955155
20
6.830394902105418
40
0.555
50
35.99999999999978
51
99.43494882292184
0
ARC
8
0
10
3.410927739595516
20
6.830394902105417
40
0.555
50
-27.43494882292197
51
35.99999999999988
0
ARC
8
0
10
3.034212959304485
20
7.068974631662804
40
1
50
-48.9011562238815
51
-29.623016759937514
0
ARC
8
0
10
3.7946958524923384
20
6.206468285837886
40
0.15
50
133.43140797117226
51
-144.00000000000017
0
ARC
8
0
10
15.901408808977799
20
15.903841770019376
40
15.661494309189534
50
-141.33136771960702
51
-139.46863228039325
0
ARC
8
0
10
4.1072306808135615
20
5.82867857612661
40
0.15
50
-136.79999999999995
51
-54.23140797117258
0
ARC
8
0
10
4.811959383744467
20
4.9200483528317065
40
1
50
108.82301675993716
51
128.10115622388113
0
ARC
8
0
10
4.648194867872757
20
5.334795862030616
40
0.555
50
43.19999999999979
51
106.63494882292167
0
ARC
8
0
10
4.648194867872758
20
5.3347958620306155
40
0.555
50
-20.234948822921897
51
43.19999999999992
0
ARC
8
0
10
4.2445486271752495
20
5.524279437614792
40
1
50
-41.701156223881604
51
-22.423016759937642
0
ARC
8
0
10
5.107135594897055
20
4.763887992018432
40
0.15
50
140.63140797117245
51
-136.80000000000035
0
ARC
8
0
10
15.902980327767605
20
15.902168272483202
40
15.661494309189534
50
-134.13136771960734
51
-132.26863228039363
0
ARC
8
0
10
5.464555598672764
20
4.428248267643512
40
0.15
50
-129.60000000000022
51
-47.03140797117261
0
ARC
8
0
10
6.277608869288605
20
3.6151087921778915
40
1
50
116.02301675993729
51
135.30115622388124
0
ARC
8
0
10
6.063154039097992
20
4.006060757070397
40
0.555
50
50.39999999999981
51
113.8349488229218
0
ARC
8
0
10
6.063154039097993
20
4.006060757070396
40
0.555
50
-13.034948822922047
51
50.39999999999994
0
ARC
8
0
10
5.63894208033638
20
4.143459909502393
40
1
50
-34.50115622388149
51
-15.223016759937508
0
ARC
8
0
10
6.590029610826689
20
3.49717519146748
40
0.15
50
147.8314079711724
51
-129.60000000000022
0
ARC
8
0
10
15.904749199519753
20
15.900704934506631
40
15.661494309189534
50
-126.9313677196069
51
-125.06863228039312
0
ARC
8
0
10
6.986698063084995
20
3.208978691383756
40
0.15
50
-122.39999999999964
51
-39.83140797117266
0
ARC
8
0
10
7.895253565613678
20
2.5041536590214877
40
1
50
123.2230167599372
51
142.50115622388122
0
ARC
8
0
10
7.633490501885376
20
2.865144533577851
40
0.555
50
57.59999999999998
51
121.03494882292183
0
ARC
8
0
10
7.633490501885376
20
2.865144533577851
40
0.555
50
-5.834948822922136
51
57.59999999999998
0
ARC
8
0
10
7.1954029010612715
20
2.948292396145544
40
1
50
-27.301156223881506
51
-8.02301675993754
0
ARC
8
0
10
8.2199917758121
20
2.426306701747263
40
0.15
50
155.0314079711724
51
-122.40000000000029
0
ARC
8
0
10
15.906687528070332
20
15.899474833803449
40
15.661494309189534
50
-119.73136771960698
51
-117.86863228039326
0
ARC
8
0
10
8.649652978102619
20
2.19009845692131
40
0.15
50
-115.2000000000003
51
-32.63140797117281
0
ARC
8
0
10
9.639382249524516
20
1.604703379464811
40
1
50
130.42301675993716
51
149.70115622388116
0
ARC
8
0
10
9.334439112143194
20
1.9300401219477823
40
0.555
50
64.79999999999976
51
128.23494882292175
0
ARC
8
0
10
9.334439112143194
20
1.930040121947782
40
0.555
50
1.365051177077989
51
64.79999999999977
0
ARC
8
0
10
8.889384772422442
20
1.9576254031883549
40
1
50
-20.101156223881592
51
-0.8230167599376015
0
ARC
8
0
10
9.97131661281924
20
1.5681707586465061
40
0.15
50
162.23140797117242
51
-115.19999999999966
0
ARC
8
0
10
15.908764744820143
20
15.898497369796658
40
15.661494309189534
50
-112.53136771960736
51
-110.6686322803936
0
ARC
8
0
10
10.427194551314718
20
1.3876759142031772
40
0.15
50
-108.00000000000033
51
-25.43140797117262
0
ARC
8
0
10
11.4824889697839
20
0.9309428217220055
40
1
50
137.62301675993706
51
156.9011562238811
0
ARC
8
0
10
11.139174894190262
20
1.2154946773558808
40
0.555
50
71.99999999999974
51
135.43494882292174
0
ARC
8
0
10
11.139174894190262
20
1.2154946773558812
40
0.555
50
8.565051177077839
51
71.99999999999973
0
ARC
8
0
10
10.694172588372835
20
1.1870823409055153
40
1
50
-12.901156223881406
51
6.376983240062571
0
ARC
8
0
10
11.816384682977795
20
0.9363006786134553
40
0.15
50
169.43140797117226
51
-108.00000000000033
0
ARC
8
0
10
15.910948090819925
20
15.897787957677638
40
15.661494309189534
50
-105.33136771960697
51
-103.46863228039327
0
ARC
8
0
10
12.291289890259852
20
0.8143657460720328
40
0.15
50
-100.8000000000009
51
-18.23140797117266
0
ARC
8
0
10
13.39550683239473
20
0.4934975922737448
40
1
50
144.82301675993736
51
164.10115622388125
0
ARC
8
0
10
13.019236086646773
20
0.732777008312133
40
0.555
50
79.19999999999985
51
142.63494882292179
0
ARC
8
0
10
13.019236086646773
20
0.7327770083121331
40
0.555
50
15.765051177077886
51
79.19999999999985
0
ARC
8
0
10
12.581303766926903
20
0.6488151336893624
40
1
50
-5.70115622388139
51
13.576983240062587
0
ARC
8
0
10
13.726098160631093
20
0.5406614302711378
40
0.15
50
176.6314079711723
51
-100.80000000000022
0
ARC
8
0
10
15.913203133399277
20
15.897357785299187
40
15.661494309189534
50
-98.13136771960703
51
-96.26863228039328
0
ARC
8
0
10
14.212541097886296
20
0.4792093963581876
40
0.15
50
-93.60000000000066
51
-11.031407971172735
0
ARC
8
0
10
15.348266402882173
20
0.29926646370551974
40
1
50
152.02301675993695
51
171.30115622388104
0
ARC
8
0
10
14.944973001413596
20
0.48949986081890895
40
0.555
50
86.3999999999999
51
149.83494882292166
0
ARC
8
0
10
14.944973001413597
20
0.48949986081890884
40
0.555
50
22.96505117707794
51
86.40000000000009
0
ARC
8
0
10
14.521017122081352
20
0.3513125769429343
40
1
50
1.4988437761182238
51
20.776983240062172
0
ARC
8
0
10
15.670339723429034
20
0.38749248090933447
40
0.15
50
-176.16859202882767
51
-93.59999999999998
0
ARC
8
0
10
15.915494309189532
20
15.897213636736726
40
15.661494309189534
50
-90.93136771960707
51
-89.06863228039332
0
ARC
8
0
10
16.16064889494993
20
0.3874924809093329
40
0.15
50
-86.4000000000007
51
-3.8314079711727738
0
ARC
8
0
10
17.309971496297614
20
0.35131257694292556
40
1
50
159.22301675993754
51
178.50115622388145
0
ARC
8
0
10
16.88601561696537
20
0.48949986081890146
40
0.555
50
93.59999999999974
51
157.0349488229217
0
ARC
8
0
10
16.88601561696537
20
0.4894998608189015
40
0.555
50
30.16505117707797
51
93.59999999999974
0
ARC
8
0
10
16.48272221549679
20
0.2992664637055184
40
1
50
8.698843776118434
51
27.97698324006242
0
ARC
8
0
10
17.61844752049267
20
0.4792093963581764
40
0.15
50
-168.96859202882777
51
-86.4000000000007
0
ARC
8
0
10
15.917785484979808
20
15.897357785299189
40
15.661494309189534
50
-83.73136771960719
51
-81.86863228039348
0
ARC
8
0
10
18.10489045774786
20
0.5406614302711211
40
0.15
50
-79.20000000000047
51
3.36859202882729
0
ARC
8
0
10
19.24968485145205
20
0.6488151336893397
40
1
50
166.42301675993707
51
-174.2988437761189
0
ARC
8
0
10
18.811752531732182
20
0.732777008312113
40
0.555
50
100.79999999999997
51
164.2349488229218
0
ARC
8
0
10
18.811752531732182
20
0.732777008312113
40
0.555
50
37.36505117707779
51
100.79999999999997
0
ARC
8
0
10
18.435481785984226
20
0.4934975922737216
40
1
50
15.898843776118584
51
35.17698324006261
0
ARC
8
0
10
19.539698728119106
20
0.8143657460720062
40
0.15
50
-161.76859202882784
51
-79.20000000000047
0
ARC
8
0
10
15.920040527559067
20
15.89778795767762
40
15.661494309189534
50
-76.53136771960689
51
-74.66863228039314
0
ARC
8
0
10
20.014603935401173
20
0.9363006786134305
40
0.15
50
-71.99999999999969
51
10.568592028827407
0
ARC
8
0
10
21.13681603000613
20
1.187082340905495
40
1
50
173.62301675993777
51
-167.09884377611826
0
ARC
8
0
10
20.691813724188705
20
1.2154946773558497
40
0.555
50
107.99999999999947
51
171.43494882292168
0
ARC
8
0
10
20.691813724188705
20
1.2154946773558506
40
0.555
50
44.56505117707779
51
107.99999999999953
0
ARC
8
0
10
20.348499648595062
20
0.9309428217219804
40
1
50
23.098843776118322
51
42.37698324006227
0
ARC
8
0
10
21.40379406706425
20
1.3876759142031418
40
0.15
50
-154.56859202882814
51
-71.99999999999966
0
ARC
8
0
10
15.922223873558991
20
15.898497369796683
40
15.661494309189534
50
-69.33136771960706
51
-67.46863228039335
0
ARC
8
0
10
21.859672005559716
20
1.5681707586464604
40
0.15
50
-64.79999999999973
51
17.76859202882722
0
ARC
8
0
10
22.941603845956518
20
1.9576254031883036
40
1
50
-179.17698324006273
51
-159.89884377611872
0
ARC
8
0
10
22.496549506235766
20
1.9300401219477317
40
0.555
50
115.19999999999962
51
178.6349488229215
0
ARC
8
0
10
22.49654950623577
20
1.9300401219477328
40
0.555
50
51.765051177077964
51
115.20000000000002
0
ARC
8
0
10
22.19160636885444
20
1.6047033794647667
40
1
50
30.298843776118225
51
49.57698324006217
0
ARC
8
0
10
23.181335640276345
20
2.1900984569212545
40
0.15
50
-147.36859202882812
51
-64.79999999999963
0
ARC
8
0
10
15.924301090308745
20
15.899474833803453
40
15.661494309189534
50
-62.13136771960721
51
-60.26863228039345
0
ARC
8
0
10
23.61099684256688
20
2.426306701747212
40
0.15
50
-57.59999999999971
51
24.968592028827306
0
ARC
8
0
10
24.635585717317706
20
2.9482923961454928
40
1
50
-171.97698324006245
51
-152.69884377611842
0
ARC
8
0
10
24.197498116493605
20
2.8651445335777956
40
0.555
50
122.39999999999976
51
-174.1650511770783
0
ARC
8
0
10
24.197498116493605
20
2.865144533577796
40
0.555
50
58.96505117707776
51
122.39999999999976
0
ARC
8
0
10
23.935735052765303
20
2.504153659021434
40
1
50
37.498843776118456
51
56.77698324006248
0
ARC
8
0
10
24.84429055529399
20
3.208978691383695
40
0.15
50
-140.16859202882878
51
-57.59999999999954
0
ARC
8
0
10
15.92623941885931
20
15.900704934506624
40
15.661494309189534
50
-54.93136771960723
51
-53.06863228039353
0
ARC
8
0
10
25.240959007552288
20
3.497175191467409
40
0.15
50
-50.400000000000006
51
32.16859202882696
0
ARC
8
0
10
26.1920465380426
20
4.143459909502321
40
1
50
-164.7769832400627
51
-145.49884377611863
0
ARC
8
0
10
25.767834579280986
20
4.006060757070324
40
0.555
50
129.60000000000002
51
-166.96505117707818
0
ARC
8
0
10
25.767834579280983
20
4.006060757070323
40
0.555
50
66.16505117707756
51
129.59999999999962
0
ARC
8
0
10
25.55337974909037
20
3.6151087921778173
40
1
50
44.69884377611839
51
63.97698324006247
0
ARC
8
0
10
26.36643301970622
20
4.428248267643431
40
0.15
50
-132.96859202882885
51
-50.39999999999958
0
ARC
8
0
10
15.928008290611432
20
15.90216827248317
40
15.661494309189534
50
-47.731367719606624
51
-45.86863228039288
0
ARC
8
0
10
26.723853023481936
20
4.763887992018356
40
0.15
50
-43.20000000000041
51
39.368592028827095
0
ARC
8
0
10
27.586439991203743
20
5.524279437614716
40
1
50
-157.5769832400624
51
-138.2988437761184
0
ARC
8
0
10
27.182793750506235
20
5.3347958620305365
40
0.555
50
136.79999999999959
51
-159.76505117707845
0
ARC
8
0
10
27.182793750506235
20
5.334795862030537
40
0.555
50
73.36505117707767
51
136.79999999999964
0
ARC
8
0
10
27.019029234634527
20
4.9200483528316274
40
1
50
51.898843776118504
51
71.17698324006258
0
ARC
8
0
10
27.723757937565438
20
5.828678576126525
40
0.15
50
-125.76859202882791
51
-43.20000000000015
0
ARC
8
0
10
15.92957980940121
20
15.903841770019302
40
15.661494309189534
50
-40.5313677196068
51
-38.668632280393055
0
ARC
8
0
10
28.03629276588666
20
6.206468285837801
40
0.15
50
-36.00000000000011
51
46.56859202882663
0
ARC
8
0
10
28.796775659074523
20
7.068974631662711
40
1
50
-150.376983240063
51
-131.09884377611903
0
ARC
8
0
10
28.420060878783488
20
6.83039490210533
40
0.555
50
143.99999999999986
51
-152.56505117707826
0
ARC
8
0
10
28.420060878783488
20
6.830394902105329
40
0.555
50
80.56505117707789
51
143.99999999999977
0
ARC
8
0
10
28.309569341474155
20
6.3983926645782345
40
1
50
59.09884377611843
51
78.37698324006254
0
ARC
8
0
10
28.89485948409039
20
7.388183994291669
40
0.15
50
-118.56859202882696
51
-36.00000000000038
0
ARC
8
0
10
15.930929191438436
20
15.905699035059142
40
15.661494309189534
50
-33.33136771960741
51
-31.468632280393685
0
ARC
8
0
10
29.157580276015235
20
7.802165719936505
40
0.15
50
-28.799999999999898
51
53.76859202882777
0
ARC
8
0
10
29.803965825153107
20
8.753184725680004
40
1
50
-143.17698324006273
51
-123.89884377611874
0
ARC
8
0
10
29.460123522392244
20
8.46927138700515
40
0.555
50
151.19999999999985
51
-145.3650511770781
0
ARC
8
0
10
29.460123522392244
20
8.469271387005149
40
0.555
50
87.76505117707751
51
151.1999999999997
0
ARC
8
0
10
29.4046474811931
20
8.026827354501302
40
1
50
66.29884377611819
51
85.57698324006202
0
ARC
8
0
10
29.861268688310222
20
9.082170190091007
40
0.15
50
-111.36859202882872
51
-28.799999999999898
0
ARC
8
0
10
15.932035156162138
20
15.907710777423306
40
15.661494309189534
50
-26.131367719607436
51
-24.268632280393682
0
ARC
8
0
10
30.07003218000825
20
9.525815192555312
40
0.15
50
-21.59999999999913
51
60.96859202882841
0
ARC
8
0
10
30.592126498854228
20
10.550348720385603
40
1
50
-135.97698324006313
51
-116.69884377611905
0
ARC
8
0
10
30.286579272139505
20
10.225579255545789
40
0.555
50
158.39999999999955
51
-138.1650511770786
0
ARC
8
0
10
30.28657927213951
20
10.225579255545792
40
0.555
50
94.9650511770782
51
158.40000000000003
0
ARC
8
0
10
30.286993617360046
20
9.779671034761027
40
1
50
73.49884377611826
51
92.77698324006244
0
ARC
8
0
10
30.607744699769526
20
10.883921989278509
40
0.15
50
-104.16859202882804
51
-21.6000000000004
0
ARC
8
0
10
15.932880261847986
20
15.909845270732855
40
15.661494309189534
50
-18.931367719606563
51
-17.068632280392805
0
ARC
8
0
10
30.759258566267384
20
11.350233721852735
40
0.15
50
-14.40000000000012
51
68.16859202882691
0
ARC
8
0
10
31.14882791552923
20
12.43212426600927
40
1
50
-128.7769832400628
51
-109.49884377611872
0
ARC
8
0
10
30.886394427151007
20
12.071620483472897
40
0.555
50
165.60000000000008
51
-130.96505117707773
0
ARC
8
0
10
30.886394427151007
20
12.071620483472893
40
0.555
50
102.16505117707734
51
165.59999999999974
0
ARC
8
0
10
30.94269262431958
20
11.62928031342165
40
1
50
80.69884377611784
51
99.97698324006187
0
ARC
8
0
10
31.122515145844417
20
12.765024689666618
40
0.15
50
-96.96859202882774
51
-14.40000000000012
0
ARC
8
0
10
15.93345118067468
20
15.912068852753837
40
15.661494309189534
50
-11.731367719607242
51
-9.868632280393593
0
ARC
8
0
10
31.214389922957437
20
13.24664913776691
40
0.15
50
-7.199999999999885
51
75.36859202882779
0
ARC
8
0
10
31.465290561279854
20
14.368834638078257
40
1
50
-121.5769832400632
51
-102.29884377611943
0
ARC
8
0
10
31.250109544120022
20
13.978281897850442
40
0.555
50
172.7999999999998
51
-123.7650511770781
0
ARC
8
0
10
31.250109544120022
20
13.97828189785044
40
0.555
50
109.36505117707779
51
172.79999999999967
0
ARC
8
0
10
31.361403737036373
20
13.546485747255634
40
1
50
87.8988437761182
51
107.17698324006221
0
ARC
8
0
10
31.39746178909134
20
14.695812177953902
40
0.15
50
-89.76859202882805
51
-7.200000000000559
0
ARC
8
0
10
15.93373890891107
20
15.914346456268753
40
15.661494309189534
50
-4.5313677196068
51
-2.668632280393039
0
ENDSEC
0
EOF