  0
SECTION
  2
HEADER
  9
$ACADVER
  1
AC1018
  9
$ACADMAINTVER
 70
     0
  9
$DWGCODEPAGE
  3
ANSI_1252
  9
$INSBASE
 10
0.0
 20
0.0
 30
0.0
  9
$EXTMIN
 10
-4.13544094488189
 20
-5.368673228346457
 30
0.0
  9
$EXTMAX
 10
3.961259842519685
 20
5.42203937007874
 30
0.0
  9
$LIMMIN
 10
0.0
 20
0.0
  9
$LIMMAX
 10
12.0
 20
9.0
  9
$ORTHOMODE
 70
     0
  9
$REGENMODE
 70
     1
  9
$FILLMODE
 70
     1
  9
$QTEXTMODE
 70
     0
  9
$MIRRTEXT
 70
     1
  9
$LTSCALE
 40
1.0
  9
$ATTMODE
 70
     1
  9
$TEXTSIZE
 40
0.2
  9
$TRACEWID
 40
0.05
  9
$TEXTSTYLE
  7
Standard
  9
$CLAYER
  8
0
  9
$CELTYPE
  6
ByLayer
  9
$CECOLOR
 62
   256
  9
$CELTSCALE
 40
1.0
  9
$DISPSILH
 70
     0
  9
$DIMSCALE
 40
1.0
  9
$DIMASZ
 40
0.18
  9
$DIMEXO
 40
0.0625
  9
$DIMDLI
 40
0.38
  9
$DIMRND
 40
0.0
  9
$DIMDLE
 40
0.0
  9
$DIMEXE
 40
0.18
  9
$DIMTP
 40
0.0
  9
$DIMTM
 40
0.0
  9
$DIMTXT
 40
0.18
  9
$DIMCEN
 40
0.09
  9
$DIMTSZ
 40
0.0
  9
$DIMTOL
 70
     0
  9
$DIMLIM
 70
     0
  9
$DIMTIH
 70
     1
  9
$DIMTOH
 70
     1
  9
$DIMSE1
 70
     0
  9
$DIMSE2
 70
     0
  9
$DIMTAD
 70
     0
  9
$DIMZIN
 70
     0
  9
$DIMBLK
  1

  9
$DIMASO
 70
     1
  9
$DIMSHO
 70
     1
  9
$DIMPOST
  1

  9
$DIMAPOST
  1

  9
$DIMALT
 70
     0
  9
$DIMALTD
 70
     2
  9
$DIMALTF
 40
25.4
  9
$DIMLFAC
 40
1.0
  9
$DIMTOFL
 70
     0
  9
$DIMTVP
 40
0.0
  9
$DIMTIX
 70
     0
  9
$DIMSOXD
 70
     0
  9
$DIMSAH
 70
     0
  9
$DIMBLK1
  1

  9
$DIMBLK2
  1

  9
$DIMSTYLE
  2
Standard
  9
$DIMCLRD
 70
     0
  9
$DIMCLRE
 70
     0
  9
$DIMCLRT
 70
     0
  9
$DIMTFAC
 40
1.0
  9
$DIMGAP
 40
0.09
  9
$DIMJUST
 70
     0
  9
$DIMSD1
 70
     0
  9
$DIMSD2
 70
     0
  9
$DIMTOLJ
 70
     1
  9
$DIMTZIN
 70
     0
  9
$DIMALTZ
 70
     0
  9
$DIMALTTZ
 70
     0
  9
$DIMUPT
 70
     0
  9
$DIMDEC
 70
     4
  9
$DIMTDEC
 70
     4
  9
$DIMALTU
 70
     2
  9
$DIMALTTD
 70
     2
  9
$DIMTXSTY
  7
Standard
  9
$DIMAUNIT
 70
     0
  9
$DIMADEC
 70
     0
  9
$DIMALTRND
 40
0.0
  9
$DIMAZIN
 70
     0
  9
$DIMDSEP
 70
    46
  9
$DIMATFIT
 70
     3
  9
$DIMFRAC
 70
     0
  9
$DIMLDRBLK
  1

  9
$DIMLUNIT
 70
     2
  9
$DIMLWD
 70
    -2
  9
$DIMLWE
 70
    -2
  9
$DIMTMOVE
 70
     0
  9
$LUNITS
 70
     2
  9
$LUPREC
 70
     4
  9
$SKETCHINC
 40
0.1
  9
$FILLETRAD
 40
0.5
  9
$AUNITS
 70
     0
  9
$AUPREC
 70
     0
  9
$MENU
  1
.
  9
$ELEVATION
 40
0.0
  9
$PELEVATION
 40
0.0
  9
$THICKNESS
 40
0.0
  9
$LIMCHECK
 70
     0
  9
$CHAMFERA
 40
0.5
  9
$CHAMFERB
 40
0.5
  9
$CHAMFERC
 40
1.0
  9
$CHAMFERD
 40
0.0
  9
$SKPOLY
 70
     0
  9
$TDCREATE
 40
2455513.615417199
  9
$TDUCREATE
 40
2455513.907083866
  9
$TDUPDATE
 40
2455513.615417211
  9
$TDUUPDATE
 40
2455513.907083877
  9
$TDINDWG
 40
0.0000000116
  9
$TDUSRTIMER
 40
0.0000000116
  9
$USRTIMER
 70
     1
  9
$ANGBASE
 50
0.0
  9
$ANGDIR
 70
     0
  9
$PDMODE
 70
     0
  9
$PDSIZE
 40
0.0
  9
$PLINEWID
 40
0.0
  9
$SPLFRAME
 70
     0
  9
$SPLINETYPE
 70
     6
  9
$SPLINESEGS
 70
     8
  9
$HANDSEED
  5
B8
  9
$SURFTAB1
 70
     6
  9
$SURFTAB2
 70
     6
  9
$SURFTYPE
 70
     6
  9
$SURFU
 70
     6
  9
$SURFV
 70
     6
  9
$UCSBASE
  2

  9
$UCSNAME
  2

  9
$UCSORG
 10
0.0
 20
0.0
 30
0.0
  9
$UCSXDIR
 10
1.0
 20
0.0
 30
0.0
  9
$UCSYDIR
 10
0.0
 20
1.0
 30
0.0
  9
$UCSORTHOREF
  2

  9
$UCSORTHOVIEW
 70
     0
  9
$UCSORGTOP
 10
0.0
 20
0.0
 30
0.0
  9
$UCSORGBOTTOM
 10
0.0
 20
0.0
 30
0.0
  9
$UCSORGLEFT
 10
0.0
 20
0.0
 30
0.0
  9
$UCSORGRIGHT
 10
0.0
 20
0.0
 30
0.0
  9
$UCSORGFRONT
 10
0.0
 20
0.0
 30
0.0
  9
$UCSORGBACK
 10
0.0
 20
0.0
 30
0.0
  9
$PUCSBASE
  2

  9
$PUCSNAME
  2

  9
$PUCSORG
 10
0.0
 20
0.0
 30
0.0
  9
$PUCSXDIR
 10
1.0
 20
0.0
 30
0.0
  9
$PUCSYDIR
 10
0.0
 20
1.0
 30
0.0
  9
$PUCSORTHOREF
  2

  9
$PUCSORTHOVIEW
 70
     0
  9
$PUCSORGTOP
 10
0.0
 20
0.0
 30
0.0
  9
$PUCSORGBOTTOM
 10
0.0
 20
0.0
 30
0.0
  9
$PUCSORGLEFT
 10
0.0
 20
0.0
 30
0.0
  9
$PUCSORGRIGHT
 10
0.0
 20
0.0
 30
0.0
  9
$PUCSORGFRONT
 10
0.0
 20
0.0
 30
0.0
  9
$PUCSORGBACK
 10
0.0
 20
0.0
 30
0.0
  9
$USERI1
 70
     0
  9
$USERI2
 70
     0
  9
$USERI3
 70
     0
  9
$USERI4
 70
     0
  9
$USERI5
 70
     0
  9
$USERR1
 40
0.0
  9
$USERR2
 40
0.0
  9
$USERR3
 40
0.0
  9
$USERR4
 40
0.0
  9
$USERR5
 40
0.0
  9
$WORLDVIEW
 70
     1
  9
$SHADEDGE
 70
     3
  9
$SHADEDIF
 70
    70
  9
$TILEMODE
 70
     1
  9
$MAXACTVP
 70
    64
  9
$PINSBASE
 10
0.0
 20
0.0
 30
0.0
  9
$PLIMCHECK
 70
     0
  9
$PEXTMIN
 10
1.000000000000000E+20
 20
1.000000000000000E+20
 30
1.000000000000000E+20
  9
$PEXTMAX
 10
-1.000000000000000E+20
 20
-1.000000000000000E+20
 30
-1.000000000000000E+20
  9
$PLIMMIN
 10
0.0
 20
0.0
  9
$PLIMMAX
 10
12.0
 20
9.0
  9
$UNITMODE
 70
     0
  9
$VISRETAIN
 70
     1
  9
$PLINEGEN
 70
     0
  9
$PSLTSCALE
 70
     1
  9
$TREEDEPTH
 70
  3020
  9
$CMLSTYLE
  2
Standard
  9
$CMLJUST
 70
     0
  9
$CMLSCALE
 40
1.0
  9
$PROXYGRAPHICS
 70
     1
  9
$MEASUREMENT
 70
     0
  9
$CELWEIGHT
370
    -1
  9
$ENDCAPS
280
     0
  9
$JOINSTYLE
280
     0
  9
$LWDISPLAY
290
     0
  9
$INSUNITS
 70
     1
  9
$HYPERLINKBASE
  1

  9
$STYLESHEET
  1

  9
$XEDIT
290
     1
  9
$CEPSNTYPE
380
     0
  9
$PSTYLEMODE
290
     0
  9
$FINGERPRINTGUID
  2
{FAEB1C30-E019-11D5-929B-00C0DF256EC4}
  9
$VERSIONGUID
  2
{FAEB1C32-E019-11D5-929B-00C0DF256EC4}
  9
$EXTNAMES
290
     1
  9
$PSVPSCALE
 40
0.0
  9
$OLESTARTUP
290
     0
  9
$SORTENTS
280
   127
  9
$INDEXCTL
280
     0
  9
$HIDETEXT
280
     1
  9
$XCLIPFRAME
290
     0
  9
$HALOGAP
280
     0
  9
$OBSCOLOR
 70
   257
  9
$OBSLTYPE
280
     0
  9
$INTERSECTIONDISPLAY
280
     0
  9
$INTERSECTIONCOLOR
 70
   257
  9
$DIMASSOC
280
     2
  9
$PROJECTNAME
  1

  0
ENDSEC
  0
SECTION
  2
CLASSES
  0
CLASS
  1
ACDBDICTIONARYWDFLT
  2
AcDbDictionaryWithDefault
  3
ObjectDBX Classes
 90
        0
 91
        1
280
     0
281
     0
  0
ENDSEC
  0
SECTION
  2
TABLES
  0
TABLE
  2
VPORT
  5
8
330
0
100
AcDbSymbolTable
 70
     2
  0
VPORT
  5
29
330
8
100
AcDbSymbolTableRecord
100
AcDbViewportTableRecord
  2
*Active
 70
     0
 10
0.0
 20
0.0
 11
1.0
 21
1.0
 12
10.42990654205607
 22
4.5
 13
0.0
 23
0.0
 14
0.5
 24
0.5
 15
0.5
 25
0.5
 16
0.0
 26
0.0
 36
1.0
 17
0.0
 27
0.0
 37
0.0
 40
9.0
 41
1.972972972850329
 42
50.0
 43
0.0
 44
0.0
 50
0.0
 51
0.0
 71
     0
 72
   100
 73
     1
 74
     3
 75
     0
 76
     0
 77
     0
 78
     0
281
     0
 65
     1
110
0.0
120
0.0
130
0.0
111
1.0
121
0.0
131
0.0
112
0.0
122
1.0
132
0.0
 79
     0
146
0.0
  0
ENDTAB
  0
TABLE
  2
LTYPE
  5
5
330
0
100
AcDbSymbolTable
 70
     1
  0
LTYPE
  5
14
330
5
100
AcDbSymbolTableRecord
100
AcDbLinetypeTableRecord
  2
ByBlock
 70
     0
  3

 72
    65
 73
     0
 40
0.0
  0
LTYPE
  5
15
330
5
100
AcDbSymbolTableRecord
100
AcDbLinetypeTableRecord
  2
ByLayer
 70
     0
  3

 72
    65
 73
     0
 40
0.0
  0
LTYPE
  5
16
330
5
100
AcDbSymbolTableRecord
100
AcDbLinetypeTableRecord
  2
Continuous
 70
     0
  3
Solid line
 72
    65
 73
     0
 40
0.0
  0
ENDTAB
  0
TABLE
  2
LAYER
  5
2
330
0
100
AcDbSymbolTable
 70
     2
  0
LAYER
  5
10
330
2
100
AcDbSymbolTableRecord
100
AcDbLayerTableRecord
  2
0
 70
     0
 62
     7
  6
Continuous
370
    -3
390
F
  0
LAYER
  5
2B
330
2
100
AcDbSymbolTableRecord
100
AcDbLayerTableRecord
  2
Layer 1
 70
     0
 62
     7
  6
Continuous
370
    -3
390
F
  0
ENDTAB
  0
TABLE
  2
STYLE
  5
3
330
0
100
AcDbSymbolTable
 70
     1
  0
STYLE
  5
11
330
3
100
AcDbSymbolTableRecord
100
AcDbTextStyleTableRecord
  2
Standard
 70
     0
 40
0.0
 41
1.0
 50
0.0
 71
     0
 42
0.2
  3
txt
  4

  0
ENDTAB
  0
TABLE
  2
VIEW
  5
6
330
0
100
AcDbSymbolTable
 70
     0
  0
ENDTAB
  0
TABLE
  2
UCS
  5
7
330
0
100
AcDbSymbolTable
 70
     0
  0
ENDTAB
  0
TABLE
  2
APPID
  5
9
330
0
100
AcDbSymbolTable
 70
     2
  0
APPID
  5
12
330
9
100
AcDbSymbolTableRecord
100
AcDbRegAppTableRecord
  2
ACAD
 70
     0
  0
APPID
  5
2A
330
9
100
AcDbSymbolTableRecord
100
AcDbRegAppTableRecord
  2
ODA
 70
     0
  0
ENDTAB
  0
TABLE
  2
DIMSTYLE
  5
A
330
0
100
AcDbSymbolTable
 70
     1
100
AcDbDimStyleTable
  0
DIMSTYLE
105
27
330
A
100
AcDbSymbolTableRecord
100
AcDbDimStyleTableRecord
  2
Standard
 70
     0
340
11
  0
ENDTAB
  0
TABLE
  2
BLOCK_RECORD
  5
1
330
0
100
AcDbSymbolTable
 70
     1
  0
BLOCK_RECORD
  5
1F
330
1
100
AcDbSymbolTableRecord
100
AcDbBlockTableRecord
  2
*Model_Space
340
22
  0
BLOCK_RECORD
  5
1B
330
1
100
AcDbSymbolTableRecord
100
AcDbBlockTableRecord
  2
*Paper_Space
340
1E
  0
BLOCK_RECORD
  5
23
330
1
100
AcDbSymbolTableRecord
100
AcDbBlockTableRecord
  2
*Paper_Space0
340
26
  0
ENDTAB
  0
ENDSEC
  0
SECTION
  2
BLOCKS
  0
BLOCK
  5
20
330
1F
100
AcDbEntity
  8
0
100
AcDbBlockBegin
  2
*Model_Space
 70
     0
 71
     0
 10
0.0
 20
0.0
 30
0.0
  3
*Model_Space
  1

  0
ENDBLK
  5
21
330
1F
100
AcDbEntity
  8
0
100
AcDbBlockEnd
  0
BLOCK
  5
1C
330
1B
100
AcDbEntity
 67
     1
  8
0
100
AcDbBlockBegin
  2
*Paper_Space
 70
     0
 71
     0
 10
0.0
 20
0.0
 30
0.0
  3
*Paper_Space
  1

  0
ENDBLK
  5
1D
330
1B
100
AcDbEntity
 67
     1
  8
0
100
AcDbBlockEnd
  0
BLOCK
  5
24
330
23
100
AcDbEntity
  8
0
100
AcDbBlockBegin
  2
*Paper_Space0
 70
     0
 71
     0
 10
0.0
 20
0.0
 30
0.0
  3
*Paper_Space0
  1

  0
ENDBLK
  5
25
330
23
100
AcDbEntity
  8
0
100
AcDbBlockEnd
  0
ENDSEC
  0
SECTION
  2
ENTITIES
  0
SPLINE
  5
2C
330
1F
100
AcDbEntity
  8
Layer 1
 62
    30
370
     5
100
AcDbSpline
210
0.0
220
0.0
230
1.0
 70
     8
 71
     3
 72
    12
 73
     8
 74
     0
 42
0.0000000001
 43
0.0000000001
 40
0.0
 40
0.0
 40
0.0
 40
0.0
 40
0.5
 40
0.5
 40
0.5
 40
0.5
 40
1.0
 40
1.0
 40
1.0
 40
1.0
 10
-3.459700787401575
 20
5.001551181102363
 30
0.0
 10
-3.459700787401575
 20
5.001551181102363
 30
0.0
 10
-3.460314960629921
 20
5.001551181102363
 30
0.0
 10
-3.460314960629921
 20
5.001551181102363
 30
0.0
 10
-3.460314960629921
 20
5.001551181102363
 30
0.0
 10
-3.460314960629921
 20
5.001551181102363
 30
0.0
 10
-3.460314960629921
 20
4.558775590551181
 30
0.0
 10
-3.460314960629921
 20
4.558775590551181
 30
0.0
  0
SPLINE
  5
2D
330
1F
100
AcDbEntity
  8
Layer 1
 62
    30
370
     5
100
AcDbSpline
210
0.0
220
0.0
230
1.0
 70
     8
 71
     3
 72
    16
 73
    12
 74
     0
 42
0.0000000001
 43
0.0000000001
 40
0.0
 40
0.0
 40
0.0
 40
0.0
 40
0.3333333333333333
 40
0.3333333333333333
 40
0.3333333333333333
 40
0.3333333333333333
 40
0.6666666666666666
 40
0.6666666666666666
 40
0.6666666666666666
 40
0.6666666666666666
 40
1.0
 40
1.0
 40
1.0
 40
1.0
 10
-3.460314960629921
 20
0.0774645669291339
 30
0.0
 10
-3.460314960629921
 20
0.0774645669291339
 30
0.0
 10
-3.460314960629921
 20
-1.485496062992126
 30
0.0
 10
-3.460314960629921
 20
-1.485496062992126
 30
0.0
 10
-3.460314960629921
 20
-1.485496062992126
 30
0.0
 10
-3.460314960629921
 20
-1.485496062992126
 30
0.0
 10
-1.084192913385827
 20
-1.485496062992126
 30
0.0
 10
-1.084192913385827
 20
-1.485496062992126
 30
0.0
 10
-1.084192913385827
 20
-1.485496062992126
 30
0.0
 10
-1.084192913385827
 20
-1.485496062992126
 30
0.0
 10
-1.084192913385827
 20
0.0774645669291339
 30
0.0
 10
-1.084192913385827
 20
0.0774645669291339
 30
0.0
  0
SPLINE
  5
2E
330
1F
100
AcDbEntity
  8
Layer 1
 62
    30
370
     5
100
AcDbSpline
210
0.0
220
0.0
230
1.0
 70
    24
 71
     3
 72
     8
 73
     4
 74
     0
 42
0.0000000001
 43
0.0000000001
 40
0.0
 40
0.0
 40
0.0
 40
0.0
 40
1.0
 40
1.0
 40
1.0
 40
1.0
 10
-1.084192913385827
 20
4.558775590551181
 30
0.0
 10
-1.084192913385827
 20
4.558775590551181
 30
0.0
 10
-1.084192913385827
 20
4.897692913385827
 30
0.0
 10
-1.084192913385827
 20
4.897692913385827
 30
0.0
  0
SPLINE
  5
2F
330
1F
100
AcDbEntity
  8
Layer 1
 62
    30
370
     5
100
AcDbSpline
210
0.0
220
0.0
230
1.0
 70
     8
 71
     3
 72
    20
 73
    16
 74
     0
 42
0.0000000001
 43
0.0000000001
 40
0.0
 40
0.0
 40
0.0
 40
0.0
 40
0.25
 40
0.25
 40
0.25
 40
0.25
 40
0.5
 40
0.5
 40
0.5
 40
0.5
 40
0.75
 40
0.75
 40
0.75
 40
0.75
 40
1.0
 40
1.0
 40
1.0
 40
1.0
 10
-1.084192913385827
 20
4.897696850393701
 30
0.0
 10
-1.084192913385827
 20
4.897696850393701
 30
0.0
 10
-1.083728346456693
 20
4.897696850393701
 30
0.0
 10
-1.083728346456693
 20
4.897696850393701
 30
0.0
 10
-1.083728346456693
 20
4.897696850393701
 30
0.0
 10
-1.083728346456693
 20
4.897696850393701
 30
0.0
 10
-1.083728346456693
 20
5.376153543307087
 30
0.0
 10
-1.083728346456693
 20
5.376153543307087
 30
0.0
 10
-1.083728346456693
 20
5.376153543307087
 30
0.0
 10
-1.083728346456693
 20
5.376153543307087
 30
0.0
 10
-3.459700787401575
 20
5.376153543307087
 30
0.0
 10
-3.459700787401575
 20
5.376153543307087
 30
0.0
 10
-3.459700787401575
 20
5.376153543307087
 30
0.0
 10
-3.459700787401575
 20
5.376153543307087
 30
0.0
 10
-3.459700787401575
 20
5.001551181102363
 30
0.0
 10
-3.459700787401575
 20
5.001551181102363
 30
0.0
  0
ELLIPSE
  5
30
330
1F
100
AcDbEntity
  8
Layer 1
 62
    30
370
     5
100
AcDbEllipse
 10
-2.659374015748032
 20
-0.173744094488189
 30
0.0
 11
0.0
 21
0.1266299212598425
 31
0.0
210
0.0
220
0.0
230
1.0
 40
1.0
 41
0.0
 42
6.283185307179586
  0
ELLIPSE
  5
31
330
1F
100
AcDbEntity
  8
Layer 1
 62
    30
370
     5
100
AcDbEllipse
 10
-2.659374015748032
 20
0.3262559055118111
 30
0.0
 11
0.0
 21
0.1266299212598425
 31
0.0
210
0.0
220
0.0
230
1.0
 40
1.0
 41
0.0
 42
6.283185307179586
  0
ELLIPSE
  5
32
330
1F
100
AcDbEntity
  8
Layer 1
 62
    30
370
     5
100
AcDbEllipse
 10
-2.659374015748032
 20
0.8262559055118111
 30
0.0
 11
0.0
 21
0.1266299212598425
 31
0.0
210
0.0
220
0.0
230
1.0
 40
1.0
 41
0.0
 42
6.283185307179586
  0
ELLIPSE
  5
33
330
1F
100
AcDbEntity
  8
Layer 1
 62
    30
370
     5
100
AcDbEllipse
 10
-1.959374015748032
 20
-0.173744094488189
 30
0.0
 11
0.0
 21
0.1266299212598425
 31
0.0
210
0.0
220
0.0
230
1.0
 40
1.0
 41
0.0
 42
6.283185307179586
  0
ELLIPSE
  5
34
330
1F
100
AcDbEntity
  8
Layer 1
 62
    30
370
     5
100
AcDbEllipse
 10
-1.959374015748032
 20
0.3262559055118111
 30
0.0
 11
0.0
 21
0.1266299212598425
 31
0.0
210
0.0
220
0.0
230
1.0
 40
1.0
 41
0.0
 42
6.283185307179586
  0
ELLIPSE
  5
35
330
1F
100
AcDbEntity
  8
Layer 1
 62
    30
370
     5
100
AcDbEllipse
 10
-1.959374015748032
 20
0.8262559055118111
 30
0.0
 11
0.0
 21
0.1266299212598425
 31
0.0
210
0.0
220
0.0
230
1.0
 40
1.0
 41
0.0
 42
6.283185307179586
  0
ELLIPSE
  5
36
330
1F
100
AcDbEntity
  8
Layer 1
 62
    30
370
     5
100
AcDbEllipse
 10
-2.659374015748032
 20
1.526255905511811
 30
0.0
 11
0.0
 21
0.1266299212598425
 31
0.0
210
0.0
220
0.0
230
1.0
 40
1.0
 41
0.0
 42
6.283185307179586
  0
ELLIPSE
  5
37
330
1F
100
AcDbEntity
  8
Layer 1
 62
    30
370
     5
100
AcDbEllipse
 10
-2.815870078740157
 20
5.15853937007874
 30
0.0
 11
0.0
 21
0.1266299212598425
 31
0.0
210
0.0
220
0.0
230
1.0
 40
1.0
 41
0.0
 42
6.283185307179586
  0
ELLIPSE
  5
38
330
1F
100
AcDbEntity
  8
Layer 1
 62
    30
370
     5
100
AcDbEllipse
 10
-1.959374015748032
 20
1.526255905511811
 30
0.0
 11
0.0
 21
0.1266299212598425
 31
0.0
210
0.0
220
0.0
230
1.0
 40
1.0
 41
0.0
 42
6.283185307179586
  0
ELLIPSE
  5
39
330
1F
100
AcDbEntity
  8
Layer 1
 62
    30
370
     5
100
AcDbEllipse
 10
-1.715870078740158
 20
5.15853937007874
 30
0.0
 11
0.0
 21
0.1266299212598425
 31
0.0
210
0.0
220
0.0
230
1.0
 40
1.0
 41
0.0
 42
6.283185307179586
  0
ELLIPSE
  5
3A
330
1F
100
AcDbEntity
  8
Layer 1
 62
    30
370
     5
100
AcDbEllipse
 10
-0.9121377952755906
 20
4.132389763779528
 30
0.0
 11
0.0
 21
0.0625
 31
0.0
210
0.0
220
0.0
230
1.0
 40
1.0
 41
0.0
 42
6.283185307179586
  0
ELLIPSE
  5
3B
330
1F
100
AcDbEntity
  8
Layer 1
 62
    30
370
     5
100
AcDbEllipse
 10
-0.9120708661417323
 20
0.431503937007874
 30
0.0
 11
0.0
 21
0.0625
 31
0.0
210
0.0
220
0.0
230
1.0
 40
1.0
 41
0.0
 42
6.283185307179586
  0
ELLIPSE
  5
3C
330
1F
100
AcDbEntity
  8
Layer 1
 62
    30
370
     5
100
AcDbEllipse
 10
-3.661834645669292
 20
4.131811023622047
 30
0.0
 11
0.0
 21
0.0625
 31
0.0
210
0.0
220
0.0
230
1.0
 40
1.0
 41
0.0
 42
6.283185307179586
  0
ELLIPSE
  5
3D
330
1F
100
AcDbEntity
  8
Layer 1
 62
    30
370
     5
100
AcDbEllipse
 10
-3.661763779527559
 20
0.4315826771653544
 30
0.0
 11
0.0
 21
0.0625
 31
0.0
210
0.0
220
0.0
230
1.0
 40
1.0
 41
0.0
 42
6.283185307179586
  0
SPLINE
  5
3E
330
1F
100
AcDbEntity
  8
Layer 1
 62
    30
370
     5
100
AcDbSpline
210
0.0
220
0.0
230
1.0
 70
     8
 71
     3
 72
    16
 73
    12
 74
     0
 42
0.0000000001
 43
0.0000000001
 40
0.0
 40
0.0
 40
0.0
 40
0.0
 40
0.3333333333333333
 40
0.3333333333333333
 40
0.3333333333333333
 40
0.3333333333333333
 40
0.6666666666666666
 40
0.6666666666666666
 40
0.6666666666666666
 40
0.6666666666666666
 40
1.0
 40
1.0
 40
1.0
 40
1.0
 10
-3.460318897637795
 20
0.0774645669291339
 30
0.0
 10
-3.460318897637795
 20
0.0774645669291339
 30
0.0
 10
-4.105362204724409
 20
0.0774645669291339
 30
0.0
 10
-4.105362204724409
 20
0.0774645669291339
 30
0.0
 10
-4.105362204724409
 20
0.0774645669291339
 30
0.0
 10
-4.105362204724409
 20
0.0774645669291339
 30
0.0
 10
-4.105362204724409
 20
4.558775590551181
 30
0.0
 10
-4.105362204724409
 20
4.558775590551181
 30
0.0
 10
-4.105362204724409
 20
4.558775590551181
 30
0.0
 10
-4.105362204724409
 20
4.558775590551181
 30
0.0
 10
-3.460311023622047
 20
4.558775590551181
 30
0.0
 10
-3.460311023622047
 20
4.558775590551181
 30
0.0
  0
SPLINE
  5
3F
330
1F
100
AcDbEntity
  8
Layer 1
 62
    30
370
     5
100
AcDbSpline
210
0.0
220
0.0
230
1.0
 70
     8
 71
     3
 72
    16
 73
    12
 74
     0
 42
0.0000000001
 43
0.0000000001
 40
0.0
 40
0.0
 40
0.0
 40
0.0
 40
0.3333333333333333
 40
0.3333333333333333
 40
0.3333333333333333
 40
0.3333333333333333
 40
0.6666666666666666
 40
0.6666666666666666
 40
0.6666666666666666
 40
0.6666666666666666
 40
1.0
 40
1.0
 40
1.0
 40
1.0
 10
-1.084192913385827
 20
4.558775590551181
 30
0.0
 10
-1.084192913385827
 20
4.558775590551181
 30
0.0
 10
-0.3636850393700787
 20
4.558775590551181
 30
0.0
 10
-0.3636850393700787
 20
4.558775590551181
 30
0.0
 10
-0.3636850393700787
 20
4.558775590551181
 30
0.0
 10
-0.3636850393700787
 20
4.558775590551181
 30
0.0
 10
-0.3636850393700787
 20
0.0774645669291339
 30
0.0
 10
-0.3636850393700787
 20
0.0774645669291339
 30
0.0
 10
-0.3636850393700787
 20
0.0774645669291339
 30
0.0
 10
-0.3636850393700787
 20
0.0774645669291339
 30
0.0
 10
-1.084192913385827
 20
0.0774645669291339
 30
0.0
 10
-1.084192913385827
 20
0.0774645669291339
 30
0.0
  0
SPLINE
  5
40
330
1F
100
AcDbEntity
  8
Layer 1
 62
    30
370
     5
100
AcDbSpline
210
0.0
220
0.0
230
1.0
 70
     8
 71
     3
 72
    16
 73
    12
 74
     0
 42
0.0000000001
 43
0.0000000001
 40
0.0
 40
0.0
 40
0.0
 40
0.0
 40
0.3333333333333333
 40
0.3333333333333333
 40
0.3333333333333333
 40
0.3333333333333333
 40
0.6666666666666666
 40
0.6666666666666666
 40
0.6666666666666666
 40
0.6666666666666666
 40
1.0
 40
1.0
 40
1.0
 40
1.0
 10
-1.97351968503937
 20
4.376641732283464
 30
0.0
 10
-1.97351968503937
 20
4.376641732283464
 30
0.0
 10
-1.680685039370079
 20
4.376641732283464
 30
0.0
 10
-1.680685039370079
 20
4.376641732283464
 30
0.0
 10
-1.680685039370079
 20
4.376641732283464
 30
0.0
 10
-1.680685039370079
 20
4.376641732283464
 30
0.0
 10
-1.680685039370079
 20
2.789035433070866
 30
0.0
 10
-1.680685039370079
 20
2.789035433070866
 30
0.0
 10
-1.680685039370079
 20
2.789035433070866
 30
0.0
 10
-1.680685039370079
 20
2.789035433070866
 30
0.0
 10
-1.973515748031496
 20
2.789035433070866
 30
0.0
 10
-1.973515748031496
 20
2.789035433070866
 30
0.0
  0
SPLINE
  5
41
330
1F
100
AcDbEntity
  8
Layer 1
 62
    30
370
     5
100
AcDbSpline
210
0.0
220
0.0
230
1.0
 70
     8
 71
     3
 72
    16
 73
    12
 74
     0
 42
0.0000000001
 43
0.0000000001
 40
0.0
 40
0.0
 40
0.0
 40
0.0
 40
0.3333333333333333
 40
0.3333333333333333
 40
0.3333333333333333
 40
0.3333333333333333
 40
0.6666666666666666
 40
0.6666666666666666
 40
0.6666666666666666
 40
0.6666666666666666
 40
1.0
 40
1.0
 40
1.0
 40
1.0
 10
-2.101748031496063
 20
2.789035433070866
 30
0.0
 10
-2.101748031496063
 20
2.789035433070866
 30
0.0
 10
-3.203842519685039
 20
2.789035433070866
 30
0.0
 10
-3.203842519685039
 20
2.789035433070866
 30
0.0
 10
-3.203842519685039
 20
2.789035433070866
 30
0.0
 10
-3.203842519685039
 20
2.789035433070866
 30
0.0
 10
-3.203842519685039
 20
4.376641732283464
 30
0.0
 10
-3.203842519685039
 20
4.376641732283464
 30
0.0
 10
-3.203842519685039
 20
4.376641732283464
 30
0.0
 10
-3.203842519685039
 20
4.376641732283464
 30
0.0
 10
-2.101744094488189
 20
4.376641732283464
 30
0.0
 10
-2.101744094488189
 20
4.376641732283464
 30
0.0
  0
SPLINE
  5
42
330
1F
100
AcDbEntity
  8
Layer 1
 62
    30
370
     5
100
AcDbSpline
210
0.0
220
0.0
230
1.0
 70
     8
 71
     3
 72
    16
 73
    12
 74
     0
 42
0.0000000001
 43
0.0000000001
 40
0.0
 40
0.0
 40
0.0
 40
0.0
 40
0.3333333333333333
 40
0.3333333333333333
 40
0.3333333333333333
 40
0.3333333333333333
 40
0.6666666666666666
 40
0.6666666666666666
 40
0.6666666666666666
 40
0.6666666666666666
 40
1.0
 40
1.0
 40
1.0
 40
1.0
 10
-2.101748031496063
 20
4.366122047244095
 30
0.0
 10
-2.101748031496063
 20
4.366122047244095
 30
0.0
 10
-2.101748031496063
 20
4.704208661417323
 30
0.0
 10
-2.101748031496063
 20
4.704208661417323
 30
0.0
 10
-2.101748031496063
 20
4.704208661417323
 30
0.0
 10
-2.101748031496063
 20
4.704208661417323
 30
0.0
 10
-1.973515748031496
 20
4.704208661417323
 30
0.0
 10
-1.973515748031496
 20
4.704208661417323
 30
0.0
 10
-1.973515748031496
 20
4.704208661417323
 30
0.0
 10
-1.973515748031496
 20
4.704208661417323
 30
0.0
 10
-1.973515748031496
 20
4.366129921259843
 30
0.0
 10
-1.973515748031496
 20
4.366129921259843
 30
0.0
  0
SPLINE
  5
43
330
1F
100
AcDbEntity
  8
Layer 1
 62
    30
370
     5
100
AcDbSpline
210
0.0
220
0.0
230
1.0
 70
     8
 71
     3
 72
    16
 73
    12
 74
     0
 42
0.0000000001
 43
0.0000000001
 40
0.0
 40
0.0
 40
0.0
 40
0.0
 40
0.3333333333333333
 40
0.3333333333333333
 40
0.3333333333333333
 40
0.3333333333333333
 40
0.6666666666666666
 40
0.6666666666666666
 40
0.6666666666666666
 40
0.6666666666666666
 40
1.0
 40
1.0
 40
1.0
 40
1.0
 10
-1.973515748031496
 20
2.789031496062992
 30
0.0
 10
-1.973515748031496
 20
2.789031496062992
 30
0.0
 10
-1.973515748031496
 20
2.491346456692913
 30
0.0
 10
-1.973515748031496
 20
2.491346456692913
 30
0.0
 10
-1.973515748031496
 20
2.491346456692913
 30
0.0
 10
-1.973515748031496
 20
2.491346456692913
 30
0.0
 10
-2.101748031496063
 20
2.491346456692913
 30
0.0
 10
-2.101748031496063
 20
2.491346456692913
 30
0.0
 10
-2.101748031496063
 20
2.491346456692913
 30
0.0
 10
-2.101748031496063
 20
2.491346456692913
 30
0.0
 10
-2.101748031496063
 20
2.78903937007874
 30
0.0
 10
-2.101748031496063
 20
2.78903937007874
 30
0.0
  0
SPLINE
  5
44
330
1F
100
AcDbEntity
  8
Layer 1
 62
    30
370
     5
100
AcDbSpline
210
0.0
220
0.0
230
1.0
 70
    11
 71
     3
 72
    20
 73
    16
 74
     0
 42
0.0000000001
 43
0.0000000001
 40
0.0
 40
0.0
 40
0.0
 40
0.0
 40
0.25
 40
0.25
 40
0.25
 40
0.25
 40
0.5
 40
0.5
 40
0.5
 40
0.5
 40
0.75
 40
0.75
 40
0.75
 40
0.75
 40
1.0
 40
1.0
 40
1.0
 40
1.0
 10
-3.001515748031496
 20
4.61394094488189
 30
0.0
 10
-3.001515748031496
 20
4.61394094488189
 30
0.0
 10
-3.001515748031496
 20
4.739358267716535
 30
0.0
 10
-3.001515748031496
 20
4.739358267716535
 30
0.0
 10
-3.001515748031496
 20
4.739358267716535
 30
0.0
 10
-3.001515748031496
 20
4.739358267716535
 30
0.0
 10
-3.242586614173229
 20
4.739358267716535
 30
0.0
 10
-3.242586614173229
 20
4.739358267716535
 30
0.0
 10
-3.242586614173229
 20
4.739358267716535
 30
0.0
 10
-3.242586614173229
 20
4.739358267716535
 30
0.0
 10
-3.242586614173229
 20
4.61394094488189
 30
0.0
 10
-3.242586614173229
 20
4.61394094488189
 30
0.0
 10
-3.242586614173229
 20
4.61394094488189
 30
0.0
 10
-3.242586614173229
 20
4.61394094488189
 30
0.0
 10
-3.001515748031496
 20
4.61394094488189
 30
0.0
 10
-3.001515748031496
 20
4.61394094488189
 30
0.0
  0
SPLINE
  5
45
330
1F
100
AcDbEntity
  8
Layer 1
 62
    30
370
     5
100
AcDbSpline
210
0.0
220
0.0
230
1.0
 70
    11
 71
     3
 72
    20
 73
    16
 74
     0
 42
0.0000000001
 43
0.0000000001
 40
0.0
 40
0.0
 40
0.0
 40
0.0
 40
0.25
 40
0.25
 40
0.25
 40
0.25
 40
0.5
 40
0.5
 40
0.5
 40
0.5
 40
0.75
 40
0.75
 40
0.75
 40
0.75
 40
1.0
 40
1.0
 40
1.0
 40
1.0
 10
-2.826531496062992
 20
2.096925196850394
 30
0.0
 10
-2.826531496062992
 20
2.096925196850394
 30
0.0
 10
-2.826531496062992
 20
2.222342519685039
 30
0.0
 10
-2.826531496062992
 20
2.222342519685039
 30
0.0
 10
-2.826531496062992
 20
2.222342519685039
 30
0.0
 10
-2.826531496062992
 20
2.222342519685039
 30
0.0
 10
-3.201633858267717
 20
2.222342519685039
 30
0.0
 10
-3.201633858267717
 20
2.222342519685039
 30
0.0
 10
-3.201633858267717
 20
2.222342519685039
 30
0.0
 10
-3.201633858267717
 20
2.222342519685039
 30
0.0
 10
-3.201633858267717
 20
2.096925196850394
 30
0.0
 10
-3.201633858267717
 20
2.096925196850394
 30
0.0
 10
-3.201633858267717
 20
2.096925196850394
 30
0.0
 10
-3.201633858267717
 20
2.096925196850394
 30
0.0
 10
-2.826531496062992
 20
2.096925196850394
 30
0.0
 10
-2.826531496062992
 20
2.096925196850394
 30
0.0
  0
SPLINE
  5
46
330
1F
100
AcDbEntity
  8
Layer 1
 62
    30
370
     5
100
AcDbSpline
210
0.0
220
0.0
230
1.0
 70
    11
 71
     3
 72
    20
 73
    16
 74
     0
 42
0.0000000001
 43
0.0000000001
 40
0.0
 40
0.0
 40
0.0
 40
0.0
 40
0.25
 40
0.25
 40
0.25
 40
0.25
 40
0.5
 40
0.5
 40
0.5
 40
0.5
 40
0.75
 40
0.75
 40
0.75
 40
0.75
 40
1.0
 40
1.0
 40
1.0
 40
1.0
 10
-2.780295275590552
 20
-1.221106299212599
 30
0.0
 10
-2.780295275590552
 20
-1.221106299212599
 30
0.0
 10
-2.780295275590552
 20
-1.095688976377953
 30
0.0
 10
-2.780295275590552
 20
-1.095688976377953
 30
0.0
 10
-2.780295275590552
 20
-1.095688976377953
 30
0.0
 10
-2.780295275590552
 20
-1.095688976377953
 30
0.0
 10
-3.155397637795276
 20
-1.095688976377953
 30
0.0
 10
-3.155397637795276
 20
-1.095688976377953
 30
0.0
 10
-3.155397637795276
 20
-1.095688976377953
 30
0.0
 10
-3.155397637795276
 20
-1.095688976377953
 30
0.0
 10
-3.155397637795276
 20
-1.221106299212599
 30
0.0
 10
-3.155397637795276
 20
-1.221106299212599
 30
0.0
 10
-3.155397637795276
 20
-1.221106299212599
 30
0.0
 10
-3.155397637795276
 20
-1.221106299212599
 30
0.0
 10
-2.780295275590552
 20
-1.221106299212599
 30
0.0
 10
-2.780295275590552
 20
-1.221106299212599
 30
0.0
  0
SPLINE
  5
47
330
1F
100
AcDbEntity
  8
Layer 1
 62
    30
370
     5
100
AcDbSpline
210
0.0
220
0.0
230
1.0
 70
    11
 71
     3
 72
    20
 73
    16
 74
     0
 42
0.0000000001
 43
0.0000000001
 40
0.0
 40
0.0
 40
0.0
 40
0.0
 40
0.25
 40
0.25
 40
0.25
 40
0.25
 40
0.5
 40
0.5
 40
0.5
 40
0.5
 40
0.75
 40
0.75
 40
0.75
 40
0.75
 40
1.0
 40
1.0
 40
1.0
 40
1.0
 10
-3.16288188976378
 20
0.3405629921259843
 30
0.0
 10
-3.16288188976378
 20
0.3405629921259843
 30
0.0
 10
-3.037464566929134
 20
0.3405629921259843
 30
0.0
 10
-3.037464566929134
 20
0.3405629921259843
 30
0.0
 10
-3.037464566929134
 20
0.3405629921259843
 30
0.0
 10
-3.037464566929134
 20
0.3405629921259843
 30
0.0
 10
-3.037464566929134
 20
-0.0345393700787402
 30
0.0
 10
-3.037464566929134
 20
-0.0345393700787402
 30
0.0
 10
-3.037464566929134
 20
-0.0345393700787402
 30
0.0
 10
-3.037464566929134
 20
-0.0345393700787402
 30
0.0
 10
-3.16288188976378
 20
-0.0345393700787402
 30
0.0
 10
-3.16288188976378
 20
-0.0345393700787402
 30
0.0
 10
-3.16288188976378
 20
-0.0345393700787402
 30
0.0
 10
-3.16288188976378
 20
-0.0345393700787402
 30
0.0
 10
-3.16288188976378
 20
0.3405629921259843
 30
0.0
 10
-3.16288188976378
 20
0.3405629921259843
 30
0.0
  0
SPLINE
  5
48
330
1F
100
AcDbEntity
  8
Layer 1
 62
    30
370
     5
100
AcDbSpline
210
0.0
220
0.0
230
1.0
 70
    11
 71
     3
 72
    20
 73
    16
 74
     0
 42
0.0000000001
 43
0.0000000001
 40
0.0
 40
0.0
 40
0.0
 40
0.0
 40
0.25
 40
0.25
 40
0.25
 40
0.25
 40
0.5
 40
0.5
 40
0.5
 40
0.5
 40
0.75
 40
0.75
 40
0.75
 40
0.75
 40
1.0
 40
1.0
 40
1.0
 40
1.0
 10
-1.430153543307087
 20
0.2724803149606299
 30
0.0
 10
-1.430153543307087
 20
0.2724803149606299
 30
0.0
 10
-1.304736220472441
 20
0.2724803149606299
 30
0.0
 10
-1.304736220472441
 20
0.2724803149606299
 30
0.0
 10
-1.304736220472441
 20
0.2724803149606299
 30
0.0
 10
-1.304736220472441
 20
0.2724803149606299
 30
0.0
 10
-1.304736220472441
 20
-0.1026220472440945
 30
0.0
 10
-1.304736220472441
 20
-0.1026220472440945
 30
0.0
 10
-1.304736220472441
 20
-0.1026220472440945
 30
0.0
 10
-1.304736220472441
 20
-0.1026220472440945
 30
0.0
 10
-1.430153543307087
 20
-0.1026220472440945
 30
0.0
 10
-1.430153543307087
 20
-0.1026220472440945
 30
0.0
 10
-1.430153543307087
 20
-0.1026220472440945
 30
0.0
 10
-1.430153543307087
 20
-0.1026220472440945
 30
0.0
 10
-1.430153543307087
 20
0.2724803149606299
 30
0.0
 10
-1.430153543307087
 20
0.2724803149606299
 30
0.0
  0
SPLINE
  5
49
330
1F
100
AcDbEntity
  8
Layer 1
 62
    30
370
     5
100
AcDbSpline
210
0.0
220
0.0
230
1.0
 70
    11
 71
     3
 72
    20
 73
    16
 74
     0
 42
0.0000000001
 43
0.0000000001
 40
0.0
 40
0.0
 40
0.0
 40
0.0
 40
0.25
 40
0.25
 40
0.25
 40
0.25
 40
0.5
 40
0.5
 40
0.5
 40
0.5
 40
0.75
 40
0.75
 40
0.75
 40
0.75
 40
1.0
 40
1.0
 40
1.0
 40
1.0
 10
-2.18036220472441
 20
4.614043307086615
 30
0.0
 10
-2.18036220472441
 20
4.614043307086615
 30
0.0
 10
-2.18036220472441
 20
4.73946062992126
 30
0.0
 10
-2.18036220472441
 20
4.73946062992126
 30
0.0
 10
-2.18036220472441
 20
4.73946062992126
 30
0.0
 10
-2.18036220472441
 20
4.73946062992126
 30
0.0
 10
-2.376070866141733
 20
4.73946062992126
 30
0.0
 10
-2.376070866141733
 20
4.73946062992126
 30
0.0
 10
-2.376070866141733
 20
4.73946062992126
 30
0.0
 10
-2.376070866141733
 20
4.73946062992126
 30
0.0
 10
-2.376070866141733
 20
4.614043307086615
 30
0.0
 10
-2.376070866141733
 20
4.614043307086615
 30
0.0
 10
-2.376070866141733
 20
4.614043307086615
 30
0.0
 10
-2.376070866141733
 20
4.614043307086615
 30
0.0
 10
-2.18036220472441
 20
4.614043307086615
 30
0.0
 10
-2.18036220472441
 20
4.614043307086615
 30
0.0
  0
SPLINE
  5
4A
330
1F
100
AcDbEntity
  8
Layer 1
 62
    30
370
     5
100
AcDbSpline
210
0.0
220
0.0
230
1.0
 70
    11
 71
     3
 72
    20
 73
    16
 74
     0
 42
0.0000000001
 43
0.0000000001
 40
0.0
 40
0.0
 40
0.0
 40
0.0
 40
0.25
 40
0.25
 40
0.25
 40
0.25
 40
0.5
 40
0.5
 40
0.5
 40
0.5
 40
0.75
 40
0.75
 40
0.75
 40
0.75
 40
1.0
 40
1.0
 40
1.0
 40
1.0
 10
-1.548838582677165
 20
2.097027559055118
 30
0.0
 10
-1.548838582677165
 20
2.097027559055118
 30
0.0
 10
-1.548838582677165
 20
2.222444881889764
 30
0.0
 10
-1.548838582677165
 20
2.222444881889764
 30
0.0
 10
-1.548838582677165
 20
2.222444881889764
 30
0.0
 10
-1.548838582677165
 20
2.222444881889764
 30
0.0
 10
-1.853358267716535
 20
2.222444881889764
 30
0.0
 10
-1.853358267716535
 20
2.222444881889764
 30
0.0
 10
-1.853358267716535
 20
2.222444881889764
 30
0.0
 10
-1.853358267716535
 20
2.222444881889764
 30
0.0
 10
-1.853358267716535
 20
2.097027559055118
 30
0.0
 10
-1.853358267716535
 20
2.097027559055118
 30
0.0
 10
-1.853358267716535
 20
2.097027559055118
 30
0.0
 10
-1.853358267716535
 20
2.097027559055118
 30
0.0
 10
-1.548838582677165
 20
2.097027559055118
 30
0.0
 10
-1.548838582677165
 20
2.097027559055118
 30
0.0
  0
SPLINE
  5
4B
330
1F
100
AcDbEntity
  8
Layer 1
 62
    30
370
     5
100
AcDbSpline
210
0.0
220
0.0
230
1.0
 70
    11
 71
     3
 72
    20
 73
    16
 74
     0
 42
0.0000000001
 43
0.0000000001
 40
0.0
 40
0.0
 40
0.0
 40
0.0
 40
0.25
 40
0.25
 40
0.25
 40
0.25
 40
0.5
 40
0.5
 40
0.5
 40
0.5
 40
0.75
 40
0.75
 40
0.75
 40
0.75
 40
1.0
 40
1.0
 40
1.0
 40
1.0
 10
-1.502602362204724
 20
-1.221003937007874
 30
0.0
 10
-1.502602362204724
 20
-1.221003937007874
 30
0.0
 10
-1.502602362204724
 20
-1.095586614173228
 30
0.0
 10
-1.502602362204724
 20
-1.095586614173228
 30
0.0
 10
-1.502602362204724
 20
-1.095586614173228
 30
0.0
 10
-1.502602362204724
 20
-1.095586614173228
 30
0.0
 10
-1.807122047244095
 20
-1.095586614173228
 30
0.0
 10
-1.807122047244095
 20
-1.095586614173228
 30
0.0
 10
-1.807122047244095
 20
-1.095586614173228
 30
0.0
 10
-1.807122047244095
 20
-1.095586614173228
 30
0.0
 10
-1.807122047244095
 20
-1.221003937007874
 30
0.0
 10
-1.807122047244095
 20
-1.221003937007874
 30
0.0
 10
-1.807122047244095
 20
-1.221003937007874
 30
0.0
 10
-1.807122047244095
 20
-1.221003937007874
 30
0.0
 10
-1.502602362204724
 20
-1.221003937007874
 30
0.0
 10
-1.502602362204724
 20
-1.221003937007874
 30
0.0
  0
SPLINE
  5
4C
330
1F
100
AcDbEntity
  8
Layer 1
 62
    30
370
     5
100
AcDbSpline
210
0.0
220
0.0
230
1.0
 70
    11
 71
     3
 72
    20
 73
    16
 74
     0
 42
0.0000000001
 43
0.0000000001
 40
0.0
 40
0.0
 40
0.0
 40
0.0
 40
0.25
 40
0.25
 40
0.25
 40
0.25
 40
0.5
 40
0.5
 40
0.5
 40
0.5
 40
0.75
 40
0.75
 40
0.75
 40
0.75
 40
1.0
 40
1.0
 40
1.0
 40
1.0
 10
-3.162779527559055
 20
1.618255905511811
 30
0.0
 10
-3.162779527559055
 20
1.618255905511811
 30
0.0
 10
-3.03736220472441
 20
1.618255905511811
 30
0.0
 10
-3.03736220472441
 20
1.618255905511811
 30
0.0
 10
-3.03736220472441
 20
1.618255905511811
 30
0.0
 10
-3.03736220472441
 20
1.618255905511811
 30
0.0
 10
-3.03736220472441
 20
1.313736220472441
 30
0.0
 10
-3.03736220472441
 20
1.313736220472441
 30
0.0
 10
-3.03736220472441
 20
1.313736220472441
 30
0.0
 10
-3.03736220472441
 20
1.313736220472441
 30
0.0
 10
-3.162779527559055
 20
1.313736220472441
 30
0.0
 10
-3.162779527559055
 20
1.313736220472441
 30
0.0
 10
-3.162779527559055
 20
1.313736220472441
 30
0.0
 10
-3.162779527559055
 20
1.313736220472441
 30
0.0
 10
-3.162779527559055
 20
1.618255905511811
 30
0.0
 10
-3.162779527559055
 20
1.618255905511811
 30
0.0
  0
SPLINE
  5
4D
330
1F
100
AcDbEntity
  8
Layer 1
 62
    30
370
     5
100
AcDbSpline
210
0.0
220
0.0
230
1.0
 70
    11
 71
     3
 72
    20
 73
    16
 74
     0
 42
0.0000000001
 43
0.0000000001
 40
0.0
 40
0.0
 40
0.0
 40
0.0
 40
0.25
 40
0.25
 40
0.25
 40
0.25
 40
0.5
 40
0.5
 40
0.5
 40
0.5
 40
0.75
 40
0.75
 40
0.75
 40
0.75
 40
1.0
 40
1.0
 40
1.0
 40
1.0
 10
-1.430051181102362
 20
1.550173228346457
 30
0.0
 10
-1.430051181102362
 20
1.550173228346457
 30
0.0
 10
-1.304633858267717
 20
1.550173228346457
 30
0.0
 10
-1.304633858267717
 20
1.550173228346457
 30
0.0
 10
-1.304633858267717
 20
1.550173228346457
 30
0.0
 10
-1.304633858267717
 20
1.550173228346457
 30
0.0
 10
-1.304633858267717
 20
1.245653543307087
 30
0.0
 10
-1.304633858267717
 20
1.245653543307087
 30
0.0
 10
-1.304633858267717
 20
1.245653543307087
 30
0.0
 10
-1.304633858267717
 20
1.245653543307087
 30
0.0
 10
-1.430051181102362
 20
1.245653543307087
 30
0.0
 10
-1.430051181102362
 20
1.245653543307087
 30
0.0
 10
-1.430051181102362
 20
1.245653543307087
 30
0.0
 10
-1.430051181102362
 20
1.245653543307087
 30
0.0
 10
-1.430051181102362
 20
1.550173228346457
 30
0.0
 10
-1.430051181102362
 20
1.550173228346457
 30
0.0
  0
SPLINE
  5
4E
330
1F
100
AcDbEntity
  8
Layer 1
 62
    30
370
     5
100
AcDbSpline
210
0.0
220
0.0
230
1.0
 70
     8
 71
     3
 72
    12
 73
     8
 74
     0
 42
0.0000000001
 43
0.0000000001
 40
0.0
 40
0.0
 40
0.0
 40
0.0
 40
0.5
 40
0.5
 40
0.5
 40
0.5
 40
1.0
 40
1.0
 40
1.0
 40
1.0
 10
0.4234015748031496
 20
5.045937007874016
 30
0.0
 10
0.4234015748031496
 20
5.045937007874016
 30
0.0
 10
0.4227874015748032
 20
5.045937007874016
 30
0.0
 10
0.4227874015748032
 20
5.045937007874016
 30
0.0
 10
0.4227874015748032
 20
5.045937007874016
 30
0.0
 10
0.4227874015748032
 20
5.045937007874016
 30
0.0
 10
0.4227874015748032
 20
4.603161417322835
 30
0.0
 10
0.4227874015748032
 20
4.603161417322835
 30
0.0
  0
SPLINE
  5
4F
330
1F
100
AcDbEntity
  8
Layer 1
 62
    30
370
     5
100
AcDbSpline
210
0.0
220
0.0
230
1.0
 70
     8
 71
     3
 72
    16
 73
    12
 74
     0
 42
0.0000000001
 43
0.0000000001
 40
0.0
 40
0.0
 40
0.0
 40
0.0
 40
0.3333333333333333
 40
0.3333333333333333
 40
0.3333333333333333
 40
0.3333333333333333
 40
0.6666666666666666
 40
0.6666666666666666
 40
0.6666666666666666
 40
0.6666666666666666
 40
1.0
 40
1.0
 40
1.0
 40
1.0
 10
0.4227874015748032
 20
0.1218503937007874
 30
0.0
 10
0.4227874015748032
 20
0.1218503937007874
 30
0.0
 10
0.4227874015748032
 20
-1.441110236220472
 30
0.0
 10
0.4227874015748032
 20
-1.441110236220472
 30
0.0
 10
0.4227874015748032
 20
-1.441110236220472
 30
0.0
 10
0.4227874015748032
 20
-1.441110236220472
 30
0.0
 10
2.798909448818898
 20
-1.441110236220472
 30
0.0
 10
2.798909448818898
 20
-1.441110236220472
 30
0.0
 10
2.798909448818898
 20
-1.441110236220472
 30
0.0
 10
2.798909448818898
 20
-1.441110236220472
 30
0.0
 10
2.798909448818898
 20
0.1218503937007874
 30
0.0
 10
2.798909448818898
 20
0.1218503937007874
 30
0.0
  0
SPLINE
  5
50
330
1F
100
AcDbEntity
  8
Layer 1
 62
    30
370
     5
100
AcDbSpline
210
0.0
220
0.0
230
1.0
 70
    24
 71
     3
 72
     8
 73
     4
 74
     0
 42
0.0000000001
 43
0.0000000001
 40
0.0
 40
0.0
 40
0.0
 40
0.0
 40
1.0
 40
1.0
 40
1.0
 40
1.0
 10
2.798909448818898
 20
4.603161417322835
 30
0.0
 10
2.798909448818898
 20
4.603161417322835
 30
0.0
 10
2.798909448818898
 20
4.942078740157481
 30
0.0
 10
2.798909448818898
 20
4.942078740157481
 30
0.0
  0
SPLINE
  5
51
330
1F
100
AcDbEntity
  8
Layer 1
 62
    30
370
     5
100
AcDbSpline
210
0.0
220
0.0
230
1.0
 70
     8
 71
     3
 72
    20
 73
    16
 74
     0
 42
0.0000000001
 43
0.0000000001
 40
0.0
 40
0.0
 40
0.0
 40
0.0
 40
0.25
 40
0.25
 40
0.25
 40
0.25
 40
0.5
 40
0.5
 40
0.5
 40
0.5
 40
0.75
 40
0.75
 40
0.75
 40
0.75
 40
1.0
 40
1.0
 40
1.0
 40
1.0
 10
2.798909448818898
 20
4.942082677165354
 30
0.0
 10
2.798909448818898
 20
4.942082677165354
 30
0.0
 10
2.799374015748032
 20
4.942082677165354
 30
0.0
 10
2.799374015748032
 20
4.942082677165354
 30
0.0
 10
2.799374015748032
 20
4.942082677165354
 30
0.0
 10
2.799374015748032
 20
4.942082677165354
 30
0.0
 10
2.799374015748032
 20
5.420539370078741
 30
0.0
 10
2.799374015748032
 20
5.420539370078741
 30
0.0
 10
2.799374015748032
 20
5.420539370078741
 30
0.0
 10
2.799374015748032
 20
5.420539370078741
 30
0.0
 10
0.4234015748031496
 20
5.420539370078741
 30
0.0
 10
0.4234015748031496
 20
5.420539370078741
 30
0.0
 10
0.4234015748031496
 20
5.420539370078741
 30
0.0
 10
0.4234015748031496
 20
5.420539370078741
 30
0.0
 10
0.4234015748031496
 20
5.045937007874016
 30
0.0
 10
0.4234015748031496
 20
5.045937007874016
 30
0.0
  0
ELLIPSE
  5
52
330
1F
100
AcDbEntity
  8
Layer 1
 62
    30
370
     5
100
AcDbEllipse
 10
1.223728346456693
 20
-0.1293582677165354
 30
0.0
 11
0.0
 21
0.1266299212598425
 31
0.0
210
0.0
220
0.0
230
1.0
 40
1.0
 41
0.0
 42
6.283185307179586
  0
ELLIPSE
  5
53
330
1F
100
AcDbEntity
  8
Layer 1
 62
    30
370
     5
100
AcDbEllipse
 10
1.223728346456693
 20
0.3706417322834646
 30
0.0
 11
0.0
 21
0.1266299212598425
 31
0.0
210
0.0
220
0.0
230
1.0
 40
1.0
 41
0.0
 42
6.283185307179586
  0
ELLIPSE
  5
54
330
1F
100
AcDbEntity
  8
Layer 1
 62
    30
370
     5
100
AcDbEllipse
 10
1.223728346456693
 20
0.8706417322834646
 30
0.0
 11
0.0
 21
0.1266299212598425
 31
0.0
210
0.0
220
0.0
230
1.0
 40
1.0
 41
0.0
 42
6.283185307179586
  0
ELLIPSE
  5
55
330
1F
100
AcDbEntity
  8
Layer 1
 62
    30
370
     5
100
AcDbEllipse
 10
1.923728346456693
 20
-0.1293582677165354
 30
0.0
 11
0.0
 21
0.1266299212598425
 31
0.0
210
0.0
220
0.0
230
1.0
 40
1.0
 41
0.0
 42
6.283185307179586
  0
ELLIPSE
  5
56
330
1F
100
AcDbEntity
  8
Layer 1
 62
    30
370
     5
100
AcDbEllipse
 10
1.923728346456693
 20
0.3706417322834646
 30
0.0
 11
0.0
 21
0.1266299212598425
 31
0.0
210
0.0
220
0.0
230
1.0
 40
1.0
 41
0.0
 42
6.283185307179586
  0
ELLIPSE
  5
57
330
1F
100
AcDbEntity
  8
Layer 1
 62
    30
370
     5
100
AcDbEllipse
 10
1.923728346456693
 20
0.8706417322834646
 30
0.0
 11
0.0
 21
0.1266299212598425
 31
0.0
210
0.0
220
0.0
230
1.0
 40
1.0
 41
0.0
 42
6.283185307179586
  0
ELLIPSE
  5
58
330
1F
100
AcDbEntity
  8
Layer 1
 62
    30
370
     5
100
AcDbEllipse
 10
1.223728346456693
 20
1.570641732283465
 30
0.0
 11
0.0
 21
0.1266299212598425
 31
0.0
210
0.0
220
0.0
230
1.0
 40
1.0
 41
0.0
 42
6.283185307179586
  0
ELLIPSE
  5
59
330
1F
100
AcDbEntity
  8
Layer 1
 62
    30
370
     5
100
AcDbEllipse
 10
1.067232283464567
 20
5.202925196850394
 30
0.0
 11
0.0
 21
0.1266299212598425
 31
0.0
210
0.0
220
0.0
230
1.0
 40
1.0
 41
0.0
 42
6.283185307179586
  0
ELLIPSE
  5
5A
330
1F
100
AcDbEntity
  8
Layer 1
 62
    30
370
     5
100
AcDbEllipse
 10
1.923728346456693
 20
1.570641732283465
 30
0.0
 11
0.0
 21
0.1266299212598425
 31
0.0
210
0.0
220
0.0
230
1.0
 40
1.0
 41
0.0
 42
6.283185307179586
  0
ELLIPSE
  5
5B
330
1F
100
AcDbEntity
  8
Layer 1
 62
    30
370
     5
100
AcDbEllipse
 10
2.167232283464567
 20
5.202925196850394
 30
0.0
 11
0.0
 21
0.1266299212598425
 31
0.0
210
0.0
220
0.0
230
1.0
 40
1.0
 41
0.0
 42
6.283185307179586
  0
ELLIPSE
  5
5C
330
1F
100
AcDbEntity
  8
Layer 1
 62
    30
370
     5
100
AcDbEllipse
 10
2.970964566929134
 20
4.176775590551181
 30
0.0
 11
0.0
 21
0.0625
 31
0.0
210
0.0
220
0.0
230
1.0
 40
1.0
 41
0.0
 42
6.283185307179586
  0
ELLIPSE
  5
5D
330
1F
100
AcDbEntity
  8
Layer 1
 62
    30
370
     5
100
AcDbEllipse
 10
2.971031496062992
 20
0.4758897637795276
 30
0.0
 11
0.0
 21
0.0625
 31
0.0
210
0.0
220
0.0
230
1.0
 40
1.0
 41
0.0
 42
6.283185307179586
  0
ELLIPSE
  5
5E
330
1F
100
AcDbEntity
  8
Layer 1
 62
    30
370
     5
100
AcDbEllipse
 10
0.2212677165354331
 20
4.176196850393701
 30
0.0
 11
0.0
 21
0.0625
 31
0.0
210
0.0
220
0.0
230
1.0
 40
1.0
 41
0.0
 42
6.283185307179586
  0
ELLIPSE
  5
5F
330
1F
100
AcDbEntity
  8
Layer 1
 62
    30
370
     5
100
AcDbEllipse
 10
0.2213385826771654
 20
0.4759685039370079
 30
0.0
 11
0.0
 21
0.0625
 31
0.0
210
0.0
220
0.0
230
1.0
 40
1.0
 41
0.0
 42
6.283185307179586
  0
SPLINE
  5
60
330
1F
100
AcDbEntity
  8
Layer 1
 62
    30
370
     5
100
AcDbSpline
210
0.0
220
0.0
230
1.0
 70
     8
 71
     3
 72
    16
 73
    12
 74
     0
 42
0.0000000001
 43
0.0000000001
 40
0.0
 40
0.0
 40
0.0
 40
0.0
 40
0.3333333333333333
 40
0.3333333333333333
 40
0.3333333333333333
 40
0.3333333333333333
 40
0.6666666666666666
 40
0.6666666666666666
 40
0.6666666666666666
 40
0.6666666666666666
 40
1.0
 40
1.0
 40
1.0
 40
1.0
 10
0.4227834645669292
 20
0.1218503937007874
 30
0.0
 10
0.4227834645669292
 20
0.1218503937007874
 30
0.0
 10
-0.2222598425196851
 20
0.1218503937007874
 30
0.0
 10
-0.2222598425196851
 20
0.1218503937007874
 30
0.0
 10
-0.2222598425196851
 20
0.1218503937007874
 30
0.0
 10
-0.2222598425196851
 20
0.1218503937007874
 30
0.0
 10
-0.2222598425196851
 20
4.603161417322835
 30
0.0
 10
-0.2222598425196851
 20
4.603161417322835
 30
0.0
 10
-0.2222598425196851
 20
4.603161417322835
 30
0.0
 10
-0.2222598425196851
 20
4.603161417322835
 30
0.0
 10
0.4227913385826772
 20
4.603161417322835
 30
0.0
 10
0.4227913385826772
 20
4.603161417322835
 30
0.0
  0
SPLINE
  5
61
330
1F
100
AcDbEntity
  8
Layer 1
 62
    30
370
     5
100
AcDbSpline
210
0.0
220
0.0
230
1.0
 70
     8
 71
     3
 72
    16
 73
    12
 74
     0
 42
0.0000000001
 43
0.0000000001
 40
0.0
 40
0.0
 40
0.0
 40
0.0
 40
0.3333333333333333
 40
0.3333333333333333
 40
0.3333333333333333
 40
0.3333333333333333
 40
0.6666666666666666
 40
0.6666666666666666
 40
0.6666666666666666
 40
0.6666666666666666
 40
1.0
 40
1.0
 40
1.0
 40
1.0
 10
2.798909448818898
 20
4.603161417322835
 30
0.0
 10
2.798909448818898
 20
4.603161417322835
 30
0.0
 10
3.519417322834646
 20
4.603161417322835
 30
0.0
 10
3.519417322834646
 20
4.603161417322835
 30
0.0
 10
3.519417322834646
 20
4.603161417322835
 30
0.0
 10
3.519417322834646
 20
4.603161417322835
 30
0.0
 10
3.519417322834646
 20
0.1218503937007874
 30
0.0
 10
3.519417322834646
 20
0.1218503937007874
 30
0.0
 10
3.519417322834646
 20
0.1218503937007874
 30
0.0
 10
3.519417322834646
 20
0.1218503937007874
 30
0.0
 10
2.798909448818898
 20
0.1218503937007874
 30
0.0
 10
2.798909448818898
 20
0.1218503937007874
 30
0.0
  0
SPLINE
  5
62
330
1F
100
AcDbEntity
  8
Layer 1
 62
    30
370
     5
100
AcDbSpline
210
0.0
220
0.0
230
1.0
 70
    24
 71
     3
 72
     8
 73
     4
 74
     0
 42
0.0000000001
 43
0.0000000001
 40
0.0
 40
0.0
 40
0.0
 40
0.0
 40
1.0
 40
1.0
 40
1.0
 40
1.0
 10
3.800220472440945
 20
-4.452094488188976
 30
0.0
 10
3.800220472440945
 20
-4.452094488188976
 30
0.0
 10
3.800220472440945
 20
-3.701594488188976
 30
0.0
 10
3.800220472440945
 20
-3.701594488188976
 30
0.0
  0
SPLINE
  5
63
330
1F
100
AcDbEntity
  8
Layer 1
 62
    30
370
     5
100
AcDbSpline
210
0.0
220
0.0
230
1.0
 70
     8
 71
     3
 72
    16
 73
    12
 74
     0
 42
0.0000000001
 43
0.0000000001
 40
0.0
 40
0.0
 40
0.0
 40
0.0
 40
0.3333333333333333
 40
0.3333333333333333
 40
0.3333333333333333
 40
0.3333333333333333
 40
0.6666666666666666
 40
0.6666666666666666
 40
0.6666666666666666
 40
0.6666666666666666
 40
1.0
 40
1.0
 40
1.0
 40
1.0
 10
3.800220472440945
 20
-3.193224409448819
 30
0.0
 10
3.800220472440945
 20
-3.193224409448819
 30
0.0
 10
3.800220472440945
 20
-2.873059055118111
 30
0.0
 10
3.800220472440945
 20
-2.873059055118111
 30
0.0
 10
3.800220472440945
 20
-2.873059055118111
 30
0.0
 10
3.800220472440945
 20
-2.873059055118111
 30
0.0
 10
3.262692913385827
 20
-2.873059055118111
 30
0.0
 10
3.262692913385827
 20
-2.873059055118111
 30
0.0
 10
3.262692913385827
 20
-2.873059055118111
 30
0.0
 10
3.262692913385827
 20
-2.873059055118111
 30
0.0
 10
3.262692913385827
 20
-3.275803149606299
 30
0.0
 10
3.262692913385827
 20
-3.275803149606299
 30
0.0
  0
SPLINE
  5
64
330
1F
100
AcDbEntity
  8
Layer 1
 62
    30
370
     5
100
AcDbSpline
210
0.0
220
0.0
230
1.0
 70
    24
 71
     3
 72
     8
 73
     4
 74
     0
 42
0.0000000001
 43
0.0000000001
 40
0.0
 40
0.0
 40
0.0
 40
0.0
 40
1.0
 40
1.0
 40
1.0
 40
1.0
 10
3.262692913385827
 20
-3.583566929133859
 30
0.0
 10
3.262692913385827
 20
-3.583566929133859
 30
0.0
 10
3.262692913385827
 20
-4.560976377952756
 30
0.0
 10
3.262692913385827
 20
-4.560976377952756
 30
0.0
  0
SPLINE
  5
65
330
1F
100
AcDbEntity
  8
Layer 1
 62
    30
370
     5
100
AcDbSpline
210
0.0
220
0.0
230
1.0
 70
     8
 71
     3
 72
    16
 73
    12
 74
     0
 42
0.0000000001
 43
0.0000000001
 40
0.0
 40
0.0
 40
0.0
 40
0.0
 40
0.3333333333333333
 40
0.3333333333333333
 40
0.3333333333333333
 40
0.3333333333333333
 40
0.6666666666666666
 40
0.6666666666666666
 40
0.6666666666666666
 40
0.6666666666666666
 40
1.0
 40
1.0
 40
1.0
 40
1.0
 10
3.262692913385827
 20
-4.924566929133858
 30
0.0
 10
3.262692913385827
 20
-4.924566929133858
 30
0.0
 10
3.262692913385827
 20
-5.24438188976378
 30
0.0
 10
3.262692913385827
 20
-5.24438188976378
 30
0.0
 10
3.262692913385827
 20
-5.24438188976378
 30
0.0
 10
3.262692913385827
 20
-5.24438188976378
 30
0.0
 10
3.800220472440945
 20
-5.24438188976378
 30
0.0
 10
3.800220472440945
 20
-5.24438188976378
 30
0.0
 10
3.800220472440945
 20
-5.24438188976378
 30
0.0
 10
3.800220472440945
 20
-5.24438188976378
 30
0.0
 10
3.800220472440945
 20
-4.960456692913386
 30
0.0
 10
3.800220472440945
 20
-4.960456692913386
 30
0.0
  0
SPLINE
  5
66
330
1F
100
AcDbEntity
  8
Layer 1
 62
    30
370
     5
100
AcDbSpline
210
0.0
220
0.0
230
1.0
 70
    11
 71
     3
 72
    16
 73
    12
 74
     0
 42
0.0000000001
 43
0.0000000001
 40
0.0
 40
0.0
 40
0.0
 40
0.0
 40
0.3333333333333333
 40
0.3333333333333333
 40
0.3333333333333333
 40
0.3333333333333333
 40
0.6666666666666666
 40
0.6666666666666666
 40
0.6666666666666666
 40
0.6666666666666666
 40
1.0
 40
1.0
 40
1.0
 40
1.0
 10
3.708846456692914
 20
-3.469555118110236
 30
0.0
 10
3.708846456692914
 20
-3.469555118110236
 30
0.0
 10
3.375614173228346
 20
-3.006708661417323
 30
0.0
 10
3.375614173228346
 20
-3.006708661417323
 30
0.0
 10
3.375614173228346
 20
-3.006708661417323
 30
0.0
 10
3.375614173228346
 20
-3.006708661417323
 30
0.0
 10
3.703614173228347
 20
-3.001811023622047
 30
0.0
 10
3.703614173228347
 20
-3.001811023622047
 30
0.0
 10
3.703614173228347
 20
-3.001811023622047
 30
0.0
 10
3.703614173228347
 20
-3.001811023622047
 30
0.0
 10
3.708846456692914
 20
-3.469555118110236
 30
0.0
 10
3.708846456692914
 20
-3.469555118110236
 30
0.0
  0
SPLINE
  5
67
330
1F
100
AcDbEntity
  8
Layer 1
 62
    30
370
     5
100
AcDbSpline
210
0.0
220
0.0
230
1.0
 70
    11
 71
     3
 72
    16
 73
    12
 74
     0
 42
0.0000000001
 43
0.0000000001
 40
0.0
 40
0.0
 40
0.0
 40
0.0
 40
0.3333333333333333
 40
0.3333333333333333
 40
0.3333333333333333
 40
0.3333333333333333
 40
0.6666666666666666
 40
0.6666666666666666
 40
0.6666666666666666
 40
0.6666666666666666
 40
1.0
 40
1.0
 40
1.0
 40
1.0
 10
3.707102362204724
 20
-3.702204724409449
 30
0.0
 10
3.707102362204724
 20
-3.702204724409449
 30
0.0
 10
3.37038188976378
 20
-4.165055118110236
 30
0.0
 10
3.37038188976378
 20
-4.165055118110236
 30
0.0
 10
3.37038188976378
 20
-4.165055118110236
 30
0.0
 10
3.37038188976378
 20
-4.165055118110236
 30
0.0
 10
3.377358267716536
 20
-3.254051181102363
 30
0.0
 10
3.377358267716536
 20
-3.254051181102363
 30
0.0
 10
3.377358267716536
 20
-3.254051181102363
 30
0.0
 10
3.377358267716536
 20
-3.254051181102363
 30
0.0
 10
3.707102362204724
 20
-3.702204724409449
 30
0.0
 10
3.707102362204724
 20
-3.702204724409449
 30
0.0
  0
SPLINE
  5
68
330
1F
100
AcDbEntity
  8
Layer 1
 62
    30
370
     5
100
AcDbSpline
210
0.0
220
0.0
230
1.0
 70
    11
 71
     3
 72
    16
 73
    12
 74
     0
 42
0.0000000001
 43
0.0000000001
 40
0.0
 40
0.0
 40
0.0
 40
0.0
 40
0.3333333333333333
 40
0.3333333333333333
 40
0.3333333333333333
 40
0.3333333333333333
 40
0.6666666666666666
 40
0.6666666666666666
 40
0.6666666666666666
 40
0.6666666666666666
 40
1.0
 40
1.0
 40
1.0
 40
1.0
 10
3.705358267716536
 20
-3.954448818897638
 30
0.0
 10
3.705358267716536
 20
-3.954448818897638
 30
0.0
 10
3.372125984251968
 20
-4.405051181102363
 30
0.0
 10
3.372125984251968
 20
-4.405051181102363
 30
0.0
 10
3.372125984251968
 20
-4.405051181102363
 30
0.0
 10
3.372125984251968
 20
-4.405051181102363
 30
0.0
 10
3.705358267716536
 20
-4.865452755905512
 30
0.0
 10
3.705358267716536
 20
-4.865452755905512
 30
0.0
 10
3.705358267716536
 20
-4.865452755905512
 30
0.0
 10
3.705358267716536
 20
-4.865452755905512
 30
0.0
 10
3.705358267716536
 20
-3.954448818897638
 30
0.0
 10
3.705358267716536
 20
-3.954448818897638
 30
0.0
  0
SPLINE
  5
69
330
1F
100
AcDbEntity
  8
Layer 1
 62
    30
370
     5
100
AcDbSpline
210
0.0
220
0.0
230
1.0
 70
    11
 71
     3
 72
    16
 73
    12
 74
     0
 42
0.0000000001
 43
0.0000000001
 40
0.0
 40
0.0
 40
0.0
 40
0.0
 40
0.3333333333333333
 40
0.3333333333333333
 40
0.3333333333333333
 40
0.3333333333333333
 40
0.6666666666666666
 40
0.6666666666666666
 40
0.6666666666666666
 40
0.6666666666666666
 40
1.0
 40
1.0
 40
1.0
 40
1.0
 10
3.703614173228347
 20
-5.100551181102363
 30
0.0
 10
3.703614173228347
 20
-5.100551181102363
 30
0.0
 10
3.375614173228346
 20
-4.652393700787401
 30
0.0
 10
3.375614173228346
 20
-4.652393700787401
 30
0.0
 10
3.375614173228346
 20
-4.652393700787401
 30
0.0
 10
3.375614173228346
 20
-4.652393700787401
 30
0.0
 10
3.373870078740158
 20
-5.098102362204725
 30
0.0
 10
3.373870078740158
 20
-5.098102362204725
 30
0.0
 10
3.373870078740158
 20
-5.098102362204725
 30
0.0
 10
3.373870078740158
 20
-5.098102362204725
 30
0.0
 10
3.703614173228347
 20
-5.100551181102363
 30
0.0
 10
3.703614173228347
 20
-5.100551181102363
 30
0.0
  0
SPLINE
  5
6A
330
1F
100
AcDbEntity
  8
Layer 1
 62
    30
370
     5
100
AcDbSpline
210
0.0
220
0.0
230
1.0
 70
     8
 71
     3
 72
    16
 73
    12
 74
     0
 42
0.0000000001
 43
0.0000000001
 40
0.0
 40
0.0
 40
0.0
 40
0.0
 40
0.3333333333333333
 40
0.3333333333333333
 40
0.3333333333333333
 40
0.3333333333333333
 40
0.6666666666666666
 40
0.6666666666666666
 40
0.6666666666666666
 40
0.6666666666666666
 40
1.0
 40
1.0
 40
1.0
 40
1.0
 10
3.798992125984252
 20
-4.96046062992126
 30
0.0
 10
3.798992125984252
 20
-4.96046062992126
 30
0.0
 10
3.9393031496063
 20
-4.96046062992126
 30
0.0
 10
3.9393031496063
 20
-4.96046062992126
 30
0.0
 10
3.9393031496063
 20
-4.96046062992126
 30
0.0
 10
3.9393031496063
 20
-4.96046062992126
 30
0.0
 10
3.9393031496063
 20
-4.452098425196851
 30
0.0
 10
3.9393031496063
 20
-4.452098425196851
 30
0.0
 10
3.9393031496063
 20
-4.452098425196851
 30
0.0
 10
3.9393031496063
 20
-4.452098425196851
 30
0.0
 10
3.798988188976378
 20
-4.452098425196851
 30
0.0
 10
3.798988188976378
 20
-4.452098425196851
 30
0.0
  0
SPLINE
  5
6B
330
1F
100
AcDbEntity
  8
Layer 1
 62
    30
370
     5
100
AcDbSpline
210
0.0
220
0.0
230
1.0
 70
     8
 71
     3
 72
    16
 73
    12
 74
     0
 42
0.0000000001
 43
0.0000000001
 40
0.0
 40
0.0
 40
0.0
 40
0.0
 40
0.3333333333333333
 40
0.3333333333333333
 40
0.3333333333333333
 40
0.3333333333333333
 40
0.6666666666666666
 40
0.6666666666666666
 40
0.6666666666666666
 40
0.6666666666666666
 40
1.0
 40
1.0
 40
1.0
 40
1.0
 10
3.800850393700788
 20
-3.701594488188976
 30
0.0
 10
3.800850393700788
 20
-3.701594488188976
 30
0.0
 10
3.941161417322835
 20
-3.701594488188976
 30
0.0
 10
3.941161417322835
 20
-3.701594488188976
 30
0.0
 10
3.941161417322835
 20
-3.701594488188976
 30
0.0
 10
3.941161417322835
 20
-3.701594488188976
 30
0.0
 10
3.941161417322835
 20
-3.193232283464567
 30
0.0
 10
3.941161417322835
 20
-3.193232283464567
 30
0.0
 10
3.941161417322835
 20
-3.193232283464567
 30
0.0
 10
3.941161417322835
 20
-3.193232283464567
 30
0.0
 10
3.800846456692914
 20
-3.193232283464567
 30
0.0
 10
3.800846456692914
 20
-3.193232283464567
 30
0.0
  0
SPLINE
  5
6C
330
1F
100
AcDbEntity
  8
Layer 1
 62
    30
370
     5
100
AcDbSpline
210
0.0
220
0.0
230
1.0
 70
     8
 71
     3
 72
    16
 73
    12
 74
     0
 42
0.0000000001
 43
0.0000000001
 40
0.0
 40
0.0
 40
0.0
 40
0.0
 40
0.3333333333333333
 40
0.3333333333333333
 40
0.3333333333333333
 40
0.3333333333333333
 40
0.6666666666666666
 40
0.6666666666666666
 40
0.6666666666666666
 40
0.6666666666666666
 40
1.0
 40
1.0
 40
1.0
 40
1.0
 10
3.262669291338583
 20
-4.923889763779528
 30
0.0
 10
3.262669291338583
 20
-4.923889763779528
 30
0.0
 10
3.122358267716535
 20
-4.923889763779528
 30
0.0
 10
3.122358267716535
 20
-4.923889763779528
 30
0.0
 10
3.122358267716535
 20
-4.923889763779528
 30
0.0
 10
3.122358267716535
 20
-4.923889763779528
 30
0.0
 10
3.122358267716535
 20
-4.560299212598426
 30
0.0
 10
3.122358267716535
 20
-4.560299212598426
 30
0.0
 10
3.122358267716535
 20
-4.560299212598426
 30
0.0
 10
3.122358267716535
 20
-4.560299212598426
 30
0.0
 10
3.262673228346457
 20
-4.560299212598426
 30
0.0
 10
3.262673228346457
 20
-4.560299212598426
 30
0.0
  0
SPLINE
  5
6D
330
1F
100
AcDbEntity
  8
Layer 1
 62
    30
370
     5
100
AcDbSpline
210
0.0
220
0.0
230
1.0
 70
     8
 71
     3
 72
    16
 73
    12
 74
     0
 42
0.0000000001
 43
0.0000000001
 40
0.0
 40
0.0
 40
0.0
 40
0.0
 40
0.3333333333333333
 40
0.3333333333333333
 40
0.3333333333333333
 40
0.3333333333333333
 40
0.6666666666666666
 40
0.6666666666666666
 40
0.6666666666666666
 40
0.6666666666666666
 40
1.0
 40
1.0
 40
1.0
 40
1.0
 10
3.262295275590551
 20
-3.583566929133859
 30
0.0
 10
3.262295275590551
 20
-3.583566929133859
 30
0.0
 10
3.121984251968504
 20
-3.583566929133859
 30
0.0
 10
3.121984251968504
 20
-3.583566929133859
 30
0.0
 10
3.121984251968504
 20
-3.583566929133859
 30
0.0
 10
3.121984251968504
 20
-3.583566929133859
 30
0.0
 10
3.121984251968504
 20
-3.275803149606299
 30
0.0
 10
3.121984251968504
 20
-3.275803149606299
 30
0.0
 10
3.121984251968504
 20
-3.275803149606299
 30
0.0
 10
3.121984251968504
 20
-3.275803149606299
 30
0.0
 10
3.262299212598425
 20
-3.275803149606299
 30
0.0
 10
3.262299212598425
 20
-3.275803149606299
 30
0.0
  0
SPLINE
  5
6E
330
1F
100
AcDbEntity
  8
Layer 1
 62
    30
370
     5
100
AcDbSpline
210
0.0
220
0.0
230
1.0
 70
    24
 71
     3
 72
     8
 73
     4
 74
     0
 42
0.0000000001
 43
0.0000000001
 40
0.0
 40
0.0
 40
0.0
 40
0.0
 40
1.0
 40
1.0
 40
1.0
 40
1.0
 10
3.281523622047244
 20
-1.778586614173229
 30
0.0
 10
3.281523622047244
 20
-1.778586614173229
 30
0.0
 10
3.281523622047244
 20
-1.028086614173228
 30
0.0
 10
3.281523622047244
 20
-1.028086614173228
 30
0.0
  0
SPLINE
  5
6F
330
1F
100
AcDbEntity
  8
Layer 1
 62
    30
370
     5
100
AcDbSpline
210
0.0
220
0.0
230
1.0
 70
     8
 71
     3
 72
    16
 73
    12
 74
     0
 42
0.0000000001
 43
0.0000000001
 40
0.0
 40
0.0
 40
0.0
 40
0.0
 40
0.3333333333333333
 40
0.3333333333333333
 40
0.3333333333333333
 40
0.3333333333333333
 40
0.6666666666666666
 40
0.6666666666666666
 40
0.6666666666666666
 40
0.6666666666666666
 40
1.0
 40
1.0
 40
1.0
 40
1.0
 10
3.281523622047244
 20
-0.5197165354330708
 30
0.0
 10
3.281523622047244
 20
-0.5197165354330708
 30
0.0
 10
3.281523622047244
 20
-0.1995511811023622
 30
0.0
 10
3.281523622047244
 20
-0.1995511811023622
 30
0.0
 10
3.281523622047244
 20
-0.1995511811023622
 30
0.0
 10
3.281523622047244
 20
-0.1995511811023622
 30
0.0
 10
3.819051181102362
 20
-0.1995511811023622
 30
0.0
 10
3.819051181102362
 20
-0.1995511811023622
 30
0.0
 10
3.819051181102362
 20
-0.1995511811023622
 30
0.0
 10
3.819051181102362
 20
-0.1995511811023622
 30
0.0
 10
3.819051181102362
 20
-0.6022952755905512
 30
0.0
 10
3.819051181102362
 20
-0.6022952755905512
 30
0.0
  0
SPLINE
  5
70
330
1F
100
AcDbEntity
  8
Layer 1
 62
    30
370
     5
100
AcDbSpline
210
0.0
220
0.0
230
1.0
 70
    24
 71
     3
 72
     8
 73
     4
 74
     0
 42
0.0000000001
 43
0.0000000001
 40
0.0
 40
0.0
 40
0.0
 40
0.0
 40
1.0
 40
1.0
 40
1.0
 40
1.0
 10
3.819051181102362
 20
-0.9100590551181103
 30
0.0
 10
3.819051181102362
 20
-0.9100590551181103
 30
0.0
 10
3.819051181102362
 20
-1.887468503937008
 30
0.0
 10
3.819051181102362
 20
-1.887468503937008
 30
0.0
  0
SPLINE
  5
71
330
1F
100
AcDbEntity
  8
Layer 1
 62
    30
370
     5
100
AcDbSpline
210
0.0
220
0.0
230
1.0
 70
     8
 71
     3
 72
    16
 73
    12
 74
     0
 42
0.0000000001
 43
0.0000000001
 40
0.0
 40
0.0
 40
0.0
 40
0.0
 40
0.3333333333333333
 40
0.3333333333333333
 40
0.3333333333333333
 40
0.3333333333333333
 40
0.6666666666666666
 40
0.6666666666666666
 40
0.6666666666666666
 40
0.6666666666666666
 40
1.0
 40
1.0
 40
1.0
 40
1.0
 10
3.819051181102362
 20
-2.25105905511811
 30
0.0
 10
3.819051181102362
 20
-2.25105905511811
 30
0.0
 10
3.819051181102362
 20
-2.570874015748032
 30
0.0
 10
3.819051181102362
 20
-2.570874015748032
 30
0.0
 10
3.819051181102362
 20
-2.570874015748032
 30
0.0
 10
3.819051181102362
 20
-2.570874015748032
 30
0.0
 10
3.281523622047244
 20
-2.570874015748032
 30
0.0
 10
3.281523622047244
 20
-2.570874015748032
 30
0.0
 10
3.281523622047244
 20
-2.570874015748032
 30
0.0
 10
3.281523622047244
 20
-2.570874015748032
 30
0.0
 10
3.281523622047244
 20
-2.286948818897638
 30
0.0
 10
3.281523622047244
 20
-2.286948818897638
 30
0.0
  0
SPLINE
  5
72
330
1F
100
AcDbEntity
  8
Layer 1
 62
    30
370
     5
100
AcDbSpline
210
0.0
220
0.0
230
1.0
 70
    11
 71
     3
 72
    16
 73
    12
 74
     0
 42
0.0000000001
 43
0.0000000001
 40
0.0
 40
0.0
 40
0.0
 40
0.0
 40
0.3333333333333333
 40
0.3333333333333333
 40
0.3333333333333333
 40
0.3333333333333333
 40
0.6666666666666666
 40
0.6666666666666666
 40
0.6666666666666666
 40
0.6666666666666666
 40
1.0
 40
1.0
 40
1.0
 40
1.0
 10
3.372897637795276
 20
-0.7960472440944882
 30
0.0
 10
3.372897637795276
 20
-0.7960472440944882
 30
0.0
 10
3.706129921259843
 20
-0.3332007874015748
 30
0.0
 10
3.706129921259843
 20
-0.3332007874015748
 30
0.0
 10
3.706129921259843
 20
-0.3332007874015748
 30
0.0
 10
3.706129921259843
 20
-0.3332007874015748
 30
0.0
 10
3.378129921259843
 20
-0.3283031496062993
 30
0.0
 10
3.378129921259843
 20
-0.3283031496062993
 30
0.0
 10
3.378129921259843
 20
-0.3283031496062993
 30
0.0
 10
3.378129921259843
 20
-0.3283031496062993
 30
0.0
 10
3.372897637795276
 20
-0.7960472440944882
 30
0.0
 10
3.372897637795276
 20
-0.7960472440944882
 30
0.0
  0
SPLINE
  5
73
330
1F
100
AcDbEntity
  8
Layer 1
 62
    30
370
     5
100
AcDbSpline
210
0.0
220
0.0
230
1.0
 70
    11
 71
     3
 72
    16
 73
    12
 74
     0
 42
0.0000000001
 43
0.0000000001
 40
0.0
 40
0.0
 40
0.0
 40
0.0
 40
0.3333333333333333
 40
0.3333333333333333
 40
0.3333333333333333
 40
0.3333333333333333
 40
0.6666666666666666
 40
0.6666666666666666
 40
0.6666666666666666
 40
0.6666666666666666
 40
1.0
 40
1.0
 40
1.0
 40
1.0
 10
3.374641732283465
 20
-1.028696850393701
 30
0.0
 10
3.374641732283465
 20
-1.028696850393701
 30
0.0
 10
3.71136220472441
 20
-1.491547244094488
 30
0.0
 10
3.71136220472441
 20
-1.491547244094488
 30
0.0
 10
3.71136220472441
 20
-1.491547244094488
 30
0.0
 10
3.71136220472441
 20
-1.491547244094488
 30
0.0
 10
3.704385826771654
 20
-0.5805433070866142
 30
0.0
 10
3.704385826771654
 20
-0.5805433070866142
 30
0.0
 10
3.704385826771654
 20
-0.5805433070866142
 30
0.0
 10
3.704385826771654
 20
-0.5805433070866142
 30
0.0
 10
3.374641732283465
 20
-1.028696850393701
 30
0.0
 10
3.374641732283465
 20
-1.028696850393701
 30
0.0
  0
SPLINE
  5
74
330
1F
100
AcDbEntity
  8
Layer 1
 62
    30
370
     5
100
AcDbSpline
210
0.0
220
0.0
230
1.0
 70
    11
 71
     3
 72
    16
 73
    12
 74
     0
 42
0.0000000001
 43
0.0000000001
 40
0.0
 40
0.0
 40
0.0
 40
0.0
 40
0.3333333333333333
 40
0.3333333333333333
 40
0.3333333333333333
 40
0.3333333333333333
 40
0.6666666666666666
 40
0.6666666666666666
 40
0.6666666666666666
 40
0.6666666666666666
 40
1.0
 40
1.0
 40
1.0
 40
1.0
 10
3.376385826771654
 20
-1.28094094488189
 30
0.0
 10
3.376385826771654
 20
-1.28094094488189
 30
0.0
 10
3.709618110236221
 20
-1.731543307086614
 30
0.0
 10
3.709618110236221
 20
-1.731543307086614
 30
0.0
 10
3.709618110236221
 20
-1.731543307086614
 30
0.0
 10
3.709618110236221
 20
-1.731543307086614
 30
0.0
 10
3.376385826771654
 20
-2.191944881889764
 30
0.0
 10
3.376385826771654
 20
-2.191944881889764
 30
0.0
 10
3.376385826771654
 20
-2.191944881889764
 30
0.0
 10
3.376385826771654
 20
-2.191944881889764
 30
0.0
 10
3.376385826771654
 20
-1.28094094488189
 30
0.0
 10
3.376385826771654
 20
-1.28094094488189
 30
0.0
  0
SPLINE
  5
75
330
1F
100
AcDbEntity
  8
Layer 1
 62
    30
370
     5
100
AcDbSpline
210
0.0
220
0.0
230
1.0
 70
    11
 71
     3
 72
    16
 73
    12
 74
     0
 42
0.0000000001
 43
0.0000000001
 40
0.0
 40
0.0
 40
0.0
 40
0.0
 40
0.3333333333333333
 40
0.3333333333333333
 40
0.3333333333333333
 40
0.3333333333333333
 40
0.6666666666666666
 40
0.6666666666666666
 40
0.6666666666666666
 40
0.6666666666666666
 40
1.0
 40
1.0
 40
1.0
 40
1.0
 10
3.378129921259843
 20
-2.427043307086614
 30
0.0
 10
3.378129921259843
 20
-2.427043307086614
 30
0.0
 10
3.706129921259843
 20
-1.978885826771654
 30
0.0
 10
3.706129921259843
 20
-1.978885826771654
 30
0.0
 10
3.706129921259843
 20
-1.978885826771654
 30
0.0
 10
3.706129921259843
 20
-1.978885826771654
 30
0.0
 10
3.707874015748032
 20
-2.424594488188976
 30
0.0
 10
3.707874015748032
 20
-2.424594488188976
 30
0.0
 10
3.707874015748032
 20
-2.424594488188976
 30
0.0
 10
3.707874015748032
 20
-2.424594488188976
 30
0.0
 10
3.378129921259843
 20
-2.427043307086614
 30
0.0
 10
3.378129921259843
 20
-2.427043307086614
 30
0.0
  0
SPLINE
  5
76
330
1F
100
AcDbEntity
  8
Layer 1
 62
    30
370
     5
100
AcDbSpline
210
0.0
220
0.0
230
1.0
 70
     8
 71
     3
 72
    16
 73
    12
 74
     0
 42
0.0000000001
 43
0.0000000001
 40
0.0
 40
0.0
 40
0.0
 40
0.0
 40
0.3333333333333333
 40
0.3333333333333333
 40
0.3333333333333333
 40
0.3333333333333333
 40
0.6666666666666666
 40
0.6666666666666666
 40
0.6666666666666666
 40
0.6666666666666666
 40
1.0
 40
1.0
 40
1.0
 40
1.0
 10
3.282751968503937
 20
-2.286952755905512
 30
0.0
 10
3.282751968503937
 20
-2.286952755905512
 30
0.0
 10
3.14244094488189
 20
-2.286952755905512
 30
0.0
 10
3.14244094488189
 20
-2.286952755905512
 30
0.0
 10
3.14244094488189
 20
-2.286952755905512
 30
0.0
 10
3.14244094488189
 20
-2.286952755905512
 30
0.0
 10
3.14244094488189
 20
-1.778590551181102
 30
0.0
 10
3.14244094488189
 20
-1.778590551181102
 30
0.0
 10
3.14244094488189
 20
-1.778590551181102
 30
0.0
 10
3.14244094488189
 20
-1.778590551181102
 30
0.0
 10
3.282755905511811
 20
-1.778590551181102
 30
0.0
 10
3.282755905511811
 20
-1.778590551181102
 30
0.0
  0
SPLINE
  5
77
330
1F
100
AcDbEntity
  8
Layer 1
 62
    30
370
     5
100
AcDbSpline
210
0.0
220
0.0
230
1.0
 70
     8
 71
     3
 72
    16
 73
    12
 74
     0
 42
0.0000000001
 43
0.0000000001
 40
0.0
 40
0.0
 40
0.0
 40
0.0
 40
0.3333333333333333
 40
0.3333333333333333
 40
0.3333333333333333
 40
0.3333333333333333
 40
0.6666666666666666
 40
0.6666666666666666
 40
0.6666666666666666
 40
0.6666666666666666
 40
1.0
 40
1.0
 40
1.0
 40
1.0
 10
3.280893700787402
 20
-1.028086614173228
 30
0.0
 10
3.280893700787402
 20
-1.028086614173228
 30
0.0
 10
3.140582677165355
 20
-1.028086614173228
 30
0.0
 10
3.140582677165355
 20
-1.028086614173228
 30
0.0
 10
3.140582677165355
 20
-1.028086614173228
 30
0.0
 10
3.140582677165355
 20
-1.028086614173228
 30
0.0
 10
3.140582677165355
 20
-0.5197244094488189
 30
0.0
 10
3.140582677165355
 20
-0.5197244094488189
 30
0.0
 10
3.140582677165355
 20
-0.5197244094488189
 30
0.0
 10
3.140582677165355
 20
-0.5197244094488189
 30
0.0
 10
3.280897637795276
 20
-0.5197244094488189
 30
0.0
 10
3.280897637795276
 20
-0.5197244094488189
 30
0.0
  0
SPLINE
  5
78
330
1F
100
AcDbEntity
  8
Layer 1
 62
    30
370
     5
100
AcDbSpline
210
0.0
220
0.0
230
1.0
 70
     8
 71
     3
 72
    16
 73
    12
 74
     0
 42
0.0000000001
 43
0.0000000001
 40
0.0
 40
0.0
 40
0.0
 40
0.0
 40
0.3333333333333333
 40
0.3333333333333333
 40
0.3333333333333333
 40
0.3333333333333333
 40
0.6666666666666666
 40
0.6666666666666666
 40
0.6666666666666666
 40
0.6666666666666666
 40
1.0
 40
1.0
 40
1.0
 40
1.0
 10
3.819074803149607
 20
-2.25038188976378
 30
0.0
 10
3.819074803149607
 20
-2.25038188976378
 30
0.0
 10
3.959385826771654
 20
-2.25038188976378
 30
0.0
 10
3.959385826771654
 20
-2.25038188976378
 30
0.0
 10
3.959385826771654
 20
-2.25038188976378
 30
0.0
 10
3.959385826771654
 20
-2.25038188976378
 30
0.0
 10
3.959385826771654
 20
-1.886791338582677
 30
0.0
 10
3.959385826771654
 20
-1.886791338582677
 30
0.0
 10
3.959385826771654
 20
-1.886791338582677
 30
0.0
 10
3.959385826771654
 20
-1.886791338582677
 30
0.0
 10
3.819070866141733
 20
-1.886791338582677
 30
0.0
 10
3.819070866141733
 20
-1.886791338582677
 30
0.0
  0
SPLINE
  5
79
330
1F
100
AcDbEntity
  8
Layer 1
 62
    30
370
     5
100
AcDbSpline
210
0.0
220
0.0
230
1.0
 70
     8
 71
     3
 72
    16
 73
    12
 74
     0
 42
0.0000000001
 43
0.0000000001
 40
0.0
 40
0.0
 40
0.0
 40
0.0
 40
0.3333333333333333
 40
0.3333333333333333
 40
0.3333333333333333
 40
0.3333333333333333
 40
0.6666666666666666
 40
0.6666666666666666
 40
0.6666666666666666
 40
0.6666666666666666
 40
1.0
 40
1.0
 40
1.0
 40
1.0
 10
3.819448818897638
 20
-0.9100590551181103
 30
0.0
 10
3.819448818897638
 20
-0.9100590551181103
 30
0.0
 10
3.959759842519685
 20
-0.9100590551181103
 30
0.0
 10
3.959759842519685
 20
-0.9100590551181103
 30
0.0
 10
3.959759842519685
 20
-0.9100590551181103
 30
0.0
 10
3.959759842519685
 20
-0.9100590551181103
 30
0.0
 10
3.959759842519685
 20
-0.6022952755905512
 30
0.0
 10
3.959759842519685
 20
-0.6022952755905512
 30
0.0
 10
3.959759842519685
 20
-0.6022952755905512
 30
0.0
 10
3.959759842519685
 20
-0.6022952755905512
 30
0.0
 10
3.819444881889764
 20
-0.6022952755905512
 30
0.0
 10
3.819444881889764
 20
-0.6022952755905512
 30
0.0
  0
SPLINE
  5
7A
330
1F
100
AcDbEntity
  8
Layer 1
 62
    30
370
     5
100
AcDbSpline
210
0.0
220
0.0
230
1.0
 70
    24
 71
     3
 72
     8
 73
     4
 74
     0
 42
0.0000000001
 43
0.0000000001
 40
0.0
 40
0.0
 40
0.0
 40
0.0
 40
1.0
 40
1.0
 40
1.0
 40
1.0
 10
-0.3644330708661417
 20
-5.064035433070866
 30
0.0
 10
-0.3644330708661417
 20
-5.064035433070866
 30
0.0
 10
0.3860669291338583
 20
-5.064035433070866
 30
0.0
 10
0.3860669291338583
 20
-5.064035433070866
 30
0.0
  0
SPLINE
  5
7B
330
1F
100
AcDbEntity
  8
Layer 1
 62
    30
370
     5
100
AcDbSpline
210
0.0
220
0.0
230
1.0
 70
     8
 71
     3
 72
    16
 73
    12
 74
     0
 42
0.0000000001
 43
0.0000000001
 40
0.0
 40
0.0
 40
0.0
 40
0.0
 40
0.3333333333333333
 40
0.3333333333333333
 40
0.3333333333333333
 40
0.3333333333333333
 40
0.6666666666666666
 40
0.6666666666666666
 40
0.6666666666666666
 40
0.6666666666666666
 40
1.0
 40
1.0
 40
1.0
 40
1.0
 10
0.8944370078740158
 20
-5.064035433070866
 30
0.0
 10
0.8944370078740158
 20
-5.064035433070866
 30
0.0
 10
1.214602362204724
 20
-5.064035433070866
 30
0.0
 10
1.214602362204724
 20
-5.064035433070866
 30
0.0
 10
1.214602362204724
 20
-5.064035433070866
 30
0.0
 10
1.214602362204724
 20
-5.064035433070866
 30
0.0
 10
1.214602362204724
 20
-4.526507874015748
 30
0.0
 10
1.214602362204724
 20
-4.526507874015748
 30
0.0
 10
1.214602362204724
 20
-4.526507874015748
 30
0.0
 10
1.214602362204724
 20
-4.526507874015748
 30
0.0
 10
0.8118582677165355
 20
-4.526507874015748
 30
0.0
 10
0.8118582677165355
 20
-4.526507874015748
 30
0.0
  0
SPLINE
  5
7C
330
1F
100
AcDbEntity
  8
Layer 1
 62
    30
370
     5
100
AcDbSpline
210
0.0
220
0.0
230
1.0
 70
    24
 71
     3
 72
     8
 73
     4
 74
     0
 42
0.0000000001
 43
0.0000000001
 40
0.0
 40
0.0
 40
0.0
 40
0.0
 40
1.0
 40
1.0
 40
1.0
 40
1.0
 10
0.5040944881889764
 20
-4.526507874015748
 30
0.0
 10
0.5040944881889764
 20
-4.526507874015748
 30
0.0
 10
-0.4733149606299213
 20
-4.526507874015748
 30
0.0
 10
-0.4733149606299213
 20
-4.526507874015748
 30
0.0
  0
SPLINE
  5
7D
330
1F
100
AcDbEntity
  8
Layer 1
 62
    30
370
     5
100
AcDbSpline
210
0.0
220
0.0
230
1.0
 70
     8
 71
     3
 72
    16
 73
    12
 74
     0
 42
0.0000000001
 43
0.0000000001
 40
0.0
 40
0.0
 40
0.0
 40
0.0
 40
0.3333333333333333
 40
0.3333333333333333
 40
0.3333333333333333
 40
0.3333333333333333
 40
0.6666666666666666
 40
0.6666666666666666
 40
0.6666666666666666
 40
0.6666666666666666
 40
1.0
 40
1.0
 40
1.0
 40
1.0
 10
-0.8369055118110237
 20
-4.526507874015748
 30
0.0
 10
-0.8369055118110237
 20
-4.526507874015748
 30
0.0
 10
-1.156720472440945
 20
-4.526507874015748
 30
0.0
 10
-1.156720472440945
 20
-4.526507874015748
 30
0.0
 10
-1.156720472440945
 20
-4.526507874015748
 30
0.0
 10
-1.156720472440945
 20
-4.526507874015748
 30
0.0
 10
-1.156720472440945
 20
-5.064035433070866
 30
0.0
 10
-1.156720472440945
 20
-5.064035433070866
 30
0.0
 10
-1.156720472440945
 20
-5.064035433070866
 30
0.0
 10
-1.156720472440945
 20
-5.064035433070866
 30
0.0
 10
-0.8727952755905513
 20
-5.064035433070866
 30
0.0
 10
-0.8727952755905513
 20
-5.064035433070866
 30
0.0
  0
SPLINE
  5
7E
330
1F
100
AcDbEntity
  8
Layer 1
 62
    30
370
     5
100
AcDbSpline
210
0.0
220
0.0
230
1.0
 70
    11
 71
     3
 72
    16
 73
    12
 74
     0
 42
0.0000000001
 43
0.0000000001
 40
0.0
 40
0.0
 40
0.0
 40
0.0
 40
0.3333333333333333
 40
0.3333333333333333
 40
0.3333333333333333
 40
0.3333333333333333
 40
0.6666666666666666
 40
0.6666666666666666
 40
0.6666666666666666
 40
0.6666666666666666
 40
1.0
 40
1.0
 40
1.0
 40
1.0
 10
0.6181062992125984
 20
-4.972661417322835
 30
0.0
 10
0.6181062992125984
 20
-4.972661417322835
 30
0.0
 10
1.080952755905512
 20
-4.639429133858268
 30
0.0
 10
1.080952755905512
 20
-4.639429133858268
 30
0.0
 10
1.080952755905512
 20
-4.639429133858268
 30
0.0
 10
1.080952755905512
 20
-4.639429133858268
 30
0.0
 10
1.085850393700788
 20
-4.967429133858268
 30
0.0
 10
1.085850393700788
 20
-4.967429133858268
 30
0.0
 10
1.085850393700788
 20
-4.967429133858268
 30
0.0
 10
1.085850393700788
 20
-4.967429133858268
 30
0.0
 10
0.6181062992125984
 20
-4.972661417322835
 30
0.0
 10
0.6181062992125984
 20
-4.972661417322835
 30
0.0
  0
SPLINE
  5
7F
330
1F
100
AcDbEntity
  8
Layer 1
 62
    30
370
     5
100
AcDbSpline
210
0.0
220
0.0
230
1.0
 70
    11
 71
     3
 72
    16
 73
    12
 74
     0
 42
0.0000000001
 43
0.0000000001
 40
0.0
 40
0.0
 40
0.0
 40
0.0
 40
0.3333333333333333
 40
0.3333333333333333
 40
0.3333333333333333
 40
0.3333333333333333
 40
0.6666666666666666
 40
0.6666666666666666
 40
0.6666666666666666
 40
0.6666666666666666
 40
1.0
 40
1.0
 40
1.0
 40
1.0
 10
0.3854566929133859
 20
-4.970917322834646
 30
0.0
 10
0.3854566929133859
 20
-4.970917322834646
 30
0.0
 10
-0.0773937007874016
 20
-4.634196850393701
 30
0.0
 10
-0.0773937007874016
 20
-4.634196850393701
 30
0.0
 10
-0.0773937007874016
 20
-4.634196850393701
 30
0.0
 10
-0.0773937007874016
 20
-4.634196850393701
 30
0.0
 10
0.8336102362204725
 20
-4.641173228346457
 30
0.0
 10
0.8336102362204725
 20
-4.641173228346457
 30
0.0
 10
0.8336102362204725
 20
-4.641173228346457
 30
0.0
 10
0.8336102362204725
 20
-4.641173228346457
 30
0.0
 10
0.3854566929133859
 20
-4.970917322834646
 30
0.0
 10
0.3854566929133859
 20
-4.970917322834646
 30
0.0
  0
SPLINE
  5
80
330
1F
100
AcDbEntity
  8
Layer 1
 62
    30
370
     5
100
AcDbSpline
210
0.0
220
0.0
230
1.0
 70
    11
 71
     3
 72
    16
 73
    12
 74
     0
 42
0.0000000001
 43
0.0000000001
 40
0.0
 40
0.0
 40
0.0
 40
0.0
 40
0.3333333333333333
 40
0.3333333333333333
 40
0.3333333333333333
 40
0.3333333333333333
 40
0.6666666666666666
 40
0.6666666666666666
 40
0.6666666666666666
 40
0.6666666666666666
 40
1.0
 40
1.0
 40
1.0
 40
1.0
 10
0.1332125984251969
 20
-4.969173228346457
 30
0.0
 10
0.1332125984251969
 20
-4.969173228346457
 30
0.0
 10
-0.3173897637795276
 20
-4.63594094488189
 30
0.0
 10
-0.3173897637795276
 20
-4.63594094488189
 30
0.0
 10
-0.3173897637795276
 20
-4.63594094488189
 30
0.0
 10
-0.3173897637795276
 20
-4.63594094488189
 30
0.0
 10
-0.7777913385826772
 20
-4.969173228346457
 30
0.0
 10
-0.7777913385826772
 20
-4.969173228346457
 30
0.0
 10
-0.7777913385826772
 20
-4.969173228346457
 30
0.0
 10
-0.7777913385826772
 20
-4.969173228346457
 30
0.0
 10
0.1332125984251969
 20
-4.969173228346457
 30
0.0
 10
0.1332125984251969
 20
-4.969173228346457
 30
0.0
  0
SPLINE
  5
81
330
1F
100
AcDbEntity
  8
Layer 1
 62
    30
370
     5
100
AcDbSpline
210
0.0
220
0.0
230
1.0
 70
    11
 71
     3
 72
    16
 73
    12
 74
     0
 42
0.0000000001
 43
0.0000000001
 40
0.0
 40
0.0
 40
0.0
 40
0.0
 40
0.3333333333333333
 40
0.3333333333333333
 40
0.3333333333333333
 40
0.3333333333333333
 40
0.6666666666666666
 40
0.6666666666666666
 40
0.6666666666666666
 40
0.6666666666666666
 40
1.0
 40
1.0
 40
1.0
 40
1.0
 10
-1.012889763779528
 20
-4.967429133858268
 30
0.0
 10
-1.012889763779528
 20
-4.967429133858268
 30
0.0
 10
-0.5647322834645669
 20
-4.639429133858268
 30
0.0
 10
-0.5647322834645669
 20
-4.639429133858268
 30
0.0
 10
-0.5647322834645669
 20
-4.639429133858268
 30
0.0
 10
-0.5647322834645669
 20
-4.639429133858268
 30
0.0
 10
-1.01044094488189
 20
-4.637685039370079
 30
0.0
 10
-1.01044094488189
 20
-4.637685039370079
 30
0.0
 10
-1.01044094488189
 20
-4.637685039370079
 30
0.0
 10
-1.01044094488189
 20
-4.637685039370079
 30
0.0
 10
-1.012889763779528
 20
-4.967429133858268
 30
0.0
 10
-1.012889763779528
 20
-4.967429133858268
 30
0.0
  0
SPLINE
  5
82
330
1F
100
AcDbEntity
  8
Layer 1
 62
    30
370
     5
100
AcDbSpline
210
0.0
220
0.0
230
1.0
 70
     8
 71
     3
 72
    16
 73
    12
 74
     0
 42
0.0000000001
 43
0.0000000001
 40
0.0
 40
0.0
 40
0.0
 40
0.0
 40
0.3333333333333333
 40
0.3333333333333333
 40
0.3333333333333333
 40
0.3333333333333333
 40
0.6666666666666666
 40
0.6666666666666666
 40
0.6666666666666666
 40
0.6666666666666666
 40
1.0
 40
1.0
 40
1.0
 40
1.0
 10
-0.8727992125984252
 20
-5.062807086614173
 30
0.0
 10
-0.8727992125984252
 20
-5.062807086614173
 30
0.0
 10
-0.8727992125984252
 20
-5.203118110236221
 30
0.0
 10
-0.8727992125984252
 20
-5.203118110236221
 30
0.0
 10
-0.8727992125984252
 20
-5.203118110236221
 30
0.0
 10
-0.8727992125984252
 20
-5.203118110236221
 30
0.0
 10
-0.3644370078740158
 20
-5.203118110236221
 30
0.0
 10
-0.3644370078740158
 20
-5.203118110236221
 30
0.0
 10
-0.3644370078740158
 20
-5.203118110236221
 30
0.0
 10
-0.3644370078740158
 20
-5.203118110236221
 30
0.0
 10
-0.3644370078740158
 20
-5.0628031496063
 30
0.0
 10
-0.3644370078740158
 20
-5.0628031496063
 30
0.0
  0
SPLINE
  5
83
330
1F
100
AcDbEntity
  8
Layer 1
 62
    30
370
     5
100
AcDbSpline
210
0.0
220
0.0
230
1.0
 70
     8
 71
     3
 72
    16
 73
    12
 74
     0
 42
0.0000000001
 43
0.0000000001
 40
0.0
 40
0.0
 40
0.0
 40
0.0
 40
0.3333333333333333
 40
0.3333333333333333
 40
0.3333333333333333
 40
0.3333333333333333
 40
0.6666666666666666
 40
0.6666666666666666
 40
0.6666666666666666
 40
0.6666666666666666
 40
1.0
 40
1.0
 40
1.0
 40
1.0
 10
0.3860669291338583
 20
-5.064665354330709
 30
0.0
 10
0.3860669291338583
 20
-5.064665354330709
 30
0.0
 10
0.3860669291338583
 20
-5.204976377952757
 30
0.0
 10
0.3860669291338583
 20
-5.204976377952757
 30
0.0
 10
0.3860669291338583
 20
-5.204976377952757
 30
0.0
 10
0.3860669291338583
 20
-5.204976377952757
 30
0.0
 10
0.8944291338582677
 20
-5.204976377952757
 30
0.0
 10
0.8944291338582677
 20
-5.204976377952757
 30
0.0
 10
0.8944291338582677
 20
-5.204976377952757
 30
0.0
 10
0.8944291338582677
 20
-5.204976377952757
 30
0.0
 10
0.8944291338582677
 20
-5.064661417322835
 30
0.0
 10
0.8944291338582677
 20
-5.064661417322835
 30
0.0
  0
SPLINE
  5
84
330
1F
100
AcDbEntity
  8
Layer 1
 62
    30
370
     5
100
AcDbSpline
210
0.0
220
0.0
230
1.0
 70
     8
 71
     3
 72
    16
 73
    12
 74
     0
 42
0.0000000001
 43
0.0000000001
 40
0.0
 40
0.0
 40
0.0
 40
0.0
 40
0.3333333333333333
 40
0.3333333333333333
 40
0.3333333333333333
 40
0.3333333333333333
 40
0.6666666666666666
 40
0.6666666666666666
 40
0.6666666666666666
 40
0.6666666666666666
 40
1.0
 40
1.0
 40
1.0
 40
1.0
 10
-0.836228346456693
 20
-4.526484251968504
 30
0.0
 10
-0.836228346456693
 20
-4.526484251968504
 30
0.0
 10
-0.836228346456693
 20
-4.386173228346457
 30
0.0
 10
-0.836228346456693
 20
-4.386173228346457
 30
0.0
 10
-0.836228346456693
 20
-4.386173228346457
 30
0.0
 10
-0.836228346456693
 20
-4.386173228346457
 30
0.0
 10
-0.4726377952755906
 20
-4.386173228346457
 30
0.0
 10
-0.4726377952755906
 20
-4.386173228346457
 30
0.0
 10
-0.4726377952755906
 20
-4.386173228346457
 30
0.0
 10
-0.4726377952755906
 20
-4.386173228346457
 30
0.0
 10
-0.4726377952755906
 20
-4.526488188976378
 30
0.0
 10
-0.4726377952755906
 20
-4.526488188976378
 30
0.0
  0
SPLINE
  5
85
330
1F
100
AcDbEntity
  8
Layer 1
 62
    30
370
     5
100
AcDbSpline
210
0.0
220
0.0
230
1.0
 70
     8
 71
     3
 72
    16
 73
    12
 74
     0
 42
0.0000000001
 43
0.0000000001
 40
0.0
 40
0.0
 40
0.0
 40
0.0
 40
0.3333333333333333
 40
0.3333333333333333
 40
0.3333333333333333
 40
0.3333333333333333
 40
0.6666666666666666
 40
0.6666666666666666
 40
0.6666666666666666
 40
0.6666666666666666
 40
1.0
 40
1.0
 40
1.0
 40
1.0
 10
0.5040944881889764
 20
-4.526110236220473
 30
0.0
 10
0.5040944881889764
 20
-4.526110236220473
 30
0.0
 10
0.5040944881889764
 20
-4.385799212598426
 30
0.0
 10
0.5040944881889764
 20
-4.385799212598426
 30
0.0
 10
0.5040944881889764
 20
-4.385799212598426
 30
0.0
 10
0.5040944881889764
 20
-4.385799212598426
 30
0.0
 10
0.8118582677165355
 20
-4.385799212598426
 30
0.0
 10
0.8118582677165355
 20
-4.385799212598426
 30
0.0
 10
0.8118582677165355
 20
-4.385799212598426
 30
0.0
 10
0.8118582677165355
 20
-4.385799212598426
 30
0.0
 10
0.8118582677165355
 20
-4.526114173228347
 30
0.0
 10
0.8118582677165355
 20
-4.526114173228347
 30
0.0
  0
SPLINE
  5
86
330
1F
100
AcDbEntity
  8
Layer 1
 62
    30
370
     5
100
AcDbSpline
210
0.0
220
0.0
230
1.0
 70
    24
 71
     3
 72
     8
 73
     4
 74
     0
 42
0.0000000001
 43
0.0000000001
 40
0.0
 40
0.0
 40
0.0
 40
0.0
 40
1.0
 40
1.0
 40
1.0
 40
1.0
 10
-3.053854330708662
 20
-5.226232283464567
 30
0.0
 10
-3.053854330708662
 20
-5.226232283464567
 30
0.0
 10
-2.303354330708662
 20
-5.226232283464567
 30
0.0
 10
-2.303354330708662
 20
-5.226232283464567
 30
0.0
  0
SPLINE
  5
87
330
1F
100
AcDbEntity
  8
Layer 1
 62
    30
370
     5
100
AcDbSpline
210
0.0
220
0.0
230
1.0
 70
     8
 71
     3
 72
    16
 73
    12
 74
     0
 42
0.0000000001
 43
0.0000000001
 40
0.0
 40
0.0
 40
0.0
 40
0.0
 40
0.3333333333333333
 40
0.3333333333333333
 40
0.3333333333333333
 40
0.3333333333333333
 40
0.6666666666666666
 40
0.6666666666666666
 40
0.6666666666666666
 40
0.6666666666666666
 40
1.0
 40
1.0
 40
1.0
 40
1.0
 10
-1.794984251968504
 20
-5.226232283464567
 30
0.0
 10
-1.794984251968504
 20
-5.226232283464567
 30
0.0
 10
-1.474818897637795
 20
-5.226232283464567
 30
0.0
 10
-1.474818897637795
 20
-5.226232283464567
 30
0.0
 10
-1.474818897637795
 20
-5.226232283464567
 30
0.0
 10
-1.474818897637795
 20
-5.226232283464567
 30
0.0
 10
-1.474818897637795
 20
-4.688704724409449
 30
0.0
 10
-1.474818897637795
 20
-4.688704724409449
 30
0.0
 10
-1.474818897637795
 20
-4.688704724409449
 30
0.0
 10
-1.474818897637795
 20
-4.688704724409449
 30
0.0
 10
-1.877562992125984
 20
-4.688704724409449
 30
0.0
 10
-1.877562992125984
 20
-4.688704724409449
 30
0.0
  0
SPLINE
  5
88
330
1F
100
AcDbEntity
  8
Layer 1
 62
    30
370
     5
100
AcDbSpline
210
0.0
220
0.0
230
1.0
 70
    24
 71
     3
 72
     8
 73
     4
 74
     0
 42
0.0000000001
 43
0.0000000001
 40
0.0
 40
0.0
 40
0.0
 40
0.0
 40
1.0
 40
1.0
 40
1.0
 40
1.0
 10
-2.185326771653544
 20
-4.688704724409449
 30
0.0
 10
-2.185326771653544
 20
-4.688704724409449
 30
0.0
 10
-3.162736220472441
 20
-4.688704724409449
 30
0.0
 10
-3.162736220472441
 20
-4.688704724409449
 30
0.0
  0
SPLINE
  5
89
330
1F
100
AcDbEntity
  8
Layer 1
 62
    30
370
     5
100
AcDbSpline
210
0.0
220
0.0
230
1.0
 70
     8
 71
     3
 72
    16
 73
    12
 74
     0
 42
0.0000000001
 43
0.0000000001
 40
0.0
 40
0.0
 40
0.0
 40
0.0
 40
0.3333333333333333
 40
0.3333333333333333
 40
0.3333333333333333
 40
0.3333333333333333
 40
0.6666666666666666
 40
0.6666666666666666
 40
0.6666666666666666
 40
0.6666666666666666
 40
1.0
 40
1.0
 40
1.0
 40
1.0
 10
-3.526326771653543
 20
-4.688704724409449
 30
0.0
 10
-3.526326771653543
 20
-4.688704724409449
 30
0.0
 10
-3.846141732283465
 20
-4.688704724409449
 30
0.0
 10
-3.846141732283465
 20
-4.688704724409449
 30
0.0
 10
-3.846141732283465
 20
-4.688704724409449
 30
0.0
 10
-3.846141732283465
 20
-4.688704724409449
 30
0.0
 10
-3.846141732283465
 20
-5.226232283464567
 30
0.0
 10
-3.846141732283465
 20
-5.226232283464567
 30
0.0
 10
-3.846141732283465
 20
-5.226232283464567
 30
0.0
 10
-3.846141732283465
 20
-5.226232283464567
 30
0.0
 10
-3.562216535433071
 20
-5.226232283464567
 30
0.0
 10
-3.562216535433071
 20
-5.226232283464567
 30
0.0
  0
SPLINE
  5
8A
330
1F
100
AcDbEntity
  8
Layer 1
 62
    30
370
     5
100
AcDbSpline
210
0.0
220
0.0
230
1.0
 70
    11
 71
     3
 72
    16
 73
    12
 74
     0
 42
0.0000000001
 43
0.0000000001
 40
0.0
 40
0.0
 40
0.0
 40
0.0
 40
0.3333333333333333
 40
0.3333333333333333
 40
0.3333333333333333
 40
0.3333333333333333
 40
0.6666666666666666
 40
0.6666666666666666
 40
0.6666666666666666
 40
0.6666666666666666
 40
1.0
 40
1.0
 40
1.0
 40
1.0
 10
-2.071314960629922
 20
-5.134858267716536
 30
0.0
 10
-2.071314960629922
 20
-5.134858267716536
 30
0.0
 10
-1.608468503937008
 20
-4.801625984251968
 30
0.0
 10
-1.608468503937008
 20
-4.801625984251968
 30
0.0
 10
-1.608468503937008
 20
-4.801625984251968
 30
0.0
 10
-1.608468503937008
 20
-4.801625984251968
 30
0.0
 10
-1.603570866141732
 20
-5.129625984251969
 30
0.0
 10
-1.603570866141732
 20
-5.129625984251969
 30
0.0
 10
-1.603570866141732
 20
-5.129625984251969
 30
0.0
 10
-1.603570866141732
 20
-5.129625984251969
 30
0.0
 10
-2.071314960629922
 20
-5.134858267716536
 30
0.0
 10
-2.071314960629922
 20
-5.134858267716536
 30
0.0
  0
SPLINE
  5
8B
330
1F
100
AcDbEntity
  8
Layer 1
 62
    30
370
     5
100
AcDbSpline
210
0.0
220
0.0
230
1.0
 70
    11
 71
     3
 72
    16
 73
    12
 74
     0
 42
0.0000000001
 43
0.0000000001
 40
0.0
 40
0.0
 40
0.0
 40
0.0
 40
0.3333333333333333
 40
0.3333333333333333
 40
0.3333333333333333
 40
0.3333333333333333
 40
0.6666666666666666
 40
0.6666666666666666
 40
0.6666666666666666
 40
0.6666666666666666
 40
1.0
 40
1.0
 40
1.0
 40
1.0
 10
-2.303964566929134
 20
-5.133114173228346
 30
0.0
 10
-2.303964566929134
 20
-5.133114173228346
 30
0.0
 10
-2.766814960629922
 20
-4.796393700787402
 30
0.0
 10
-2.766814960629922
 20
-4.796393700787402
 30
0.0
 10
-2.766814960629922
 20
-4.796393700787402
 30
0.0
 10
-2.766814960629922
 20
-4.796393700787402
 30
0.0
 10
-1.855811023622047
 20
-4.803370078740158
 30
0.0
 10
-1.855811023622047
 20
-4.803370078740158
 30
0.0
 10
-1.855811023622047
 20
-4.803370078740158
 30
0.0
 10
-1.855811023622047
 20
-4.803370078740158
 30
0.0
 10
-2.303964566929134
 20
-5.133114173228346
 30
0.0
 10
-2.303964566929134
 20
-5.133114173228346
 30
0.0
  0
SPLINE
  5
8C
330
1F
100
AcDbEntity
  8
Layer 1
 62
    30
370
     5
100
AcDbSpline
210
0.0
220
0.0
230
1.0
 70
    11
 71
     3
 72
    16
 73
    12
 74
     0
 42
0.0000000001
 43
0.0000000001
 40
0.0
 40
0.0
 40
0.0
 40
0.0
 40
0.3333333333333333
 40
0.3333333333333333
 40
0.3333333333333333
 40
0.3333333333333333
 40
0.6666666666666666
 40
0.6666666666666666
 40
0.6666666666666666
 40
0.6666666666666666
 40
1.0
 40
1.0
 40
1.0
 40
1.0
 10
-2.556208661417323
 20
-5.131370078740158
 30
0.0
 10
-2.556208661417323
 20
-5.131370078740158
 30
0.0
 10
-3.006811023622047
 20
-4.798137795275591
 30
0.0
 10
-3.006811023622047
 20
-4.798137795275591
 30
0.0
 10
-3.006811023622047
 20
-4.798137795275591
 30
0.0
 10
-3.006811023622047
 20
-4.798137795275591
 30
0.0
 10
-3.467212598425197
 20
-5.131370078740158
 30
0.0
 10
-3.467212598425197
 20
-5.131370078740158
 30
0.0
 10
-3.467212598425197
 20
-5.131370078740158
 30
0.0
 10
-3.467212598425197
 20
-5.131370078740158
 30
0.0
 10
-2.556208661417323
 20
-5.131370078740158
 30
0.0
 10
-2.556208661417323
 20
-5.131370078740158
 30
0.0
  0
SPLINE
  5
8D
330
1F
100
AcDbEntity
  8
Layer 1
 62
    30
370
     5
100
AcDbSpline
210
0.0
220
0.0
230
1.0
 70
    11
 71
     3
 72
    16
 73
    12
 74
     0
 42
0.0000000001
 43
0.0000000001
 40
0.0
 40
0.0
 40
0.0
 40
0.0
 40
0.3333333333333333
 40
0.3333333333333333
 40
0.3333333333333333
 40
0.3333333333333333
 40
0.6666666666666666
 40
0.6666666666666666
 40
0.6666666666666666
 40
0.6666666666666666
 40
1.0
 40
1.0
 40
1.0
 40
1.0
 10
-3.702311023622047
 20
-5.129625984251969
 30
0.0
 10
-3.702311023622047
 20
-5.129625984251969
 30
0.0
 10
-3.254153543307087
 20
-4.801625984251968
 30
0.0
 10
-3.254153543307087
 20
-4.801625984251968
 30
0.0
 10
-3.254153543307087
 20
-4.801625984251968
 30
0.0
 10
-3.254153543307087
 20
-4.801625984251968
 30
0.0
 10
-3.699862204724409
 20
-4.79988188976378
 30
0.0
 10
-3.699862204724409
 20
-4.79988188976378
 30
0.0
 10
-3.699862204724409
 20
-4.79988188976378
 30
0.0
 10
-3.699862204724409
 20
-4.79988188976378
 30
0.0
 10
-3.702311023622047
 20
-5.129625984251969
 30
0.0
 10
-3.702311023622047
 20
-5.129625984251969
 30
0.0
  0
SPLINE
  5
8E
330
1F
100
AcDbEntity
  8
Layer 1
 62
    30
370
     5
100
AcDbSpline
210
0.0
220
0.0
230
1.0
 70
     8
 71
     3
 72
    16
 73
    12
 74
     0
 42
0.0000000001
 43
0.0000000001
 40
0.0
 40
0.0
 40
0.0
 40
0.0
 40
0.3333333333333333
 40
0.3333333333333333
 40
0.3333333333333333
 40
0.3333333333333333
 40
0.6666666666666666
 40
0.6666666666666666
 40
0.6666666666666666
 40
0.6666666666666666
 40
1.0
 40
1.0
 40
1.0
 40
1.0
 10
-3.562220472440945
 20
-5.225003937007874
 30
0.0
 10
-3.562220472440945
 20
-5.225003937007874
 30
0.0
 10
-3.562220472440945
 20
-5.365314960629921
 30
0.0
 10
-3.562220472440945
 20
-5.365314960629921
 30
0.0
 10
-3.562220472440945
 20
-5.365314960629921
 30
0.0
 10
-3.562220472440945
 20
-5.365314960629921
 30
0.0
 10
-3.053858267716536
 20
-5.365314960629921
 30
0.0
 10
-3.053858267716536
 20
-5.365314960629921
 30
0.0
 10
-3.053858267716536
 20
-5.365314960629921
 30
0.0
 10
-3.053858267716536
 20
-5.365314960629921
 30
0.0
 10
-3.053858267716536
 20
-5.225000000000001
 30
0.0
 10
-3.053858267716536
 20
-5.225000000000001
 30
0.0
  0
SPLINE
  5
8F
330
1F
100
AcDbEntity
  8
Layer 1
 62
    30
370
     5
100
AcDbSpline
210
0.0
220
0.0
230
1.0
 70
     8
 71
     3
 72
    16
 73
    12
 74
     0
 42
0.0000000001
 43
0.0000000001
 40
0.0
 40
0.0
 40
0.0
 40
0.0
 40
0.3333333333333333
 40
0.3333333333333333
 40
0.3333333333333333
 40
0.3333333333333333
 40
0.6666666666666666
 40
0.6666666666666666
 40
0.6666666666666666
 40
0.6666666666666666
 40
1.0
 40
1.0
 40
1.0
 40
1.0
 10
-2.303354330708662
 20
-5.22686220472441
 30
0.0
 10
-2.303354330708662
 20
-5.22686220472441
 30
0.0
 10
-2.303354330708662
 20
-5.367173228346457
 30
0.0
 10
-2.303354330708662
 20
-5.367173228346457
 30
0.0
 10
-2.303354330708662
 20
-5.367173228346457
 30
0.0
 10
-2.303354330708662
 20
-5.367173228346457
 30
0.0
 10
-1.794992125984252
 20
-5.367173228346457
 30
0.0
 10
-1.794992125984252
 20
-5.367173228346457
 30
0.0
 10
-1.794992125984252
 20
-5.367173228346457
 30
0.0
 10
-1.794992125984252
 20
-5.367173228346457
 30
0.0
 10
-1.794992125984252
 20
-5.226858267716536
 30
0.0
 10
-1.794992125984252
 20
-5.226858267716536
 30
0.0
  0
SPLINE
  5
90
330
1F
100
AcDbEntity
  8
Layer 1
 62
    30
370
     5
100
AcDbSpline
210
0.0
220
0.0
230
1.0
 70
     8
 71
     3
 72
    16
 73
    12
 74
     0
 42
0.0000000001
 43
0.0000000001
 40
0.0
 40
0.0
 40
0.0
 40
0.0
 40
0.3333333333333333
 40
0.3333333333333333
 40
0.3333333333333333
 40
0.3333333333333333
 40
0.6666666666666666
 40
0.6666666666666666
 40
0.6666666666666666
 40
0.6666666666666666
 40
1.0
 40
1.0
 40
1.0
 40
1.0
 10
-3.525649606299213
 20
-4.688681102362205
 30
0.0
 10
-3.525649606299213
 20
-4.688681102362205
 30
0.0
 10
-3.525649606299213
 20
-4.548370078740158
 30
0.0
 10
-3.525649606299213
 20
-4.548370078740158
 30
0.0
 10
-3.525649606299213
 20
-4.548370078740158
 30
0.0
 10
-3.525649606299213
 20
-4.548370078740158
 30
0.0
 10
-3.16205905511811
 20
-4.548370078740158
 30
0.0
 10
-3.16205905511811
 20
-4.548370078740158
 30
0.0
 10
-3.16205905511811
 20
-4.548370078740158
 30
0.0
 10
-3.16205905511811
 20
-4.548370078740158
 30
0.0
 10
-3.16205905511811
 20
-4.688685039370079
 30
0.0
 10
-3.16205905511811
 20
-4.688685039370079
 30
0.0
  0
SPLINE
  5
91
330
1F
100
AcDbEntity
  8
Layer 1
 62
    30
370
     5
100
AcDbSpline
210
0.0
220
0.0
230
1.0
 70
     8
 71
     3
 72
    16
 73
    12
 74
     0
 42
0.0000000001
 43
0.0000000001
 40
0.0
 40
0.0
 40
0.0
 40
0.0
 40
0.3333333333333333
 40
0.3333333333333333
 40
0.3333333333333333
 40
0.3333333333333333
 40
0.6666666666666666
 40
0.6666666666666666
 40
0.6666666666666666
 40
0.6666666666666666
 40
1.0
 40
1.0
 40
1.0
 40
1.0
 10
-2.185326771653544
 20
-4.688307086614174
 30
0.0
 10
-2.185326771653544
 20
-4.688307086614174
 30
0.0
 10
-2.185326771653544
 20
-4.547996062992127
 30
0.0
 10
-2.185326771653544
 20
-4.547996062992127
 30
0.0
 10
-2.185326771653544
 20
-4.547996062992127
 30
0.0
 10
-2.185326771653544
 20
-4.547996062992127
 30
0.0
 10
-1.877562992125984
 20
-4.547996062992127
 30
0.0
 10
-1.877562992125984
 20
-4.547996062992127
 30
0.0
 10
-1.877562992125984
 20
-4.547996062992127
 30
0.0
 10
-1.877562992125984
 20
-4.547996062992127
 30
0.0
 10
-1.877562992125984
 20
-4.688311023622047
 30
0.0
 10
-1.877562992125984
 20
-4.688311023622047
 30
0.0
  0
SPLINE
  5
92
330
1F
100
AcDbEntity
  8
Layer 1
 62
    30
370
     5
100
AcDbSpline
210
0.0
220
0.0
230
1.0
 70
    24
 71
     3
 72
     8
 73
     4
 74
     0
 42
0.0000000001
 43
0.0000000001
 40
0.0
 40
0.0
 40
0.0
 40
0.0
 40
1.0
 40
1.0
 40
1.0
 40
1.0
 10
1.944988188976378
 20
-4.951539370078741
 30
0.0
 10
1.944988188976378
 20
-4.951539370078741
 30
0.0
 10
2.426181102362205
 20
-4.951539370078741
 30
0.0
 10
2.426181102362205
 20
-4.951539370078741
 30
0.0
  0
SPLINE
  5
93
330
1F
100
AcDbEntity
  8
Layer 1
 62
    30
370
     5
100
AcDbSpline
210
0.0
220
0.0
230
1.0
 70
     8
 71
     3
 72
    16
 73
    12
 74
     0
 42
0.0000000001
 43
0.0000000001
 40
0.0
 40
0.0
 40
0.0
 40
0.0
 40
0.3333333333333333
 40
0.3333333333333333
 40
0.3333333333333333
 40
0.3333333333333333
 40
0.6666666666666666
 40
0.6666666666666666
 40
0.6666666666666666
 40
0.6666666666666666
 40
1.0
 40
1.0
 40
1.0
 40
1.0
 10
2.752129921259843
 20
-4.951539370078741
 30
0.0
 10
2.752129921259843
 20
-4.951539370078741
 30
0.0
 10
2.957409448818898
 20
-4.951539370078741
 30
0.0
 10
2.957409448818898
 20
-4.951539370078741
 30
0.0
 10
2.957409448818898
 20
-4.951539370078741
 30
0.0
 10
2.957409448818898
 20
-4.951539370078741
 30
0.0
 10
2.957409448818898
 20
-4.414011811023622
 30
0.0
 10
2.957409448818898
 20
-4.414011811023622
 30
0.0
 10
2.957409448818898
 20
-4.414011811023622
 30
0.0
 10
2.957409448818898
 20
-4.414011811023622
 30
0.0
 10
2.699185039370079
 20
-4.414011811023622
 30
0.0
 10
2.699185039370079
 20
-4.414011811023622
 30
0.0
  0
SPLINE
  5
94
330
1F
100
AcDbEntity
  8
Layer 1
 62
    30
370
     5
100
AcDbSpline
210
0.0
220
0.0
230
1.0
 70
    24
 71
     3
 72
     8
 73
     4
 74
     0
 42
0.0000000001
 43
0.0000000001
 40
0.0
 40
0.0
 40
0.0
 40
0.0
 40
1.0
 40
1.0
 40
1.0
 40
1.0
 10
2.501858267716536
 20
-4.414011811023622
 30
0.0
 10
2.501858267716536
 20
-4.414011811023622
 30
0.0
 10
1.875177165354331
 20
-4.414011811023622
 30
0.0
 10
1.875177165354331
 20
-4.414011811023622
 30
0.0
  0
SPLINE
  5
95
330
1F
100
AcDbEntity
  8
Layer 1
 62
    30
370
     5
100
AcDbSpline
210
0.0
220
0.0
230
1.0
 70
     8
 71
     3
 72
    16
 73
    12
 74
     0
 42
0.0000000001
 43
0.0000000001
 40
0.0
 40
0.0
 40
0.0
 40
0.0
 40
0.3333333333333333
 40
0.3333333333333333
 40
0.3333333333333333
 40
0.3333333333333333
 40
0.6666666666666666
 40
0.6666666666666666
 40
0.6666666666666666
 40
0.6666666666666666
 40
1.0
 40
1.0
 40
1.0
 40
1.0
 10
1.642055118110236
 20
-4.414011811023622
 30
0.0
 10
1.642055118110236
 20
-4.414011811023622
 30
0.0
 10
1.437
 20
-4.414011811023622
 30
0.0
 10
1.437
 20
-4.414011811023622
 30
0.0
 10
1.437
 20
-4.414011811023622
 30
0.0
 10
1.437
 20
-4.414011811023622
 30
0.0
 10
1.437
 20
-4.951539370078741
 30
0.0
 10
1.437
 20
-4.951539370078741
 30
0.0
 10
1.437
 20
-4.951539370078741
 30
0.0
 10
1.437
 20
-4.951539370078741
 30
0.0
 10
1.619043307086614
 20
-4.951539370078741
 30
0.0
 10
1.619043307086614
 20
-4.951539370078741
 30
0.0
  0
SPLINE
  5
96
330
1F
100
AcDbEntity
  8
Layer 1
 62
    30
370
     5
100
AcDbSpline
210
0.0
220
0.0
230
1.0
 70
    11
 71
     3
 72
    16
 73
    12
 74
     0
 42
0.0000000001
 43
0.0000000001
 40
0.0
 40
0.0
 40
0.0
 40
0.0
 40
0.3333333333333333
 40
0.3333333333333333
 40
0.3333333333333333
 40
0.3333333333333333
 40
0.6666666666666666
 40
0.6666666666666666
 40
0.6666666666666666
 40
0.6666666666666666
 40
1.0
 40
1.0
 40
1.0
 40
1.0
 10
2.574956692913386
 20
-4.860165354330709
 30
0.0
 10
2.574956692913386
 20
-4.860165354330709
 30
0.0
 10
2.871720472440945
 20
-4.526933070866142
 30
0.0
 10
2.871720472440945
 20
-4.526933070866142
 30
0.0
 10
2.871720472440945
 20
-4.526933070866142
 30
0.0
 10
2.871720472440945
 20
-4.526933070866142
 30
0.0
 10
2.874858267716536
 20
-4.854933070866142
 30
0.0
 10
2.874858267716536
 20
-4.854933070866142
 30
0.0
 10
2.874858267716536
 20
-4.854933070866142
 30
0.0
 10
2.874858267716536
 20
-4.854933070866142
 30
0.0
 10
2.574956692913386
 20
-4.860165354330709
 30
0.0
 10
2.574956692913386
 20
-4.860165354330709
 30
0.0
  0
SPLINE
  5
97
330
1F
100
AcDbEntity
  8
Layer 1
 62
    30
370
     5
100
AcDbSpline
210
0.0
220
0.0
230
1.0
 70
    11
 71
     3
 72
    16
 73
    12
 74
     0
 42
0.0000000001
 43
0.0000000001
 40
0.0
 40
0.0
 40
0.0
 40
0.0
 40
0.3333333333333333
 40
0.3333333333333333
 40
0.3333333333333333
 40
0.3333333333333333
 40
0.6666666666666666
 40
0.6666666666666666
 40
0.6666666666666666
 40
0.6666666666666666
 40
1.0
 40
1.0
 40
1.0
 40
1.0
 10
2.425787401574803
 20
-4.85842125984252
 30
0.0
 10
2.425787401574803
 20
-4.85842125984252
 30
0.0
 10
2.129027559055118
 20
-4.521700787401575
 30
0.0
 10
2.129027559055118
 20
-4.521700787401575
 30
0.0
 10
2.129027559055118
 20
-4.521700787401575
 30
0.0
 10
2.129027559055118
 20
-4.521700787401575
 30
0.0
 10
2.713129921259843
 20
-4.528677165354331
 30
0.0
 10
2.713129921259843
 20
-4.528677165354331
 30
0.0
 10
2.713129921259843
 20
-4.528677165354331
 30
0.0
 10
2.713129921259843
 20
-4.528677165354331
 30
0.0
 10
2.425787401574803
 20
-4.85842125984252
 30
0.0
 10
2.425787401574803
 20
-4.85842125984252
 30
0.0
  0
SPLINE
  5
98
330
1F
100
AcDbEntity
  8
Layer 1
 62
    30
370
     5
100
AcDbSpline
210
0.0
220
0.0
230
1.0
 70
    11
 71
     3
 72
    16
 73
    12
 74
     0
 42
0.0000000001
 43
0.0000000001
 40
0.0
 40
0.0
 40
0.0
 40
0.0
 40
0.3333333333333333
 40
0.3333333333333333
 40
0.3333333333333333
 40
0.3333333333333333
 40
0.6666666666666666
 40
0.6666666666666666
 40
0.6666666666666666
 40
0.6666666666666666
 40
1.0
 40
1.0
 40
1.0
 40
1.0
 10
2.264062992125985
 20
-4.856677165354331
 30
0.0
 10
2.264062992125985
 20
-4.856677165354331
 30
0.0
 10
1.975149606299213
 20
-4.523444881889764
 30
0.0
 10
1.975149606299213
 20
-4.523444881889764
 30
0.0
 10
1.975149606299213
 20
-4.523444881889764
 30
0.0
 10
1.975149606299213
 20
-4.523444881889764
 30
0.0
 10
1.679956692913386
 20
-4.856677165354331
 30
0.0
 10
1.679956692913386
 20
-4.856677165354331
 30
0.0
 10
1.679956692913386
 20
-4.856677165354331
 30
0.0
 10
1.679956692913386
 20
-4.856677165354331
 30
0.0
 10
2.264062992125985
 20
-4.856677165354331
 30
0.0
 10
2.264062992125985
 20
-4.856677165354331
 30
0.0
  0
SPLINE
  5
99
330
1F
100
AcDbEntity
  8
Layer 1
 62
    30
370
     5
100
AcDbSpline
210
0.0
220
0.0
230
1.0
 70
    11
 71
     3
 72
    16
 73
    12
 74
     0
 42
0.0000000001
 43
0.0000000001
 40
0.0
 40
0.0
 40
0.0
 40
0.0
 40
0.3333333333333333
 40
0.3333333333333333
 40
0.3333333333333333
 40
0.3333333333333333
 40
0.6666666666666666
 40
0.6666666666666666
 40
0.6666666666666666
 40
0.6666666666666666
 40
1.0
 40
1.0
 40
1.0
 40
1.0
 10
1.529220472440945
 20
-4.854933070866142
 30
0.0
 10
1.529220472440945
 20
-4.854933070866142
 30
0.0
 10
1.816562992125984
 20
-4.526933070866142
 30
0.0
 10
1.816562992125984
 20
-4.526933070866142
 30
0.0
 10
1.816562992125984
 20
-4.526933070866142
 30
0.0
 10
1.816562992125984
 20
-4.526933070866142
 30
0.0
 10
1.530791338582677
 20
-4.525188976377953
 30
0.0
 10
1.530791338582677
 20
-4.525188976377953
 30
0.0
 10
1.530791338582677
 20
-4.525188976377953
 30
0.0
 10
1.530791338582677
 20
-4.525188976377953
 30
0.0
 10
1.529220472440945
 20
-4.854933070866142
 30
0.0
 10
1.529220472440945
 20
-4.854933070866142
 30
0.0
  0
SPLINE
  5
9A
330
1F
100
AcDbEntity
  8
Layer 1
 62
    30
370
     5
100
AcDbSpline
210
0.0
220
0.0
230
1.0
 70
     8
 71
     3
 72
    16
 73
    12
 74
     0
 42
0.0000000001
 43
0.0000000001
 40
0.0
 40
0.0
 40
0.0
 40
0.0
 40
0.3333333333333333
 40
0.3333333333333333
 40
0.3333333333333333
 40
0.3333333333333333
 40
0.6666666666666666
 40
0.6666666666666666
 40
0.6666666666666666
 40
0.6666666666666666
 40
1.0
 40
1.0
 40
1.0
 40
1.0
 10
1.61903937007874
 20
-4.950311023622048
 30
0.0
 10
1.61903937007874
 20
-4.950311023622048
 30
0.0
 10
1.61903937007874
 20
-5.090622047244095
 30
0.0
 10
1.61903937007874
 20
-5.090622047244095
 30
0.0
 10
1.61903937007874
 20
-5.090622047244095
 30
0.0
 10
1.61903937007874
 20
-5.090622047244095
 30
0.0
 10
1.944984251968504
 20
-5.090622047244095
 30
0.0
 10
1.944984251968504
 20
-5.090622047244095
 30
0.0
 10
1.944984251968504
 20
-5.090622047244095
 30
0.0
 10
1.944984251968504
 20
-5.090622047244095
 30
0.0
 10
1.944984251968504
 20
-4.950307086614173
 30
0.0
 10
1.944984251968504
 20
-4.950307086614173
 30
0.0
  0
SPLINE
  5
9B
330
1F
100
AcDbEntity
  8
Layer 1
 62
    30
370
     5
100
AcDbSpline
210
0.0
220
0.0
230
1.0
 70
     8
 71
     3
 72
    16
 73
    12
 74
     0
 42
0.0000000001
 43
0.0000000001
 40
0.0
 40
0.0
 40
0.0
 40
0.0
 40
0.3333333333333333
 40
0.3333333333333333
 40
0.3333333333333333
 40
0.3333333333333333
 40
0.6666666666666666
 40
0.6666666666666666
 40
0.6666666666666666
 40
0.6666666666666666
 40
1.0
 40
1.0
 40
1.0
 40
1.0
 10
2.426181102362205
 20
-4.952169291338583
 30
0.0
 10
2.426181102362205
 20
-4.952169291338583
 30
0.0
 10
2.426181102362205
 20
-5.09248031496063
 30
0.0
 10
2.426181102362205
 20
-5.09248031496063
 30
0.0
 10
2.426181102362205
 20
-5.09248031496063
 30
0.0
 10
2.426181102362205
 20
-5.09248031496063
 30
0.0
 10
2.752125984251969
 20
-5.09248031496063
 30
0.0
 10
2.752125984251969
 20
-5.09248031496063
 30
0.0
 10
2.752125984251969
 20
-5.09248031496063
 30
0.0
 10
2.752125984251969
 20
-5.09248031496063
 30
0.0
 10
2.752125984251969
 20
-4.952165354330709
 30
0.0
 10
2.752125984251969
 20
-4.952165354330709
 30
0.0
  0
SPLINE
  5
9C
330
1F
100
AcDbEntity
  8
Layer 1
 62
    30
370
     5
100
AcDbSpline
210
0.0
220
0.0
230
1.0
 70
     8
 71
     3
 72
    16
 73
    12
 74
     0
 42
0.0000000001
 43
0.0000000001
 40
0.0
 40
0.0
 40
0.0
 40
0.0
 40
0.3333333333333333
 40
0.3333333333333333
 40
0.3333333333333333
 40
0.3333333333333333
 40
0.6666666666666666
 40
0.6666666666666666
 40
0.6666666666666666
 40
0.6666666666666666
 40
1.0
 40
1.0
 40
1.0
 40
1.0
 10
1.642488188976378
 20
-4.413988188976378
 30
0.0
 10
1.642488188976378
 20
-4.413988188976378
 30
0.0
 10
1.642488188976378
 20
-4.273677165354331
 30
0.0
 10
1.642488188976378
 20
-4.273677165354331
 30
0.0
 10
1.642488188976378
 20
-4.273677165354331
 30
0.0
 10
1.642488188976378
 20
-4.273677165354331
 30
0.0
 10
1.875610236220473
 20
-4.273677165354331
 30
0.0
 10
1.875610236220473
 20
-4.273677165354331
 30
0.0
 10
1.875610236220473
 20
-4.273677165354331
 30
0.0
 10
1.875610236220473
 20
-4.273677165354331
 30
0.0
 10
1.875610236220473
 20
-4.413992125984252
 30
0.0
 10
1.875610236220473
 20
-4.413992125984252
 30
0.0
  0
SPLINE
  5
9D
330
1F
100
AcDbEntity
  8
Layer 1
 62
    30
370
     5
100
AcDbSpline
210
0.0
220
0.0
230
1.0
 70
     8
 71
     3
 72
    16
 73
    12
 74
     0
 42
0.0000000001
 43
0.0000000001
 40
0.0
 40
0.0
 40
0.0
 40
0.0
 40
0.3333333333333333
 40
0.3333333333333333
 40
0.3333333333333333
 40
0.3333333333333333
 40
0.6666666666666666
 40
0.6666666666666666
 40
0.6666666666666666
 40
0.6666666666666666
 40
1.0
 40
1.0
 40
1.0
 40
1.0
 10
2.501858267716536
 20
-4.413614173228346
 30
0.0
 10
2.501858267716536
 20
-4.413614173228346
 30
0.0
 10
2.501858267716536
 20
-4.273303149606299
 30
0.0
 10
2.501858267716536
 20
-4.273303149606299
 30
0.0
 10
2.501858267716536
 20
-4.273303149606299
 30
0.0
 10
2.501858267716536
 20
-4.273303149606299
 30
0.0
 10
2.699185039370079
 20
-4.273303149606299
 30
0.0
 10
2.699185039370079
 20
-4.273303149606299
 30
0.0
 10
2.699185039370079
 20
-4.273303149606299
 30
0.0
 10
2.699185039370079
 20
-4.273303149606299
 30
0.0
 10
2.699185039370079
 20
-4.413618110236221
 30
0.0
 10
2.699185039370079
 20
-4.413618110236221
 30
0.0
  0
SPLINE
  5
9E
330
1F
100
AcDbEntity
  8
Layer 1
 62
    30
370
     5
100
AcDbSpline
210
0.0
220
0.0
230
1.0
 70
    11
 71
     3
 72
    20
 73
    16
 74
     0
 42
0.0000000001
 43
0.0000000001
 40
0.0
 40
0.0
 40
0.0
 40
0.0
 40
0.25
 40
0.25
 40
0.25
 40
0.25
 40
0.5
 40
0.5
 40
0.5
 40
0.5
 40
0.75
 40
0.75
 40
0.75
 40
0.75
 40
1.0
 40
1.0
 40
1.0
 40
1.0
 10
0.8701417322834646
 20
-1.946
 30
0.0
 10
0.8701417322834646
 20
-1.946
 30
0.0
 10
0.8701417322834646
 20
-1.820582677165354
 30
0.0
 10
0.8701417322834646
 20
-1.820582677165354
 30
0.0
 10
0.8701417322834646
 20
-1.820582677165354
 30
0.0
 10
0.8701417322834646
 20
-1.820582677165354
 30
0.0
 10
1.398165354330709
 20
-1.820582677165354
 30
0.0
 10
1.398165354330709
 20
-1.820582677165354
 30
0.0
 10
1.398165354330709
 20
-1.820582677165354
 30
0.0
 10
1.398165354330709
 20
-1.820582677165354
 30
0.0
 10
1.398165354330709
 20
-1.946
 30
0.0
 10
1.398165354330709
 20
-1.946
 30
0.0
 10
1.398165354330709
 20
-1.946
 30
0.0
 10
1.398165354330709
 20
-1.946
 30
0.0
 10
0.8701417322834646
 20
-1.946
 30
0.0
 10
0.8701417322834646
 20
-1.946
 30
0.0
  0
SPLINE
  5
9F
330
1F
100
AcDbEntity
  8
Layer 1
 62
    30
370
     5
100
AcDbSpline
210
0.0
220
0.0
230
1.0
 70
    11
 71
     3
 72
    20
 73
    16
 74
     0
 42
0.0000000001
 43
0.0000000001
 40
0.0
 40
0.0
 40
0.0
 40
0.0
 40
0.25
 40
0.25
 40
0.25
 40
0.25
 40
0.5
 40
0.5
 40
0.5
 40
0.5
 40
0.75
 40
0.75
 40
0.75
 40
0.75
 40
1.0
 40
1.0
 40
1.0
 40
1.0
 10
-0.8560354330708662
 20
-2.495704724409449
 30
0.0
 10
-0.8560354330708662
 20
-2.495704724409449
 30
0.0
 10
-0.9814527559055118
 20
-2.495704724409449
 30
0.0
 10
-0.9814527559055118
 20
-2.495704724409449
 30
0.0
 10
-0.9814527559055118
 20
-2.495704724409449
 30
0.0
 10
-0.9814527559055118
 20
-2.495704724409449
 30
0.0
 10
-0.9814527559055118
 20
-1.967681102362205
 30
0.0
 10
-0.9814527559055118
 20
-1.967681102362205
 30
0.0
 10
-0.9814527559055118
 20
-1.967681102362205
 30
0.0
 10
-0.9814527559055118
 20
-1.967681102362205
 30
0.0
 10
-0.8560354330708662
 20
-1.967681102362205
 30
0.0
 10
-0.8560354330708662
 20
-1.967681102362205
 30
0.0
 10
-0.8560354330708662
 20
-1.967681102362205
 30
0.0
 10
-0.8560354330708662
 20
-1.967681102362205
 30
0.0
 10
-0.8560354330708662
 20
-2.495704724409449
 30
0.0
 10
-0.8560354330708662
 20
-2.495704724409449
 30
0.0
  0
SPLINE
  5
A0
330
1F
100
AcDbEntity
  8
Layer 1
 62
    30
370
     5
100
AcDbSpline
210
0.0
220
0.0
230
1.0
 70
    11
 71
     3
 72
    20
 73
    16
 74
     0
 42
0.0000000001
 43
0.0000000001
 40
0.0
 40
0.0
 40
0.0
 40
0.0
 40
0.25
 40
0.25
 40
0.25
 40
0.25
 40
0.5
 40
0.5
 40
0.5
 40
0.5
 40
0.75
 40
0.75
 40
0.75
 40
0.75
 40
1.0
 40
1.0
 40
1.0
 40
1.0
 10
-3.362393700787402
 20
-2.978834645669291
 30
0.0
 10
-3.362393700787402
 20
-2.978834645669291
 30
0.0
 10
-3.487811023622047
 20
-2.978834645669291
 30
0.0
 10
-3.487811023622047
 20
-2.978834645669291
 30
0.0
 10
-3.487811023622047
 20
-2.978834645669291
 30
0.0
 10
-3.487811023622047
 20
-2.978834645669291
 30
0.0
 10
-3.487811023622047
 20
-2.644291338582677
 30
0.0
 10
-3.487811023622047
 20
-2.644291338582677
 30
0.0
 10
-3.487811023622047
 20
-2.644291338582677
 30
0.0
 10
-3.487811023622047
 20
-2.644291338582677
 30
0.0
 10
-3.362393700787402
 20
-2.644291338582677
 30
0.0
 10
-3.362393700787402
 20
-2.644291338582677
 30
0.0
 10
-3.362393700787402
 20
-2.644291338582677
 30
0.0
 10
-3.362393700787402
 20
-2.644291338582677
 30
0.0
 10
-3.362393700787402
 20
-2.978834645669291
 30
0.0
 10
-3.362393700787402
 20
-2.978834645669291
 30
0.0
  0
SPLINE
  5
A1
330
1F
100
AcDbEntity
  8
Layer 1
 62
    30
370
     5
100
AcDbSpline
210
0.0
220
0.0
230
1.0
 70
    11
 71
     3
 72
    20
 73
    16
 74
     0
 42
0.0000000001
 43
0.0000000001
 40
0.0
 40
0.0
 40
0.0
 40
0.0
 40
0.25
 40
0.25
 40
0.25
 40
0.25
 40
0.5
 40
0.5
 40
0.5
 40
0.5
 40
0.75
 40
0.75
 40
0.75
 40
0.75
 40
1.0
 40
1.0
 40
1.0
 40
1.0
 10
2.460641732283465
 20
-2.452311023622047
 30
0.0
 10
2.460641732283465
 20
-2.452311023622047
 30
0.0
 10
2.335224409448819
 20
-2.452311023622047
 30
0.0
 10
2.335224409448819
 20
-2.452311023622047
 30
0.0
 10
2.335224409448819
 20
-2.452311023622047
 30
0.0
 10
2.335224409448819
 20
-2.452311023622047
 30
0.0
 10
2.335224409448819
 20
-1.924287401574803
 30
0.0
 10
2.335224409448819
 20
-1.924287401574803
 30
0.0
 10
2.335224409448819
 20
-1.924287401574803
 30
0.0
 10
2.335224409448819
 20
-1.924287401574803
 30
0.0
 10
2.460641732283465
 20
-1.924287401574803
 30
0.0
 10
2.460641732283465
 20
-1.924287401574803
 30
0.0
 10
2.460641732283465
 20
-1.924287401574803
 30
0.0
 10
2.460641732283465
 20
-1.924287401574803
 30
0.0
 10
2.460641732283465
 20
-2.452311023622047
 30
0.0
 10
2.460641732283465
 20
-2.452311023622047
 30
0.0
  0
SPLINE
  5
A2
330
1F
100
AcDbEntity
  8
Layer 1
 62
    30
370
     5
100
AcDbSpline
210
0.0
220
0.0
230
1.0
 70
    11
 71
     3
 72
    20
 73
    16
 74
     0
 42
0.0000000001
 43
0.0000000001
 40
0.0
 40
0.0
 40
0.0
 40
0.0
 40
0.25
 40
0.25
 40
0.25
 40
0.25
 40
0.5
 40
0.5
 40
0.5
 40
0.5
 40
0.75
 40
0.75
 40
0.75
 40
0.75
 40
1.0
 40
1.0
 40
1.0
 40
1.0
 10
0.8159763779527559
 20
-3.675173228346457
 30
0.0
 10
0.8159763779527559
 20
-3.675173228346457
 30
0.0
 10
0.8159763779527559
 20
-3.549755905511811
 30
0.0
 10
0.8159763779527559
 20
-3.549755905511811
 30
0.0
 10
0.8159763779527559
 20
-3.549755905511811
 30
0.0
 10
0.8159763779527559
 20
-3.549755905511811
 30
0.0
 10
1.344
 20
-3.549755905511811
 30
0.0
 10
1.344
 20
-3.549755905511811
 30
0.0
 10
1.344
 20
-3.549755905511811
 30
0.0
 10
1.344
 20
-3.549755905511811
 30
0.0
 10
1.344
 20
-3.675173228346457
 30
0.0
 10
1.344
 20
-3.675173228346457
 30
0.0
 10
1.344
 20
-3.675173228346457
 30
0.0
 10
1.344
 20
-3.675173228346457
 30
0.0
 10
0.8159763779527559
 20
-3.675173228346457
 30
0.0
 10
0.8159763779527559
 20
-3.675173228346457
 30
0.0
  0
SPLINE
  5
A3
330
1F
100
AcDbEntity
  8
Layer 1
 62
    30
370
     5
100
AcDbSpline
210
0.0
220
0.0
230
1.0
 70
    11
 71
     3
 72
    20
 73
    16
 74
     0
 42
0.0000000001
 43
0.0000000001
 40
0.0
 40
0.0
 40
0.0
 40
0.0
 40
0.25
 40
0.25
 40
0.25
 40
0.25
 40
0.5
 40
0.5
 40
0.5
 40
0.5
 40
0.75
 40
0.75
 40
0.75
 40
0.75
 40
1.0
 40
1.0
 40
1.0
 40
1.0
 10
-0.3887244094488189
 20
-1.944141732283465
 30
0.0
 10
-0.3887244094488189
 20
-1.944141732283465
 30
0.0
 10
-0.3887244094488189
 20
-1.818724409448819
 30
0.0
 10
-0.3887244094488189
 20
-1.818724409448819
 30
0.0
 10
-0.3887244094488189
 20
-1.818724409448819
 30
0.0
 10
-0.3887244094488189
 20
-1.818724409448819
 30
0.0
 10
0.1392992125984252
 20
-1.818724409448819
 30
0.0
 10
0.1392992125984252
 20
-1.818724409448819
 30
0.0
 10
0.1392992125984252
 20
-1.818724409448819
 30
0.0
 10
0.1392992125984252
 20
-1.818724409448819
 30
0.0
 10
0.1392992125984252
 20
-1.944141732283465
 30
0.0
 10
0.1392992125984252
 20
-1.944141732283465
 30
0.0
 10
0.1392992125984252
 20
-1.944141732283465
 30
0.0
 10
0.1392992125984252
 20
-1.944141732283465
 30
0.0
 10
-0.3887244094488189
 20
-1.944141732283465
 30
0.0
 10
-0.3887244094488189
 20
-1.944141732283465
 30
0.0
  0
SPLINE
  5
A4
330
1F
100
AcDbEntity
  8
Layer 1
 62
    30
370
     5
100
AcDbSpline
210
0.0
220
0.0
230
1.0
 70
    11
 71
     3
 72
    20
 73
    16
 74
     0
 42
0.0000000001
 43
0.0000000001
 40
0.0
 40
0.0
 40
0.0
 40
0.0
 40
0.25
 40
0.25
 40
0.25
 40
0.25
 40
0.5
 40
0.5
 40
0.5
 40
0.5
 40
0.75
 40
0.75
 40
0.75
 40
0.75
 40
1.0
 40
1.0
 40
1.0
 40
1.0
 10
-0.8578937007874016
 20
-3.754570866141732
 30
0.0
 10
-0.8578937007874016
 20
-3.754570866141732
 30
0.0
 10
-0.9833110236220473
 20
-3.754570866141732
 30
0.0
 10
-0.9833110236220473
 20
-3.754570866141732
 30
0.0
 10
-0.9833110236220473
 20
-3.754570866141732
 30
0.0
 10
-0.9833110236220473
 20
-3.754570866141732
 30
0.0
 10
-0.9833110236220473
 20
-3.226547244094488
 30
0.0
 10
-0.9833110236220473
 20
-3.226547244094488
 30
0.0
 10
-0.9833110236220473
 20
-3.226547244094488
 30
0.0
 10
-0.9833110236220473
 20
-3.226547244094488
 30
0.0
 10
-0.8578937007874016
 20
-3.226547244094488
 30
0.0
 10
-0.8578937007874016
 20
-3.226547244094488
 30
0.0
 10
-0.8578937007874016
 20
-3.226547244094488
 30
0.0
 10
-0.8578937007874016
 20
-3.226547244094488
 30
0.0
 10
-0.8578937007874016
 20
-3.754570866141732
 30
0.0
 10
-0.8578937007874016
 20
-3.754570866141732
 30
0.0
  0
SPLINE
  5
A5
330
1F
100
AcDbEntity
  8
Layer 1
 62
    30
370
     5
100
AcDbSpline
210
0.0
220
0.0
230
1.0
 70
    11
 71
     3
 72
    20
 73
    16
 74
     0
 42
0.0000000001
 43
0.0000000001
 40
0.0
 40
0.0
 40
0.0
 40
0.0
 40
0.25
 40
0.25
 40
0.25
 40
0.25
 40
0.5
 40
0.5
 40
0.5
 40
0.5
 40
0.75
 40
0.75
 40
0.75
 40
0.75
 40
1.0
 40
1.0
 40
1.0
 40
1.0
 10
-3.364251968503937
 20
-3.77642125984252
 30
0.0
 10
-3.364251968503937
 20
-3.77642125984252
 30
0.0
 10
-3.489669291338583
 20
-3.77642125984252
 30
0.0
 10
-3.489669291338583
 20
-3.77642125984252
 30
0.0
 10
-3.489669291338583
 20
-3.77642125984252
 30
0.0
 10
-3.489669291338583
 20
-3.77642125984252
 30
0.0
 10
-3.489669291338583
 20
-3.441877952755906
 30
0.0
 10
-3.489669291338583
 20
-3.441877952755906
 30
0.0
 10
-3.489669291338583
 20
-3.441877952755906
 30
0.0
 10
-3.489669291338583
 20
-3.441877952755906
 30
0.0
 10
-3.364251968503937
 20
-3.441877952755906
 30
0.0
 10
-3.364251968503937
 20
-3.441877952755906
 30
0.0
 10
-3.364251968503937
 20
-3.441877952755906
 30
0.0
 10
-3.364251968503937
 20
-3.441877952755906
 30
0.0
 10
-3.364251968503937
 20
-3.77642125984252
 30
0.0
 10
-3.364251968503937
 20
-3.77642125984252
 30
0.0
  0
SPLINE
  5
A6
330
1F
100
AcDbEntity
  8
Layer 1
 62
    30
370
     5
100
AcDbSpline
210
0.0
220
0.0
230
1.0
 70
    11
 71
     3
 72
    20
 73
    16
 74
     0
 42
0.0000000001
 43
0.0000000001
 40
0.0
 40
0.0
 40
0.0
 40
0.0
 40
0.25
 40
0.25
 40
0.25
 40
0.25
 40
0.5
 40
0.5
 40
0.5
 40
0.5
 40
0.75
 40
0.75
 40
0.75
 40
0.75
 40
1.0
 40
1.0
 40
1.0
 40
1.0
 10
2.458783464566929
 20
-3.711177165354331
 30
0.0
 10
2.458783464566929
 20
-3.711177165354331
 30
0.0
 10
2.333366141732284
 20
-3.711177165354331
 30
0.0
 10
2.333366141732284
 20
-3.711177165354331
 30
0.0
 10
2.333366141732284
 20
-3.711177165354331
 30
0.0
 10
2.333366141732284
 20
-3.711177165354331
 30
0.0
 10
2.333366141732284
 20
-3.183153543307087
 30
0.0
 10
2.333366141732284
 20
-3.183153543307087
 30
0.0
 10
2.333366141732284
 20
-3.183153543307087
 30
0.0
 10
2.333366141732284
 20
-3.183153543307087
 30
0.0
 10
2.458783464566929
 20
-3.183153543307087
 30
0.0
 10
2.458783464566929
 20
-3.183153543307087
 30
0.0
 10
2.458783464566929
 20
-3.183153543307087
 30
0.0
 10
2.458783464566929
 20
-3.183153543307087
 30
0.0
 10
2.458783464566929
 20
-3.711177165354331
 30
0.0
 10
2.458783464566929
 20
-3.711177165354331
 30
0.0
  0
SPLINE
  5
A7
330
1F
100
AcDbEntity
  8
Layer 1
 62
    30
370
     5
100
AcDbSpline
210
0.0
220
0.0
230
1.0
 70
    11
 71
     3
 72
    20
 73
    16
 74
     0
 42
0.0000000001
 43
0.0000000001
 40
0.0
 40
0.0
 40
0.0
 40
0.0
 40
0.25
 40
0.25
 40
0.25
 40
0.25
 40
0.5
 40
0.5
 40
0.5
 40
0.5
 40
0.75
 40
0.75
 40
0.75
 40
0.75
 40
1.0
 40
1.0
 40
1.0
 40
1.0
 10
-0.4428897637795276
 20
-3.673314960629921
 30
0.0
 10
-0.4428897637795276
 20
-3.673314960629921
 30
0.0
 10
-0.4428897637795276
 20
-3.547897637795276
 30
0.0
 10
-0.4428897637795276
 20
-3.547897637795276
 30
0.0
 10
-0.4428897637795276
 20
-3.547897637795276
 30
0.0
 10
-0.4428897637795276
 20
-3.547897637795276
 30
0.0
 10
0.0851338582677165
 20
-3.547897637795276
 30
0.0
 10
0.0851338582677165
 20
-3.547897637795276
 30
0.0
 10
0.0851338582677165
 20
-3.547897637795276
 30
0.0
 10
0.0851338582677165
 20
-3.547897637795276
 30
0.0
 10
0.0851338582677165
 20
-3.673314960629921
 30
0.0
 10
0.0851338582677165
 20
-3.673314960629921
 30
0.0
 10
0.0851338582677165
 20
-3.673314960629921
 30
0.0
 10
0.0851338582677165
 20
-3.673314960629921
 30
0.0
 10
-0.4428897637795276
 20
-3.673314960629921
 30
0.0
 10
-0.4428897637795276
 20
-3.673314960629921
 30
0.0
  0
SPLINE
  5
A8
330
1F
100
AcDbEntity
  8
Layer 1
 62
    30
370
     5
100
AcDbSpline
210
0.0
220
0.0
230
1.0
 70
     8
 71
     3
 72
    20
 73
    16
 74
     0
 42
0.0000000001
 43
0.0000000001
 40
0.0
 40
0.0
 40
0.0
 40
0.0
 40
0.25
 40
0.25
 40
0.25
 40
0.25
 40
0.5
 40
0.5
 40
0.5
 40
0.5
 40
0.75
 40
0.75
 40
0.75
 40
0.75
 40
1.0
 40
1.0
 40
1.0
 40
1.0
 10
-3.759338582677166
 20
-3.974562992125984
 30
0.0
 10
-3.759338582677166
 20
-3.974562992125984
 30
0.0
 10
-3.759338582677166
 20
-3.975177165354331
 30
0.0
 10
-3.759338582677166
 20
-3.975177165354331
 30
0.0
 10
-3.759338582677166
 20
-3.975177165354331
 30
0.0
 10
-3.759338582677166
 20
-3.975177165354331
 30
0.0
 10
2.727708661417323
 20
-3.975177165354331
 30
0.0
 10
2.727708661417323
 20
-3.975177165354331
 30
0.0
 10
2.727708661417323
 20
-3.975177165354331
 30
0.0
 10
2.727708661417323
 20
-3.975177165354331
 30
0.0
 10
2.727708661417323
 20
-1.599055118110236
 30
0.0
 10
2.727708661417323
 20
-1.599055118110236
 30
0.0
 10
2.727708661417323
 20
-1.599055118110236
 30
0.0
 10
2.727708661417323
 20
-1.599055118110236
 30
0.0
 10
-3.65548031496063
 20
-1.599055118110236
 30
0.0
 10
-3.65548031496063
 20
-1.599055118110236
 30
0.0
  0
SPLINE
  5
A9
330
1F
100
AcDbEntity
  8
Layer 1
 62
    30
370
     5
100
AcDbSpline
210
0.0
220
0.0
230
1.0
 70
     8
 71
     3
 72
    20
 73
    16
 74
     0
 42
0.0000000001
 43
0.0000000001
 40
0.0
 40
0.0
 40
0.0
 40
0.0
 40
0.25
 40
0.25
 40
0.25
 40
0.25
 40
0.5
 40
0.5
 40
0.5
 40
0.5
 40
0.75
 40
0.75
 40
0.75
 40
0.75
 40
1.0
 40
1.0
 40
1.0
 40
1.0
 10
-3.655484251968504
 20
-1.599055118110236
 30
0.0
 10
-3.655484251968504
 20
-1.599055118110236
 30
0.0
 10
-3.655484251968504
 20
-1.598590551181103
 30
0.0
 10
-3.655484251968504
 20
-1.598590551181103
 30
0.0
 10
-3.655484251968504
 20
-1.598590551181103
 30
0.0
 10
-3.655484251968504
 20
-1.598590551181103
 30
0.0
 10
-4.13394094488189
 20
-1.598590551181103
 30
0.0
 10
-4.13394094488189
 20
-1.598590551181103
 30
0.0
 10
-4.13394094488189
 20
-1.598590551181103
 30
0.0
 10
-4.13394094488189
 20
-1.598590551181103
 30
0.0
 10
-4.13394094488189
 20
-3.974562992125984
 30
0.0
 10
-4.13394094488189
 20
-3.974562992125984
 30
0.0
 10
-4.13394094488189
 20
-3.974562992125984
 30
0.0
 10
-4.13394094488189
 20
-3.974562992125984
 30
0.0
 10
-3.759338582677166
 20
-3.974562992125984
 30
0.0
 10
-3.759338582677166
 20
-3.974562992125984
 30
0.0
  0
SPLINE
  5
AA
330
1F
100
AcDbEntity
  8
Layer 1
 62
    30
370
     5
100
AcDbSpline
210
0.0
220
0.0
230
1.0
 70
    11
 71
     3
 72
    20
 73
    16
 74
     0
 42
0.0000000001
 43
0.0000000001
 40
0.0
 40
0.0
 40
0.0
 40
0.0
 40
0.25
 40
0.25
 40
0.25
 40
0.25
 40
0.5
 40
0.5
 40
0.5
 40
0.5
 40
0.75
 40
0.75
 40
0.75
 40
0.75
 40
1.0
 40
1.0
 40
1.0
 40
1.0
 10
1.289311023622047
 20
-3.174
 30
0.0
 10
1.289311023622047
 20
-3.104074803149607
 30
0.0
 10
1.346015748031496
 20
-3.047370078740157
 30
0.0
 10
1.41594094488189
 20
-3.047370078740157
 30
0.0
 10
1.41594094488189
 20
-3.047370078740157
 30
0.0
 10
1.485866141732284
 20
-3.047370078740157
 30
0.0
 10
1.542570866141732
 20
-3.104074803149607
 30
0.0
 10
1.542570866141732
 20
-3.174
 30
0.0
 10
1.542570866141732
 20
-3.174
 30
0.0
 10
1.542570866141732
 20
-3.243925196850394
 30
0.0
 10
1.485866141732284
 20
-3.300629921259842
 30
0.0
 10
1.41594094488189
 20
-3.300629921259842
 30
0.0
 10
1.41594094488189
 20
-3.300629921259842
 30
0.0
 10
1.346015748031496
 20
-3.300629921259842
 30
0.0
 10
1.289311023622047
 20
-3.243925196850394
 30
0.0
 10
1.289311023622047
 20
-3.174
 30
0.0
  0
SPLINE
  5
AB
330
1F
100
AcDbEntity
  8
Layer 1
 62
    30
370
     5
100
AcDbSpline
210
0.0
220
0.0
230
1.0
 70
    11
 71
     3
 72
    20
 73
    16
 74
     0
 42
0.0000000001
 43
0.0000000001
 40
0.0
 40
0.0
 40
0.0
 40
0.0
 40
0.25
 40
0.25
 40
0.25
 40
0.25
 40
0.5
 40
0.5
 40
0.5
 40
0.5
 40
0.75
 40
0.75
 40
0.75
 40
0.75
 40
1.0
 40
1.0
 40
1.0
 40
1.0
 10
0.7893110236220473
 20
-3.174
 30
0.0
 10
0.7893110236220473
 20
-3.104074803149607
 30
0.0
 10
0.846015748031496
 20
-3.047370078740157
 30
0.0
 10
0.9159409448818898
 20
-3.047370078740157
 30
0.0
 10
0.9159409448818898
 20
-3.047370078740157
 30
0.0
 10
0.9858661417322835
 20
-3.047370078740157
 30
0.0
 10
1.042570866141732
 20
-3.104074803149607
 30
0.0
 10
1.042570866141732
 20
-3.174
 30
0.0
 10
1.042570866141732
 20
-3.174
 30
0.0
 10
1.042570866141732
 20
-3.243925196850394
 30
0.0
 10
0.9858661417322835
 20
-3.300629921259842
 30
0.0
 10
0.9159409448818898
 20
-3.300629921259842
 30
0.0
 10
0.9159409448818898
 20
-3.300629921259842
 30
0.0
 10
0.846015748031496
 20
-3.300629921259842
 30
0.0
 10
0.7893110236220473
 20
-3.243925196850394
 30
0.0
 10
0.7893110236220473
 20
-3.174
 30
0.0
  0
SPLINE
  5
AC
330
1F
100
AcDbEntity
  8
Layer 1
 62
    30
370
     5
100
AcDbSpline
210
0.0
220
0.0
230
1.0
 70
    11
 71
     3
 72
    20
 73
    16
 74
     0
 42
0.0000000001
 43
0.0000000001
 40
0.0
 40
0.0
 40
0.0
 40
0.0
 40
0.25
 40
0.25
 40
0.25
 40
0.25
 40
0.5
 40
0.5
 40
0.5
 40
0.5
 40
0.75
 40
0.75
 40
0.75
 40
0.75
 40
1.0
 40
1.0
 40
1.0
 40
1.0
 10
0.2893110236220473
 20
-3.174
 30
0.0
 10
0.2893110236220473
 20
-3.104074803149607
 30
0.0
 10
0.3460157480314961
 20
-3.047370078740157
 30
0.0
 10
0.4159409448818898
 20
-3.047370078740157
 30
0.0
 10
0.4159409448818898
 20
-3.047370078740157
 30
0.0
 10
0.4858661417322835
 20
-3.047370078740157
 30
0.0
 10
0.5425708661417323
 20
-3.104074803149607
 30
0.0
 10
0.5425708661417323
 20
-3.174
 30
0.0
 10
0.5425708661417323
 20
-3.174
 30
0.0
 10
0.5425708661417323
 20
-3.243925196850394
 30
0.0
 10
0.4858661417322835
 20
-3.300629921259842
 30
0.0
 10
0.4159409448818898
 20
-3.300629921259842
 30
0.0
 10
0.4159409448818898
 20
-3.300629921259842
 30
0.0
 10
0.3460157480314961
 20
-3.300629921259842
 30
0.0
 10
0.2893110236220473
 20
-3.243925196850394
 30
0.0
 10
0.2893110236220473
 20
-3.174
 30
0.0
  0
SPLINE
  5
AD
330
1F
100
AcDbEntity
  8
Layer 1
 62
    30
370
     5
100
AcDbSpline
210
0.0
220
0.0
230
1.0
 70
    11
 71
     3
 72
    20
 73
    16
 74
     0
 42
0.0000000001
 43
0.0000000001
 40
0.0
 40
0.0
 40
0.0
 40
0.0
 40
0.25
 40
0.25
 40
0.25
 40
0.25
 40
0.5
 40
0.5
 40
0.5
 40
0.5
 40
0.75
 40
0.75
 40
0.75
 40
0.75
 40
1.0
 40
1.0
 40
1.0
 40
1.0
 10
1.289311023622047
 20
-2.474
 30
0.0
 10
1.289311023622047
 20
-2.404074803149606
 30
0.0
 10
1.346015748031496
 20
-2.347370078740158
 30
0.0
 10
1.41594094488189
 20
-2.347370078740158
 30
0.0
 10
1.41594094488189
 20
-2.347370078740158
 30
0.0
 10
1.485866141732284
 20
-2.347370078740158
 30
0.0
 10
1.542570866141732
 20
-2.404074803149606
 30
0.0
 10
1.542570866141732
 20
-2.474
 30
0.0
 10
1.542570866141732
 20
-2.474
 30
0.0
 10
1.542570866141732
 20
-2.543925196850394
 30
0.0
 10
1.485866141732284
 20
-2.600629921259843
 30
0.0
 10
1.41594094488189
 20
-2.600629921259843
 30
0.0
 10
1.41594094488189
 20
-2.600629921259843
 30
0.0
 10
1.346015748031496
 20
-2.600629921259843
 30
0.0
 10
1.289311023622047
 20
-2.543925196850394
 30
0.0
 10
1.289311023622047
 20
-2.474
 30
0.0
  0
SPLINE
  5
AE
330
1F
100
AcDbEntity
  8
Layer 1
 62
    30
370
     5
100
AcDbSpline
210
0.0
220
0.0
230
1.0
 70
    11
 71
     3
 72
    20
 73
    16
 74
     0
 42
0.0000000001
 43
0.0000000001
 40
0.0
 40
0.0
 40
0.0
 40
0.0
 40
0.25
 40
0.25
 40
0.25
 40
0.25
 40
0.5
 40
0.5
 40
0.5
 40
0.5
 40
0.75
 40
0.75
 40
0.75
 40
0.75
 40
1.0
 40
1.0
 40
1.0
 40
1.0
 10
0.7893110236220473
 20
-2.474
 30
0.0
 10
0.7893110236220473
 20
-2.404074803149606
 30
0.0
 10
0.846015748031496
 20
-2.347370078740158
 30
0.0
 10
0.9159409448818898
 20
-2.347370078740158
 30
0.0
 10
0.9159409448818898
 20
-2.347370078740158
 30
0.0
 10
0.9858661417322835
 20
-2.347370078740158
 30
0.0
 10
1.042570866141732
 20
-2.404074803149606
 30
0.0
 10
1.042570866141732
 20
-2.474
 30
0.0
 10
1.042570866141732
 20
-2.474
 30
0.0
 10
1.042570866141732
 20
-2.543925196850394
 30
0.0
 10
0.9858661417322835
 20
-2.600629921259843
 30
0.0
 10
0.9159409448818898
 20
-2.600629921259843
 30
0.0
 10
0.9159409448818898
 20
-2.600629921259843
 30
0.0
 10
0.846015748031496
 20
-2.600629921259843
 30
0.0
 10
0.7893110236220473
 20
-2.543925196850394
 30
0.0
 10
0.7893110236220473
 20
-2.474
 30
0.0
  0
SPLINE
  5
AF
330
1F
100
AcDbEntity
  8
Layer 1
 62
    30
370
     5
100
AcDbSpline
210
0.0
220
0.0
230
1.0
 70
    11
 71
     3
 72
    20
 73
    16
 74
     0
 42
0.0000000001
 43
0.0000000001
 40
0.0
 40
0.0
 40
0.0
 40
0.0
 40
0.25
 40
0.25
 40
0.25
 40
0.25
 40
0.5
 40
0.5
 40
0.5
 40
0.5
 40
0.75
 40
0.75
 40
0.75
 40
0.75
 40
1.0
 40
1.0
 40
1.0
 40
1.0
 10
0.2893110236220473
 20
-2.474
 30
0.0
 10
0.2893110236220473
 20
-2.404074803149606
 30
0.0
 10
0.3460157480314961
 20
-2.347370078740158
 30
0.0
 10
0.4159409448818898
 20
-2.347370078740158
 30
0.0
 10
0.4159409448818898
 20
-2.347370078740158
 30
0.0
 10
0.4858661417322835
 20
-2.347370078740158
 30
0.0
 10
0.5425708661417323
 20
-2.404074803149606
 30
0.0
 10
0.5425708661417323
 20
-2.474
 30
0.0
 10
0.5425708661417323
 20
-2.474
 30
0.0
 10
0.5425708661417323
 20
-2.543925196850394
 30
0.0
 10
0.4858661417322835
 20
-2.600629921259843
 30
0.0
 10
0.4159409448818898
 20
-2.600629921259843
 30
0.0
 10
0.4159409448818898
 20
-2.600629921259843
 30
0.0
 10
0.3460157480314961
 20
-2.600629921259843
 30
0.0
 10
0.2893110236220473
 20
-2.543925196850394
 30
0.0
 10
0.2893110236220473
 20
-2.474
 30
0.0
  0
SPLINE
  5
B0
330
1F
100
AcDbEntity
  8
Layer 1
 62
    30
370
     5
100
AcDbSpline
210
0.0
220
0.0
230
1.0
 70
    11
 71
     3
 72
    20
 73
    16
 74
     0
 42
0.0000000001
 43
0.0000000001
 40
0.0
 40
0.0
 40
0.0
 40
0.0
 40
0.25
 40
0.25
 40
0.25
 40
0.25
 40
0.5
 40
0.5
 40
0.5
 40
0.5
 40
0.75
 40
0.75
 40
0.75
 40
0.75
 40
1.0
 40
1.0
 40
1.0
 40
1.0
 10
-0.4106889763779528
 20
-3.174
 30
0.0
 10
-0.4106889763779528
 20
-3.104074803149607
 30
0.0
 10
-0.353984251968504
 20
-3.047370078740157
 30
0.0
 10
-0.2840590551181103
 20
-3.047370078740157
 30
0.0
 10
-0.2840590551181103
 20
-3.047370078740157
 30
0.0
 10
-0.2141338582677166
 20
-3.047370078740157
 30
0.0
 10
-0.1574291338582677
 20
-3.104074803149607
 30
0.0
 10
-0.1574291338582677
 20
-3.174
 30
0.0
 10
-0.1574291338582677
 20
-3.174
 30
0.0
 10
-0.1574291338582677
 20
-3.243925196850394
 30
0.0
 10
-0.2141338582677166
 20
-3.300629921259842
 30
0.0
 10
-0.2840590551181103
 20
-3.300629921259842
 30
0.0
 10
-0.2840590551181103
 20
-3.300629921259842
 30
0.0
 10
-0.353984251968504
 20
-3.300629921259842
 30
0.0
 10
-0.4106889763779528
 20
-3.243925196850394
 30
0.0
 10
-0.4106889763779528
 20
-3.174
 30
0.0
  0
SPLINE
  5
B1
330
1F
100
AcDbEntity
  8
Layer 1
 62
    30
370
     5
100
AcDbSpline
210
0.0
220
0.0
230
1.0
 70
    11
 71
     3
 72
    20
 73
    16
 74
     0
 42
0.0000000001
 43
0.0000000001
 40
0.0
 40
0.0
 40
0.0
 40
0.0
 40
0.25
 40
0.25
 40
0.25
 40
0.25
 40
0.5
 40
0.5
 40
0.5
 40
0.5
 40
0.75
 40
0.75
 40
0.75
 40
0.75
 40
1.0
 40
1.0
 40
1.0
 40
1.0
 10
-4.042972440944882
 20
-3.330496062992126
 30
0.0
 10
-4.042972440944882
 20
-3.260570866141733
 30
0.0
 10
-3.986267716535433
 20
-3.203866141732284
 30
0.0
 10
-3.91634251968504
 20
-3.203866141732284
 30
0.0
 10
-3.91634251968504
 20
-3.203866141732284
 30
0.0
 10
-3.846417322834646
 20
-3.203866141732284
 30
0.0
 10
-3.789712598425197
 20
-3.260570866141733
 30
0.0
 10
-3.789712598425197
 20
-3.330496062992126
 30
0.0
 10
-3.789712598425197
 20
-3.330496062992126
 30
0.0
 10
-3.789712598425197
 20
-3.40042125984252
 30
0.0
 10
-3.846417322834646
 20
-3.457125984251969
 30
0.0
 10
-3.91634251968504
 20
-3.457125984251969
 30
0.0
 10
-3.91634251968504
 20
-3.457125984251969
 30
0.0
 10
-3.986267716535433
 20
-3.457125984251969
 30
0.0
 10
-4.042972440944882
 20
-3.40042125984252
 30
0.0
 10
-4.042972440944882
 20
-3.330496062992126
 30
0.0
  0
SPLINE
  5
B2
330
1F
100
AcDbEntity
  8
Layer 1
 62
    30
370
     5
100
AcDbSpline
210
0.0
220
0.0
230
1.0
 70
    11
 71
     3
 72
    20
 73
    16
 74
     0
 42
0.0000000001
 43
0.0000000001
 40
0.0
 40
0.0
 40
0.0
 40
0.0
 40
0.25
 40
0.25
 40
0.25
 40
0.25
 40
0.5
 40
0.5
 40
0.5
 40
0.5
 40
0.75
 40
0.75
 40
0.75
 40
0.75
 40
1.0
 40
1.0
 40
1.0
 40
1.0
 10
-0.4106889763779528
 20
-2.474
 30
0.0
 10
-0.4106889763779528
 20
-2.404074803149606
 30
0.0
 10
-0.353984251968504
 20
-2.347370078740158
 30
0.0
 10
-0.2840590551181103
 20
-2.347370078740158
 30
0.0
 10
-0.2840590551181103
 20
-2.347370078740158
 30
0.0
 10
-0.2141338582677166
 20
-2.347370078740158
 30
0.0
 10
-0.1574291338582677
 20
-2.404074803149606
 30
0.0
 10
-0.1574291338582677
 20
-2.474
 30
0.0
 10
-0.1574291338582677
 20
-2.474
 30
0.0
 10
-0.1574291338582677
 20
-2.543925196850394
 30
0.0
 10
-0.2141338582677166
 20
-2.600629921259843
 30
0.0
 10
-0.2840590551181103
 20
-2.600629921259843
 30
0.0
 10
-0.2840590551181103
 20
-2.600629921259843
 30
0.0
 10
-0.353984251968504
 20
-2.600629921259843
 30
0.0
 10
-0.4106889763779528
 20
-2.543925196850394
 30
0.0
 10
-0.4106889763779528
 20
-2.474
 30
0.0
  0
SPLINE
  5
B3
330
1F
100
AcDbEntity
  8
Layer 1
 62
    30
370
     5
100
AcDbSpline
210
0.0
220
0.0
230
1.0
 70
    11
 71
     3
 72
    20
 73
    16
 74
     0
 42
0.0000000001
 43
0.0000000001
 40
0.0
 40
0.0
 40
0.0
 40
0.0
 40
0.25
 40
0.25
 40
0.25
 40
0.25
 40
0.5
 40
0.5
 40
0.5
 40
0.5
 40
0.75
 40
0.75
 40
0.75
 40
0.75
 40
1.0
 40
1.0
 40
1.0
 40
1.0
 10
-4.042972440944882
 20
-2.230496062992126
 30
0.0
 10
-4.042972440944882
 20
-2.160570866141732
 30
0.0
 10
-3.986267716535433
 20
-2.103866141732284
 30
0.0
 10
-3.91634251968504
 20
-2.103866141732284
 30
0.0
 10
-3.91634251968504
 20
-2.103866141732284
 30
0.0
 10
-3.846417322834646
 20
-2.103866141732284
 30
0.0
 10
-3.789712598425197
 20
-2.160570866141732
 30
0.0
 10
-3.789712598425197
 20
-2.230496062992126
 30
0.0
 10
-3.789712598425197
 20
-2.230496062992126
 30
0.0
 10
-3.789712598425197
 20
-2.30042125984252
 30
0.0
 10
-3.846417322834646
 20
-2.357125984251969
 30
0.0
 10
-3.91634251968504
 20
-2.357125984251969
 30
0.0
 10
-3.91634251968504
 20
-2.357125984251969
 30
0.0
 10
-3.986267716535433
 20
-2.357125984251969
 30
0.0
 10
-4.042972440944882
 20
-2.30042125984252
 30
0.0
 10
-4.042972440944882
 20
-2.230496062992126
 30
0.0
  0
SPLINE
  5
B4
330
1F
100
AcDbEntity
  8
Layer 1
 62
    30
370
     5
100
AcDbSpline
210
0.0
220
0.0
230
1.0
 70
     8
 71
     3
 72
    16
 73
    12
 74
     0
 42
0.0000000001
 43
0.0000000001
 40
0.0
 40
0.0
 40
0.0
 40
0.0
 40
0.3333333333333333
 40
0.3333333333333333
 40
0.3333333333333333
 40
0.3333333333333333
 40
0.6666666666666666
 40
0.6666666666666666
 40
0.6666666666666666
 40
0.6666666666666666
 40
1.0
 40
1.0
 40
1.0
 40
1.0
 10
-3.031858267716535
 20
-2.488822834645669
 30
0.0
 10
-3.031858267716535
 20
-2.488822834645669
 30
0.0
 10
-3.031858267716535
 20
-2.195988188976378
 30
0.0
 10
-3.031858267716535
 20
-2.195988188976378
 30
0.0
 10
-3.031858267716535
 20
-2.195988188976378
 30
0.0
 10
-3.031858267716535
 20
-2.195988188976378
 30
0.0
 10
-1.444251968503937
 20
-2.195988188976378
 30
0.0
 10
-1.444251968503937
 20
-2.195988188976378
 30
0.0
 10
-1.444251968503937
 20
-2.195988188976378
 30
0.0
 10
-1.444251968503937
 20
-2.195988188976378
 30
0.0
 10
-1.444251968503937
 20
-2.488818897637795
 30
0.0
 10
-1.444251968503937
 20
-2.488818897637795
 30
0.0
  0
SPLINE
  5
B5
330
1F
100
AcDbEntity
  8
Layer 1
 62
    30
370
     5
100
AcDbSpline
210
0.0
220
0.0
230
1.0
 70
     8
 71
     3
 72
    16
 73
    12
 74
     0
 42
0.0000000001
 43
0.0000000001
 40
0.0
 40
0.0
 40
0.0
 40
0.0
 40
0.3333333333333333
 40
0.3333333333333333
 40
0.3333333333333333
 40
0.3333333333333333
 40
0.6666666666666666
 40
0.6666666666666666
 40
0.6666666666666666
 40
0.6666666666666666
 40
1.0
 40
1.0
 40
1.0
 40
1.0
 10
-1.444251968503937
 20
-2.617051181102363
 30
0.0
 10
-1.444251968503937
 20
-2.617051181102363
 30
0.0
 10
-1.444251968503937
 20
-3.719145669291339
 30
0.0
 10
-1.444251968503937
 20
-3.719145669291339
 30
0.0
 10
-1.444251968503937
 20
-3.719145669291339
 30
0.0
 10
-1.444251968503937
 20
-3.719145669291339
 30
0.0
 10
-3.031858267716535
 20
-3.719145669291339
 30
0.0
 10
-3.031858267716535
 20
-3.719145669291339
 30
0.0
 10
-3.031858267716535
 20
-3.719145669291339
 30
0.0
 10
-3.031858267716535
 20
-3.719145669291339
 30
0.0
 10
-3.031858267716535
 20
-2.617047244094488
 30
0.0
 10
-3.031858267716535
 20
-2.617047244094488
 30
0.0
  0
SPLINE
  5
B6
330
1F
100
AcDbEntity
  8
Layer 1
 62
    30
370
     5
100
AcDbSpline
210
0.0
220
0.0
230
1.0
 70
     8
 71
     3
 72
    16
 73
    12
 74
     0
 42
0.0000000001
 43
0.0000000001
 40
0.0
 40
0.0
 40
0.0
 40
0.0
 40
0.3333333333333333
 40
0.3333333333333333
 40
0.3333333333333333
 40
0.3333333333333333
 40
0.6666666666666666
 40
0.6666666666666666
 40
0.6666666666666666
 40
0.6666666666666666
 40
1.0
 40
1.0
 40
1.0
 40
1.0
 10
-3.021338582677165
 20
-2.617051181102363
 30
0.0
 10
-3.021338582677165
 20
-2.617051181102363
 30
0.0
 10
-3.359425196850394
 20
-2.617051181102363
 30
0.0
 10
-3.359425196850394
 20
-2.617051181102363
 30
0.0
 10
-3.359425196850394
 20
-2.617051181102363
 30
0.0
 10
-3.359425196850394
 20
-2.617051181102363
 30
0.0
 10
-3.359425196850394
 20
-2.488818897637795
 30
0.0
 10
-3.359425196850394
 20
-2.488818897637795
 30
0.0
 10
-3.359425196850394
 20
-2.488818897637795
 30
0.0
 10
-3.359425196850394
 20
-2.488818897637795
 30
0.0
 10
-3.021346456692914
 20
-2.488818897637795
 30
0.0
 10
-3.021346456692914
 20
-2.488818897637795
 30
0.0
  0
SPLINE
  5
B7
330
1F
100
AcDbEntity
  8
Layer 1
 62
    30
370
     5
100
AcDbSpline
210
0.0
220
0.0
230
1.0
 70
     8
 71
     3
 72
    16
 73
    12
 74
     0
 42
0.0000000001
 43
0.0000000001
 40
0.0
 40
0.0
 40
0.0
 40
0.0
 40
0.3333333333333333
 40
0.3333333333333333
 40
0.3333333333333333
 40
0.3333333333333333
 40
0.6666666666666666
 40
0.6666666666666666
 40
0.6666666666666666
 40
0.6666666666666666
 40
1.0
 40
1.0
 40
1.0
 40
1.0
 10
-1.444248031496063
 20
-2.488818897637795
 30
0.0
 10
-1.444248031496063
 20
-2.488818897637795
 30
0.0
 10
-1.146562992125984
 20
-2.488818897637795
 30
0.0
 10
-1.146562992125984
 20
-2.488818897637795
 30
0.0
 10
-1.146562992125984
 20
-2.488818897637795
 30
0.0
 10
-1.146562992125984
 20
-2.488818897637795
 30
0.0
 10
-1.146562992125984
 20
-2.617051181102363
 30
0.0
 10
-1.146562992125984
 20
-2.617051181102363
 30
0.0
 10
-1.146562992125984
 20
-2.617051181102363
 30
0.0
 10
-1.146562992125984
 20
-2.617051181102363
 30
0.0
 10
-1.444255905511811
 20
-2.617051181102363
 30
0.0
 10
-1.444255905511811
 20
-2.617051181102363
 30
0.0
  0
ENDSEC
  0
SECTION
  2
OBJECTS
  0
DICTIONARY
  5
C
330
0
100
AcDbDictionary
281
     1
  3
ACAD_GROUP
350
D
  3
ACAD_LAYOUT
350
1A
  3
ACAD_MLINESTYLE
350
17
  3
ACAD_PLOTSETTINGS
350
19
  3
ACAD_PLOTSTYLENAME
350
E
  0
DICTIONARY
  5
D
102
{ACAD_REACTORS
330
C
102
}
330
C
100
AcDbDictionary
281
     1
  0
DICTIONARY
  5
1A
102
{ACAD_REACTORS
330
C
102
}
330
C
100
AcDbDictionary
281
     1
  3
Layout1
350
1E
  3
Layout2
350
26
  3
Model
350
22
  0
DICTIONARY
  5
17
102
{ACAD_REACTORS
330
C
102
}
330
C
100
AcDbDictionary
281
     1
  3
Standard
350
18
  0
DICTIONARY
  5
19
102
{ACAD_REACTORS
330
C
102
}
330
C
100
AcDbDictionary
281
     1
  0
ACDBDICTIONARYWDFLT
  5
E
102
{ACAD_REACTORS
330
C
102
}
330
C
100
AcDbDictionary
281
     1
  3
Normal
350
F
100
AcDbDictionaryWithDefault
340
F
  0
LAYOUT
  5
1E
102
{ACAD_REACTORS
330
1A
102
}
330
1A
100
AcDbPlotSettings
  1

  2

  4

  6

 40
0.0
 41
0.0
 42
0.0
 43
0.0
 44
0.0
 45
0.0
 46
0.0
 47
0.0
 48
0.0
 49
0.0
140
0.0
141
0.0
142
1.0
143
1.0
 70
   688
 72
     0
 73
     0
 74
     5
  7

 75
    16
 76
     0
 77
     2
 78
   300
147
1.0
148
0.0
149
0.0
100
AcDbLayout
  1
Layout1
 70
     1
 71
     1
 10
0.0
 20
0.0
 11
12.0
 21
9.0
 12
0.0
 22
0.0
 32
0.0
 14
1.000000000000000E+20
 24
1.000000000000000E+20
 34
1.000000000000000E+20
 15
-1.000000000000000E+20
 25
-1.000000000000000E+20
 35
-1.000000000000000E+20
146
0.0
 13
0.0
 23
0.0
 33
0.0
 16
1.0
 26
0.0
 36
0.0
 17
0.0
 27
1.0
 37
0.0
 76
     0
330
1B
  0
LAYOUT
  5
26
102
{ACAD_REACTORS
330
1A
102
}
330
1A
100
AcDbPlotSettings
  1

  2

  4

  6

 40
0.0
 41
0.0
 42
0.0
 43
0.0
 44
0.0
 45
0.0
 46
0.0
 47
0.0
 48
0.0
 49
0.0
140
0.0
141
0.0
142
1.0
143
1.0
 70
   688
 72
     0
 73
     0
 74
     5
  7

 75
    16
 76
     0
 77
     2
 78
   300
147
1.0
148
0.0
149
0.0
100
AcDbLayout
  1
Layout2
 70
     1
 71
     2
 10
0.0
 20
0.0
 11
0.0
 21
0.0
 12
0.0
 22
0.0
 32
0.0
 14
0.0
 24
0.0
 34
0.0
 15
0.0
 25
0.0
 35
0.0
146
0.0
 13
0.0
 23
0.0
 33
0.0
 16
1.0
 26
0.0
 36
0.0
 17
0.0
 27
1.0
 37
0.0
 76
     0
330
23
  0
LAYOUT
  5
22
102
{ACAD_REACTORS
330
1A
102
}
330
1A
100
AcDbPlotSettings
  1

  2

  4

  6

 40
0.0
 41
0.0
 42
0.0
 43
0.0
 44
0.0
 45
0.0
 46
0.0
 47
0.0
 48
0.0
 49
0.0
140
0.0
141
0.0
142
1.0
143
1.0
 70
  1712
 72
     0
 73
     0
 74
     0
  7

 75
     0
 76
     0
 77
     2
 78
   300
147
1.0
148
0.0
149
0.0
100
AcDbLayout
  1
Model
 70
     1
 71
     0
 10
0.0
 20
0.0
 11
0.0
 21
0.0
 12
0.0
 22
0.0
 32
0.0
 14
-4.13544094488189
 24
-5.368673228346457
 34
0.0
 15
3.961259842519685
 25
5.42203937007874
 35
0.0
146
0.0
 13
0.0
 23
0.0
 33
0.0
 16
1.0
 26
0.0
 36
0.0
 17
0.0
 27
1.0
 37
0.0
 76
     0
330
1F
  0
MLINESTYLE
  5
18
102
{ACAD_REACTORS
330
17
102
}
330
17
100
AcDbMlineStyle
  2
Standard
 70
     0
  3

 62
   256
 51
90.0
 52
90.0
 71
     2
 49
0.5
 62
   256
  6
BYLAYER
 49
-0.5
 62
   256
  6
BYLAYER
  0
ACDBPLACEHOLDER
  5
F
102
{ACAD_REACTORS
330
E
102
}
330
E
  0
ENDSEC
  0
EOF
