  0
SECTION
  2
HEADER
  9
$ACADVER
  1
AC1006
  9
$EXTMIN
 10
0.000000
 20
0.000000
 30
0.000000
  9
$EXTMAX
 10
1800.000000
 20
3600.000000
 30
0.000000
  0
ENDSEC
  0
SECTION
  2
ENTITIES
  0
POLYLINE
  8
0
 66
1
 70
1
  0
VERTEX
  8
0
 10
210.000000
 20
3539.577552
 42
0.000000
  0
VERTEX
  8
0
 10
210.000000
 20
3518.155104
 42
0.000000
  0
VERTEX
  8
0
 10
206.250000
 20
3516.939428
 42
0.035761
  0
VERTEX
  8
0
 10
197.660222
 20
3513.458841
 42
0.022824
  0
VERTEX
  8
0
 10
188.209874
 20
3508.270133
 42
0.022434
  0
VERTEX
  8
0
 10
179.011920
 20
3502.076732
 42
0.028651
  0
VERTEX
  8
0
 10
171.163259
 20
3495.535923
 42
0.077546
  0
VERTEX
  8
0
 10
152.670649
 20
3471.902777
 42
0.076501
  0
VERTEX
  8
0
 10
142.149830
 20
3443.650924
 42
0.076015
  0
VERTEX
  8
0
 10
140.573122
 20
3413.381626
 42
0.075081
  0
VERTEX
  8
0
 10
148.091083
 20
3383.886692
 42
0.071689
  0
VERTEX
  8
0
 10
161.479986
 20
3361.681199
 42
0.065346
  0
VERTEX
  8
0
 10
180.973711
 20
3343.353922
 42
0.065472
  0
VERTEX
  8
0
 10
204.497537
 20
3330.706633
 42
0.072515
  0
VERTEX
  8
0
 10
229.687654
 20
3325.132613
 42
0.048265
  0
VERTEX
  8
0
 10
251.954596
 20
3325.655145
 42
0.057133
  0
VERTEX
  8
0
 10
272.423958
 20
3330.535643
 42
0.057528
  0
VERTEX
  8
0
 10
291.144037
 20
3339.883571
 42
0.050007
  0
VERTEX
  8
0
 10
308.228048
 20
3353.642048
 42
0.034297
  0
VERTEX
  8
0
 10
316.891845
 20
3363.434769
 42
0.034420
  0
VERTEX
  8
0
 10
324.124232
 20
3374.308694
 42
0.033204
  0
VERTEX
  8
0
 10
330.011203
 20
3386.442047
 42
0.027692
  0
VERTEX
  8
0
 10
334.654779
 20
3400.000000
 42
0.028165
  0
VERTEX
  8
0
 10
335.570443
 20
3404.127844
 42
0.021980
  0
VERTEX
  8
0
 10
336.111395
 20
3408.690012
 42
0.014822
  0
VERTEX
  8
0
 10
336.380571
 20
3414.744857
 42
0.004415
  0
VERTEX
  8
0
 10
336.435689
 20
3424.000000
 42
0.003937
  0
VERTEX
  8
0
 10
336.323049
 20
3434.478541
 42
0.021391
  0
VERTEX
  8
0
 10
335.974569
 20
3440.147044
 42
0.031950
  0
VERTEX
  8
0
 10
335.201516
 20
3444.703724
 42
0.016525
  0
VERTEX
  8
0
 10
333.687847
 20
3450.281839
 42
0.048156
  0
VERTEX
  8
0
 10
325.527835
 20
3469.895112
 42
0.052475
  0
VERTEX
  8
0
 10
313.953877
 20
3486.982594
 42
0.052793
  0
VERTEX
  8
0
 10
299.145641
 20
3501.201614
 42
0.049816
  0
VERTEX
  8
0
 10
281.409664
 20
3512.322765
 42
0.006678
  0
VERTEX
  8
0
 10
278.489221
 20
3513.723277
 42
0.006009
  0
VERTEX
  8
0
 10
275.428151
 20
3515.096823
 42
0.006032
  0
VERTEX
  8
0
 10
272.653296
 20
3516.262512
 42
0.018850
  0
VERTEX
  8
0
 10
270.750000
 20
3516.952841
 42
0.000000
  0
VERTEX
  8
0
 10
267.000000
 20
3518.155104
 42
0.000000
  0
VERTEX
  8
0
 10
267.000000
 20
3539.577552
 42
0.000000
  0
VERTEX
  8
0
 10
267.000000
 20
3561.000000
 42
0.000000
  0
VERTEX
  8
0
 10
257.500000
 20
3561.000000
 42
0.000000
  0
VERTEX
  8
0
 10
248.000000
 20
3561.000000
 42
0.000000
  0
VERTEX
  8
0
 10
248.000000
 20
3534.019052
 42
0.000000
  0
VERTEX
  8
0
 10
248.000000
 20
3507.038104
 42
0.000000
  0
VERTEX
  8
0
 10
250.750000
 20
3506.473243
 42
-0.025628
  0
VERTEX
  8
0
 10
264.668297
 20
3502.862454
 42
-0.037691
  0
VERTEX
  8
0
 10
276.395355
 20
3498.172760
 42
-0.040261
  0
VERTEX
  8
0
 10
286.695374
 20
3492.051040
 42
-0.035967
  0
VERTEX
  8
0
 10
296.303130
 20
3484.143524
 42
-0.049749
  0
VERTEX
  8
0
 10
307.378349
 20
3471.280363
 42
-0.052586
  0
VERTEX
  8
0
 10
315.458560
 20
3456.710482
 42
-0.052341
  0
VERTEX
  8
0
 10
320.349416
 20
3440.712470
 42
-0.048455
  0
VERTEX
  8
0
 10
321.982636
 20
3423.621775
 42
-0.017697
  0
VERTEX
  8
0
 10
321.655353
 20
3414.768535
 42
-0.026010
  0
VERTEX
  8
0
 10
320.689794
 20
3407.043599
 42
-0.027457
  0
VERTEX
  8
0
 10
318.980812
 20
3399.785766
 42
-0.023446
  0
VERTEX
  8
0
 10
316.411077
 20
3392.357138
 42
-0.057064
  0
VERTEX
  8
0
 10
307.038904
 20
3374.951039
 42
-0.059383
  0
VERTEX
  8
0
 10
294.081640
 20
3360.371583
 42
-0.059194
  0
VERTEX
  8
0
 10
278.020402
 20
3349.208997
 42
-0.056071
  0
VERTEX
  8
0
 10
259.500000
 20
3341.874185
 42
-0.041821
  0
VERTEX
  8
0
 10
250.056291
 20
3340.141385
 42
-0.024303
  0
VERTEX
  8
0
 10
238.534963
 20
3339.573158
 42
-0.024293
  0
VERTEX
  8
0
 10
226.997416
 20
3340.126132
 42
-0.041335
  0
VERTEX
  8
0
 10
217.500000
 20
3341.845450
 42
-0.053021
  0
VERTEX
  8
0
 10
200.578456
 20
3348.363108
 42
-0.052684
  0
VERTEX
  8
0
 10
185.366792
 20
3358.304748
 42
-0.052945
  0
VERTEX
  8
0
 10
172.633924
 20
3371.153564
 42
-0.054633
  0
VERTEX
  8
0
 10
163.036594
 20
3386.262108
 42
-0.024226
  0
VERTEX
  8
0
 10
159.152818
 20
3395.239165
 42
-0.033526
  0
VERTEX
  8
0
 10
156.620799
 20
3403.636740
 42
-0.032990
  0
VERTEX
  8
0
 10
155.207482
 20
3412.401891
 42
-0.022409
  0
VERTEX
  8
0
 10
154.711266
 20
3422.500000
 42
-0.017827
  0
VERTEX
  8
0
 10
154.996512
 20
3431.592720
 42
-0.028770
  0
VERTEX
  8
0
 10
155.958306
 20
3439.275859
 42
-0.029526
  0
VERTEX
  8
0
 10
157.772617
 20
3446.654818
 42
-0.020111
  0
VERTEX
  8
0
 10
160.658283
 20
3454.803551
 42
-0.048473
  0
VERTEX
  8
0
 10
167.837387
 20
3468.680220
 42
-0.046699
  0
VERTEX
  8
0
 10
177.632414
 20
3481.104009
 42
-0.046601
  0
VERTEX
  8
0
 10
189.584875
 20
3491.517498
 42
-0.047828
  0
VERTEX
  8
0
 10
203.159724
 20
3499.434443
 42
-0.022120
  0
VERTEX
  8
0
 10
210.836501
 20
3502.573558
 42
-0.028680
  0
VERTEX
  8
0
 10
218.129386
 20
3504.722772
 42
-0.026777
  0
VERTEX
  8
0
 10
226.006985
 20
3506.121299
 42
-0.015928
  0
VERTEX
  8
0
 10
235.500000
 20
3506.980908
 42
0.000000
  0
VERTEX
  8
0
 10
247.500000
 20
3507.683123
 42
0.000000
  0
VERTEX
  8
0
 10
238.250000
 20
3507.841562
 42
0.000000
  0
VERTEX
  8
0
 10
229.000000
 20
3508.000000
 42
0.000000
  0
VERTEX
  8
0
 10
229.000000
 20
3534.500000
 42
0.000000
  0
VERTEX
  8
0
 10
229.000000
 20
3561.000000
 42
0.000000
  0
VERTEX
  8
0
 10
219.500000
 20
3561.000000
 42
0.000000
  0
VERTEX
  8
0
 10
210.000000
 20
3561.000000
 42
0.000000
  0
SEQEND
  0
POLYLINE
  8
0
 66
1
 70
1
  0
VERTEX
  8
0
 10
455.769502
 20
3539.388301
 42
0.000000
  0
VERTEX
  8
0
 10
455.500000
 20
3517.776602
 42
0.000000
  0
VERTEX
  8
0
 10
449.452011
 20
3515.587338
 42
0.059587
  0
VERTEX
  8
0
 10
431.234265
 20
3506.417030
 42
0.052015
  0
VERTEX
  8
0
 10
414.757611
 20
3492.837340
 42
0.051556
  0
VERTEX
  8
0
 10
401.303875
 20
3476.012868
 42
0.056140
  0
VERTEX
  8
0
 10
392.022868
 20
3457.249563
 42
0.107082
  0
VERTEX
  8
0
 10
386.396479
 20
3415.460699
 42
0.108453
  0
VERTEX
  8
0
 10
398.625156
 20
3375.300829
 42
0.107832
  0
VERTEX
  8
0
 10
426.630546
 20
3343.784219
 42
0.104786
  0
VERTEX
  8
0
 10
465.500000
 20
3326.394682
 42
0.036939
  0
VERTEX
  8
0
 10
473.794309
 20
3325.242572
 42
0.016844
  0
VERTEX
  8
0
 10
484.737185
 20
3324.908820
 42
0.016882
  0
VERTEX
  8
0
 10
495.791638
 20
3325.317538
 42
0.033222
  0
VERTEX
  8
0
 10
504.500000
 20
3326.519318
 42
0.078655
  0
VERTEX
  8
0
 10
533.378087
 20
3337.407011
 42
0.078397
  0
VERTEX
  8
0
 10
557.518668
 20
3356.690293
 42
0.078172
  0
VERTEX
  8
0
 10
574.602946
 20
3382.523872
 42
0.077533
  0
VERTEX
  8
0
 10
582.992183
 20
3412.427668
 42
0.046646
  0
VERTEX
  8
0
 10
583.426988
 20
3429.455191
 42
0.043534
  0
VERTEX
  8
0
 10
580.740804
 20
3446.679378
 42
0.043036
  0
VERTEX
  8
0
 10
575.066150
 20
3463.369459
 42
0.043264
  0
VERTEX
  8
0
 10
566.626049
 20
3478.810395
 42
0.043319
  0
VERTEX
  8
0
 10
557.821130
 20
3489.849298
 42
0.033448
  0
VERTEX
  8
0
 10
546.489922
 20
3500.280171
 42
0.033577
  0
VERTEX
  8
0
 10
533.931264
 20
3509.058605
 42
0.045006
  0
VERTEX
  8
0
 10
521.445884
 20
3515.135544
 42
0.000000
  0
VERTEX
  8
0
 10
513.000000
 20
3518.343744
 42
0.000000
  0
VERTEX
  8
0
 10
513.000000
 20
3539.671872
 42
0.000000
  0
VERTEX
  8
0
 10
513.000000
 20
3561.000000
 42
0.000000
  0
VERTEX
  8
0
 10
503.500000
 20
3561.000000
 42
0.000000
  0
VERTEX
  8
0
 10
494.000000
 20
3561.000000
 42
0.000000
  0
VERTEX
  8
0
 10
494.000000
 20
3534.500000
 42
0.000000
  0
VERTEX
  8
0
 10
494.000000
 20
3508.000000
 42
0.000000
  0
VERTEX
  8
0
 10
484.750000
 20
3507.832900
 42
0.000000
  0
VERTEX
  8
0
 10
475.500000
 20
3507.665799
 42
0.000000
  0
VERTEX
  8
0
 10
487.500000
 20
3506.999882
 42
-0.040326
  0
VERTEX
  8
0
 10
504.610646
 20
3504.657591
 42
-0.051919
  0
VERTEX
  8
0
 10
519.665977
 20
3499.661749
 42
-0.052831
  0
VERTEX
  8
0
 10
533.165441
 20
3491.757498
 42
-0.044013
  0
VERTEX
  8
0
 10
545.635560
 20
3480.748678
 42
-0.075233
  0
VERTEX
  8
0
 10
560.324842
 20
3459.704843
 42
-0.078674
  0
VERTEX
  8
0
 10
567.847483
 20
3435.574039
 42
-0.078257
  0
VERTEX
  8
0
 10
567.567632
 20
3410.188905
 42
-0.073323
  0
VERTEX
  8
0
 10
559.560891
 20
3385.500000
 42
-0.050181
  0
VERTEX
  8
0
 10
550.715074
 20
3371.399012
 42
-0.050808
  0
VERTEX
  8
0
 10
539.270300
 20
3359.407447
 42
-0.050434
  0
VERTEX
  8
0
 10
525.558257
 20
3349.896874
 42
-0.048049
  0
VERTEX
  8
0
 10
510.000000
 20
3343.142078
 42
-0.070805
  0
VERTEX
  8
0
 10
487.621963
 20
3339.249889
 42
-0.068645
  0
VERTEX
  8
0
 10
464.797679
 20
3341.683935
 42
-0.068373
  0
VERTEX
  8
0
 10
443.405523
 20
3350.224496
 42
-0.069288
  0
VERTEX
  8
0
 10
425.216809
 20
3364.188104
 42
-0.033291
  0
VERTEX
  8
0
 10
417.496978
 20
3373.148758
 42
-0.035187
  0
VERTEX
  8
0
 10
411.190270
 20
3382.896742
 42
-0.035296
  0
VERTEX
  8
0
 10
406.328985
 20
3393.403776
 42
-0.033934
  0
VERTEX
  8
0
 10
402.919170
 20
3404.627812
 42
-0.013291
  0
VERTEX
  8
0
 10
401.799843
 20
3410.135111
 42
-0.024436
  0
VERTEX
  8
0
 10
401.229268
 20
3414.673330
 42
-0.021152
  0
VERTEX
  8
0
 10
401.060109
 20
3419.659920
 42
-0.007537
  0
VERTEX
  8
0
 10
401.227320
 20
3426.785387
 42
-0.008098
  0
VERTEX
  8
0
 10
401.623107
 20
3434.009583
 42
-0.023653
  0
VERTEX
  8
0
 10
402.211704
 20
3438.965058
 42
-0.026670
  0
VERTEX
  8
0
 10
403.222142
 20
3443.508220
 42
-0.012801
  0
VERTEX
  8
0
 10
404.974840
 20
3449.219190
 42
-0.037874
  0
VERTEX
  8
0
 10
410.550609
 20
3462.440701
 42
-0.043158
  0
VERTEX
  8
0
 10
417.858405
 20
3474.069320
 42
-0.043569
  0
VERTEX
  8
0
 10
426.986874
 20
3484.179609
 42
-0.039962
  0
VERTEX
  8
0
 10
437.982706
 20
3492.880762
 42
-0.023468
  0
VERTEX
  8
0
 10
445.827726
 20
3497.611201
 42
-0.029482
  0
VERTEX
  8
0
 10
453.518334
 20
3501.201183
 42
-0.027541
  0
VERTEX
  8
0
 10
461.992360
 20
3504.035010
 42
-0.016842
  0
VERTEX
  8
0
 10
472.250000
 20
3506.479810
 42
0.000000
  0
VERTEX
  8
0
 10
475.000000
 20
3507.038104
 42
0.000000
  0
VERTEX
  8
0
 10
475.000000
 20
3534.019052
 42
0.000000
  0
VERTEX
  8
0
 10
475.000000
 20
3561.000000
 42
0.000000
  0
VERTEX
  8
0
 10
465.519502
 20
3561.000000
 42
0.000000
  0
VERTEX
  8
0
 10
456.039005
 20
3561.000000
 42
0.000000
  0
SEQEND
  0
POLYLINE
  8
0
 66
1
 70
1
  0
VERTEX
  8
0
 10
703.000000
 20
3539.671872
 42
0.000000
  0
VERTEX
  8
0
 10
703.000000
 20
3518.343744
 42
0.000000
  0
VERTEX
  8
0
 10
694.710858
 20
3515.195083
 42
0.033599
  0
VERTEX
  8
0
 10
685.814945
 20
3511.113156
 42
0.026083
  0
VERTEX
  8
0
 10
676.728992
 20
3505.548515
 42
0.025192
  0
VERTEX
  8
0
 10
667.923366
 20
3498.825953
 42
0.025401
  0
VERTEX
  8
0
 10
659.863933
 20
3491.269321
 42
0.089728
  0
VERTEX
  8
0
 10
640.260694
 20
3461.852695
 42
0.092117
  0
VERTEX
  8
0
 10
632.440240
 20
3427.703639
 42
0.091410
  0
VERTEX
  8
0
 10
637.390105
 20
3392.806059
 42
0.086752
  0
VERTEX
  8
0
 10
654.476479
 20
3361.251390
 42
0.044505
  0
VERTEX
  8
0
 10
664.501096
 20
3350.668286
 42
0.035127
  0
VERTEX
  8
0
 10
677.033724
 20
3341.075213
 42
0.034831
  0
VERTEX
  8
0
 10
690.921067
 20
3333.244075
 42
0.041367
  0
VERTEX
  8
0
 10
705.000000
 20
3327.926472
 42
0.043159
  0
VERTEX
  8
0
 10
713.743051
 20
3326.225211
 42
0.014943
  0
VERTEX
  8
0
 10
726.574006
 20
3325.247723
 42
0.014934
  0
VERTEX
  8
0
 10
739.436250
 20
3325.038234
 42
0.043365
  0
VERTEX
  8
0
 10
748.278225
 20
3325.927673
 42
0.049928
  0
VERTEX
  8
0
 10
767.092528
 20
3331.474623
 42
0.046718
  0
VERTEX
  8
0
 10
784.885102
 20
3340.734142
 42
0.047254
  0
VERTEX
  8
0
 10
800.455196
 20
3353.010243
 42
0.053993
  0
VERTEX
  8
0
 10
812.680174
 20
3367.500000
 42
0.110127
  0
VERTEX
  8
0
 10
828.758597
 20
3408.518675
 42
0.112843
  0
VERTEX
  8
0
 10
825.679784
 20
3452.095823
 42
0.112756
  0
VERTEX
  8
0
 10
803.967082
 20
3490.032466
 42
0.109821
  0
VERTEX
  8
0
 10
767.750000
 20
3515.217977
 42
0.000000
  0
VERTEX
  8
0
 10
760.000000
 20
3518.393423
 42
0.000000
  0
VERTEX
  8
0
 10
760.000000
 20
3539.696712
 42
0.000000
  0
VERTEX
  8
0
 10
760.000000
 20
3561.000000
 42
0.000000
  0
VERTEX
  8
0
 10
750.500000
 20
3561.000000
 42
0.000000
  0
VERTEX
  8
0
 10
741.000000
 20
3561.000000
 42
0.000000
  0
VERTEX
  8
0
 10
741.000000
 20
3534.019052
 42
0.000000
  0
VERTEX
  8
0
 10
741.000000
 20
3507.038104
 42
0.000000
  0
VERTEX
  8
0
 10
743.250000
 20
3506.526672
 42
0.001784
  0
VERTEX
  8
0
 10
744.426368
 20
3506.263692
 42
0.000530
  0
VERTEX
  8
0
 10
746.225971
 20
3505.870124
 42
0.000532
  0
VERTEX
  8
0
 10
748.248761
 20
3505.432247
 42
0.000574
  0
VERTEX
  8
0
 10
750.221390
 20
3505.009796
 42
-0.045294
  0
VERTEX
  8
0
 10
762.551630
 20
3501.190912
 42
-0.039313
  0
VERTEX
  8
0
 10
774.623558
 20
3495.066994
 42
-0.038896
  0
VERTEX
  8
0
 10
785.718168
 20
3487.048935
 42
-0.041914
  0
VERTEX
  8
0
 10
795.139805
 20
3477.590801
 42
-0.067412
  0
VERTEX
  8
0
 10
807.189915
 20
3458.585180
 42
-0.067246
  0
VERTEX
  8
0
 10
813.762997
 20
3437.043187
 42
-0.066935
  0
VERTEX
  8
0
 10
814.400504
 20
3414.438453
 42
-0.065742
  0
VERTEX
  8
0
 10
809.063756
 20
3392.321545
 42
-0.081616
  0
VERTEX
  8
0
 10
795.942348
 20
3369.974975
 42
-0.077171
  0
VERTEX
  8
0
 10
776.136369
 20
3352.500109
 42
-0.077305
  0
VERTEX
  8
0
 10
751.997621
 20
3341.876013
 42
-0.082358
  0
VERTEX
  8
0
 10
726.305736
 20
3339.402865
 42
-0.088070
  0
VERTEX
  8
0
 10
696.612937
 20
3346.797251
 42
-0.091347
  0
VERTEX
  8
0
 10
671.705072
 20
3363.908669
 42
-0.091706
  0
VERTEX
  8
0
 10
654.601442
 20
3388.707915
 42
-0.089605
  0
VERTEX
  8
0
 10
647.320517
 20
3418.187626
 42
-0.074355
  0
VERTEX
  8
0
 10
649.427824
 20
3442.909383
 42
-0.075154
  0
VERTEX
  8
0
 10
658.677815
 20
3465.835111
 42
-0.075019
  0
VERTEX
  8
0
 10
674.309364
 20
3485.035950
 42
-0.073678
  0
VERTEX
  8
0
 10
695.000000
 20
3498.909432
 42
-0.019081
  0
VERTEX
  8
0
 10
703.223446
 20
3502.438894
 42
-0.032122
  0
VERTEX
  8
0
 10
710.388422
 20
3504.679164
 42
-0.030240
  0
VERTEX
  8
0
 10
718.077035
 20
3506.065198
 42
-0.014794
  0
VERTEX
  8
0
 10
728.000000
 20
3506.943749
 42
0.000000
  0
VERTEX
  8
0
 10
740.500000
 20
3507.678603
 42
0.000000
  0
VERTEX
  8
0
 10
731.250000
 20
3507.839301
 42
0.000000
  0
VERTEX
  8
0
 10
722.000000
 20
3508.000000
 42
0.000000
  0
VERTEX
  8
0
 10
722.000000
 20
3534.500000
 42
0.000000
  0
VERTEX
  8
0
 10
722.000000
 20
3561.000000
 42
0.000000
  0
VERTEX
  8
0
 10
712.500000
 20
3561.000000
 42
0.000000
  0
VERTEX
  8
0
 10
703.000000
 20
3561.000000
 42
0.000000
  0
SEQEND
  0
POLYLINE
  8
0
 66
1
 70
1
  0
VERTEX
  8
0
 10
1415.000000
 20
3520.635713
 42
0.000000
  0
VERTEX
  8
0
 10
1415.000000
 20
3492.196374
 42
0.000000
  0
VERTEX
  8
0
 10
1408.750000
 20
3491.531492
 42
0.033289
  0
VERTEX
  8
0
 10
1367.268790
 20
3484.302636
 42
0.038420
  0
VERTEX
  8
0
 10
1329.122606
 20
3471.835115
 42
0.041442
  0
VERTEX
  8
0
 10
1296.101714
 20
3454.831285
 42
0.056747
  0
VERTEX
  8
0
 10
1269.953080
 20
3434.040854
 42
0.034031
  0
VERTEX
  8
0
 10
1256.545381
 20
3418.681248
 42
0.053618
  0
VERTEX
  8
0
 10
1247.518667
 20
3403.706801
 42
0.058308
  0
VERTEX
  8
0
 10
1242.376101
 20
3388.129396
 42
0.050504
  0
VERTEX
  8
0
 10
1240.632165
 20
3371.000000
 42
0.049476
  0
VERTEX
  8
0
 10
1242.224765
 20
3354.856191
 42
0.053453
  0
VERTEX
  8
0
 10
1246.956160
 20
3339.775247
 42
0.050178
  0
VERTEX
  8
0
 10
1255.090761
 20
3325.269475
 42
0.035893
  0
VERTEX
  8
0
 10
1266.842211
 20
3310.829635
 42
0.061074
  0
VERTEX
  8
0
 10
1294.087757
 20
3288.162128
 42
0.045705
  0
VERTEX
  8
0
 10
1328.745341
 20
3270.092913
 42
0.041530
  0
VERTEX
  8
0
 10
1369.602095
 20
3257.174832
 42
0.032888
  0
VERTEX
  8
0
 10
1415.368556
 20
3249.907883
 42
0.020581
  0
VERTEX
  8
0
 10
1431.429507
 20
3249.095142
 42
0.009240
  0
VERTEX
  8
0
 10
1452.561537
 20
3249.286909
 42
0.009213
  0
VERTEX
  8
0
 10
1473.573366
 20
3250.253703
 42
0.021706
  0
VERTEX
  8
0
 10
1489.171314
 20
3251.941895
 42
0.029400
  0
VERTEX
  8
0
 10
1529.277231
 20
3260.490185
 42
0.038436
  0
VERTEX
  8
0
 10
1564.541404
 20
3273.187741
 42
0.042355
  0
VERTEX
  8
0
 10
1594.450985
 20
3289.804693
 42
0.054222
  0
VERTEX
  8
0
 10
1618.530197
 20
3310.090832
 42
0.080847
  0
VERTEX
  8
0
 10
1638.784171
 20
3339.632181
 42
0.110360
  0
VERTEX
  8
0
 10
1645.800043
 20
3371.031257
 42
0.110469
  0
VERTEX
  8
0
 10
1638.782233
 20
3402.407258
 42
0.081130
  0
VERTEX
  8
0
 10
1618.530197
 20
3431.883077
 42
0.057855
  0
VERTEX
  8
0
 10
1592.299516
 20
3453.590211
 42
0.043789
  0
VERTEX
  8
0
 10
1559.268637
 20
3471.132659
 42
0.040165
  0
VERTEX
  8
0
 10
1520.659942
 20
3483.944366
 42
0.032758
  0
VERTEX
  8
0
 10
1477.765454
 20
3491.511747
 42
0.000000
  0
VERTEX
  8
0
 10
1472.030909
 20
3492.140051
 42
0.000000
  0
VERTEX
  8
0
 10
1471.765454
 20
3520.320025
 42
0.000000
  0
VERTEX
  8
0
 10
1471.500000
 20
3548.500000
 42
0.000000
  0
VERTEX
  8
0
 10
1462.250000
 20
3548.787526
 42
0.000000
  0
VERTEX
  8
0
 10
1453.000000
 20
3549.075052
 42
0.000000
  0
VERTEX
  8
0
 10
1453.000000
 20
3511.598799
 42
0.000000
  0
VERTEX
  8
0
 10
1453.000000
 20
3474.122546
 42
0.000000
  0
VERTEX
  8
0
 10
1457.250000
 20
3473.606480
 42
0.006592
  0
VERTEX
  8
0
 10
1459.449390
 20
3473.368794
 42
0.002068
  0
VERTEX
  8
0
 10
1462.748438
 20
3473.069976
 42
0.002066
  0
VERTEX
  8
0
 10
1466.434034
 20
3472.766845
 42
0.002285
  0
VERTEX
  8
0
 10
1470.000000
 20
3472.504773
 42
-0.029466
  0
VERTEX
  8
0
 10
1498.162853
 20
3468.888539
 42
-0.026341
  0
VERTEX
  8
0
 10
1526.801452
 20
3461.901695
 42
-0.026953
  0
VERTEX
  8
0
 10
1553.759818
 20
3452.187572
 42
-0.036290
  0
VERTEX
  8
0
 10
1576.854282
 20
3440.389624
 42
-0.058325
  0
VERTEX
  8
0
 10
1604.385844
 20
3418.962153
 42
-0.094456
  0
VERTEX
  8
0
 10
1621.196949
 20
3394.628441
 42
-0.112028
  0
VERTEX
  8
0
 10
1626.220733
 20
3368.933837
 42
-0.110312
  0
VERTEX
  8
0
 10
1619.714219
 20
3343.428751
 42
-0.050763
  0
VERTEX
  8
0
 10
1611.930969
 20
3331.311243
 42
-0.034639
  0
VERTEX
  8
0
 10
1600.864808
 20
3319.231661
 42
-0.032318
  0
VERTEX
  8
0
 10
1587.278241
 20
3307.896811
 42
-0.029349
  0
VERTEX
  8
0
 10
1571.913345
 20
3298.005072
 42
-0.054855
  0
VERTEX
  8
0
 10
1531.766945
 20
3280.855387
 42
-0.040463
  0
VERTEX
  8
0
 10
1484.492157
 20
3270.619346
 42
-0.038968
  0
VERTEX
  8
0
 10
1434.106830
 20
3267.873116
 42
-0.040672
  0
VERTEX
  8
0
 10
1384.637722
 20
3273.073809
 42
-0.033811
  0
VERTEX
  8
0
 10
1352.315881
 20
3281.452356
 42
-0.035990
  0
VERTEX
  8
0
 10
1322.111907
 20
3293.980433
 42
-0.038676
  0
VERTEX
  8
0
 10
1296.390084
 20
3309.484549
 42
-0.062461
  0
VERTEX
  8
0
 10
1277.615017
 20
3326.784152
 42
-0.078459
  0
VERTEX
  8
0
 10
1263.416511
 20
3350.208824
 42
-0.113154
  0
VERTEX
  8
0
 10
1259.500016
 20
3374.027551
 42
-0.110027
  0
VERTEX
  8
0
 10
1266.335413
 20
3397.660319
 42
-0.071237
  0
VERTEX
  8
0
 10
1283.470580
 20
3420.533215
 42
-0.060205
  0
VERTEX
  8
0
 10
1307.397167
 20
3439.308439
 42
-0.040849
  0
VERTEX
  8
0
 10
1338.413919
 20
3454.808161
 42
-0.038223
  0
VERTEX
  8
0
 10
1374.008582
 20
3466.028355
 42
-0.035822
  0
VERTEX
  8
0
 10
1411.678752
 20
3472.004777
 42
0.002155
  0
VERTEX
  8
0
 10
1416.917367
 20
3472.477733
 42
0.002278
  0
VERTEX
  8
0
 10
1422.055633
 20
3472.987602
 42
0.002174
  0
VERTEX
  8
0
 10
1426.479566
 20
3473.466406
 42
0.010361
  0
VERTEX
  8
0
 10
1429.000000
 20
3473.803306
 42
0.000000
  0
VERTEX
  8
0
 10
1433.500000
 20
3474.500000
 42
0.000000
  0
VERTEX
  8
0
 10
1433.500000
 20
3511.500000
 42
0.000000
  0
VERTEX
  8
0
 10
1433.500000
 20
3548.500000
 42
0.000000
  0
VERTEX
  8
0
 10
1424.250000
 20
3548.787526
 42
0.000000
  0
VERTEX
  8
0
 10
1415.000000
 20
3549.075052
 42
0.000000
  0
SEQEND
  0
POLYLINE
  8
0
 66
1
 70
1
  0
VERTEX
  8
0
 10
952.500000
 20
3518.902648
 42
0.034006
  0
VERTEX
  8
0
 10
944.343097
 20
3516.313370
 42
0.018628
  0
VERTEX
  8
0
 10
934.732251
 20
3512.106328
 42
0.018593
  0
VERTEX
  8
0
 10
925.379780
 20
3507.153274
 42
0.031445
  0
VERTEX
  8
0
 10
918.000000
 20
3502.243079
 42
0.032832
  0
VERTEX
  8
0
 10
908.671402
 20
3494.133520
 42
0.028828
  0
VERTEX
  8
0
 10
900.043375
 20
3484.529384
 42
0.028877
  0
VERTEX
  8
0
 10
892.592741
 20
3474.016119
 42
0.033287
  0
VERTEX
  8
0
 10
886.785745
 20
3463.187743
 42
0.053517
  0
VERTEX
  8
0
 10
880.887494
 20
3445.315195
 42
0.047272
  0
VERTEX
  8
0
 10
878.589912
 20
3425.827377
 42
0.046912
  0
VERTEX
  8
0
 10
879.990287
 20
3406.101572
 42
0.050778
  0
VERTEX
  8
0
 10
885.054040
 20
3387.523157
 42
0.062423
  0
VERTEX
  8
0
 10
896.492882
 20
3366.193292
 42
0.061638
  0
VERTEX
  8
0
 10
912.883928
 20
3348.244145
 42
0.061169
  0
VERTEX
  8
0
 10
933.281533
 20
3334.721312
 42
0.059792
  0
VERTEX
  8
0
 10
956.500000
 20
3326.408539
 42
0.036506
  0
VERTEX
  8
0
 10
964.910689
 20
3325.125484
 42
0.016163
  0
VERTEX
  8
0
 10
976.138979
 20
3324.607714
 42
0.016107
  0
VERTEX
  8
0
 10
987.313553
 20
3324.813949
 42
0.038953
  0
VERTEX
  8
0
 10
995.500000
 20
3325.871991
 42
0.031890
  0
VERTEX
  8
0
 10
1009.819363
 20
3329.837393
 42
0.037857
  0
VERTEX
  8
0
 10
1022.687398
 20
3335.424011
 42
0.037918
  0
VERTEX
  8
0
 10
1034.549017
 20
3342.878359
 42
0.032172
  0
VERTEX
  8
0
 10
1045.859143
 20
3352.427836
 42
0.033059
  0
VERTEX
  8
0
 10
1054.858312
 20
3362.299676
 42
0.034446
  0
VERTEX
  8
0
 10
1062.343749
 20
3373.142456
 42
0.034230
  0
VERTEX
  8
0
 10
1068.309076
 20
3384.975852
 42
0.031805
  0
VERTEX
  8
0
 10
1072.773189
 20
3397.803085
 42
0.013638
  0
VERTEX
  8
0
 10
1074.264194
 20
3403.790828
 42
0.028749
  0
VERTEX
  8
0
 10
1075.023550
 20
3408.517539
 42
0.021672
  0
VERTEX
  8
0
 10
1075.348360
 20
3414.066130
 42
0.004912
  0
VERTEX
  8
0
 10
1075.398464
 20
3423.500000
 42
0.014460
  0
VERTEX
  8
0
 10
1074.996746
 20
3435.511471
 42
0.032619
  0
VERTEX
  8
0
 10
1073.838791
 20
3444.539534
 42
0.034880
  0
VERTEX
  8
0
 10
1071.574800
 20
3452.964838
 42
0.018959
  0
VERTEX
  8
0
 10
1067.695208
 20
3462.962609
 42
0.060090
  0
VERTEX
  8
0
 10
1056.605721
 20
3481.971677
 42
0.055440
  0
VERTEX
  8
0
 10
1041.044920
 20
3498.379458
 42
0.055083
  0
VERTEX
  8
0
 10
1022.152438
 20
3511.058176
 42
0.057719
  0
VERTEX
  8
0
 10
1001.236454
 20
3519.067404
 42
0.008105
  0
VERTEX
  8
0
 10
998.135213
 20
3519.807223
 42
0.008544
  0
VERTEX
  8
0
 10
995.065500
 20
3520.432300
 42
0.008247
  0
VERTEX
  8
0
 10
992.403100
 20
3520.881918
 42
0.037719
  0
VERTEX
  8
0
 10
990.840037
 20
3521.000000
 42
0.000000
  0
VERTEX
  8
0
 10
988.000000
 20
3521.000000
 42
0.000000
  0
VERTEX
  8
0
 10
988.000000
 20
3514.000000
 42
0.000000
  0
VERTEX
  8
0
 10
988.000000
 20
3507.000000
 42
0.000000
  0
VERTEX
  8
0
 10
977.500000
 20
3507.000000
 42
0.000000
  0
VERTEX
  8
0
 10
967.000000
 20
3507.000000
 42
0.000000
  0
VERTEX
  8
0
 10
967.000000
 20
3514.000000
 42
0.000000
  0
VERTEX
  8
0
 10
967.000000
 20
3521.000000
 42
0.000000
  0
VERTEX
  8
0
 10
963.750000
 20
3520.927596
 42
0.031408
  0
VERTEX
  8
0
 10
961.992047
 20
3520.777685
 42
0.007556
  0
VERTEX
  8
0
 10
959.104687
 20
3520.302901
 42
0.007729
  0
VERTEX
  8
0
 10
955.801172
 20
3519.655412
 42
0.007596
  0
SEQEND
  0
POLYLINE
  8
0
 66
1
 70
1
  0
VERTEX
  8
0
 10
174.990640
 20
3219.750000
 42
0.000000
  0
VERTEX
  8
0
 10
174.981280
 20
3200.500000
 42
0.000000
  0
VERTEX
  8
0
 10
167.240640
 20
3198.156192
 42
0.055063
  0
VERTEX
  8
0
 10
144.534948
 20
3188.448280
 42
0.050490
  0
VERTEX
  8
0
 10
123.767514
 20
3173.780241
 42
0.050150
  0
VERTEX
  8
0
 10
106.233748
 20
3155.137155
 42
0.052703
  0
VERTEX
  8
0
 10
93.094992
 20
3133.669664
 42
0.027569
  0
VERTEX
  8
0
 10
88.023045
 20
3121.288033
 42
0.030149
  0
VERTEX
  8
0
 10
84.517018
 20
3108.784388
 42
0.029453
  0
VERTEX
  8
0
 10
82.481706
 20
3095.690859
 42
0.024118
  0
VERTEX
  8
0
 10
81.814753
 20
3081.539277
 42
0.087587
  0
VERTEX
  8
0
 10
89.311871
 20
3039.348571
 42
0.089442
  0
VERTEX
  8
0
 10
110.783235
 20
3002.618591
 42
0.089178
  0
VERTEX
  8
0
 10
143.795797
 20
2975.620827
 42
0.086429
  0
VERTEX
  8
0
 10
184.502408
 20
2961.441445
 42
0.029567
  0
VERTEX
  8
0
 10
194.323646
 20
2960.419903
 42
0.016967
  0
VERTEX
  8
0
 10
206.233788
 20
2960.293717
 42
0.016986
  0
VERTEX
  8
0
 10
218.037285
 20
2960.970847
 42
0.031646
  0
VERTEX
  8
0
 10
227.500000
 20
2962.445008
 42
0.068874
  0
VERTEX
  8
0
 10
261.279275
 20
2974.980459
 42
0.074083
  0
VERTEX
  8
0
 10
289.456970
 20
2995.993799
 42
0.074050
  0
VERTEX
  8
0
 10
310.294918
 20
3024.317012
 42
0.068727
  0
VERTEX
  8
0
 10
322.635042
 20
3058.203931
 42
0.036657
  0
VERTEX
  8
0
 10
324.061378
 20
3068.420687
 42
0.016199
  0
VERTEX
  8
0
 10
324.511819
 20
3082.051169
 42
0.016140
  0
VERTEX
  8
0
 10
324.082938
 20
3095.602645
 42
0.039198
  0
VERTEX
  8
0
 10
322.665260
 20
3105.500000
 42
0.011639
  0
VERTEX
  8
0
 10
320.523917
 20
3114.104716
 42
0.017661
  0
VERTEX
  8
0
 10
318.227439
 20
3121.463449
 42
0.018215
  0
VERTEX
  8
0
 10
315.474759
 20
3128.472153
 42
0.013559
  0
VERTEX
  8
0
 10
311.951146
 20
3136.000000
 42
0.039483
  0
VERTEX
  8
0
 10
301.341855
 20
3153.546370
 42
0.042285
  0
VERTEX
  8
0
 10
288.321635
 20
3168.778325
 42
0.042689
  0
VERTEX
  8
0
 10
273.046794
 20
3181.479944
 42
0.041807
  0
VERTEX
  8
0
 10
255.733559
 20
3191.503188
 42
0.010178
  0
VERTEX
  8
0
 10
251.632793
 20
3193.338735
 42
0.007093
  0
VERTEX
  8
0
 10
246.935796
 20
3195.249306
 42
0.007157
  0
VERTEX
  8
0
 10
242.376327
 20
3196.954186
 42
0.014694
  0
VERTEX
  8
0
 10
238.750000
 20
3198.132309
 42
0.000000
  0
VERTEX
  8
0
 10
231.000000
 20
3200.400668
 42
0.000000
  0
VERTEX
  8
0
 10
231.000000
 20
3219.700334
 42
0.000000
  0
VERTEX
  8
0
 10
231.000000
 20
3239.000000
 42
0.000000
  0
VERTEX
  8
0
 10
222.000000
 20
3239.000000
 42
0.000000
  0
VERTEX
  8
0
 10
213.000000
 20
3239.000000
 42
0.000000
  0
VERTEX
  8
0
 10
213.000000
 20
3213.500000
 42
0.000000
  0
VERTEX
  8
0
 10
213.000000
 20
3188.000000
 42
0.000000
  0
VERTEX
  8
0
 10
203.000000
 20
3188.000000
 42
0.000000
  0
VERTEX
  8
0
 10
193.000000
 20
3188.000000
 42
0.000000
  0
VERTEX
  8
0
 10
193.000000
 20
3213.500000
 42
0.000000
  0
VERTEX
  8
0
 10
193.000000
 20
3239.000000
 42
0.000000
  0
VERTEX
  8
0
 10
184.000000
 20
3239.000000
 42
0.000000
  0
VERTEX
  8
0
 10
175.000000
 20
3239.000000
 42
0.000000
  0
SEQEND
  0
POLYLINE
  8
0
 66
1
 70
1
  0
VERTEX
  8
0
 10
224.137342
 20
3184.972011
 42
-0.072819
  0
VERTEX
  8
0
 10
252.829631
 20
3174.614884
 42
-0.072597
  0
VERTEX
  8
0
 10
277.381862
 20
3156.458879
 42
-0.072795
  0
VERTEX
  8
0
 10
295.667515
 20
3132.092511
 42
-0.073867
  0
VERTEX
  8
0
 10
306.090115
 20
3103.626967
 42
-0.030691
  0
VERTEX
  8
0
 10
307.519303
 20
3093.641352
 42
-0.020108
  0
VERTEX
  8
0
 10
307.991146
 20
3082.022458
 42
-0.020124
  0
VERTEX
  8
0
 10
307.528501
 20
3070.423091
 42
-0.031127
  0
VERTEX
  8
0
 10
306.106418
 20
3060.500000
 42
-0.055734
  0
VERTEX
  8
0
 10
298.644659
 20
3037.672527
 42
-0.058083
  0
VERTEX
  8
0
 10
286.400462
 20
3017.398826
 42
-0.058016
  0
VERTEX
  8
0
 10
269.807327
 20
3000.465560
 42
-0.055380
  0
VERTEX
  8
0
 10
249.519233
 20
2987.490341
 42
-0.037304
  0
VERTEX
  8
0
 10
232.936439
 20
2980.794322
 42
-0.044830
  0
VERTEX
  8
0
 10
216.526224
 20
2977.131580
 42
-0.044846
  0
VERTEX
  8
0
 10
199.731160
 20
2976.453237
 42
-0.037379
  0
VERTEX
  8
0
 10
182.000000
 20
2978.663031
 42
-0.070827
  0
VERTEX
  8
0
 10
154.455150
 20
2988.410641
 42
-0.069800
  0
VERTEX
  8
0
 10
130.572385
 20
3005.493937
 42
-0.069486
  0
VERTEX
  8
0
 10
112.225704
 20
3028.568213
 42
-0.069135
  0
VERTEX
  8
0
 10
100.863616
 20
3055.824567
 42
-0.035746
  0
VERTEX
  8
0
 10
99.225287
 20
3064.557655
 42
-0.016910
  0
VERTEX
  8
0
 10
98.307041
 20
3075.987177
 42
-0.016925
  0
VERTEX
  8
0
 10
98.161547
 20
3087.621739
 42
-0.030972
  0
VERTEX
  8
0
 10
98.950335
 20
3097.072917
 42
-0.052888
  0
VERTEX
  8
0
 10
104.417703
 20
3118.407634
 42
-0.052622
  0
VERTEX
  8
0
 10
114.245287
 20
3138.159272
 42
-0.052440
  0
VERTEX
  8
0
 10
128.016874
 20
3155.484214
 42
-0.051806
  0
VERTEX
  8
0
 10
145.143500
 20
3169.644524
 42
-0.049581
  0
VERTEX
  8
0
 10
163.304528
 20
3179.291122
 42
-0.049425
  0
VERTEX
  8
0
 10
183.028232
 20
3185.185995
 42
-0.049318
  0
VERTEX
  8
0
 10
203.565967
 20
3187.103525
 42
-0.048933
  0
SEQEND
  0
POLYLINE
  8
0
 66
1
 70
1
  0
VERTEX
  8
0
 10
424.994999
 20
3219.750000
 42
0.000000
  0
VERTEX
  8
0
 10
424.989999
 20
3200.500000
 42
0.000000
  0
VERTEX
  8
0
 10
416.744999
 20
3198.031210
 42
0.073284
  0
VERTEX
  8
0
 10
386.321894
 20
3183.811091
 42
0.070124
  0
VERTEX
  8
0
 10
360.774544
 20
3161.242706
 42
0.069549
  0
VERTEX
  8
0
 10
342.293962
 20
3132.304621
 42
0.070082
  0
VERTEX
  8
0
 10
332.516396
 20
3099.482824
 42
0.070106
  0
VERTEX
  8
0
 10
332.198907
 20
3066.451112
 42
0.067937
  0
VERTEX
  8
0
 10
340.976584
 20
3034.239020
 42
0.067869
  0
VERTEX
  8
0
 10
358.077912
 20
3005.529813
 42
0.069714
  0
VERTEX
  8
0
 10
382.107057
 20
2982.744663
 42
0.058408
  0
VERTEX
  8
0
 10
406.831393
 20
2969.143021
 42
0.057970
  0
VERTEX
  8
0
 10
434.093501
 20
2961.584822
 42
0.057959
  0
VERTEX
  8
0
 10
462.367583
 20
2960.485826
 42
0.058342
  0
VERTEX
  8
0
 10
490.073387
 20
2965.914563
 42
0.054314
  0
VERTEX
  8
0
 10
514.137256
 20
2976.619399
 42
0.053953
  0
VERTEX
  8
0
 10
535.390244
 20
2992.274874
 42
0.054100
  0
VERTEX
  8
0
 10
552.752531
 20
3012.070090
 42
0.055206
  0
VERTEX
  8
0
 10
565.327493
 20
3035.000000
 42
0.053280
  0
VERTEX
  8
0
 10
572.852486
 20
3060.698027
 42
0.055520
  0
VERTEX
  8
0
 10
574.633045
 20
3087.046445
 42
0.055550
  0
VERTEX
  8
0
 10
570.572763
 20
3113.127947
 42
0.053447
  0
VERTEX
  8
0
 10
560.847618
 20
3138.037783
 42
0.049785
  0
VERTEX
  8
0
 10
547.602396
 20
3158.320837
 42
0.049546
  0
VERTEX
  8
0
 10
530.590023
 20
3175.621603
 42
0.049961
  0
VERTEX
  8
0
 10
510.652909
 20
3189.114068
 42
0.052443
  0
VERTEX
  8
0
 10
488.750000
 20
3198.125622
 42
0.000000
  0
VERTEX
  8
0
 10
481.000000
 20
3200.400668
 42
0.000000
  0
VERTEX
  8
0
 10
481.000000
 20
3219.737860
 42
0.000000
  0
VERTEX
  8
0
 10
481.000000
 20
3239.075052
 42
0.000000
  0
VERTEX
  8
0
 10
471.750000
 20
3238.787526
 42
0.000000
  0
VERTEX
  8
0
 10
462.500000
 20
3238.500000
 42
0.000000
  0
VERTEX
  8
0
 10
462.322649
 20
3215.000000
 42
-0.000236
  0
VERTEX
  8
0
 10
462.249423
 20
3205.867769
 42
-0.000353
  0
VERTEX
  8
0
 10
462.176055
 20
3197.889062
 42
-0.000143
  0
VERTEX
  8
0
 10
462.106350
 20
3191.046794
 42
-0.007754
  0
VERTEX
  8
0
 10
462.072649
 20
3189.750000
 42
-0.222581
  0
VERTEX
  8
0
 10
461.593806
 20
3188.829133
 42
-0.118664
  0
VERTEX
  8
0
 10
460.394848
 20
3188.297964
 42
-0.040412
  0
VERTEX
  8
0
 10
457.948881
 20
3188.052461
 42
-0.004814
  0
VERTEX
  8
0
 10
452.500000
 20
3188.000000
 42
0.000000
  0
VERTEX
  8
0
 10
443.000000
 20
3188.000000
 42
0.000000
  0
VERTEX
  8
0
 10
443.000000
 20
3213.500000
 42
0.000000
  0
VERTEX
  8
0
 10
443.000000
 20
3239.000000
 42
0.000000
  0
VERTEX
  8
0
 10
434.000000
 20
3239.000000
 42
0.000000
  0
VERTEX
  8
0
 10
425.000000
 20
3239.000000
 42
0.000000
  0
SEQEND
  0
POLYLINE
  8
0
 66
1
 70
1
  0
VERTEX
  8
0
 10
471.749637
 20
3185.488008
 42
-0.028878
  0
VERTEX
  8
0
 10
483.455361
 20
3182.558705
 42
-0.025903
  0
VERTEX
  8
0
 10
495.189570
 20
3178.212184
 42
-0.026330
  0
VERTEX
  8
0
 10
506.192516
 20
3172.771929
 42
-0.033218
  0
VERTEX
  8
0
 10
515.701531
 20
3166.565723
 42
-0.029807
  0
VERTEX
  8
0
 10
522.676843
 20
3160.639564
 42
-0.015908
  0
VERTEX
  8
0
 10
530.599576
 20
3152.552431
 42
-0.015856
  0
VERTEX
  8
0
 10
537.864404
 20
3144.127739
 42
-0.035615
  0
VERTEX
  8
0
 10
542.688782
 20
3137.205900
 42
-0.017606
  0
VERTEX
  8
0
 10
546.507175
 20
3130.254225
 42
-0.016394
  0
VERTEX
  8
0
 10
549.924817
 20
3122.885923
 42
-0.016331
  0
VERTEX
  8
0
 10
552.865106
 20
3115.279281
 42
-0.017110
  0
VERTEX
  8
0
 10
555.253062
 20
3107.613308
 42
-0.019760
  0
VERTEX
  8
0
 10
556.430418
 20
3102.544838
 42
-0.026026
  0
VERTEX
  8
0
 10
557.076983
 20
3097.844113
 42
-0.017645
  0
VERTEX
  8
0
 10
557.371673
 20
3091.879056
 42
-0.004270
  0
VERTEX
  8
0
 10
557.426381
 20
3082.000000
 42
-0.004381
  0
VERTEX
  8
0
 10
557.305458
 20
3071.721566
 42
-0.019687
  0
VERTEX
  8
0
 10
556.945536
 20
3065.719702
 42
-0.026974
  0
VERTEX
  8
0
 10
556.170190
 20
3060.698378
 42
-0.013826
  0
VERTEX
  8
0
 10
554.687562
 20
3054.500000
 42
-0.089629
  0
VERTEX
  8
0
 10
538.924931
 20
3021.123351
 42
-0.086648
  0
VERTEX
  8
0
 10
512.324393
 20
2994.916789
 42
-0.087514
  0
VERTEX
  8
0
 10
478.669252
 20
2979.461847
 42
-0.093961
  0
VERTEX
  8
0
 10
442.611294
 20
2976.986712
 42
-0.035723
  0
VERTEX
  8
0
 10
424.908847
 20
2980.395838
 42
-0.041082
  0
VERTEX
  8
0
 10
408.712934
 20
2986.193949
 42
-0.041847
  0
VERTEX
  8
0
 10
393.937703
 20
2994.449791
 42
-0.039738
  0
VERTEX
  8
0
 10
380.467375
 20
3005.179400
 42
-0.059141
  0
VERTEX
  8
0
 10
365.201544
 20
3023.281867
 42
-0.055584
  0
VERTEX
  8
0
 10
354.220543
 20
3044.825044
 42
-0.055880
  0
VERTEX
  8
0
 10
348.299029
 20
3068.142355
 42
-0.061152
  0
VERTEX
  8
0
 10
347.951334
 20
3091.476653
 42
-0.075453
  0
VERTEX
  8
0
 10
356.589545
 20
3124.228578
 42
-0.079751
  0
VERTEX
  8
0
 10
374.461181
 20
3152.254947
 42
-0.080567
  0
VERTEX
  8
0
 10
400.025943
 20
3173.063231
 42
-0.079246
  0
VERTEX
  8
0
 10
431.000000
 20
3184.872074
 42
-0.028650
  0
VERTEX
  8
0
 10
440.554198
 20
3186.304248
 42
-0.019101
  0
VERTEX
  8
0
 10
451.609155
 20
3186.894155
 42
-0.019194
  0
VERTEX
  8
0
 10
462.553621
 20
3186.639436
 42
-0.031464
  0
SEQEND
  0
POLYLINE
  8
0
 66
1
 70
1
  0
VERTEX
  8
0
 10
671.666667
 20
3238.333333
 42
0.188400
  0
VERTEX
  8
0
 10
671.396642
 20
3237.717065
 42
0.001554
  0
VERTEX
  8
0
 10
671.195833
 20
3232.353548
 42
0.005254
  0
VERTEX
  8
0
 10
671.048117
 20
3226.149694
 42
0.003324
  0
VERTEX
  8
0
 10
671.000000
 20
3218.912789
 42
0.000000
  0
VERTEX
  8
0
 10
671.000000
 20
3200.158911
 42
0.000000
  0
VERTEX
  8
0
 10
667.750000
 20
3199.485324
 42
0.037664
  0
VERTEX
  8
0
 10
662.470235
 20
3197.969064
 42
0.009939
  0
VERTEX
  8
0
 10
654.289730
 20
3194.750631
 42
0.010564
  0
VERTEX
  8
0
 10
645.909395
 20
3191.050027
 42
0.021270
  0
VERTEX
  8
0
 10
639.500000
 20
3187.717363
 42
0.101920
  0
VERTEX
  8
0
 10
602.160351
 20
3154.625178
 42
0.103610
  0
VERTEX
  8
0
 10
581.208425
 20
3109.655751
 42
0.103376
  0
VERTEX
  8
0
 10
580.040336
 20
3059.973294
 42
0.101016
  0
VERTEX
  8
0
 10
598.800800
 20
3013.524724
 42
0.029602
  0
VERTEX
  8
0
 10
604.171323
 20
3006.377376
 42
0.014630
  0
VERTEX
  8
0
 10
611.770184
 20
2997.934663
 42
0.014637
  0
VERTEX
  8
0
 10
619.892720
 20
2989.908598
 42
0.028100
  0
VERTEX
  8
0
 10
626.929839
 20
2984.053516
 42
0.069249
  0
VERTEX
  8
0
 10
656.289506
 20
2968.033163
 42
0.068774
  0
VERTEX
  8
0
 10
688.976967
 20
2960.589842
 42
0.068857
  0
VERTEX
  8
0
 10
722.422575
 20
2962.294838
 42
0.069700
  0
VERTEX
  8
0
 10
754.000000
 20
2973.026485
 42
0.066937
  0
VERTEX
  8
0
 10
781.940621
 20
2992.160425
 42
0.070557
  0
VERTEX
  8
0
 10
803.263444
 20
3017.693478
 42
0.070695
  0
VERTEX
  8
0
 10
816.615717
 20
3048.102066
 42
0.067611
  0
VERTEX
  8
0
 10
821.239742
 20
3081.500000
 42
0.024875
  0
VERTEX
  8
0
 10
820.559411
 20
3095.909913
 42
0.031080
  0
VERTEX
  8
0
 10
818.438699
 20
3109.130252
 42
0.031400
  0
VERTEX
  8
0
 10
814.719110
 20
3121.874377
 42
0.026301
  0
VERTEX
  8
0
 10
809.241825
 20
3134.852956
 42
0.052631
  0
VERTEX
  8
0
 10
796.092823
 20
3155.961643
 42
0.049515
  0
VERTEX
  8
0
 10
778.582395
 20
3174.340152
 42
0.050008
  0
VERTEX
  8
0
 10
757.989500
 20
3188.754364
 42
0.056218
  0
VERTEX
  8
0
 10
735.717398
 20
3198.130171
 42
0.000000
  0
VERTEX
  8
0
 10
728.000000
 20
3200.400668
 42
0.000000
  0
VERTEX
  8
0
 10
728.000000
 20
3219.737860
 42
0.000000
  0
VERTEX
  8
0
 10
728.000000
 20
3239.075052
 42
0.000000
  0
VERTEX
  8
0
 10
718.750000
 20
3238.787526
 42
0.000000
  0
VERTEX
  8
0
 10
709.500000
 20
3238.500000
 42
0.000000
  0
VERTEX
  8
0
 10
709.232829
 20
3213.250000
 42
0.000000
  0
VERTEX
  8
0
 10
708.965658
 20
3188.000000
 42
0.000000
  0
VERTEX
  8
0
 10
699.482829
 20
3188.000000
 42
0.000000
  0
VERTEX
  8
0
 10
690.000000
 20
3188.000000
 42
0.000000
  0
VERTEX
  8
0
 10
690.000000
 20
3213.500000
 42
0.000000
  0
VERTEX
  8
0
 10
690.000000
 20
3239.000000
 42
0.000000
  0
VERTEX
  8
0
 10
681.166667
 20
3239.000000
 42
0.007039
  0
VERTEX
  8
0
 10
677.733476
 20
3238.951666
 42
0.010477
  0
VERTEX
  8
0
 10
674.732292
 20
3238.804167
 42
0.005871
  0
VERTEX
  8
0
 10
672.232160
 20
3238.599192
 42
0.174709
  0
SEQEND
  0
POLYLINE
  8
0
 66
1
 70
1
  0
VERTEX
  8
0
 10
718.119010
 20
3185.532226
 42
-0.071673
  0
VERTEX
  8
0
 10
746.475019
 20
3176.246159
 42
-0.071800
  0
VERTEX
  8
0
 10
771.036996
 20
3159.336529
 42
-0.071360
  0
VERTEX
  8
0
 10
789.933813
 20
3136.065479
 42
-0.069412
  0
VERTEX
  8
0
 10
801.744023
 20
3108.205812
 42
-0.014192
  0
VERTEX
  8
0
 10
803.163061
 20
3102.251796
 42
-0.026619
  0
VERTEX
  8
0
 10
803.913878
 20
3097.362036
 42
-0.019932
  0
VERTEX
  8
0
 10
804.257509
 20
3091.571506
 42
-0.004854
  0
VERTEX
  8
0
 10
804.350427
 20
3082.000000
 42
-0.004854
  0
VERTEX
  8
0
 10
804.257509
 20
3072.428494
 42
-0.019932
  0
VERTEX
  8
0
 10
803.913878
 20
3066.637964
 42
-0.026619
  0
VERTEX
  8
0
 10
803.163061
 20
3061.748204
 42
-0.014192
  0
VERTEX
  8
0
 10
801.744023
 20
3055.794188
 42
-0.066240
  0
VERTEX
  8
0
 10
790.320483
 20
3028.365891
 42
-0.070540
  0
VERTEX
  8
0
 10
772.309320
 20
3005.527478
 42
-0.070401
  0
VERTEX
  8
0
 10
748.625113
 20
2988.561577
 42
-0.065582
  0
VERTEX
  8
0
 10
720.593077
 20
2978.327132
 42
-0.038893
  0
VERTEX
  8
0
 10
711.350245
 20
2977.011994
 42
-0.018500
  0
VERTEX
  8
0
 10
699.328833
 20
2976.692201
 42
-0.018515
  0
VERTEX
  8
0
 10
687.172387
 20
2977.269160
 42
-0.034593
  0
VERTEX
  8
0
 10
677.440600
 20
2978.775921
 42
-0.030798
  0
VERTEX
  8
0
 10
662.215741
 20
2983.225589
 42
-0.040384
  0
VERTEX
  8
0
 10
649.031148
 20
2989.218866
 42
-0.040219
  0
VERTEX
  8
0
 10
636.939943
 20
2997.275480
 42
-0.030172
  0
VERTEX
  8
0
 10
625.000000
 20
3007.928151
 42
-0.063485
  0
VERTEX
  8
0
 10
607.676730
 20
3030.472038
 42
-0.069738
  0
VERTEX
  8
0
 10
597.227820
 20
3055.954238
 42
-0.069640
  0
VERTEX
  8
0
 10
594.178135
 20
3083.358226
 42
-0.063041
  0
VERTEX
  8
0
 10
598.556551
 20
3111.538104
 42
-0.071762
  0
VERTEX
  8
0
 10
610.811564
 20
3138.736588
 42
-0.072871
  0
VERTEX
  8
0
 10
630.203188
 20
3161.201908
 42
-0.071812
  0
VERTEX
  8
0
 10
655.499781
 20
3177.410371
 42
-0.066622
  0
VERTEX
  8
0
 10
685.000000
 20
3186.323259
 42
-0.036718
  0
VERTEX
  8
0
 10
691.099977
 20
3186.855043
 42
-0.009359
  0
VERTEX
  8
0
 10
701.030757
 20
3186.803772
 42
-0.009814
  0
VERTEX
  8
0
 10
711.109611
 20
3186.364996
 42
-0.027567
  0
SEQEND
  0
POLYLINE
  8
0
 66
1
 70
1
  0
VERTEX
  8
0
 10
1415.000000
 20
3199.635713
 42
0.000000
  0
VERTEX
  8
0
 10
1415.000000
 20
3171.196374
 42
0.000000
  0
VERTEX
  8
0
 10
1408.750000
 20
3170.540690
 42
0.026831
  0
VERTEX
  8
0
 10
1376.515377
 20
3165.398967
 42
0.028226
  0
VERTEX
  8
0
 10
1345.569468
 20
3156.892239
 42
0.029380
  0
VERTEX
  8
0
 10
1317.029619
 20
3145.378904
 42
0.036010
  0
VERTEX
  8
0
 10
1292.000000
 20
3131.240803
 42
0.027042
  0
VERTEX
  8
0
 10
1280.905719
 20
3122.976545
 42
0.021669
  0
VERTEX
  8
0
 10
1269.880139
 20
3112.956814
 42
0.022176
  0
VERTEX
  8
0
 10
1260.172593
 20
3102.441552
 42
0.037280
  0
VERTEX
  8
0
 10
1253.130164
 20
3092.713528
 42
0.095732
  0
VERTEX
  8
0
 10
1241.535656
 20
3062.021954
 42
0.108413
  0
VERTEX
  8
0
 10
1242.970284
 20
3030.626033
 42
0.098760
  0
VERTEX
  8
0
 10
1257.841394
 20
3000.499169
 42
0.067548
  0
VERTEX
  8
0
 10
1285.034575
 20
2973.571360
 42
0.037669
  0
VERTEX
  8
0
 10
1308.047313
 20
2958.811134
 42
0.032491
  0
VERTEX
  8
0
 10
1334.159366
 20
2946.834328
 42
0.030092
  0
VERTEX
  8
0
 10
1363.575812
 20
2937.576127
 42
0.023335
  0
VERTEX
  8
0
 10
1396.500000
 20
2930.967646
 42
0.021561
  0
VERTEX
  8
0
 10
1412.256049
 20
2929.254411
 42
0.009467
  0
VERTEX
  8
0
 10
1433.226303
 20
2928.283614
 42
0.009503
  0
VERTEX
  8
0
 10
1454.429195
 20
2928.107171
 42
0.019371
  0
VERTEX
  8
0
 10
1471.058000
 20
2928.929662
 42
0.025453
  0
VERTEX
  8
0
 10
1505.863365
 20
2933.800910
 42
0.030019
  0
VERTEX
  8
0
 10
1538.086955
 20
2942.027884
 42
0.031763
  0
VERTEX
  8
0
 10
1567.415028
 20
2953.521201
 42
0.036871
  0
VERTEX
  8
0
 10
1593.556377
 20
2968.167873
 42
0.028603
  0
VERTEX
  8
0
 10
1604.267054
 20
2976.169240
 42
0.019141
  0
VERTEX
  8
0
 10
1615.596419
 20
2986.453365
 42
0.019283
  0
VERTEX
  8
0
 10
1625.689016
 20
2997.138594
 42
0.041211
  0
VERTEX
  8
0
 10
1632.426544
 20
3006.264767
 42
0.050099
  0
VERTEX
  8
0
 10
1641.113205
 20
3024.089856
 42
0.061854
  0
VERTEX
  8
0
 10
1645.319751
 20
3042.072335
 42
0.063204
  0
VERTEX
  8
0
 10
1644.956809
 20
3060.217760
 42
0.055771
  0
VERTEX
  8
0
 10
1640.132527
 20
3078.524622
 42
0.031256
  0
VERTEX
  8
0
 10
1636.091645
 20
3087.298860
 42
0.028657
  0
VERTEX
  8
0
 10
1630.882055
 20
3095.769773
 42
0.026278
  0
VERTEX
  8
0
 10
1624.291658
 20
3104.240130
 42
0.018775
  0
VERTEX
  8
0
 10
1616.091878
 20
3113.018996
 42
0.054461
  0
VERTEX
  8
0
 10
1589.823575
 20
3133.964348
 42
0.042655
  0
VERTEX
  8
0
 10
1557.452474
 20
3150.778278
 42
0.039132
  0
VERTEX
  8
0
 10
1519.803899
 20
3163.069941
 42
0.031289
  0
VERTEX
  8
0
 10
1477.765454
 20
3170.493716
 42
0.000000
  0
VERTEX
  8
0
 10
1472.030909
 20
3171.140051
 42
0.000000
  0
VERTEX
  8
0
 10
1471.765454
 20
3199.320025
 42
0.000000
  0
VERTEX
  8
0
 10
1471.500000
 20
3227.500000
 42
0.000000
  0
VERTEX
  8
0
 10
1462.250000
 20
3227.787526
 42
0.000000
  0
VERTEX
  8
0
 10
1453.000000
 20
3228.075052
 42
0.000000
  0
VERTEX
  8
0
 10
1453.000000
 20
3190.582839
 42
0.000000
  0
VERTEX
  8
0
 10
1453.000000
 20
3153.090626
 42
0.000000
  0
VERTEX
  8
0
 10
1456.250000
 20
3152.597406
 42
0.014394
  0
VERTEX
  8
0
 10
1458.094005
 20
3152.371641
 42
0.002824
  0
VERTEX
  8
0
 10
1461.421052
 20
3152.080143
 42
0.002994
  0
VERTEX
  8
0
 10
1465.303417
 20
3151.785472
 42
0.002773
  0
VERTEX
  8
0
 10
1469.289752
 20
3151.529115
 42
-0.018750
  0
VERTEX
  8
0
 10
1480.561574
 20
3150.441744
 42
-0.009441
  0
VERTEX
  8
0
 10
1494.686366
 20
3148.270155
 42
-0.009396
  0
VERTEX
  8
0
 10
1509.107288
 20
3145.493387
 42
-0.014622
  0
VERTEX
  8
0
 10
1521.408480
 20
3142.505779
 42
-0.039614
  0
VERTEX
  8
0
 10
1559.049911
 20
3128.906729
 42
-0.055412
  0
VERTEX
  8
0
 10
1589.767071
 20
3110.636285
 42
-0.064398
  0
VERTEX
  8
0
 10
1612.038344
 20
3088.783538
 42
-0.094751
  0
VERTEX
  8
0
 10
1624.598229
 20
3064.500000
 42
-0.046354
  0
VERTEX
  8
0
 10
1625.921084
 20
3057.828567
 42
-0.026003
  0
VERTEX
  8
0
 10
1626.343722
 20
3049.566776
 42
-0.025977
  0
VERTEX
  8
0
 10
1625.905265
 20
3041.274359
 42
-0.044829
  0
VERTEX
  8
0
 10
1624.571725
 20
3034.500000
 42
-0.111278
  0
VERTEX
  8
0
 10
1609.218679
 20
3006.767272
 42
-0.067922
  0
VERTEX
  8
0
 10
1580.662233
 20
2982.325897
 42
-0.058015
  0
VERTEX
  8
0
 10
1541.573823
 20
2963.135935
 42
-0.043139
  0
VERTEX
  8
0
 10
1495.000000
 20
2951.032740
 42
-0.009798
  0
VERTEX
  8
0
 10
1481.964337
 20
2949.083539
 42
-0.013174
  0
VERTEX
  8
0
 10
1470.089396
 20
2947.862233
 42
-0.012205
  0
VERTEX
  8
0
 10
1457.486704
 20
2947.209696
 42
-0.006831
  0
VERTEX
  8
0
 10
1442.137918
 20
2947.000000
 42
-0.024028
  0
VERTEX
  8
0
 10
1408.943384
 20
2948.596093
 42
-0.029002
  0
VERTEX
  8
0
 10
1378.107729
 20
2953.385213
 42
-0.030454
  0
VERTEX
  8
0
 10
1349.380874
 20
2961.427144
 42
-0.032559
  0
VERTEX
  8
0
 10
1322.500000
 20
2972.758701
 42
-0.051152
  0
VERTEX
  8
0
 10
1290.891657
 20
2992.852007
 42
-0.084568
  0
VERTEX
  8
0
 10
1269.769852
 20
3016.284049
 42
-0.103779
  0
VERTEX
  8
0
 10
1260.266924
 20
3041.681607
 42
-0.116691
  0
VERTEX
  8
0
 10
1262.376226
 20
3067.630524
 42
-0.072191
  0
VERTEX
  8
0
 10
1270.539208
 20
3084.207542
 42
-0.050431
  0
VERTEX
  8
0
 10
1284.022078
 20
3100.134678
 42
-0.044761
  0
VERTEX
  8
0
 10
1302.232414
 20
3114.802952
 42
-0.033727
  0
VERTEX
  8
0
 10
1324.534206
 20
3127.607396
 42
-0.027528
  0
VERTEX
  8
0
 10
1345.045738
 20
3136.248596
 42
-0.021823
  0
VERTEX
  8
0
 10
1368.027589
 20
3143.358685
 42
-0.021469
  0
VERTEX
  8
0
 10
1392.001407
 20
3148.555543
 42
-0.023870
  0
VERTEX
  8
0
 10
1415.500000
 20
3151.455944
 42
0.001567
  0
VERTEX
  8
0
 10
1418.948160
 20
3151.726179
 42
0.001220
  0
VERTEX
  8
0
 10
1422.695741
 20
3152.040908
 42
0.001233
  0
VERTEX
  8
0
 10
1426.187272
 20
3152.351390
 42
0.002994
  0
VERTEX
  8
0
 10
1428.762098
 20
3152.602311
 42
0.000000
  0
VERTEX
  8
0
 10
1434.024195
 20
3153.146936
 42
0.000000
  0
VERTEX
  8
0
 10
1433.762098
 20
3190.323468
 42
0.000000
  0
VERTEX
  8
0
 10
1433.500000
 20
3227.500000
 42
0.000000
  0
VERTEX
  8
0
 10
1424.250000
 20
3227.787526
 42
0.000000
  0
VERTEX
  8
0
 10
1415.000000
 20
3228.075052
 42
0.000000
  0
SEQEND
  0
POLYLINE
  8
0
 66
1
 70
1
  0
VERTEX
  8
0
 10
932.104614
 20
3213.453649
 42
0.054358
  0
VERTEX
  8
0
 10
906.126069
 20
3204.780300
 42
0.055412
  0
VERTEX
  8
0
 10
882.808029
 20
3190.753618
 42
0.055670
  0
VERTEX
  8
0
 10
863.232025
 20
3172.017284
 42
0.055854
  0
VERTEX
  8
0
 10
848.296837
 20
3149.443292
 42
0.058636
  0
VERTEX
  8
0
 10
838.260341
 20
3122.432656
 42
0.059728
  0
VERTEX
  8
0
 10
834.851740
 20
3094.000000
 42
0.059728
  0
VERTEX
  8
0
 10
838.260341
 20
3065.567344
 42
0.058636
  0
VERTEX
  8
0
 10
848.296837
 20
3038.556708
 42
0.075164
  0
VERTEX
  8
0
 10
869.579531
 20
3008.930297
 42
0.075098
  0
VERTEX
  8
0
 10
898.674656
 20
2986.908842
 42
0.075342
  0
VERTEX
  8
0
 10
932.887028
 20
2974.514332
 42
0.076429
  0
VERTEX
  8
0
 10
969.062713
 20
2972.899349
 42
0.070249
  0
VERTEX
  8
0
 10
1003.135071
 20
2981.534719
 42
0.072656
  0
VERTEX
  8
0
 10
1033.055549
 20
2999.208260
 42
0.072557
  0
VERTEX
  8
0
 10
1056.702011
 20
3024.726913
 42
0.069765
  0
VERTEX
  8
0
 10
1072.454120
 20
3056.268589
 42
0.038906
  0
VERTEX
  8
0
 10
1075.850315
 20
3069.789155
 42
0.025283
  0
VERTEX
  8
0
 10
1077.744094
 20
3085.795475
 42
0.025264
  0
VERTEX
  8
0
 10
1078.013564
 20
3101.935516
 42
0.038430
  0
VERTEX
  8
0
 10
1076.465824
 20
3115.866583
 42
0.073371
  0
VERTEX
  8
0
 10
1064.572740
 20
3150.146276
 42
0.074664
  0
VERTEX
  8
0
 10
1043.337713
 20
3179.302573
 42
0.074506
  0
VERTEX
  8
0
 10
1014.431181
 20
3200.983683
 42
0.072589
  0
VERTEX
  8
0
 10
980.184624
 20
3213.479431
 42
0.007159
  0
VERTEX
  8
0
 10
971.897418
 20
3215.078587
 42
0.150857
  0
VERTEX
  8
0
 10
969.431403
 20
3214.773355
 42
0.268211
  0
VERTEX
  8
0
 10
968.257414
 20
3213.143095
 42
0.025010
  0
VERTEX
  8
0
 10
968.000000
 20
3208.000000
 42
0.000000
  0
VERTEX
  8
0
 10
968.000000
 20
3201.000000
 42
0.000000
  0
VERTEX
  8
0
 10
957.000000
 20
3201.000000
 42
0.000000
  0
VERTEX
  8
0
 10
946.000000
 20
3201.000000
 42
0.000000
  0
VERTEX
  8
0
 10
946.000000
 20
3208.000000
 42
0.000000
  0
VERTEX
  8
0
 10
946.000000
 20
3215.000000
 42
0.000000
  0
VERTEX
  8
0
 10
942.250000
 20
3214.920500
 42
0.022478
  0
VERTEX
  8
0
 10
940.373688
 20
3214.796209
 42
0.008123
  0
VERTEX
  8
0
 10
937.722918
 20
3214.456819
 42
0.008038
  0
VERTEX
  8
0
 10
934.828073
 20
3213.990651
 42
0.009471
  0
SEQEND
  0
POLYLINE
  8
0
 66
1
 70
1
  0
VERTEX
  8
0
 10
419.000000
 20
2885.739626
 42
0.000000
  0
VERTEX
  8
0
 10
419.000000
 20
2862.404200
 42
0.000000
  0
VERTEX
  8
0
 10
408.750000
 20
2857.181996
 42
0.072948
  0
VERTEX
  8
0
 10
383.774412
 20
2839.470448
 42
0.054301
  0
VERTEX
  8
0
 10
361.978669
 20
2813.584189
 42
0.049267
  0
VERTEX
  8
0
 10
344.426290
 20
2780.903125
 42
0.039774
  0
VERTEX
  8
0
 10
332.079385
 20
2743.000000
 42
0.038292
  0
VERTEX
  8
0
 10
325.553739
 20
2702.267463
 42
0.035248
  0
VERTEX
  8
0
 10
325.051378
 20
2659.858158
 42
0.035766
  0
VERTEX
  8
0
 10
330.467811
 20
2618.467613
 42
0.042825
  0
VERTEX
  8
0
 10
341.599794
 20
2580.781747
 42
0.032178
  0
VERTEX
  8
0
 10
353.797302
 20
2554.680097
 42
0.039121
  0
VERTEX
  8
0
 10
368.578533
 20
2532.103884
 42
0.042334
  0
VERTEX
  8
0
 10
385.486919
 20
2513.679183
 42
0.053821
  0
VERTEX
  8
0
 10
404.041133
 20
2499.975977
 42
0.116984
  0
VERTEX
  8
0
 10
442.039995
 20
2488.400934
 42
0.121086
  0
VERTEX
  8
0
 10
480.665220
 20
2495.358599
 42
0.104175
  0
VERTEX
  8
0
 10
516.015183
 20
2520.960998
 42
0.069033
  0
VERTEX
  8
0
 10
544.343858
 20
2562.500000
 42
0.062306
  0
VERTEX
  8
0
 10
563.032796
 20
2615.973397
 42
0.051691
  0
VERTEX
  8
0
 10
569.564955
 20
2675.948122
 42
0.051679
  0
VERTEX
  8
0
 10
563.656441
 20
2736.002689
 42
0.062199
  0
VERTEX
  8
0
 10
545.524619
 20
2789.712629
 42
0.030639
  0
VERTEX
  8
0
 10
532.377516
 20
2813.157561
 42
0.041916
  0
VERTEX
  8
0
 10
517.618788
 20
2832.327355
 42
0.045863
  0
VERTEX
  8
0
 10
501.087290
 20
2847.399026
 42
0.051097
  0
VERTEX
  8
0
 10
482.645263
 20
2858.591330
 42
0.000000
  0
VERTEX
  8
0
 10
474.919284
 20
2862.260381
 42
0.000000
  0
VERTEX
  8
0
 10
475.002980
 20
2878.880190
 42
0.000414
  0
VERTEX
  8
0
 10
475.031837
 20
2885.738164
 42
0.000413
  0
VERTEX
  8
0
 10
475.049360
 20
2892.600743
 42
0.000404
  0
VERTEX
  8
0
 10
475.054869
 20
2898.594676
 42
0.001633
  0
VERTEX
  8
0
 10
475.043338
 20
2902.250000
 42
0.000000
  0
VERTEX
  8
0
 10
475.000000
 20
2909.000000
 42
0.000000
  0
VERTEX
  8
0
 10
466.028691
 20
2909.000000
 42
0.000000
  0
VERTEX
  8
0
 10
457.057381
 20
2909.000000
 42
0.000000
  0
VERTEX
  8
0
 10
456.778691
 20
2878.999440
 42
0.000938
  0
VERTEX
  8
0
 10
456.633700
 20
2859.442983
 42
0.015704
  0
VERTEX
  8
0
 10
456.801345
 20
2852.963586
 42
0.053628
  0
VERTEX
  8
0
 10
457.311162
 20
2849.891031
 42
0.333874
  0
VERTEX
  8
0
 10
458.500000
 20
2848.978348
 42
-0.078658
  0
VERTEX
  8
0
 10
462.352595
 20
2848.327891
 42
-0.016618
  0
VERTEX
  8
0
 10
468.759759
 20
2845.934598
 42
-0.017936
  0
VERTEX
  8
0
 10
475.673172
 20
2842.792493
 42
-0.023018
  0
VERTEX
  8
0
 10
481.775197
 20
2839.391437
 42
-0.023097
  0
VERTEX
  8
0
 10
485.510360
 20
2836.832267
 42
-0.011456
  0
VERTEX
  8
0
 10
490.013885
 20
2833.265860
 42
-0.011023
  0
VERTEX
  8
0
 10
494.702990
 20
2829.196564
 42
-0.012174
  0
VERTEX
  8
0
 10
499.051950
 20
2825.053636
 42
-0.051040
  0
VERTEX
  8
0
 10
515.804755
 20
2804.476935
 42
-0.039693
  0
VERTEX
  8
0
 10
529.698871
 20
2779.163283
 42
-0.036548
  0
VERTEX
  8
0
 10
540.412973
 20
2749.773051
 42
-0.029627
  0
VERTEX
  8
0
 10
547.647960
 20
2717.000000
 42
-0.030069
  0
VERTEX
  8
0
 10
549.179214
 20
2701.411962
 42
-0.009458
  0
VERTEX
  8
0
 10
549.621826
 20
2677.975185
 42
-0.009524
  0
VERTEX
  8
0
 10
549.173271
 20
2654.468425
 42
-0.028637
  0
VERTEX
  8
0
 10
547.645471
 20
2638.500000
 42
-0.043214
  0
VERTEX
  8
0
 10
536.551880
 20
2592.973992
 42
-0.057005
  0
VERTEX
  8
0
 10
518.400049
 20
2554.344690
 42
-0.065615
  0
VERTEX
  8
0
 10
494.722812
 20
2525.315721
 42
-0.100233
  0
VERTEX
  8
0
 10
467.206084
 20
2508.226668
 42
-0.047281
  0
VERTEX
  8
0
 10
459.138794
 20
2506.068003
 42
-0.032360
  0
VERTEX
  8
0
 10
449.699588
 20
2505.099303
 42
-0.032176
  0
VERTEX
  8
0
 10
440.130927
 20
2505.355439
 42
-0.044195
  0
VERTEX
  8
0
 10
431.665666
 20
2506.890833
 42
-0.069406
  0
VERTEX
  8
0
 10
413.208773
 20
2514.832769
 42
-0.056292
  0
VERTEX
  8
0
 10
396.135753
 20
2528.012328
 42
-0.049928
  0
VERTEX
  8
0
 10
380.687809
 20
2546.309807
 42
-0.035397
  0
VERTEX
  8
0
 10
367.081018
 20
2569.500000
 42
-0.031667
  0
VERTEX
  8
0
 10
356.826865
 20
2593.989269
 42
-0.029955
  0
VERTEX
  8
0
 10
349.525540
 20
2620.032733
 42
-0.028722
  0
VERTEX
  8
0
 10
345.155887
 20
2647.813106
 42
-0.024337
  0
VERTEX
  8
0
 10
343.672645
 20
2677.500000
 42
-0.017014
  0
VERTEX
  8
0
 10
344.385356
 20
2699.242200
 42
-0.021267
  0
VERTEX
  8
0
 10
346.588152
 20
2719.311831
 42
-0.021829
  0
VERTEX
  8
0
 10
350.422979
 20
2738.676926
 42
-0.019766
  0
VERTEX
  8
0
 10
356.036484
 20
2758.296141
 42
-0.022348
  0
VERTEX
  8
0
 10
363.409847
 20
2777.714588
 42
-0.027812
  0
VERTEX
  8
0
 10
372.035452
 20
2794.985484
 42
-0.029527
  0
VERTEX
  8
0
 10
382.014368
 20
2810.288608
 42
-0.032442
  0
VERTEX
  8
0
 10
393.442284
 20
2823.808586
 42
-0.029365
  0
VERTEX
  8
0
 10
403.407761
 20
2833.008698
 42
-0.033994
  0
VERTEX
  8
0
 10
413.927484
 20
2840.499953
 42
-0.037170
  0
VERTEX
  8
0
 10
424.290867
 20
2845.849803
 42
-0.060994
  0
VERTEX
  8
0
 10
433.766292
 20
2848.578619
 42
0.000000
  0
VERTEX
  8
0
 10
437.916739
 20
2849.242303
 42
0.000000
  0
VERTEX
  8
0
 10
437.708370
 20
2878.871151
 42
0.000000
  0
VERTEX
  8
0
 10
437.500000
 20
2908.500000
 42
0.000000
  0
VERTEX
  8
0
 10
428.250000
 20
2908.787526
 42
0.000000
  0
VERTEX
  8
0
 10
419.000000
 20
2909.075052
 42
0.000000
  0
SEQEND
  0
POLYLINE
  8
0
 66
1
 70
1
  0
VERTEX
  8
0
 10
678.666667
 20
2908.333333
 42
0.190434
  0
VERTEX
  8
0
 10
678.395846
 20
2907.708584
 42
0.001076
  0
VERTEX
  8
0
 10
678.195833
 20
2901.158133
 42
0.004361
  0
VERTEX
  8
0
 10
678.048080
 20
2893.640594
 42
0.002733
  0
VERTEX
  8
0
 10
678.000000
 20
2884.843289
 42
0.000000
  0
VERTEX
  8
0
 10
678.000000
 20
2862.019912
 42
0.000000
  0
VERTEX
  8
0
 10
671.433388
 20
2859.042468
 42
0.090653
  0
VERTEX
  8
0
 10
641.976348
 20
2838.607176
 42
0.061406
  0
VERTEX
  8
0
 10
616.840292
 20
2806.274547
 42
0.054548
  0
VERTEX
  8
0
 10
597.772828
 20
2764.608153
 42
0.043507
  0
VERTEX
  8
0
 10
586.344767
 20
2716.500000
 42
0.027462
  0
VERTEX
  8
0
 10
584.793406
 20
2699.566071
 42
0.010640
  0
VERTEX
  8
0
 10
584.435978
 20
2676.005189
 42
0.010674
  0
VERTEX
  8
0
 10
585.084874
 20
2652.376873
 42
0.026407
  0
VERTEX
  8
0
 10
586.841806
 20
2635.144424
 42
0.030696
  0
VERTEX
  8
0
 10
594.300415
 20
2601.116334
 42
0.036046
  0
VERTEX
  8
0
 10
605.595315
 20
2570.097749
 42
0.038519
  0
VERTEX
  8
0
 10
620.380434
 20
2542.922205
 42
0.047759
  0
VERTEX
  8
0
 10
638.269367
 20
2520.375650
 42
0.017976
  0
VERTEX
  8
0
 10
646.393875
 20
2512.518258
 42
0.024180
  0
VERTEX
  8
0
 10
654.323384
 20
2506.048211
 42
0.025499
  0
VERTEX
  8
0
 10
662.477944
 20
2500.646521
 42
0.024272
  0
VERTEX
  8
0
 10
671.272544
 20
2496.005944
 42
0.018667
  0
VERTEX
  8
0
 10
680.410679
 20
2492.145974
 42
0.038501
  0
VERTEX
  8
0
 10
687.850446
 20
2489.963267
 42
0.036675
  0
VERTEX
  8
0
 10
695.763871
 20
2488.887650
 42
0.015446
  0
VERTEX
  8
0
 10
706.500000
 20
2488.555918
 42
0.015881
  0
VERTEX
  8
0
 10
717.483271
 20
2488.904849
 42
0.038326
  0
VERTEX
  8
0
 10
725.525891
 20
2490.039315
 42
0.039811
  0
VERTEX
  8
0
 10
733.118840
 20
2492.357566
 42
0.018383
  0
VERTEX
  8
0
 10
742.585639
 20
2496.502202
 42
0.085593
  0
VERTEX
  8
0
 10
772.122976
 20
2517.598055
 42
0.062143
  0
VERTEX
  8
0
 10
796.804293
 20
2549.683438
 42
0.054895
  0
VERTEX
  8
0
 10
815.354785
 20
2591.012869
 42
0.041470
  0
VERTEX
  8
0
 10
826.672968
 20
2639.500000
 42
0.027642
  0
VERTEX
  8
0
 10
828.061266
 20
2654.687183
 42
0.008717
  0
VERTEX
  8
0
 10
828.482019
 20
2677.482658
 42
0.008727
  0
VERTEX
  8
0
 10
828.107247
 20
2700.288812
 42
0.027440
  0
VERTEX
  8
0
 10
826.750657
 20
2715.534056
 42
0.025966
  0
VERTEX
  8
0
 10
821.139024
 20
2743.865941
 42
0.026611
  0
VERTEX
  8
0
 10
812.655180
 20
2771.227290
 42
0.027909
  0
VERTEX
  8
0
 10
801.847636
 20
2796.115185
 42
0.038374
  0
VERTEX
  8
0
 10
789.266382
 20
2817.000000
 42
0.029875
  0
VERTEX
  8
0
 10
778.491301
 20
2830.361889
 42
0.028733
  0
VERTEX
  8
0
 10
766.066992
 20
2842.529983
 42
0.030051
  0
VERTEX
  8
0
 10
753.055550
 20
2852.575088
 42
0.045274
  0
VERTEX
  8
0
 10
740.538079
 20
2859.525579
 42
0.000000
  0
VERTEX
  8
0
 10
735.000000
 20
2861.974780
 42
0.000000
  0
VERTEX
  8
0
 10
735.000000
 20
2885.487390
 42
0.000000
  0
VERTEX
  8
0
 10
735.000000
 20
2909.000000
 42
0.000000
  0
VERTEX
  8
0
 10
725.528691
 20
2909.000000
 42
0.000000
  0
VERTEX
  8
0
 10
716.057381
 20
2909.000000
 42
0.000000
  0
VERTEX
  8
0
 10
715.778691
 20
2879.147854
 42
0.000000
  0
VERTEX
  8
0
 10
715.500000
 20
2849.295709
 42
0.000000
  0
VERTEX
  8
0
 10
721.003986
 20
2848.159464
 42
-0.105855
  0
VERTEX
  8
0
 10
742.840164
 20
2838.551584
 42
-0.059436
  0
VERTEX
  8
0
 10
764.254832
 20
2818.834021
 42
-0.052655
  0
VERTEX
  8
0
 10
782.997186
 20
2791.595947
 42
-0.044561
  0
VERTEX
  8
0
 10
796.886659
 20
2759.500000
 42
-0.019647
  0
VERTEX
  8
0
 10
802.599482
 20
2739.637815
 42
-0.022471
  0
VERTEX
  8
0
 10
806.444734
 20
2720.254795
 42
-0.021661
  0
VERTEX
  8
0
 10
808.632295
 20
2700.001110
 42
-0.016071
  0
VERTEX
  8
0
 10
809.355691
 20
2677.500000
 42
-0.023692
  0
VERTEX
  8
0
 10
807.929433
 20
2647.416701
 42
-0.029515
  0
VERTEX
  8
0
 10
803.643899
 20
2619.765632
 42
-0.030862
  0
VERTEX
  8
0
 10
796.353791
 20
2593.876324
 42
-0.030843
  0
VERTEX
  8
0
 10
785.931040
 20
2569.075723
 42
-0.029061
  0
VERTEX
  8
0
 10
774.933566
 20
2549.761846
 42
-0.038962
  0
VERTEX
  8
0
 10
762.685954
 20
2533.771109
 42
-0.043012
  0
VERTEX
  8
0
 10
749.264699
 20
2521.184203
 42
-0.053083
  0
VERTEX
  8
0
 10
734.752308
 20
2512.059521
 42
-0.020593
  0
VERTEX
  8
0
 10
727.217853
 20
2508.748511
 42
-0.032052
  0
VERTEX
  8
0
 10
720.461614
 20
2506.593371
 42
-0.034018
  0
VERTEX
  8
0
 10
713.792422
 20
2505.402580
 42
-0.027636
  0
VERTEX
  8
0
 10
706.539901
 20
2505.014781
 42
-0.054793
  0
VERTEX
  8
0
 10
692.439504
 20
2506.590872
 42
-0.056406
  0
VERTEX
  8
0
 10
679.163320
 20
2511.190011
 42
-0.051733
  0
VERTEX
  8
0
 10
666.320566
 20
2519.055997
 42
-0.035435
  0
VERTEX
  8
0
 10
653.500000
 20
2530.386159
 42
-0.049879
  0
VERTEX
  8
0
 10
636.758879
 20
2551.236564
 42
-0.040168
  0
VERTEX
  8
0
 10
623.058472
 20
2576.522041
 42
-0.036846
  0
VERTEX
  8
0
 10
612.579981
 20
2605.901302
 42
-0.028868
  0
VERTEX
  8
0
 10
605.482982
 20
2639.000000
 42
-0.023912
  0
VERTEX
  8
0
 10
603.965578
 20
2653.303922
 42
-0.010367
  0
VERTEX
  8
0
 10
603.254905
 20
2672.430236
 42
-0.010393
  0
VERTEX
  8
0
 10
603.339103
 20
2691.658757
 42
-0.022707
  0
VERTEX
  8
0
 10
604.377893
 20
2706.354391
 42
-0.034235
  0
VERTEX
  8
0
 10
611.672216
 20
2745.457983
 42
-0.042884
  0
VERTEX
  8
0
 10
623.922347
 20
2780.246040
 42
-0.047234
  0
VERTEX
  8
0
 10
640.577955
 20
2809.424306
 42
-0.064112
  0
VERTEX
  8
0
 10
661.035498
 20
2831.778070
 42
-0.031282
  0
VERTEX
  8
0
 10
667.917216
 20
2836.891870
 42
-0.021050
  0
VERTEX
  8
0
 10
676.345832
 20
2841.880656
 42
-0.021232
  0
VERTEX
  8
0
 10
684.820315
 20
2845.973046
 42
-0.044799
  0
VERTEX
  8
0
 10
691.750000
 20
2848.253206
 42
0.000000
  0
VERTEX
  8
0
 10
697.000000
 20
2849.473302
 42
0.000000
  0
VERTEX
  8
0
 10
697.000000
 20
2879.236651
 42
0.000000
  0
VERTEX
  8
0
 10
697.000000
 20
2909.000000
 42
0.000000
  0
VERTEX
  8
0
 10
688.166667
 20
2909.000000
 42
0.007039
  0
VERTEX
  8
0
 10
684.733476
 20
2908.951666
 42
0.010477
  0
VERTEX
  8
0
 10
681.732292
 20
2908.804167
 42
0.005871
  0
VERTEX
  8
0
 10
679.232160
 20
2908.599192
 42
0.174709
  0
SEQEND
  0
POLYLINE
  8
0
 66
1
 70
1
  0
VERTEX
  8
0
 10
938.000000
 20
2885.679870
 42
0.000000
  0
VERTEX
  8
0
 10
938.000000
 20
2862.359739
 42
0.000000
  0
VERTEX
  8
0
 10
927.750000
 20
2857.241152
 42
0.134137
  0
VERTEX
  8
0
 10
882.578813
 20
2816.830592
 42
0.077962
  0
VERTEX
  8
0
 10
852.794349
 20
2749.897132
 42
0.071042
  0
VERTEX
  8
0
 10
843.083477
 20
2670.181812
 42
0.075046
  0
VERTEX
  8
0
 10
856.452894
 20
2592.500000
 42
0.044124
  0
VERTEX
  8
0
 10
873.226941
 20
2553.740711
 42
0.060653
  0
VERTEX
  8
0
 10
895.198240
 20
2522.820126
 42
0.068876
  0
VERTEX
  8
0
 10
921.341967
 20
2501.052284
 42
0.086953
  0
VERTEX
  8
0
 10
950.483484
 20
2489.300671
 42
0.042255
  0
VERTEX
  8
0
 10
958.646077
 20
2488.271828
 42
0.021458
  0
VERTEX
  8
0
 10
969.004026
 20
2488.292412
 42
0.021421
  0
VERTEX
  8
0
 10
979.465756
 20
2489.212603
 42
0.037183
  0
VERTEX
  8
0
 10
988.000000
 20
2490.986151
 42
0.036423
  0
VERTEX
  8
0
 10
999.819736
 20
2495.328088
 42
0.033126
  0
VERTEX
  8
0
 10
1011.282018
 20
2501.457920
 42
0.031551
  0
VERTEX
  8
0
 10
1022.352316
 20
2509.367680
 42
0.026748
  0
VERTEX
  8
0
 10
1033.000000
 20
2519.030713
 42
0.108321
  0
VERTEX
  8
0
 10
1071.086139
 20
2579.168436
 42
0.071897
  0
VERTEX
  8
0
 10
1087.790784
 20
2659.425303
 42
0.070347
  0
VERTEX
  8
0
 10
1081.187258
 20
2743.053584
 42
0.093163
  0
VERTEX
  8
0
 10
1051.156036
 20
2813.095526
 42
0.024808
  0
VERTEX
  8
0
 10
1039.734420
 20
2828.421641
 42
0.034656
  0
VERTEX
  8
0
 10
1027.972427
 20
2840.813231
 42
0.037327
  0
VERTEX
  8
0
 10
1015.370730
 20
2850.746902
 42
0.037410
  0
VERTEX
  8
0
 10
1001.441087
 20
2858.688293
 42
0.000000
  0
VERTEX
  8
0
 10
994.000000
 20
2862.222049
 42
0.000000
  0
VERTEX
  8
0
 10
994.000000
 20
2885.611025
 42
0.000000
  0
VERTEX
  8
0
 10
994.000000
 20
2909.000000
 42
0.000000
  0
VERTEX
  8
0
 10
985.028691
 20
2909.000000
 42
0.000000
  0
VERTEX
  8
0
 10
976.057381
 20
2909.000000
 42
0.000000
  0
VERTEX
  8
0
 10
975.778691
 20
2879.087256
 42
0.000000
  0
VERTEX
  8
0
 10
975.500000
 20
2849.174513
 42
0.000000
  0
VERTEX
  8
0
 10
979.444098
 20
2848.544401
 42
-0.069212
  0
VERTEX
  8
0
 10
988.220554
 20
2845.861940
 42
-0.028498
  0
VERTEX
  8
0
 10
999.206732
 20
2839.976482
 42
-0.028069
  0
VERTEX
  8
0
 10
1010.166741
 20
2832.399031
 42
-0.038040
  0
VERTEX
  8
0
 10
1019.075541
 20
2824.312099
 42
-0.046521
  0
VERTEX
  8
0
 10
1035.735082
 20
2803.053502
 42
-0.039797
  0
VERTEX
  8
0
 10
1049.184476
 20
2777.969750
 42
-0.036344
  0
VERTEX
  8
0
 10
1059.483740
 20
2748.850650
 42
-0.027003
  0
VERTEX
  8
0
 10
1066.707769
 20
2715.500000
 42
-0.031144
  0
VERTEX
  8
0
 10
1068.133861
 20
2700.851877
 42
-0.008712
  0
VERTEX
  8
0
 10
1068.533559
 20
2677.829076
 42
-0.008796
  0
VERTEX
  8
0
 10
1068.125942
 20
2654.744053
 42
-0.029523
  0
VERTEX
  8
0
 10
1066.702951
 20
2639.694810
 42
-0.021870
  0
VERTEX
  8
0
 10
1061.577918
 20
2614.021708
 42
-0.025932
  0
VERTEX
  8
0
 10
1054.444181
 20
2590.342881
 42
-0.027575
  0
VERTEX
  8
0
 10
1045.386175
 20
2568.895464
 42
-0.033163
  0
VERTEX
  8
0
 10
1034.490982
 20
2549.912863
 42
-0.076410
  0
VERTEX
  8
0
 10
1007.137051
 20
2519.947835
 42
-0.126744
  0
VERTEX
  8
0
 10
976.158542
 20
2505.880728
 42
-0.138940
  0
VERTEX
  8
0
 10
944.294112
 20
2509.142383
 42
-0.100497
  0
VERTEX
  8
0
 10
914.244585
 20
2528.762911
 42
-0.082055
  0
VERTEX
  8
0
 10
887.852545
 20
2565.090333
 42
-0.055438
  0
VERTEX
  8
0
 10
870.074314
 20
2613.227168
 42
-0.051889
  0
VERTEX
  8
0
 10
862.429997
 20
2667.732629
 42
-0.050921
  0
VERTEX
  8
0
 10
866.088468
 20
2723.000000
 42
-0.043166
  0
VERTEX
  8
0
 10
876.759831
 20
2764.083326
 42
-0.052691
  0
VERTEX
  8
0
 10
893.871032
 20
2799.898982
 42
-0.059242
  0
VERTEX
  8
0
 10
915.800007
 20
2827.616588
 42
-0.093491
  0
VERTEX
  8
0
 10
940.808945
 20
2844.604697
 42
-0.010960
  0
VERTEX
  8
0
 10
944.046930
 20
2845.929357
 42
-0.010220
  0
VERTEX
  8
0
 10
947.415753
 20
2847.143709
 42
-0.010253
  0
VERTEX
  8
0
 10
950.452146
 20
2848.099720
 42
-0.033848
  0
VERTEX
  8
0
 10
952.500000
 20
2848.550888
 42
0.000000
  0
VERTEX
  8
0
 10
956.500000
 20
2849.152063
 42
0.000000
  0
VERTEX
  8
0
 10
956.265675
 20
2877.826032
 42
0.000018
  0
VERTEX
  8
0
 10
956.174726
 20
2888.907082
 42
0.000028
  0
VERTEX
  8
0
 10
956.095579
 20
2898.444209
 42
0.000007
  0
VERTEX
  8
0
 10
956.025805
 20
2906.781698
 42
0.001039
  0
VERTEX
  8
0
 10
956.015675
 20
2907.750000
 42
0.322982
  0
VERTEX
  8
0
 10
955.574168
 20
2908.346282
 42
0.042742
  0
VERTEX
  8
0
 10
953.950441
 20
2908.714842
 42
0.027216
  0
VERTEX
  8
0
 10
951.277990
 20
2908.938110
 42
0.007233
  0
VERTEX
  8
0
 10
947.000000
 20
2909.000000
 42
0.000000
  0
VERTEX
  8
0
 10
938.000000
 20
2909.000000
 42
0.000000
  0
SEQEND
  0
POLYLINE
  8
0
 66
1
 70
1
  0
VERTEX
  8
0
 10
1415.000000
 20
2878.635713
 42
0.000000
  0
VERTEX
  8
0
 10
1415.000000
 20
2850.196374
 42
0.000000
  0
VERTEX
  8
0
 10
1408.750000
 20
2849.540690
 42
0.044470
  0
VERTEX
  8
0
 10
1354.997368
 20
2839.012892
 42
0.054387
  0
VERTEX
  8
0
 10
1307.673854
 20
2819.507414
 42
0.061295
  0
VERTEX
  8
0
 10
1270.672859
 20
2792.976830
 42
0.096403
  0
VERTEX
  8
0
 10
1247.576462
 20
2761.570043
 42
0.047644
  0
VERTEX
  8
0
 10
1243.147830
 20
2749.310855
 42
0.040325
  0
VERTEX
  8
0
 10
1240.804163
 20
2735.726072
 42
0.040592
  0
VERTEX
  8
0
 10
1240.679748
 20
2722.044693
 42
0.050261
  0
VERTEX
  8
0
 10
1242.865221
 20
2709.500000
 42
0.097831
  0
VERTEX
  8
0
 10
1258.467798
 20
2678.628671
 42
0.068462
  0
VERTEX
  8
0
 10
1286.501617
 20
2651.386391
 42
0.059351
  0
VERTEX
  8
0
 10
1325.122969
 20
2629.487878
 42
0.043720
  0
VERTEX
  8
0
 10
1372.000000
 20
2614.479227
 42
0.011913
  0
VERTEX
  8
0
 10
1387.671992
 20
2611.324401
 42
0.015806
  0
VERTEX
  8
0
 10
1402.066623
 20
2609.248654
 42
0.014649
  0
VERTEX
  8
0
 10
1417.390229
 20
2607.984494
 42
0.008302
  0
VERTEX
  8
0
 10
1436.000000
 20
2607.306584
 42
0.003709
  0
VERTEX
  8
0
 10
1449.231835
 20
2607.142634
 42
0.008109
  0
VERTEX
  8
0
 10
1459.369409
 20
2607.256635
 42
0.009844
  0
VERTEX
  8
0
 10
1468.144779
 20
2607.670701
 42
0.009507
  0
VERTEX
  8
0
 10
1477.000000
 20
2608.432807
 42
0.033081
  0
VERTEX
  8
0
 10
1519.839552
 20
2615.830736
 42
0.040092
  0
VERTEX
  8
0
 10
1558.565534
 20
2628.547392
 42
0.043639
  0
VERTEX
  8
0
 10
1591.750483
 20
2646.020239
 42
0.058223
  0
VERTEX
  8
0
 10
1618.034428
 20
2667.633163
 42
0.045613
  0
VERTEX
  8
0
 10
1632.173863
 20
2685.293170
 42
0.060342
  0
VERTEX
  8
0
 10
1641.375690
 20
2703.706600
 42
0.064803
  0
VERTEX
  8
0
 10
1645.488603
 20
2722.679847
 42
0.065525
  0
VERTEX
  8
0
 10
1644.583410
 20
2742.000000
 42
0.042564
  0
VERTEX
  8
0
 10
1641.017678
 20
2755.256630
 42
0.042442
  0
VERTEX
  8
0
 10
1635.256135
 20
2767.731442
 42
0.039339
  0
VERTEX
  8
0
 10
1627.033734
 20
2779.850274
 42
0.028145
  0
VERTEX
  8
0
 10
1616.091878
 20
2792.051160
 42
0.055296
  0
VERTEX
  8
0
 10
1589.961105
 20
2812.880937
 42
0.042253
  0
VERTEX
  8
0
 10
1557.475965
 20
2829.712841
 42
0.038807
  0
VERTEX
  8
0
 10
1519.702963
 20
2842.063977
 42
0.031564
  0
VERTEX
  8
0
 10
1477.765454
 20
2849.493716
 42
0.000000
  0
VERTEX
  8
0
 10
1472.030909
 20
2850.140051
 42
0.000000
  0
VERTEX
  8
0
 10
1471.765454
 20
2878.320025
 42
0.000000
  0
VERTEX
  8
0
 10
1471.500000
 20
2906.500000
 42
0.000000
  0
VERTEX
  8
0
 10
1462.250000
 20
2906.787526
 42
0.000000
  0
VERTEX
  8
0
 10
1453.000000
 20
2907.075052
 42
0.000000
  0
VERTEX
  8
0
 10
1453.000000
 20
2869.582839
 42
0.000000
  0
VERTEX
  8
0
 10
1453.000000
 20
2832.090626
 42
0.000000
  0
VERTEX
  8
0
 10
1456.250000
 20
2831.592402
 42
0.014150
  0
VERTEX
  8
0
 10
1458.101441
 20
2831.361982
 42
0.002715
  0
VERTEX
  8
0
 10
1461.472067
 20
2831.057499
 42
0.002891
  0
VERTEX
  8
0
 10
1465.410595
 20
2830.746193
 42
0.002660
  0
VERTEX
  8
0
 10
1469.463419
 20
2830.471087
 42
-0.042966
  0
VERTEX
  8
0
 10
1511.406218
 20
2824.203475
 42
-0.042642
  0
VERTEX
  8
0
 10
1551.771565
 20
2810.851699
 42
-0.045599
  0
VERTEX
  8
0
 10
1586.198561
 20
2792.230998
 42
-0.078252
  0
VERTEX
  8
0
 10
1610.171541
 20
2770.203477
 42
-0.058844
  0
VERTEX
  8
0
 10
1621.145279
 20
2752.461575
 42
-0.081790
  0
VERTEX
  8
0
 10
1626.176817
 20
2734.502175
 42
-0.085365
  0
VERTEX
  8
0
 10
1625.086629
 20
2716.467103
 42
-0.070523
  0
VERTEX
  8
0
 10
1618.086720
 20
2698.500000
 42
-0.093172
  0
VERTEX
  8
0
 10
1596.537368
 20
2672.818223
 42
-0.057739
  0
VERTEX
  8
0
 10
1563.320267
 20
2651.456200
 42
-0.050321
  0
VERTEX
  8
0
 10
1520.984201
 20
2635.732890
 42
-0.038121
  0
VERTEX
  8
0
 10
1472.191141
 20
2626.912352
 42
-0.023951
  0
VERTEX
  8
0
 10
1457.594562
 20
2626.112437
 42
-0.007006
  0
VERTEX
  8
0
 10
1435.114827
 20
2626.273344
 42
-0.006855
  0
VERTEX
  8
0
 10
1412.759600
 20
2627.053430
 42
-0.026720
  0
VERTEX
  8
0
 10
1399.000000
 20
2628.462063
 42
-0.031313
  0
VERTEX
  8
0
 10
1360.678648
 20
2636.953102
 42
-0.039275
  0
VERTEX
  8
0
 10
1326.621032
 20
2649.740104
 42
-0.043512
  0
VERTEX
  8
0
 10
1298.222114
 20
2666.175937
 42
-0.063544
  0
VERTEX
  8
0
 10
1276.876004
 20
2685.609516
 42
-0.036564
  0
VERTEX
  8
0
 10
1269.275948
 20
2695.984066
 42
-0.045463
  0
VERTEX
  8
0
 10
1263.880627
 20
2706.650569
 42
-0.047789
  0
VERTEX
  8
0
 10
1260.695847
 20
2717.646253
 42
-0.048390
  0
VERTEX
  8
0
 10
1259.674510
 20
2729.000000
 42
-0.097705
  0
VERTEX
  8
0
 10
1264.161882
 20
2750.935946
 42
-0.076054
  0
VERTEX
  8
0
 10
1276.880291
 20
2771.755260
 42
-0.064168
  0
VERTEX
  8
0
 10
1297.545575
 20
2790.716677
 42
-0.041864
  0
VERTEX
  8
0
 10
1325.500000
 20
2807.117709
 42
-0.027885
  0
VERTEX
  8
0
 10
1346.339845
 20
2815.712124
 42
-0.021330
  0
VERTEX
  8
0
 10
1369.949741
 20
2822.828192
 42
-0.021247
  0
VERTEX
  8
0
 10
1394.206466
 20
2827.937498
 42
-0.026800
  0
VERTEX
  8
0
 10
1417.000000
 20
2830.490117
 42
0.002650
  0
VERTEX
  8
0
 10
1421.259153
 20
2830.759814
 42
0.002932
  0
VERTEX
  8
0
 10
1425.373874
 20
2831.066529
 42
0.002721
  0
VERTEX
  8
0
 10
1428.882847
 20
2831.368025
 42
0.015087
  0
VERTEX
  8
0
 10
1430.762124
 20
2831.597155
 42
0.000000
  0
VERTEX
  8
0
 10
1434.024247
 20
2832.095175
 42
0.000000
  0
VERTEX
  8
0
 10
1433.762124
 20
2869.297587
 42
0.000000
  0
VERTEX
  8
0
 10
1433.500000
 20
2906.500000
 42
0.000000
  0
VERTEX
  8
0
 10
1424.250000
 20
2906.787526
 42
0.000000
  0
VERTEX
  8
0
 10
1415.000000
 20
2907.075052
 42
0.000000
  0
SEQEND
  0
POLYLINE
  8
0
 66
1
 70
1
  0
VERTEX
  8
0
 10
167.000000
 20
2863.953307
 42
0.135388
  0
VERTEX
  8
0
 10
124.987715
 20
2839.796494
 42
0.079820
  0
VERTEX
  8
0
 10
91.091788
 20
2792.369793
 42
0.069662
  0
VERTEX
  8
0
 10
70.141506
 20
2729.597036
 42
0.061647
  0
VERTEX
  8
0
 10
66.013571
 20
2660.750000
 42
0.008284
  0
VERTEX
  8
0
 10
67.187839
 20
2646.069923
 42
0.013589
  0
VERTEX
  8
0
 10
68.724577
 20
2633.696596
 42
0.014143
  0
VERTEX
  8
0
 10
70.880538
 20
2621.782734
 42
0.010025
  0
VERTEX
  8
0
 10
73.943017
 20
2608.545806
 42
0.046026
  0
VERTEX
  8
0
 10
89.173761
 20
2565.406039
 42
0.060454
  0
VERTEX
  8
0
 10
111.060793
 20
2529.878351
 42
0.068660
  0
VERTEX
  8
0
 10
138.054942
 20
2504.181106
 42
0.093809
  0
VERTEX
  8
0
 10
168.409963
 20
2490.015899
 42
0.037550
  0
VERTEX
  8
0
 10
177.162434
 20
2488.473087
 42
0.024808
  0
VERTEX
  8
0
 10
187.367345
 20
2487.964368
 42
0.024641
  0
VERTEX
  8
0
 10
197.691426
 20
2488.471362
 42
0.034252
  0
VERTEX
  8
0
 10
206.817887
 20
2490.008090
 42
0.095887
  0
VERTEX
  8
0
 10
237.257492
 20
2503.838929
 42
0.069072
  0
VERTEX
  8
0
 10
264.484528
 20
2529.489644
 42
0.060776
  0
VERTEX
  8
0
 10
286.612150
 20
2565.109709
 42
0.046656
  0
VERTEX
  8
0
 10
301.954120
 20
2608.312724
 42
0.011338
  0
VERTEX
  8
0
 10
305.956681
 20
2625.776396
 42
0.023371
  0
VERTEX
  8
0
 10
308.132228
 20
2639.618532
 42
0.020394
  0
VERTEX
  8
0
 10
309.168004
 20
2654.742776
 42
0.006746
  0
VERTEX
  8
0
 10
309.481938
 20
2677.000000
 42
0.006723
  0
VERTEX
  8
0
 10
309.197738
 20
2699.143434
 42
0.020552
  0
VERTEX
  8
0
 10
308.186515
 20
2714.129116
 42
0.023395
  0
VERTEX
  8
0
 10
306.029934
 20
2727.907835
 42
0.010979
  0
VERTEX
  8
0
 10
302.022154
 20
2745.500000
 42
0.047082
  0
VERTEX
  8
0
 10
286.696772
 20
2788.818058
 42
0.060255
  0
VERTEX
  8
0
 10
264.435052
 20
2824.763440
 42
0.068435
  0
VERTEX
  8
0
 10
237.115091
 20
2850.691815
 42
0.098085
  0
VERTEX
  8
0
 10
206.810949
 20
2864.482608
 42
0.009257
  0
VERTEX
  8
0
 10
200.602351
 20
2865.825493
 42
0.219592
  0
VERTEX
  8
0
 10
198.906238
 20
2865.414338
 42
0.219347
  0
VERTEX
  8
0
 10
198.117422
 20
2863.856799
 42
0.009235
  0
VERTEX
  8
0
 10
198.000000
 20
2857.500000
 42
0.000000
  0
VERTEX
  8
0
 10
198.000000
 20
2849.000000
 42
0.000000
  0
VERTEX
  8
0
 10
187.500000
 20
2849.000000
 42
0.000000
  0
VERTEX
  8
0
 10
177.000000
 20
2849.000000
 42
0.000000
  0
VERTEX
  8
0
 10
177.000000
 20
2857.500000
 42
0.007645
  0
VERTEX
  8
0
 10
176.938253
 20
2861.538307
 42
0.029101
  0
VERTEX
  8
0
 10
176.714855
 20
2864.048452
 42
0.048328
  0
VERTEX
  8
0
 10
176.343014
 20
2865.545015
 42
0.329921
  0
VERTEX
  8
0
 10
175.750000
 20
2865.944938
 42
0.042056
  0
VERTEX
  8
0
 10
174.932821
 20
2865.839696
 42
0.002914
  0
VERTEX
  8
0
 10
172.664062
 20
2865.337184
 42
0.004129
  0
VERTEX
  8
0
 10
169.963791
 20
2864.699061
 42
0.003093
  0
SEQEND
  0
POLYLINE
  8
0
 66
1
 70
1
  0
VERTEX
  8
0
 10
443.750000
 20
2850.276604
 42
0.019375
  0
VERTEX
  8
0
 10
445.229765
 20
2850.150935
 42
0.011494
  0
VERTEX
  8
0
 10
447.000000
 20
2850.110234
 42
0.011494
  0
VERTEX
  8
0
 10
448.770235
 20
2850.150935
 42
0.019375
  0
VERTEX
  8
0
 10
450.250000
 20
2850.276604
 42
0.108536
  0
VERTEX
  8
0
 10
450.666199
 20
2850.423685
 42
0.707215
  0
VERTEX
  8
0
 10
450.635938
 20
2850.561450
 42
0.025693
  0
VERTEX
  8
0
 10
449.329566
 20
2850.655793
 42
0.005179
  0
VERTEX
  8
0
 10
447.000000
 20
2850.679926
 42
0.005179
  0
VERTEX
  8
0
 10
444.670434
 20
2850.655793
 42
0.025693
  0
VERTEX
  8
0
 10
443.364062
 20
2850.561450
 42
0.707215
  0
VERTEX
  8
0
 10
443.333801
 20
2850.423685
 42
0.108536
  0
SEQEND
  0
POLYLINE
  8
0
 66
1
 70
1
  0
VERTEX
  8
0
 10
702.727696
 20
2850.278268
 42
0.020120
  0
VERTEX
  8
0
 10
704.234338
 20
2850.152063
 42
0.010546
  0
VERTEX
  8
0
 10
706.115370
 20
2850.110215
 42
0.010474
  0
VERTEX
  8
0
 10
708.048239
 20
2850.148479
 42
0.015806
  0
VERTEX
  8
0
 10
709.727696
 20
2850.270202
 42
0.062969
  0
VERTEX
  8
0
 10
710.351289
 20
2850.416037
 42
0.785070
  0
VERTEX
  8
0
 10
710.335636
 20
2850.550546
 42
0.026082
  0
VERTEX
  8
0
 10
709.006031
 20
2850.645979
 42
0.004587
  0
VERTEX
  8
0
 10
706.500000
 20
2850.671860
 42
0.004873
  0
VERTEX
  8
0
 10
703.985512
 20
2850.650253
 42
0.021409
  0
VERTEX
  8
0
 10
702.504386
 20
2850.559569
 42
0.613017
  0
VERTEX
  8
0
 10
702.451620
 20
2850.422293
 42
0.180442
  0
SEQEND
  0
POLYLINE
  8
0
 66
1
 70
1
  0
VERTEX
  8
0
 10
961.727696
 20
2850.278268
 42
0.020120
  0
VERTEX
  8
0
 10
963.234338
 20
2850.152063
 42
0.010546
  0
VERTEX
  8
0
 10
965.115370
 20
2850.110215
 42
0.010474
  0
VERTEX
  8
0
 10
967.048239
 20
2850.148479
 42
0.015806
  0
VERTEX
  8
0
 10
968.727696
 20
2850.270202
 42
0.062969
  0
VERTEX
  8
0
 10
969.351289
 20
2850.416037
 42
0.785070
  0
VERTEX
  8
0
 10
969.335636
 20
2850.550546
 42
0.026082
  0
VERTEX
  8
0
 10
968.006031
 20
2850.645979
 42
0.004587
  0
VERTEX
  8
0
 10
965.500000
 20
2850.671860
 42
0.004873
  0
VERTEX
  8
0
 10
962.985512
 20
2850.650253
 42
0.021409
  0
VERTEX
  8
0
 10
961.504386
 20
2850.559569
 42
0.613017
  0
VERTEX
  8
0
 10
961.451620
 20
2850.422293
 42
0.180442
  0
SEQEND
  0
POLYLINE
  8
0
 66
1
 70
1
  0
VERTEX
  8
0
 10
1413.000000
 20
2584.897655
 42
0.033530
  0
VERTEX
  8
0
 10
1373.970077
 20
2578.843085
 42
0.035105
  0
VERTEX
  8
0
 10
1336.712206
 20
2567.679597
 42
0.037062
  0
VERTEX
  8
0
 10
1303.475369
 20
2552.219232
 42
0.050917
  0
VERTEX
  8
0
 10
1276.500000
 20
2533.316495
 42
0.034300
  0
VERTEX
  8
0
 10
1265.020551
 20
2521.925273
 42
0.034207
  0
VERTEX
  8
0
 10
1255.194926
 20
2509.061725
 42
0.035757
  0
VERTEX
  8
0
 10
1247.644711
 20
2495.640291
 42
0.048914
  0
VERTEX
  8
0
 10
1242.981406
 20
2482.590037
 42
0.036189
  0
VERTEX
  8
0
 10
1241.461291
 20
2473.896157
 42
0.025387
  0
VERTEX
  8
0
 10
1240.964502
 20
2463.966687
 42
0.025411
  0
VERTEX
  8
0
 10
1241.476325
 20
2454.053378
 42
0.036633
  0
VERTEX
  8
0
 10
1243.010155
 20
2445.409963
 42
0.120788
  0
VERTEX
  8
0
 10
1262.496688
 20
2408.812479
 42
0.075084
  0
VERTEX
  8
0
 10
1300.167343
 20
2377.643893
 42
0.063683
  0
VERTEX
  8
0
 10
1352.095901
 20
2354.817804
 42
0.047680
  0
VERTEX
  8
0
 10
1413.500000
 20
2342.902781
 42
0.022243
  0
VERTEX
  8
0
 10
1429.718075
 20
2342.060411
 42
0.008309
  0
VERTEX
  8
0
 10
1452.518464
 20
2342.270265
 42
0.008266
  0
VERTEX
  8
0
 10
1475.221056
 20
2343.232398
 42
0.023337
  0
VERTEX
  8
0
 10
1491.003896
 20
2344.904543
 42
0.042357
  0
VERTEX
  8
0
 10
1542.792998
 20
2357.407258
 42
0.055616
  0
VERTEX
  8
0
 10
1586.920330
 20
2377.787455
 42
0.063879
  0
VERTEX
  8
0
 10
1620.339004
 20
2404.337934
 42
0.098548
  0
VERTEX
  8
0
 10
1640.355863
 20
2435.200004
 42
0.052209
  0
VERTEX
  8
0
 10
1644.789073
 20
2450.936508
 42
0.052820
  0
VERTEX
  8
0
 10
1645.842529
 20
2467.187647
 42
0.052929
  0
VERTEX
  8
0
 10
1643.468658
 20
2483.268020
 42
0.052851
  0
VERTEX
  8
0
 10
1637.771267
 20
2498.500000
 42
0.071614
  0
VERTEX
  8
0
 10
1621.091153
 20
2522.543435
 42
0.053063
  0
VERTEX
  8
0
 10
1596.638580
 20
2543.786097
 42
0.047462
  0
VERTEX
  8
0
 10
1565.358109
 20
2561.463770
 42
0.036141
  0
VERTEX
  8
0
 10
1528.332000
 20
2574.865555
 42
0.019218
  0
VERTEX
  8
0
 10
1511.785996
 20
2578.855121
 42
0.010710
  0
VERTEX
  8
0
 10
1491.374237
 20
2582.501000
 42
0.010556
  0
VERTEX
  8
0
 10
1471.530317
 20
2585.180575
 42
0.028022
  0
VERTEX
  8
0
 10
1457.250000
 20
2585.996583
 42
0.000000
  0
VERTEX
  8
0
 10
1454.000000
 20
2586.000000
 42
0.000000
  0
VERTEX
  8
0
 10
1454.000000
 20
2576.500000
 42
0.000000
  0
VERTEX
  8
0
 10
1454.000000
 20
2567.000000
 42
0.000000
  0
VERTEX
  8
0
 10
1443.500000
 20
2567.000000
 42
0.000000
  0
VERTEX
  8
0
 10
1433.000000
 20
2567.000000
 42
0.000000
  0
VERTEX
  8
0
 10
1433.000000
 20
2576.500000
 42
0.000000
  0
VERTEX
  8
0
 10
1433.000000
 20
2586.000000
 42
0.000000
  0
VERTEX
  8
0
 10
1427.750000
 20
2585.862481
 42
0.007272
  0
VERTEX
  8
0
 10
1425.090509
 20
2585.754095
 42
0.002511
  0
VERTEX
  8
0
 10
1421.251562
 20
2585.522336
 42
0.002494
  0
VERTEX
  8
0
 10
1417.022079
 20
2585.224483
 42
0.002893
  0
SEQEND
  0
POLYLINE
  8
0
 66
1
 70
1
  0
VERTEX
  8
0
 10
901.557825
 20
2354.507878
 42
0.064970
  0
VERTEX
  8
0
 10
895.685181
 20
2351.510174
 42
0.070335
  0
VERTEX
  8
0
 10
890.954561
 20
2347.171831
 42
0.072468
  0
VERTEX
  8
0
 10
887.718817
 20
2341.816446
 42
0.075903
  0
VERTEX
  8
0
 10
886.211033
 20
2335.844464
 42
-0.023382
  0
VERTEX
  8
0
 10
885.817599
 20
2333.103170
 42
-0.050506
  0
VERTEX
  8
0
 10
885.208473
 20
2331.063652
 42
-0.057775
  0
VERTEX
  8
0
 10
884.265068
 20
2329.363435
 42
-0.040872
  0
VERTEX
  8
0
 10
882.851069
 20
2327.697223
 42
0.015389
  0
VERTEX
  8
0
 10
881.759261
 20
2326.536056
 42
0.020039
  0
VERTEX
  8
0
 10
880.837502
 20
2325.404958
 42
0.018066
  0
VERTEX
  8
0
 10
880.154162
 20
2324.422182
 42
0.143842
  0
VERTEX
  8
0
 10
880.000000
 20
2323.897397
 42
-0.381694
  0
VERTEX
  8
0
 10
879.778418
 20
2323.649424
 42
-0.076498
  0
VERTEX
  8
0
 10
879.133338
 20
2323.675506
 42
-0.046984
  0
VERTEX
  8
0
 10
878.181826
 20
2323.956349
 42
-0.024091
  0
VERTEX
  8
0
 10
877.049660
 20
2324.474320
 42
0.064715
  0
VERTEX
  8
0
 10
873.319500
 20
2325.827482
 42
0.089037
  0
VERTEX
  8
0
 10
869.763754
 20
2325.973858
 42
0.091223
  0
VERTEX
  8
0
 10
866.442999
 20
2324.879267
 42
0.071383
  0
VERTEX
  8
0
 10
863.400000
 20
2322.600000
 42
0.021918
  0
VERTEX
  8
0
 10
862.098450
 20
2321.179049
 42
0.025742
  0
VERTEX
  8
0
 10
860.998750
 20
2319.721206
 42
0.025975
  0
VERTEX
  8
0
 10
860.210540
 20
2318.414757
 42
0.123350
  0
VERTEX
  8
0
 10
860.000000
 20
2317.574320
 42
-0.069058
  0
VERTEX
  8
0
 10
859.882131
 20
2316.724988
 42
-0.334533
  0
VERTEX
  8
0
 10
859.518205
 20
2316.448707
 42
-0.112936
  0
VERTEX
  8
0
 10
858.787174
 20
2316.613128
 42
-0.007774
  0
VERTEX
  8
0
 10
856.878518
 20
2317.562821
 42
0.129894
  0
VERTEX
  8
0
 10
852.307130
 20
2318.579837
 42
0.104361
  0
VERTEX
  8
0
 10
847.405431
 20
2317.341793
 42
0.103741
  0
VERTEX
  8
0
 10
843.399255
 20
2314.218999
 42
0.126810
  0
VERTEX
  8
0
 10
841.340821
 20
2309.954105
 42
-0.051025
  0
VERTEX
  8
0
 10
840.871768
 20
2308.434324
 42
-0.199447
  0
VERTEX
  8
0
 10
840.184626
 20
2307.760314
 42
-0.109163
  0
VERTEX
  8
0
 10
838.951993
 20
2307.555624
 42
-0.010722
  0
VERTEX
  8
0
 10
835.931004
 20
2307.780651
 42
0.021212
  0
VERTEX
  8
0
 10
832.986797
 20
2307.937948
 42
0.090149
  0
VERTEX
  8
0
 10
831.255790
 20
2307.642848
 42
0.089022
  0
VERTEX
  8
0
 10
829.728457
 20
2306.755645
 42
0.020397
  0
VERTEX
  8
0
 10
827.524842
 20
2304.724842
 42
0.024521
  0
VERTEX
  8
0
 10
825.785641
 20
2302.806146
 42
0.057307
  0
VERTEX
  8
0
 10
824.736984
 20
2301.180302
 42
0.067523
  0
VERTEX
  8
0
 10
824.184725
 20
2299.533233
 42
0.047204
  0
VERTEX
  8
0
 10
824.000000
 20
2297.580948
 42
-0.014628
  0
VERTEX
  8
0
 10
823.936738
 20
2295.419027
 42
-0.157506
  0
VERTEX
  8
0
 10
823.623395
 20
2294.613432
 42
-0.248745
  0
VERTEX
  8
0
 10
822.970126
 20
2294.337384
 42
-0.039550
  0
VERTEX
  8
0
 10
821.553107
 20
2294.576027
 42
0.095883
  0
VERTEX
  8
0
 10
818.720019
 20
2294.731217
 42
0.054810
  0
VERTEX
  8
0
 10
815.385600
 20
2293.894105
 42
0.054148
  0
VERTEX
  8
0
 10
812.252931
 20
2292.327690
 42
0.083297
  0
VERTEX
  8
0
 10
810.015637
 20
2290.292750
 42
0.052208
  0
VERTEX
  8
0
 10
809.186607
 20
2288.976854
 42
0.038518
  0
VERTEX
  8
0
 10
808.546115
 20
2287.377337
 42
0.037135
  0
VERTEX
  8
0
 10
808.137296
 20
2285.628502
 42
0.038871
  0
VERTEX
  8
0
 10
808.000000
 20
2283.865141
 42
-0.020699
  0
VERTEX
  8
0
 10
807.922512
 20
2281.994194
 42
-0.077516
  0
VERTEX
  8
0
 10
807.646584
 20
2280.854355
 42
-0.143952
  0
VERTEX
  8
0
 10
807.146152
 20
2280.233194
 42
-0.152845
  0
VERTEX
  8
0
 10
806.401129
 20
2280.000000
 42
0.094688
  0
VERTEX
  8
0
 10
803.795469
 20
2279.502086
 42
0.045546
  0
VERTEX
  8
0
 10
800.749111
 20
2277.959785
 42
0.045452
  0
VERTEX
  8
0
 10
798.010241
 20
2275.875402
 42
0.088273
  0
VERTEX
  8
0
 10
796.344575
 20
2273.699441
 42
0.045507
  0
VERTEX
  8
0
 10
795.700563
 20
2272.116066
 42
0.037495
  0
VERTEX
  8
0
 10
795.301778
 20
2270.336022
 42
0.035070
  0
VERTEX
  8
0
 10
795.155360
 20
2268.395931
 42
0.029373
  0
VERTEX
  8
0
 10
795.265789
 20
2266.334286
 42
-0.013375
  0
VERTEX
  8
0
 10
795.462593
 20
2264.037875
 42
-0.079021
  0
VERTEX
  8
0
 10
795.343698
 20
2262.840498
 42
-0.184587
  0
VERTEX
  8
0
 10
794.907537
 20
2262.231806
 42
-0.146455
  0
VERTEX
  8
0
 10
794.127163
 20
2261.996262
 42
0.113202
  0
VERTEX
  8
0
 10
791.585199
 20
2261.407129
 42
0.057740
  0
VERTEX
  8
0
 10
788.808394
 20
2259.633004
 42
0.056421
  0
VERTEX
  8
0
 10
786.419348
 20
2257.189767
 42
0.085882
  0
VERTEX
  8
0
 10
785.025542
 20
2254.577394
 42
0.029240
  0
VERTEX
  8
0
 10
784.512552
 20
2252.651432
 42
0.050385
  0
VERTEX
  8
0
 10
784.345137
 20
2251.002205
 42
0.050455
  0
VERTEX
  8
0
 10
784.511042
 20
2249.354389
 42
0.029410
  0
VERTEX
  8
0
 10
785.022113
 20
2247.432998
 42
-0.010081
  0
VERTEX
  8
0
 10
785.448104
 20
2246.049085
 42
-0.015973
  0
VERTEX
  8
0
 10
785.750808
 20
2244.846089
 42
-0.009997
  0
VERTEX
  8
0
 10
785.945518
 20
2243.858035
 42
-0.299100
  0
VERTEX
  8
0
 10
785.849665
 20
2243.635479
 42
-0.036809
  0
VERTEX
  8
0
 10
785.603113
 20
2243.497805
 42
-0.002090
  0
VERTEX
  8
0
 10
784.810438
 20
2243.132824
 42
-0.003191
  0
VERTEX
  8
0
 10
783.861494
 20
2242.707980
 42
-0.002335
  0
VERTEX
  8
0
 10
782.802890
 20
2242.248018
 42
0.126132
  0
VERTEX
  8
0
 10
779.223215
 20
2239.491801
 42
0.102558
  0
VERTEX
  8
0
 10
777.070454
 20
2235.139088
 42
0.099304
  0
VERTEX
  8
0
 10
776.786896
 20
2230.164519
 42
0.110198
  0
VERTEX
  8
0
 10
778.482443
 20
2225.667139
 42
-0.010371
  0
VERTEX
  8
0
 10
779.431641
 20
2224.150780
 42
-0.114424
  0
VERTEX
  8
0
 10
779.649213
 20
2223.473195
 42
-0.341052
  0
VERTEX
  8
0
 10
779.422475
 20
2223.122946
 42
-0.084932
  0
VERTEX
  8
0
 10
778.703904
 20
2223.000000
 42
0.129089
  0
VERTEX
  8
0
 10
777.947013
 20
2222.801276
 42
0.032136
  0
VERTEX
  8
0
 10
776.865596
 20
2222.096212
 42
0.030701
  0
VERTEX
  8
0
 10
775.692085
 20
2221.100937
 42
0.026633
  0
VERTEX
  8
0
 10
774.588894
 20
2219.923275
 42
0.089031
  0
VERTEX
  8
0
 10
772.507132
 20
2216.303471
 42
0.091906
  0
VERTEX
  8
0
 10
771.844902
 20
2212.226393
 42
0.093830
  0
VERTEX
  8
0
 10
772.689400
 20
2208.252304
 42
0.097533
  0
VERTEX
  8
0
 10
774.923077
 20
2204.923077
 42
-0.012663
  0
VERTEX
  8
0
 10
775.990081
 20
2203.800612
 42
-0.025908
  0
VERTEX
  8
0
 10
776.756403
 20
2202.858654
 42
-0.036704
  0
VERTEX
  8
0
 10
777.173853
 20
2202.189490
 42
-0.564353
  0
VERTEX
  8
0
 10
777.059441
 20
2202.000000
 42
0.192792
  0
VERTEX
  8
0
 10
775.621527
 20
2201.424159
 42
0.029367
  0
VERTEX
  8
0
 10
773.472817
 20
2199.118872
 42
0.032982
  0
VERTEX
  8
0
 10
771.558741
 20
2196.469270
 42
0.092962
  0
VERTEX
  8
0
 10
770.726818
 20
2194.351275
 42
0.070886
  0
VERTEX
  8
0
 10
770.593999
 20
2191.548201
 42
0.049037
  0
VERTEX
  8
0
 10
771.201302
 20
2188.427168
 42
0.049866
  0
VERTEX
  8
0
 10
772.378303
 20
2185.562392
 42
0.086655
  0
VERTEX
  8
0
 10
773.954896
 20
2183.540819
 42
-0.026648
  0
VERTEX
  8
0
 10
775.113317
 20
2182.374378
 42
-0.192304
  0
VERTEX
  8
0
 10
775.378632
 20
2181.644592
 42
-0.140138
  0
VERTEX
  8
0
 10
775.111188
 20
2180.808928
 42
-0.012110
  0
VERTEX
  8
0
 10
773.811558
 20
2178.958989
 42
0.136125
  0
VERTEX
  8
0
 10
772.095497
 20
2174.482232
 42
0.099178
  0
VERTEX
  8
0
 10
772.642277
 20
2169.153252
 42
0.099633
  0
VERTEX
  8
0
 10
775.194183
 20
2164.466081
 42
0.138849
  0
VERTEX
  8
0
 10
779.120801
 20
2161.793066
 42
-0.149986
  0
VERTEX
  8
0
 10
779.601943
 20
2161.449936
 42
-0.204120
  0
VERTEX
  8
0
 10
779.732730
 20
2160.939505
 42
-0.094706
  0
VERTEX
  8
0
 10
779.458677
 20
2160.166547
 42
-0.020363
  0
VERTEX
  8
0
 10
778.687933
 20
2158.964849
 42
0.096398
  0
VERTEX
  8
0
 10
777.246024
 20
2155.725674
 42
0.078644
  0
VERTEX
  8
0
 10
776.981479
 20
2151.933271
 42
0.077503
  0
VERTEX
  8
0
 10
777.904810
 20
2148.192912
 42
0.088894
  0
VERTEX
  8
0
 10
779.901210
 20
2145.105755
 42
0.026915
  0
VERTEX
  8
0
 10
781.137897
 20
2143.917046
 42
0.029912
  0
VERTEX
  8
0
 10
782.454094
 20
2142.912316
 42
0.031261
  0
VERTEX
  8
0
 10
783.666181
 20
2142.202641
 42
0.117331
  0
VERTEX
  8
0
 10
784.517841
 20
2142.000000
 42
-0.072794
  0
VERTEX
  8
0
 10
785.317781
 20
2141.882918
 42
-0.219408
  0
VERTEX
  8
0
 10
785.721261
 20
2141.527154
 42
-0.151279
  0
VERTEX
  8
0
 10
785.796908
 20
2140.877438
 42
-0.031434
  0
VERTEX
  8
0
 10
785.512364
 20
2139.750000
 42
0.067559
  0
VERTEX
  8
0
 10
784.526686
 20
2134.180093
 42
0.104700
  0
VERTEX
  8
0
 10
785.342150
 20
2129.383609
 42
0.117905
  0
VERTEX
  8
0
 10
787.914146
 20
2125.717486
 42
0.102539
  0
VERTEX
  8
0
 10
791.993938
 20
2123.381908
 42
-0.028427
  0
VERTEX
  8
0
 10
794.052295
 20
2122.577839
 42
-0.160401
  0
VERTEX
  8
0
 10
794.905846
 20
2121.786907
 42
-0.127092
  0
VERTEX
  8
0
 10
795.225824
 20
2120.546894
 42
-0.015282
  0
VERTEX
  8
0
 10
795.137940
 20
2117.699524
 42
0.024430
  0
VERTEX
  8
0
 10
795.114021
 20
2115.796450
 42
0.022715
  0
VERTEX
  8
0
 10
795.273172
 20
2113.852912
 42
0.023359
  0
VERTEX
  8
0
 10
795.574104
 20
2112.139267
 42
0.067816
  0
VERTEX
  8
0
 10
795.992451
 20
2111.014105
 42
0.091232
  0
VERTEX
  8
0
 10
797.636091
 20
2108.953714
 42
0.043977
  0
VERTEX
  8
0
 10
800.379299
 20
2106.963740
 42
0.043973
  0
VERTEX
  8
0
 10
803.429637
 20
2105.483500
 42
0.090855
  0
VERTEX
  8
0
 10
806.026426
 20
2105.003738
 42
-0.046306
  0
VERTEX
  8
0
 10
807.461888
 20
2104.868369
 42
-0.223914
  0
VERTEX
  8
0
 10
808.107708
 20
2104.400322
 42
-0.136143
  0
VERTEX
  8
0
 10
808.336383
 20
2103.434479
 42
-0.014235
  0
VERTEX
  8
0
 10
808.180022
 20
2101.090510
 42
0.037074
  0
VERTEX
  8
0
 10
808.133205
 20
2098.857708
 42
0.082566
  0
VERTEX
  8
0
 10
808.499594
 20
2097.203012
 42
0.069444
  0
VERTEX
  8
0
 10
809.428795
 20
2095.585131
 42
0.020458
  0
VERTEX
  8
0
 10
811.278087
 20
2093.393617
 42
0.022377
  0
VERTEX
  8
0
 10
813.285525
 20
2091.390865
 42
0.067909
  0
VERTEX
  8
0
 10
814.869674
 20
2090.298062
 42
0.077850
  0
VERTEX
  8
0
 10
816.563213
 20
2089.750201
 42
0.036167
  0
VERTEX
  8
0
 10
818.871320
 20
2089.553108
 42
-0.015193
  0
VERTEX
  8
0
 10
821.339031
 20
2089.446273
 42
-0.132158
  0
VERTEX
  8
0
 10
822.366275
 20
2089.087005
 42
-0.201844
  0
VERTEX
  8
0
 10
822.856291
 20
2088.327909
 42
-0.043462
  0
VERTEX
  8
0
 10
822.996829
 20
2086.735315
 42
0.077978
  0
VERTEX
  8
0
 10
823.219732
 20
2085.325306
 42
0.043198
  0
VERTEX
  8
0
 10
823.897893
 20
2083.715798
 42
0.037408
  0
VERTEX
  8
0
 10
824.978061
 20
2081.992500
 42
0.026792
  0
VERTEX
  8
0
 10
826.423161
 20
2080.235315
 42
0.022421
  0
VERTEX
  8
0
 10
828.549721
 20
2078.114085
 42
0.083284
  0
VERTEX
  8
0
 10
830.134483
 20
2077.091302
 42
0.081224
  0
VERTEX
  8
0
 10
831.986874
 20
2076.628464
 42
0.020691
  0
VERTEX
  8
0
 10
835.089827
 20
2076.500000
 42
-0.015226
  0
VERTEX
  8
0
 10
837.596940
 20
2076.423636
 42
-0.049692
  0
VERTEX
  8
0
 10
839.234046
 20
2076.159104
 42
-0.085278
  0
VERTEX
  8
0
 10
840.245418
 20
2075.695699
 42
-0.178456
  0
VERTEX
  8
0
 10
840.739788
 20
2075.000000
 42
0.039274
  0
VERTEX
  8
0
 10
841.638168
 20
2072.485325
 42
0.049851
  0
VERTEX
  8
0
 10
842.865440
 20
2070.348052
 42
0.054241
  0
VERTEX
  8
0
 10
844.388231
 20
2068.643868
 42
0.064069
  0
VERTEX
  8
0
 10
846.164978
 20
2067.414686
 42
0.062316
  0
VERTEX
  8
0
 10
848.755240
 20
2066.461003
 42
0.046944
  0
VERTEX
  8
0
 10
851.765085
 20
2066.053758
 42
0.048235
  0
VERTEX
  8
0
 10
854.676065
 20
2066.216148
 42
0.085022
  0
VERTEX
  8
0
 10
856.954506
 20
2066.975652
 42
-0.075099
  0
VERTEX
  8
0
 10
857.950655
 20
2067.329688
 42
-0.200191
  0
VERTEX
  8
0
 10
858.674924
 20
2067.180159
 42
-0.123297
  0
VERTEX
  8
0
 10
859.305221
 20
2066.471142
 42
-0.022162
  0
VERTEX
  8
0
 10
860.059074
 20
2064.857383
 42
0.126171
  0
VERTEX
  8
0
 10
862.839831
 20
2061.151358
 42
0.089338
  0
VERTEX
  8
0
 10
867.430192
 20
2058.656358
 42
0.092075
  0
VERTEX
  8
0
 10
872.469186
 20
2057.966661
 42
0.146987
  0
VERTEX
  8
0
 10
876.536633
 20
2059.403128
 42
-0.068330
  0
VERTEX
  8
0
 10
877.714067
 20
2060.038623
 42
-0.192152
  0
VERTEX
  8
0
 10
878.632965
 20
2060.019138
 42
-0.101944
  0
VERTEX
  8
0
 10
879.654299
 20
2059.314295
 42
-0.012684
  0
VERTEX
  8
0
 10
881.479269
 20
2057.308300
 42
0.030489
  0
VERTEX
  8
0
 10
883.218504
 20
2055.528147
 42
0.062509
  0
VERTEX
  8
0
 10
884.813256
 20
2054.410671
 42
0.062725
  0
VERTEX
  8
0
 10
886.631049
 20
2053.724228
 42
0.030896
  0
VERTEX
  8
0
 10
889.068525
 20
2053.295744
 42
0.023020
  0
VERTEX
  8
0
 10
891.616077
 20
2053.126827
 42
0.070267
  0
VERTEX
  8
0
 10
893.332383
 20
2053.334000
 42
0.078637
  0
VERTEX
  8
0
 10
894.815703
 20
2053.991760
 42
0.034021
  0
VERTEX
  8
0
 10
896.550147
 20
2055.289476
 42
0.000000
  0
VERTEX
  8
0
 10
899.466255
 20
2057.797807
 42
0.000000
  0
VERTEX
  8
0
 10
902.767924
 20
2054.898903
 42
0.031967
  0
VERTEX
  8
0
 10
904.470023
 20
2053.587087
 42
0.047687
  0
VERTEX
  8
0
 10
906.120413
 20
2052.691025
 42
0.051861
  0
VERTEX
  8
0
 10
907.799396
 20
2052.174459
 42
0.048750
  0
VERTEX
  8
0
 10
909.584456
 20
2052.000000
 42
0.058554
  0
VERTEX
  8
0
 10
912.622799
 20
2052.357040
 42
0.048582
  0
VERTEX
  8
0
 10
915.703811
 20
2053.415935
 42
0.051145
  0
VERTEX
  8
0
 10
918.299592
 20
2054.937981
 42
0.107427
  0
VERTEX
  8
0
 10
919.841180
 20
2056.680688
 42
-0.088221
  0
VERTEX
  8
0
 10
920.490256
 20
2057.473257
 42
-0.245572
  0
VERTEX
  8
0
 10
921.169964
 20
2057.630261
 42
-0.101143
  0
VERTEX
  8
0
 10
922.126977
 20
2057.160621
 42
-0.010425
  0
VERTEX
  8
0
 10
924.094845
 20
2055.573647
 42
0.027575
  0
VERTEX
  8
0
 10
926.063442
 20
2054.094521
 42
0.076989
  0
VERTEX
  8
0
 10
927.625075
 20
2053.367787
 42
0.074268
  0
VERTEX
  8
0
 10
929.365846
 20
2053.133788
 42
0.024404
  0
VERTEX
  8
0
 10
931.952456
 20
2053.298109
 42
0.031267
  0
VERTEX
  8
0
 10
934.355515
 20
2053.722382
 42
0.060551
  0
VERTEX
  8
0
 10
936.179952
 20
2054.405405
 42
0.060772
  0
VERTEX
  8
0
 10
937.783393
 20
2055.503727
 42
0.031718
  0
VERTEX
  8
0
 10
939.498493
 20
2057.218773
 42
-0.014271
  0
VERTEX
  8
0
 10
941.351087
 20
2059.205245
 42
-0.106792
  0
VERTEX
  8
0
 10
942.423166
 20
2059.906013
 42
-0.165383
  0
VERTEX
  8
0
 10
943.472012
 20
2059.946269
 42
-0.047467
  0
VERTEX
  8
0
 10
945.000000
 20
2059.328343
 42
0.093805
  0
VERTEX
  8
0
 10
949.330458
 20
2058.026185
 42
0.102803
  0
VERTEX
  8
0
 10
953.690187
 20
2058.462974
 42
0.101175
  0
VERTEX
  8
0
 10
957.567856
 20
2060.613710
 42
0.088109
  0
VERTEX
  8
0
 10
960.516872
 20
2064.208993
 42
-0.019244
  0
VERTEX
  8
0
 10
961.600097
 20
2065.977041
 42
-0.080231
  0
VERTEX
  8
0
 10
962.447378
 20
2066.889671
 42
-0.157462
  0
VERTEX
  8
0
 10
963.226270
 20
2067.174019
 42
-0.151558
  0
VERTEX
  8
0
 10
964.038042
 20
2066.955327
 42
0.107758
  0
VERTEX
  8
0
 10
966.101251
 20
2066.203851
 42
0.044310
  0
VERTEX
  8
0
 10
969.091032
 20
2066.066098
 42
0.043482
  0
VERTEX
  8
0
 10
972.236155
 20
2066.475457
 42
0.065320
  0
VERTEX
  8
0
 10
974.835022
 20
2067.414686
 42
0.064069
  0
VERTEX
  8
0
 10
976.611769
 20
2068.643868
 42
0.054241
  0
VERTEX
  8
0
 10
978.134560
 20
2070.348052
 42
0.049851
  0
VERTEX
  8
0
 10
979.361832
 20
2072.485325
 42
0.039274
  0
VERTEX
  8
0
 10
980.260212
 20
2075.000000
 42
-0.178456
  0
VERTEX
  8
0
 10
980.754582
 20
2075.695699
 42
-0.085278
  0
VERTEX
  8
0
 10
981.765954
 20
2076.159104
 42
-0.049692
  0
VERTEX
  8
0
 10
983.403060
 20
2076.423636
 42
-0.015226
  0
VERTEX
  8
0
 10
985.910173
 20
2076.500000
 42
0.020691
  0
VERTEX
  8
0
 10
989.013126
 20
2076.628464
 42
0.081224
  0
VERTEX
  8
0
 10
990.865517
 20
2077.091302
 42
0.083284
  0
VERTEX
  8
0
 10
992.450279
 20
2078.114085
 42
0.022421
  0
VERTEX
  8
0
 10
994.576839
 20
2080.235315
 42
0.026377
  0
VERTEX
  8
0
 10
996.055782
 20
2082.030610
 42
0.039664
  0
VERTEX
  8
0
 10
997.127743
 20
2083.751671
 42
0.046460
  0
VERTEX
  8
0
 10
997.782514
 20
2085.367913
 42
0.073145
  0
VERTEX
  8
0
 10
998.000000
 20
2086.846643
 42
-0.026062
  0
VERTEX
  8
0
 10
998.082671
 20
2088.431636
 42
-0.170743
  0
VERTEX
  8
0
 10
998.418415
 20
2089.140296
 42
-0.207197
  0
VERTEX
  8
0
 10
999.083241
 20
2089.407004
 42
-0.040469
  0
VERTEX
  8
0
 10
1000.395357
 20
2089.264755
 42
0.113656
  0
VERTEX
  8
0
 10
1003.256252
 20
2089.371969
 42
0.056705
  0
VERTEX
  8
0
 10
1006.644072
 20
2090.713686
 42
0.055995
  0
VERTEX
  8
0
 10
1009.715623
 20
2092.825214
 42
0.095141
  0
VERTEX
  8
0
 10
1011.638036
 20
2095.266933
 42
0.045826
  0
VERTEX
  8
0
 10
1012.203456
 20
2096.659616
 42
0.028584
  0
VERTEX
  8
0
 10
1012.617180
 20
2098.373060
 42
0.028572
  0
VERTEX
  8
0
 10
1012.833023
 20
2100.124177
 42
0.045464
  0
VERTEX
  8
0
 10
1012.794786
 20
2101.632088
 42
-0.019080
  0
VERTEX
  8
0
 10
1012.641237
 20
2103.595079
 42
-0.153395
  0
VERTEX
  8
0
 10
1012.875126
 20
2104.458596
 42
-0.212372
  0
VERTEX
  8
0
 10
1013.520548
 20
2104.884549
 42
-0.040861
  0
VERTEX
  8
0
 10
1014.950801
 20
2105.003738
 42
0.090404
  0
VERTEX
  8
0
 10
1017.559552
 20
2105.483262
 42
0.044175
  0
VERTEX
  8
0
 10
1020.615086
 20
2106.960740
 42
0.044184
  0
VERTEX
  8
0
 10
1023.360600
 20
2108.949933
 42
0.091275
  0
VERTEX
  8
0
 10
1025.007549
 20
2111.014105
 42
0.067816
  0
VERTEX
  8
0
 10
1025.425896
 20
2112.139267
 42
0.023359
  0
VERTEX
  8
0
 10
1025.726828
 20
2113.852912
 42
0.022715
  0
VERTEX
  8
0
 10
1025.885979
 20
2115.796450
 42
0.024430
  0
VERTEX
  8
0
 10
1025.862060
 20
2117.699524
 42
-0.015282
  0
VERTEX
  8
0
 10
1025.774176
 20
2120.546894
 42
-0.127092
  0
VERTEX
  8
0
 10
1026.094154
 20
2121.786907
 42
-0.160401
  0
VERTEX
  8
0
 10
1026.947705
 20
2122.577839
 42
-0.028427
  0
VERTEX
  8
0
 10
1029.006062
 20
2123.381908
 42
0.102539
  0
VERTEX
  8
0
 10
1033.085854
 20
2125.717486
 42
0.117905
  0
VERTEX
  8
0
 10
1035.657850
 20
2129.383609
 42
0.104700
  0
VERTEX
  8
0
 10
1036.473314
 20
2134.180093
 42
0.067559
  0
VERTEX
  8
0
 10
1035.487636
 20
2139.750000
 42
-0.031414
  0
VERTEX
  8
0
 10
1035.204134
 20
2140.873118
 42
-0.149213
  0
VERTEX
  8
0
 10
1035.277232
 20
2141.524276
 42
-0.219140
  0
VERTEX
  8
0
 10
1035.675260
 20
2141.881416
 42
-0.075102
  0
VERTEX
  8
0
 10
1036.460292
 20
2142.000000
 42
0.111517
  0
VERTEX
  8
0
 10
1037.304967
 20
2142.190764
 42
0.030063
  0
VERTEX
  8
0
 10
1038.515018
 20
2142.858654
 42
0.028883
  0
VERTEX
  8
0
 10
1039.833473
 20
2143.804292
 42
0.026369
  0
VERTEX
  8
0
 10
1041.076923
 20
2144.923077
 42
0.033575
  0
VERTEX
  8
0
 10
1042.545718
 20
2146.603585
 42
0.067405
  0
VERTEX
  8
0
 10
1043.414355
 20
2148.132926
 42
0.065482
  0
VERTEX
  8
0
 10
1043.859396
 20
2149.867451
 42
0.030105
  0
VERTEX
  8
0
 10
1044.000000
 20
2152.200571
 42
0.032412
  0
VERTEX
  8
0
 10
1043.878375
 20
2154.074824
 42
0.028743
  0
VERTEX
  8
0
 10
1043.514733
 20
2155.995944
 42
0.030002
  0
VERTEX
  8
0
 10
1042.973394
 20
2157.718282
 42
0.061703
  0
VERTEX
  8
0
 10
1042.312067
 20
2158.964849
 42
-0.015619
  0
VERTEX
  8
0
 10
1041.438454
 20
2160.298912
 42
-0.115213
  0
VERTEX
  8
0
 10
1041.201334
 20
2161.016536
 42
-0.248037
  0
VERTEX
  8
0
 10
1041.399593
 20
2161.490019
 42
-0.091817
  0
VERTEX
  8
0
 10
1042.052452
 20
2161.850817
 42
0.069435
  0
VERTEX
  8
0
 10
1042.784404
 20
2162.213824
 42
0.015708
  0
VERTEX
  8
0
 10
1043.907916
 20
2163.033782
 42
0.015980
  0
VERTEX
  8
0
 10
1045.154869
 20
2164.070989
 42
0.014904
  0
VERTEX
  8
0
 10
1046.363204
 20
2165.209358
 42
0.030199
  0
VERTEX
  8
0
 10
1047.948565
 20
2166.998730
 42
0.092054
  0
VERTEX
  8
0
 10
1048.696651
 20
2168.431993
 42
0.079571
  0
VERTEX
  8
0
 10
1048.937037
 20
2170.154611
 42
0.018911
  0
VERTEX
  8
0
 10
1048.768638
 20
2173.056027
 42
0.026607
  0
VERTEX
  8
0
 10
1048.463028
 20
2175.091968
 42
0.025836
  0
VERTEX
  8
0
 10
1047.940887
 20
2177.104424
 42
0.026749
  0
VERTEX
  8
0
 10
1047.296548
 20
2178.821449
 42
0.080945
  0
VERTEX
  8
0
 10
1046.620591
 20
2179.866749
 42
-0.020112
  0
VERTEX
  8
0
 10
1045.665009
 20
2181.012034
 42
-0.165982
  0
VERTEX
  8
0
 10
1045.450755
 20
2181.645468
 42
-0.192593
  0
VERTEX
  8
0
 10
1045.685550
 20
2182.227681
 42
-0.028650
  0
VERTEX
  8
0
 10
1046.629676
 20
2183.106618
 42
0.085353
  0
VERTEX
  8
0
 10
1048.383734
 20
2185.155060
 42
0.050314
  0
VERTEX
  8
0
 10
1049.751886
 20
2188.081694
 42
0.050633
  0
VERTEX
  8
0
 10
1050.496659
 20
2191.184528
 42
0.094238
  0
VERTEX
  8
0
 10
1050.358751
 20
2193.758421
 42
0.042236
  0
VERTEX
  8
0
 10
1049.455121
 20
2196.432516
 42
0.048490
  0
VERTEX
  8
0
 10
1048.146206
 20
2198.788004
 42
0.054467
  0
VERTEX
  8
0
 10
1046.607869
 20
2200.567179
 42
0.110879
  0
VERTEX
  8
0
 10
1045.020083
 20
2201.493626
 42
-0.081166
  0
VERTEX
  8
0
 10
1044.170020
 20
2201.924689
 42
-0.321537
  0
VERTEX
  8
0
 10
1043.997502
 20
2202.449988
 42
-0.111283
  0
VERTEX
  8
0
 10
1044.456965
 20
2203.240443
 42
-0.009304
  0
VERTEX
  8
0
 10
1046.109543
 20
2204.955697
 42
0.034451
  0
VERTEX
  8
0
 10
1047.588046
 20
2206.653302
 42
0.070815
  0
VERTEX
  8
0
 10
1048.440987
 20
2208.191655
 42
0.065464
  0
VERTEX
  8
0
 10
1048.868697
 20
2209.985046
 42
0.025850
  0
VERTEX
  8
0
 10
1049.000000
 20
2212.523077
 42
0.027613
  0
VERTEX
  8
0
 10
1048.853326
 20
2215.176950
 42
0.074302
  0
VERTEX
  8
0
 10
1048.371002
 20
2216.999181
 42
0.071036
  0
VERTEX
  8
0
 10
1047.362950
 20
2218.647348
 42
0.023665
  0
VERTEX
  8
0
 10
1045.454909
 20
2220.745091
 42
0.000000
  0
VERTEX
  8
0
 10
1041.909818
 20
2224.290182
 42
0.000000
  0
VERTEX
  8
0
 10
1043.570094
 20
2227.788955
 42
0.028080
  0
VERTEX
  8
0
 10
1044.378312
 20
2229.772505
 42
0.064976
  0
VERTEX
  8
0
 10
1044.698805
 20
2231.345396
 42
0.064042
  0
VERTEX
  8
0
 10
1044.607105
 20
2232.961788
 42
0.026635
  0
VERTEX
  8
0
 10
1044.091117
 20
2235.090215
 42
0.068296
  0
VERTEX
  8
0
 10
1042.829216
 20
2237.860147
 42
0.052494
  0
VERTEX
  8
0
 10
1040.766338
 20
2240.470648
 42
0.055279
  0
VERTEX
  8
0
 10
1038.426162
 20
2242.389159
 42
0.145070
  0
VERTEX
  8
0
 10
1036.365141
 20
2243.000000
 42
-0.164022
  0
VERTEX
  8
0
 10
1035.464332
 20
2243.303676
 42
-0.217065
  0
VERTEX
  8
0
 10
1035.059729
 20
2244.056780
 42
-0.108343
  0
VERTEX
  8
0
 10
1035.253948
 20
2245.338879
 42
-0.031313
  0
VERTEX
  8
0
 10
1036.091537
 20
2247.171039
 42
0.170466
  0
VERTEX
  8
0
 10
1036.738829
 20
2251.348928
 42
0.084970
  0
VERTEX
  8
0
 10
1034.862076
 20
2256.434842
 42
0.085662
  0
VERTEX
  8
0
 10
1031.421168
 20
2260.570566
 42
0.178341
  0
VERTEX
  8
0
 10
1027.541037
 20
2262.000000
 42
-0.072613
  0
VERTEX
  8
0
 10
1026.300915
 20
2262.181052
 42
-0.231915
  0
VERTEX
  8
0
 10
1025.703439
 20
2262.732894
 42
-0.104105
  0
VERTEX
  8
0
 10
1025.514267
 20
2263.891508
 42
-0.010063
  0
VERTEX
  8
0
 10
1025.702460
 20
2266.750000
 42
0.064290
  0
VERTEX
  8
0
 10
1025.509234
 20
2271.289886
 42
0.102993
  0
VERTEX
  8
0
 10
1024.089492
 20
2274.884035
 42
0.107545
  0
VERTEX
  8
0
 10
1021.408882
 20
2277.509825
 42
0.075005
  0
VERTEX
  8
0
 10
1017.514766
 20
2279.207294
 42
-0.017039
  0
VERTEX
  8
0
 10
1014.985629
 20
2279.976968
 42
-0.097154
  0
VERTEX
  8
0
 10
1013.774500
 20
2280.675559
 42
-0.152272
  0
VERTEX
  8
0
 10
1013.190253
 20
2281.624905
 42
-0.062446
  0
VERTEX
  8
0
 10
1013.000000
 20
2283.142305
 42
0.095406
  0
VERTEX
  8
0
 10
1012.065044
 20
2287.997572
 42
0.109500
  0
VERTEX
  8
0
 10
1009.408428
 20
2291.892398
 42
0.112952
  0
VERTEX
  8
0
 10
1005.429888
 20
2294.218750
 42
0.106785
  0
VERTEX
  8
0
 10
1000.750000
 20
2294.647679
 42
-0.015083
  0
VERTEX
  8
0
 10
998.341869
 20
2294.427442
 42
-0.188033
  0
VERTEX
  8
0
 10
997.484863
 20
2294.702614
 42
-0.206361
  0
VERTEX
  8
0
 10
997.082679
 20
2295.472554
 42
-0.018593
  0
VERTEX
  8
0
 10
997.000000
 20
2297.695157
 42
0.050297
  0
VERTEX
  8
0
 10
996.810386
 20
2299.575333
 42
0.066037
  0
VERTEX
  8
0
 10
996.247147
 20
2301.204271
 42
0.055537
  0
VERTEX
  8
0
 10
995.192459
 20
2302.829107
 42
0.024678
  0
VERTEX
  8
0
 10
993.475158
 20
2304.724842
 42
0.020397
  0
VERTEX
  8
0
 10
991.271543
 20
2306.755645
 42
0.089022
  0
VERTEX
  8
0
 10
989.744210
 20
2307.642848
 42
0.090149
  0
VERTEX
  8
0
 10
988.013203
 20
2307.937948
 42
0.021212
  0
VERTEX
  8
0
 10
985.068996
 20
2307.780651
 42
-0.010616
  0
VERTEX
  8
0
 10
981.986227
 20
2307.550367
 42
-0.117675
  0
VERTEX
  8
0
 10
980.779538
 20
2307.771122
 42
-0.200788
  0
VERTEX
  8
0
 10
980.102375
 20
2308.484620
 42
-0.041417
  0
VERTEX
  8
0
 10
979.612804
 20
2310.185981
 42
0.092939
  0
VERTEX
  8
0
 10
978.562329
 20
2312.795240
 42
0.058531
  0
VERTEX
  8
0
 10
976.477583
 20
2315.346976
 42
0.057638
  0
VERTEX
  8
0
 10
973.809968
 20
2317.390538
 42
0.080762
  0
VERTEX
  8
0
 10
971.024576
 20
2318.494602
 42
0.056547
  0
VERTEX
  8
0
 10
969.654156
 20
2318.636575
 42
0.031888
  0
VERTEX
  8
0
 10
967.985248
 20
2318.513692
 42
0.030544
  0
VERTEX
  8
0
 10
966.233745
 20
2318.161703
 42
0.034110
  0
VERTEX
  8
0
 10
964.603591
 20
2317.607730
 42
-0.008161
  0
VERTEX
  8
0
 10
962.472037
 20
2316.757700
 42
-0.094064
  0
VERTEX
  8
0
 10
961.588598
 20
2316.600989
 42
-0.295605
  0
VERTEX
  8
0
 10
961.158498
 20
2316.887008
 42
-0.102634
  0
VERTEX
  8
0
 10
961.000000
 20
2317.651027
 42
0.126250
  0
VERTEX
  8
0
 10
960.792645
 20
2318.459144
 42
0.024908
  0
VERTEX
  8
0
 10
960.001250
 20
2319.743739
 42
0.024954
  0
VERTEX
  8
0
 10
958.901612
 20
2321.184691
 42
0.020915
  0
VERTEX
  8
0
 10
957.600000
 20
2322.600000
 42
0.071124
  0
VERTEX
  8
0
 10
954.577917
 20
2324.866033
 42
0.089769
  0
VERTEX
  8
0
 10
951.268802
 20
2325.971169
 42
0.088469
  0
VERTEX
  8
0
 10
947.744313
 20
2325.854054
 42
0.066988
  0
VERTEX
  8
0
 10
944.093456
 20
2324.548328
 42
-0.019776
  0
VERTEX
  8
0
 10
942.353100
 20
2323.733881
 42
-0.164341
  0
VERTEX
  8
0
 10
941.496242
 20
2323.671748
 42
-0.182872
  0
VERTEX
  8
0
 10
940.825065
 20
2324.145992
 42
-0.025636
  0
VERTEX
  8
0
 10
939.932697
 20
2325.625756
 42
0.033764
  0
VERTEX
  8
0
 10
939.283194
 20
2326.664267
 42
0.026805
  0
VERTEX
  8
0
 10
938.451074
 20
2327.693275
 42
0.027523
  0
VERTEX
  8
0
 10
937.572226
 20
2328.566462
 42
0.059003
  0
VERTEX
  8
0
 10
936.789582
 20
2329.112612
 42
-0.102318
  0
VERTEX
  8
0
 10
935.978619
 20
2329.789219
 42
-0.081414
  0
VERTEX
  8
0
 10
935.421840
 20
2330.786763
 42
-0.060087
  0
VERTEX
  8
0
 10
935.100636
 20
2332.180054
 42
-0.026643
  0
VERTEX
  8
0
 10
935.000000
 20
2334.067302
 42
0.138507
  0
VERTEX
  8
0
 10
932.124940
 20
2344.246948
 42
0.118460
  0
VERTEX
  8
0
 10
924.213615
 20
2352.143291
 42
0.111525
  0
VERTEX
  8
0
 10
913.142589
 20
2355.892130
 42
0.112112
  0
SEQEND
  0
POLYLINE
  8
0
 66
1
 70
1
  0
VERTEX
  8
0
 10
914.673275
 20
2343.013655
 42
-0.115341
  0
VERTEX
  8
0
 10
915.309243
 20
2342.857143
 42
-0.019625
  0
VERTEX
  8
0
 10
916.405688
 20
2342.243524
 42
-0.020514
  0
VERTEX
  8
0
 10
917.659296
 20
2341.403286
 42
-0.017002
  0
VERTEX
  8
0
 10
918.923275
 20
2340.411106
 42
-0.174239
  0
VERTEX
  8
0
 10
921.877281
 20
2335.326096
 42
-0.202042
  0
VERTEX
  8
0
 10
920.677409
 20
2329.895599
 42
-0.160662
  0
VERTEX
  8
0
 10
915.511768
 20
2326.081403
 42
-0.116936
  0
VERTEX
  8
0
 10
908.345334
 20
2325.473638
 42
-0.133854
  0
VERTEX
  8
0
 10
901.930563
 20
2328.294830
 42
-0.200656
  0
VERTEX
  8
0
 10
899.066719
 20
2333.609051
 42
-0.206681
  0
VERTEX
  8
0
 10
900.871732
 20
2339.255763
 42
-0.139811
  0
VERTEX
  8
0
 10
906.619302
 20
2342.988298
 42
-0.028283
  0
VERTEX
  8
0
 10
907.868853
 20
2343.296192
 42
-0.022663
  0
VERTEX
  8
0
 10
909.241295
 20
2343.489209
 42
-0.023208
  0
VERTEX
  8
0
 10
910.530135
 20
2343.551114
 42
-0.052566
  0
VERTEX
  8
0
 10
911.500000
 20
2343.450424
 42
0.009699
  0
VERTEX
  8
0
 10
912.351736
 20
2343.287425
 42
0.008227
  0
VERTEX
  8
0
 10
913.257149
 20
2343.147588
 42
0.008316
  0
VERTEX
  8
0
 10
914.086257
 20
2343.047490
 42
0.022973
  0
SEQEND
  0
POLYLINE
  8
0
 66
1
 70
1
  0
VERTEX
  8
0
 10
934.638514
 20
2307.634891
 42
-0.034417
  0
VERTEX
  8
0
 10
951.119579
 20
2302.823836
 42
-0.036699
  0
VERTEX
  8
0
 10
966.420220
 20
2295.876988
 42
-0.036686
  0
VERTEX
  8
0
 10
980.545510
 20
2286.765218
 42
-0.034344
  0
VERTEX
  8
0
 10
993.522565
 20
2275.500000
 42
-0.047468
  0
VERTEX
  8
0
 10
1008.486760
 20
2257.456163
 42
-0.051662
  0
VERTEX
  8
0
 10
1019.295150
 20
2237.399210
 42
-0.051432
  0
VERTEX
  8
0
 10
1025.797303
 20
2215.471198
 42
-0.046311
  0
VERTEX
  8
0
 10
1027.995979
 20
2191.880990
 42
-0.083164
  0
VERTEX
  8
0
 10
1021.661151
 20
2153.969896
 42
-0.083115
  0
VERTEX
  8
0
 10
1003.318966
 20
2120.183170
 42
-0.082673
  0
VERTEX
  8
0
 10
974.872205
 20
2094.071913
 42
-0.081071
  0
VERTEX
  8
0
 10
939.313177
 20
2078.368543
 42
-0.031688
  0
VERTEX
  8
0
 10
929.154979
 20
2076.407386
 42
-0.018475
  0
VERTEX
  8
0
 10
916.793526
 20
2075.286691
 42
-0.018466
  0
VERTEX
  8
0
 10
904.361636
 20
2075.081068
 42
-0.031210
  0
VERTEX
  8
0
 10
893.980974
 20
2075.942455
 42
-0.078792
  0
VERTEX
  8
0
 10
858.473579
 20
2087.021525
 42
-0.079044
  0
VERTEX
  8
0
 10
828.179116
 20
2108.533378
 42
-0.079244
  0
VERTEX
  8
0
 10
806.114102
 20
2138.329611
 42
-0.079784
  0
VERTEX
  8
0
 10
794.477124
 20
2173.442419
 42
-0.076187
  0
VERTEX
  8
0
 10
794.161659
 20
2209.644372
 42
-0.078860
  0
VERTEX
  8
0
 10
804.761676
 20
2243.819362
 42
-0.077846
  0
VERTEX
  8
0
 10
825.582300
 20
2273.386158
 42
-0.071576
  0
VERTEX
  8
0
 10
855.000000
 20
2296.169203
 42
-0.031476
  0
VERTEX
  8
0
 10
862.959652
 20
2300.045004
 42
-0.017538
  0
VERTEX
  8
0
 10
873.075152
 20
2303.796424
 42
-0.017294
  0
VERTEX
  8
0
 10
883.775392
 20
2306.936899
 42
-0.023832
  0
VERTEX
  8
0
 10
893.584748
 20
2308.958468
 42
-0.036474
  0
VERTEX
  8
0
 10
901.606485
 20
2309.623147
 42
-0.010497
  0
VERTEX
  8
0
 10
914.065679
 20
2309.483143
 42
-0.010561
  0
VERTEX
  8
0
 10
926.531209
 20
2308.817466
 42
-0.035200
  0
SEQEND
  0
POLYLINE
  8
0
 66
1
 70
1
  0
VERTEX
  8
0
 10
1193.000000
 20
2353.981911
 42
0.057730
  0
VERTEX
  8
0
 10
1187.246069
 20
2350.438889
 42
0.067487
  0
VERTEX
  8
0
 10
1182.789613
 20
2345.831710
 42
0.072741
  0
VERTEX
  8
0
 10
1179.969350
 20
2340.528618
 42
0.086099
  0
VERTEX
  8
0
 10
1179.000000
 20
2334.941048
 42
-0.032048
  0
VERTEX
  8
0
 10
1178.859621
 20
2332.753129
 42
-0.066945
  0
VERTEX
  8
0
 10
1178.418599
 20
2331.107462
 42
-0.069334
  0
VERTEX
  8
0
 10
1177.570510
 20
2329.673106
 42
-0.036631
  0
VERTEX
  8
0
 10
1176.165031
 20
2328.151210
 42
0.016798
  0
VERTEX
  8
0
 10
1175.044737
 20
2327.030670
 42
0.017707
  0
VERTEX
  8
0
 10
1174.022516
 20
2325.856400
 42
0.017628
  0
VERTEX
  8
0
 10
1173.215895
 20
2324.785643
 42
0.072538
  0
VERTEX
  8
0
 10
1172.852386
 20
2324.062067
 42
-0.089390
  0
VERTEX
  8
0
 10
1172.491187
 20
2323.399373
 42
-0.249975
  0
VERTEX
  8
0
 10
1172.019900
 20
2323.198143
 42
-0.116293
  0
VERTEX
  8
0
 10
1171.305609
 20
2323.433195
 42
-0.015391
  0
VERTEX
  8
0
 10
1169.964849
 20
2324.312067
 42
0.123552
  0
VERTEX
  8
0
 10
1165.802543
 20
2325.903315
 42
0.095142
  0
VERTEX
  8
0
 10
1160.934597
 20
2325.559967
 42
0.095962
  0
VERTEX
  8
0
 10
1156.575118
 20
2323.446207
 42
0.128519
  0
VERTEX
  8
0
 10
1153.849846
 20
2320.022907
 42
-0.019552
  0
VERTEX
  8
0
 10
1152.791911
 20
2317.864959
 42
-0.188943
  0
VERTEX
  8
0
 10
1152.027421
 20
2317.217898
 42
-0.155233
  0
VERTEX
  8
0
 10
1150.951693
 20
2317.195405
 42
-0.012083
  0
VERTEX
  8
0
 10
1148.179097
 20
2318.087411
 42
0.126251
  0
VERTEX
  8
0
 10
1143.604600
 20
2318.473755
 42
0.094848
  0
VERTEX
  8
0
 10
1138.851093
 20
2316.705947
 42
0.099771
  0
VERTEX
  8
0
 10
1135.274452
 20
2313.413436
 42
0.158266
  0
VERTEX
  8
0
 10
1134.000000
 20
2309.487979
 42
-0.066190
  0
VERTEX
  8
0
 10
1133.835911
 20
2308.253877
 42
-0.234653
  0
VERTEX
  8
0
 10
1133.321228
 20
2307.673339
 42
-0.113275
  0
VERTEX
  8
0
 10
1132.252874
 20
2307.502133
 42
-0.011389
  0
VERTEX
  8
0
 10
1129.665714
 20
2307.734211
 42
0.029373
  0
VERTEX
  8
0
 10
1127.604069
 20
2307.844640
 42
0.035070
  0
VERTEX
  8
0
 10
1125.663978
 20
2307.698222
 42
0.037495
  0
VERTEX
  8
0
 10
1123.883934
 20
2307.299437
 42
0.045507
  0
VERTEX
  8
0
 10
1122.300559
 20
2306.655425
 42
0.093915
  0
VERTEX
  8
0
 10
1119.915643
 20
2304.787109
 42
0.051584
  0
VERTEX
  8
0
 10
1117.765613
 20
2301.749289
 42
0.052224
  0
VERTEX
  8
0
 10
1116.353656
 20
2298.487119
 42
0.140898
  0
VERTEX
  8
0
 10
1116.293199
 20
2295.986807
 42
-0.069496
  0
VERTEX
  8
0
 10
1116.403772
 20
2295.046134
 42
-0.284322
  0
VERTEX
  8
0
 10
1116.104271
 20
2294.584764
 42
-0.136171
  0
VERTEX
  8
0
 10
1115.331574
 20
2294.451874
 42
-0.015130
  0
VERTEX
  8
0
 10
1113.539849
 20
2294.687246
 42
0.116713
  0
VERTEX
  8
0
 10
1108.954739
 20
2294.358856
 42
0.103262
  0
VERTEX
  8
0
 10
1104.767738
 20
2292.018651
 42
0.102301
  0
VERTEX
  8
0
 10
1101.837974
 20
2288.176246
 42
0.112356
  0
VERTEX
  8
0
 10
1100.800000
 20
2283.615439
 42
-0.029114
  0
VERTEX
  8
0
 10
1100.683656
 20
2281.619043
 42
-0.150547
  0
VERTEX
  8
0
 10
1100.242706
 20
2280.618957
 42
-0.143261
  0
VERTEX
  8
0
 10
1099.302962
 20
2280.013835
 42
-0.025521
  0
VERTEX
  8
0
 10
1097.249537
 20
2279.518991
 42
0.051980
  0
VERTEX
  8
0
 10
1095.674732
 20
2279.050228
 42
0.028883
  0
VERTEX
  8
0
 10
1093.869651
 20
2278.176207
 42
0.028503
  0
VERTEX
  8
0
 10
1092.125915
 20
2277.069151
 42
0.040707
  0
VERTEX
  8
0
 10
1090.729299
 20
2275.883145
 42
0.029531
  0
VERTEX
  8
0
 10
1089.061220
 20
2274.005465
 42
0.094534
  0
VERTEX
  8
0
 10
1088.293067
 20
2272.525654
 42
0.077608
  0
VERTEX
  8
0
 10
1088.045603
 20
2270.709028
 42
0.015806
  0
VERTEX
  8
0
 10
1088.212035
 20
2267.456685
 42
-0.008089
  0
VERTEX
  8
0
 10
1088.431337
 20
2264.166751
 42
-0.086525
  0
VERTEX
  8
0
 10
1088.268711
 20
2262.842977
 42
-0.227448
  0
VERTEX
  8
0
 10
1087.698048
 20
2262.220682
 42
-0.095631
  0
VERTEX
  8
0
 10
1086.554779
 20
2262.000000
 42
0.146092
  0
VERTEX
  8
0
 10
1082.966447
 20
2260.928680
 42
0.087732
  0
VERTEX
  8
0
 10
1079.704090
 20
2257.857149
 42
0.084426
  0
VERTEX
  8
0
 10
1077.592107
 20
2253.720432
 42
0.118106
  0
VERTEX
  8
0
 10
1077.309200
 20
2249.595213
 42
0.010745
  0
VERTEX
  8
0
 10
1077.559244
 20
2248.281904
 42
0.008906
  0
VERTEX
  8
0
 10
1077.880201
 20
2246.895156
 42
0.009015
  0
VERTEX
  8
0
 10
1078.220049
 20
2245.634310
 42
0.023824
  0
VERTEX
  8
0
 10
1078.521912
 20
2244.750000
 42
-0.048931
  0
VERTEX
  8
0
 10
1078.748559
 20
2243.958261
 42
-0.158228
  0
VERTEX
  8
0
 10
1078.677018
 20
2243.422835
 42
-0.200202
  0
VERTEX
  8
0
 10
1078.324362
 20
2243.107913
 42
-0.083633
  0
VERTEX
  8
0
 10
1077.683714
 20
2243.000000
 42
0.102733
  0
VERTEX
  8
0
 10
1076.897998
 20
2242.836839
 42
0.025229
  0
VERTEX
  8
0
 10
1075.709166
 20
2242.247917
 42
0.024771
  0
VERTEX
  8
0
 10
1074.387933
 20
2241.419714
 42
0.022517
  0
VERTEX
  8
0
 10
1073.110730
 20
2240.439719
 42
0.079568
  0
VERTEX
  8
0
 10
1070.738221
 20
2237.693332
 42
0.086952
  0
VERTEX
  8
0
 10
1069.431504
 20
2234.423814
 42
0.086309
  0
VERTEX
  8
0
 10
1069.309140
 20
2230.884399
 42
0.076986
  0
VERTEX
  8
0
 10
1070.366704
 20
2227.357203
 42
0.000000
  0
VERTEX
  8
0
 10
1071.997731
 20
2223.936905
 42
0.000000
  0
VERTEX
  8
0
 10
1068.625360
 20
2220.975924
 42
0.090182
  0
VERTEX
  8
0
 10
1065.636259
 20
2217.206001
 42
0.115332
  0
VERTEX
  8
0
 10
1064.496682
 20
2212.936969
 42
0.112891
  0
VERTEX
  8
0
 10
1065.359660
 20
2208.535778
 42
0.083747
  0
VERTEX
  8
0
 10
1068.107631
 20
2204.391886
 42
-0.015987
  0
VERTEX
  8
0
 10
1069.337312
 20
2202.991792
 42
-0.210015
  0
VERTEX
  8
0
 10
1069.520208
 20
2202.342827
 42
-0.200983
  0
VERTEX
  8
0
 10
1069.170137
 20
2201.753477
 42
-0.014522
  0
VERTEX
  8
0
 10
1067.582371
 20
2200.645929
 42
0.108058
  0
VERTEX
  8
0
 10
1065.366359
 20
2198.385497
 42
0.069551
  0
VERTEX
  8
0
 10
1063.859627
 20
2195.023392
 42
0.068876
  0
VERTEX
  8
0
 10
1063.321741
 20
2191.337359
 42
0.100352
  0
VERTEX
  8
0
 10
1063.948603
 20
2188.124082
 42
0.028222
  0
VERTEX
  8
0
 10
1064.558445
 20
2186.858798
 42
0.020373
  0
VERTEX
  8
0
 10
1065.372413
 20
2185.520087
 42
0.020677
  0
VERTEX
  8
0
 10
1066.253540
 20
2184.307494
 42
0.041398
  0
VERTEX
  8
0
 10
1067.062557
 20
2183.443387
 42
-0.026070
  0
VERTEX
  8
0
 10
1068.172371
 20
2182.328471
 42
-0.190426
  0
VERTEX
  8
0
 10
1068.429175
 20
2181.634943
 42
-0.148222
  0
VERTEX
  8
0
 10
1068.175496
 20
2180.859107
 42
-0.014050
  0
VERTEX
  8
0
 10
1066.971182
 20
2179.236234
 42
0.100834
  0
VERTEX
  8
0
 10
1065.381348
 20
2176.071462
 42
0.077187
  0
VERTEX
  8
0
 10
1064.953393
 20
2172.213334
 42
0.075525
  0
VERTEX
  8
0
 10
1065.718658
 20
2168.325695
 42
0.088828
  0
VERTEX
  8
0
 10
1067.588894
 20
2165.076725
 42
0.026633
  0
VERTEX
  8
0
 10
1068.692085
 20
2163.899063
 42
0.030701
  0
VERTEX
  8
0
 10
1069.865596
 20
2162.903788
 42
0.032136
  0
VERTEX
  8
0
 10
1070.947013
 20
2162.198724
 42
0.129089
  0
VERTEX
  8
0
 10
1071.703904
 20
2162.000000
 42
-0.055709
  0
VERTEX
  8
0
 10
1072.485056
 20
2161.912695
 42
-0.341800
  0
VERTEX
  8
0
 10
1072.726322
 20
2161.620066
 42
-0.141305
  0
VERTEX
  8
0
 10
1072.584872
 20
2161.066017
 42
-0.010972
  0
VERTEX
  8
0
 10
1071.773198
 20
2159.750000
 42
0.089762
  0
VERTEX
  8
0
 10
1069.831123
 20
2155.099038
 42
0.108093
  0
VERTEX
  8
0
 10
1069.825629
 20
2150.371796
 42
0.110222
  0
VERTEX
  8
0
 10
1071.784459
 20
2146.142558
 42
0.096409
  0
VERTEX
  8
0
 10
1075.437543
 20
2142.904349
 42
-0.018157
  0
VERTEX
  8
0
 10
1077.289851
 20
2141.718764
 42
-0.097728
  0
VERTEX
  8
0
 10
1078.119052
 20
2140.864129
 42
-0.175676
  0
VERTEX
  8
0
 10
1078.315401
 20
2140.016597
 42
-0.093079
  0
VERTEX
  8
0
 10
1077.986563
 20
2138.974893
 42
0.122299
  0
VERTEX
  8
0
 10
1076.901359
 20
2134.689277
 42
0.103882
  0
VERTEX
  8
0
 10
1077.842062
 20
2130.105298
 42
0.097571
  0
VERTEX
  8
0
 10
1080.633525
 20
2126.059446
 42
0.094413
  0
VERTEX
  8
0
 10
1084.780783
 20
2123.318235
 42
-0.022880
  0
VERTEX
  8
0
 10
1086.729387
 20
2122.397223
 42
-0.129165
  0
VERTEX
  8
0
 10
1087.568160
 20
2121.624878
 42
-0.155345
  0
VERTEX
  8
0
 10
1087.838569
 20
2120.614378
 42
-0.037678
  0
VERTEX
  8
0
 10
1087.625446
 20
2118.877229
 42
0.128902
  0
VERTEX
  8
0
 10
1087.899054
 20
2114.244783
 42
0.090366
  0
VERTEX
  8
0
 10
1090.396819
 20
2109.624769
 42
0.090979
  0
VERTEX
  8
0
 10
1094.344097
 20
2106.208108
 42
0.133369
  0
VERTEX
  8
0
 10
1098.750000
 20
2105.003738
 42
-0.066545
  0
VERTEX
  8
0
 10
1099.931673
 20
2104.843772
 42
-0.186849
  0
VERTEX
  8
0
 10
1100.591271
 20
2104.355857
 42
-0.120475
  0
VERTEX
  8
0
 10
1100.917812
 20
2103.385706
 42
-0.021224
  0
VERTEX
  8
0
 10
1101.000000
 20
2101.450340
 42
0.035851
  0
VERTEX
  8
0
 10
1101.113410
 20
2099.870687
 42
0.022605
  0
VERTEX
  8
0
 10
1101.460135
 20
2098.053589
 42
0.022670
  0
VERTEX
  8
0
 10
1101.965903
 20
2096.288627
 42
0.038228
  0
VERTEX
  8
0
 10
1102.566418
 20
2094.871562
 42
0.097913
  0
VERTEX
  8
0
 10
1104.470716
 20
2092.479992
 42
0.061993
  0
VERTEX
  8
0
 10
1107.463163
 20
2090.522370
 42
0.062889
  0
VERTEX
  8
0
 10
1110.780136
 20
2089.386692
 42
0.113019
  0
VERTEX
  8
0
 10
1113.642025
 20
2089.446290
 42
-0.035893
  0
VERTEX
  8
0
 10
1114.927010
 20
2089.672359
 42
-0.202738
  0
VERTEX
  8
0
 10
1115.578108
 20
2089.472619
 42
-0.189554
  0
VERTEX
  8
0
 10
1115.914140
 20
2088.855198
 42
-0.030949
  0
VERTEX
  8
0
 10
1116.000000
 20
2087.469392
 42
0.121122
  0
VERTEX
  8
0
 10
1117.167313
 20
2082.721338
 42
0.106587
  0
VERTEX
  8
0
 10
1120.439147
 20
2078.793330
 42
0.109115
  0
VERTEX
  8
0
 10
1124.967399
 20
2076.625221
 42
0.132506
  0
VERTEX
  8
0
 10
1129.654668
 20
2076.786087
 42
-0.013893
  0
VERTEX
  8
0
 10
1131.436903
 20
2077.279333
 42
-0.092729
  0
VERTEX
  8
0
 10
1132.351901
 20
2077.331806
 42
-0.232283
  0
VERTEX
  8
0
 10
1132.819131
 20
2077.022936
 42
-0.133334
  0
VERTEX
  8
0
 10
1133.000000
 20
2076.356739
 42
0.100726
  0
VERTEX
  8
0
 10
1133.462850
 20
2074.082482
 42
0.048095
  0
VERTEX
  8
0
 10
1134.893374
 20
2071.449331
 42
0.047463
  0
VERTEX
  8
0
 10
1136.858228
 20
2069.062030
 42
0.077670
  0
VERTEX
  8
0
 10
1138.967267
 20
2067.516927
 42
0.059257
  0
VERTEX
  8
0
 10
1141.687603
 20
2066.496481
 42
0.049320
  0
VERTEX
  8
0
 10
1144.747387
 20
2066.059241
 42
0.051141
  0
VERTEX
  8
0
 10
1147.693598
 20
2066.232719
 42
0.082786
  0
VERTEX
  8
0
 10
1150.065741
 20
2067.035184
 42
-0.025237
  0
VERTEX
  8
0
 10
1151.074674
 20
2067.511321
 42
-0.174555
  0
VERTEX
  8
0
 10
1151.612542
 20
2067.535457
 42
-0.266221
  0
VERTEX
  8
0
 10
1151.910121
 20
2067.215798
 42
-0.057380
  0
VERTEX
  8
0
 10
1152.000000
 20
2066.435184
 42
0.122998
  0
VERTEX
  8
0
 10
1152.210915
 20
2065.590762
 42
0.026103
  0
VERTEX
  8
0
 10
1152.998750
 20
2064.281585
 42
0.025837
  0
VERTEX
  8
0
 10
1154.098457
 20
2062.821650
 42
0.022042
  0
VERTEX
  8
0
 10
1155.400000
 20
2061.400000
 42
0.025478
  0
VERTEX
  8
0
 10
1157.297755
 20
2059.686385
 42
0.062333
  0
VERTEX
  8
0
 10
1158.890393
 20
2058.690089
 42
0.070486
  0
VERTEX
  8
0
 10
1160.555778
 20
2058.186289
 42
0.040579
  0
VERTEX
  8
0
 10
1162.650000
 20
2058.035435
 42
0.029108
  0
VERTEX
  8
0
 10
1164.300780
 20
2058.146872
 42
0.022521
  0
VERTEX
  8
0
 10
1166.077574
 20
2058.453036
 42
0.023003
  0
VERTEX
  8
0
 10
1167.714859
 20
2058.891518
 42
0.049617
  0
VERTEX
  8
0
 10
1168.911953
 20
2059.407294
 42
-0.060349
  0
VERTEX
  8
0
 10
1170.416025
 20
2060.017515
 42
-0.169097
  0
VERTEX
  8
0
 10
1171.534540
 20
2059.938916
 42
-0.090927
  0
VERTEX
  8
0
 10
1172.776688
 20
2059.113445
 42
-0.010618
  0
VERTEX
  8
0
 10
1175.133847
 20
2056.738638
 42
0.015952
  0
VERTEX
  8
0
 10
1177.536765
 20
2054.368828
 42
0.088488
  0
VERTEX
  8
0
 10
1179.057730
 20
2053.393844
 42
0.102115
  0
VERTEX
  8
0
 10
1180.721512
 20
2053.073862
 42
0.024684
  0
VERTEX
  8
0
 10
1183.534158
 20
2053.250960
 42
0.031633
  0
VERTEX
  8
0
 10
1185.604173
 20
2053.617992
 42
0.034911
  0
VERTEX
  8
0
 10
1187.542187
 20
2054.235634
 42
0.037566
  0
VERTEX
  8
0
 10
1189.227364
 20
2055.056770
 42
0.056480
  0
VERTEX
  8
0
 10
1190.536167
 20
2056.033978
 42
-0.011684
  0
VERTEX
  8
0
 10
1191.972191
 20
2057.321227
 42
-0.130849
  0
VERTEX
  8
0
 10
1192.657877
 20
2057.650116
 42
-0.293100
  0
VERTEX
  8
0
 10
1193.144374
 20
2057.453989
 42
-0.062820
  0
VERTEX
  8
0
 10
1193.595084
 20
2056.612811
 42
0.136355
  0
VERTEX
  8
0
 10
1194.858443
 20
2054.906909
 42
0.057164
  0
VERTEX
  8
0
 10
1197.318863
 20
2053.404812
 42
0.052501
  0
VERTEX
  8
0
 10
1200.393130
 20
2052.355240
 42
0.056082
  0
VERTEX
  8
0
 10
1203.550340
 20
2052.000000
 42
0.045983
  0
VERTEX
  8
0
 10
1205.512571
 20
2052.180840
 42
0.067241
  0
VERTEX
  8
0
 10
1207.158267
 20
2052.722703
 42
0.057942
  0
VERTEX
  8
0
 10
1208.768681
 20
2053.750650
 42
0.025388
  0
VERTEX
  8
0
 10
1210.650413
 20
2055.450413
 42
-0.012450
  0
VERTEX
  8
0
 10
1212.419166
 20
2057.133209
 42
-0.070482
  0
VERTEX
  8
0
 10
1213.494183
 20
2057.860598
 42
-0.205887
  0
VERTEX
  8
0
 10
1214.187087
 20
2057.893909
 42
-0.214797
  0
VERTEX
  8
0
 10
1214.671594
 20
2057.413428
 42
0.141562
  0
VERTEX
  8
0
 10
1215.814234
 20
2055.903044
 42
0.046922
  0
VERTEX
  8
0
 10
1218.209086
 20
2054.440988
 42
0.046024
  0
VERTEX
  8
0
 10
1221.056700
 20
2053.361504
 42
0.068029
  0
VERTEX
  8
0
 10
1223.700340
 20
2053.003738
 42
0.088316
  0
VERTEX
  8
0
 10
1226.557385
 20
2053.516289
 42
0.047317
  0
VERTEX
  8
0
 10
1229.797584
 20
2055.074492
 42
0.047404
  0
VERTEX
  8
0
 10
1232.538083
 20
2057.104495
 42
0.146722
  0
VERTEX
  8
0
 10
1233.723384
 20
2059.050222
 42
-0.047399
  0
VERTEX
  8
0
 10
1234.223056
 20
2060.416931
 42
-0.258968
  0
VERTEX
  8
0
 10
1234.841195
 20
2060.857069
 42
-0.171127
  0
VERTEX
  8
0
 10
1235.739011
 20
2060.649678
 42
-0.020397
  0
VERTEX
  8
0
 10
1237.441130
 20
2059.468197
 42
0.144708
  0
VERTEX
  8
0
 10
1241.444257
 20
2057.960769
 42
0.095185
  0
VERTEX
  8
0
 10
1246.367053
 20
2058.539772
 42
0.092392
  0
VERTEX
  8
0
 10
1250.851623
 20
2060.938351
 42
0.125558
  0
VERTEX
  8
0
 10
1253.601759
 20
2064.589302
 42
-0.018014
  0
VERTEX
  8
0
 10
1254.466007
 20
2066.464814
 42
-0.119436
  0
VERTEX
  8
0
 10
1255.129588
 20
2067.243790
 42
-0.209654
  0
VERTEX
  8
0
 10
1255.885823
 20
2067.408263
 42
-0.073188
  0
VERTEX
  8
0
 10
1256.957240
 20
2067.022884
 42
0.055996
  0
VERTEX
  8
0
 10
1257.944019
 20
2066.629298
 42
0.021567
  0
VERTEX
  8
0
 10
1259.383891
 20
2066.300472
 42
0.021033
  0
VERTEX
  8
0
 10
1260.990598
 20
2066.075140
 42
0.024324
  0
VERTEX
  8
0
 10
1262.534259
 20
2066.000000
 42
0.114961
  0
VERTEX
  8
0
 10
1265.968599
 20
2066.800208
 42
0.068270
  0
VERTEX
  8
0
 10
1269.467724
 20
2069.164226
 42
0.069815
  0
VERTEX
  8
0
 10
1272.112906
 20
2072.298960
 42
0.141304
  0
VERTEX
  8
0
 10
1273.000000
 20
2075.375249
 42
-0.025017
  0
VERTEX
  8
0
 10
1273.075161
 20
2076.876528
 42
-0.240203
  0
VERTEX
  8
0
 10
1273.410875
 20
2077.398541
 42
-0.207082
  0
VERTEX
  8
0
 10
1274.067274
 20
2077.477298
 42
-0.018588
  0
VERTEX
  8
0
 10
1275.673724
 20
2076.933950
 42
0.128835
  0
VERTEX
  8
0
 10
1280.222157
 20
2076.445115
 42
0.097562
  0
VERTEX
  8
0
 10
1284.968022
 20
2078.143707
 42
0.096505
  0
VERTEX
  8
0
 10
1288.756244
 20
2081.538127
 42
0.122699
  0
VERTEX
  8
0
 10
1290.593744
 20
2085.841224
 42
-0.024163
  0
VERTEX
  8
0
 10
1291.056044
 20
2088.034738
 42
-0.156182
  0
VERTEX
  8
0
 10
1291.654781
 20
2088.977347
 42
-0.150057
  0
VERTEX
  8
0
 10
1292.702059
 20
2089.416616
 42
-0.021780
  0
VERTEX
  8
0
 10
1295.037772
 20
2089.546865
 42
0.120116
  0
VERTEX
  8
0
 10
1299.339819
 20
2090.651045
 42
0.095654
  0
VERTEX
  8
0
 10
1303.074389
 20
2093.677577
 42
0.097021
  0
VERTEX
  8
0
 10
1305.375056
 20
2097.833680
 42
0.128077
  0
VERTEX
  8
0
 10
1305.622300
 20
2102.138498
 42
-0.023493
  0
VERTEX
  8
0
 10
1305.386498
 20
2103.694313
 42
-0.147733
  0
VERTEX
  8
0
 10
1305.536379
 20
2104.474042
 42
-0.217602
  0
VERTEX
  8
0
 10
1306.055802
 20
2104.876357
 42
-0.057689
  0
VERTEX
  8
0
 10
1307.123871
 20
2105.000000
 42
0.084991
  0
VERTEX
  8
0
 10
1309.969899
 20
2105.487294
 42
0.049215
  0
VERTEX
  8
0
 10
1313.122447
 20
2106.961837
 42
0.049399
  0
VERTEX
  8
0
 10
1315.904265
 20
2109.009637
 42
0.090309
  0
VERTEX
  8
0
 10
1317.620445
 20
2111.232915
 42
0.048522
  0
VERTEX
  8
0
 10
1318.197146
 20
2112.675610
 42
0.028046
  0
VERTEX
  8
0
 10
1318.618547
 20
2114.498042
 42
0.027459
  0
VERTEX
  8
0
 10
1318.844018
 20
2116.428739
 42
0.035639
  0
VERTEX
  8
0
 10
1318.826394
 20
2118.209747
 42
-0.020272
  0
VERTEX
  8
0
 10
1318.727474
 20
2120.644609
 42
-0.135541
  0
VERTEX
  8
0
 10
1319.047013
 20
2121.801995
 42
-0.151303
  0
VERTEX
  8
0
 10
1319.899198
 20
2122.567167
 42
-0.027210
  0
VERTEX
  8
0
 10
1321.906336
 20
2123.361677
 42
0.097692
  0
VERTEX
  8
0
 10
1325.707949
 20
2125.524613
 42
0.110035
  0
VERTEX
  8
0
 10
1328.213233
 20
2128.892529
 42
0.098798
  0
VERTEX
  8
0
 10
1329.217355
 20
2133.311801
 42
0.065544
  0
VERTEX
  8
0
 10
1328.673543
 20
2138.500000
 42
-0.033348
  0
VERTEX
  8
0
 10
1328.378932
 20
2140.230113
 42
-0.149522
  0
VERTEX
  8
0
 10
1328.575608
 20
2141.226685
 42
-0.139243
  0
VERTEX
  8
0
 10
1329.305602
 20
2141.981930
 42
-0.027542
  0
VERTEX
  8
0
 10
1331.000009
 20
2142.843957
 42
0.129625
  0
VERTEX
  8
0
 10
1334.366019
 20
2145.529183
 42
0.089956
  0
VERTEX
  8
0
 10
1336.538062
 20
2149.911105
 42
0.091556
  0
VERTEX
  8
0
 10
1337.009872
 20
2154.702433
 42
0.141716
  0
VERTEX
  8
0
 10
1335.531803
 20
2158.558870
 42
-0.023126
  0
VERTEX
  8
0
 10
1334.351444
 20
2160.279332
 42
-0.174181
  0
VERTEX
  8
0
 10
1334.148809
 20
2161.229235
 42
-0.241009
  0
VERTEX
  8
0
 10
1334.624729
 20
2161.913481
 42
-0.045717
  0
VERTEX
  8
0
 10
1336.068997
 20
2162.521899
 42
0.129495
  0
VERTEX
  8
0
 10
1338.095644
 20
2163.806348
 42
0.053231
  0
VERTEX
  8
0
 10
1340.058950
 20
2166.432355
 42
0.051977
  0
VERTEX
  8
0
 10
1341.508365
 20
2169.578066
 42
0.082288
  0
VERTEX
  8
0
 10
1341.990997
 20
2172.500000
 42
0.047384
  0
VERTEX
  8
0
 10
1341.860731
 20
2173.864111
 42
0.026043
  0
VERTEX
  8
0
 10
1341.458484
 20
2175.493855
 42
0.025737
  0
VERTEX
  8
0
 10
1340.873395
 20
2177.119300
 42
0.037211
  0
VERTEX
  8
0
 10
1340.180331
 20
2178.479081
 42
-0.022486
  0
VERTEX
  8
0
 10
1339.127332
 20
2180.402965
 42
-0.134487
  0
VERTEX
  8
0
 10
1338.915230
 20
2181.515077
 42
-0.115239
  0
VERTEX
  8
0
 10
1339.280726
 20
2182.662482
 42
-0.014597
  0
VERTEX
  8
0
 10
1340.685595
 20
2184.868628
 42
0.070290
  0
VERTEX
  8
0
 10
1342.586814
 20
2188.746048
 42
0.096796
  0
VERTEX
  8
0
 10
1343.059907
 20
2192.587333
 42
0.099888
  0
VERTEX
  8
0
 10
1342.052228
 20
2196.234543
 42
0.079346
  0
VERTEX
  8
0
 10
1339.649587
 20
2199.550413
 42
-0.016308
  0
VERTEX
  8
0
 10
1338.207805
 20
2201.089443
 42
-0.057631
  0
VERTEX
  8
0
 10
1337.438639
 20
2202.201667
 42
-0.134900
  0
VERTEX
  8
0
 10
1337.270693
 20
2202.946680
 42
-0.297849
  0
VERTEX
  8
0
 10
1337.597302
 20
2203.398965
 42
0.106895
  0
VERTEX
  8
0
 10
1338.205412
 20
2203.796849
 42
0.026322
  0
VERTEX
  8
0
 10
1339.002354
 20
2204.694945
 42
0.025742
  0
VERTEX
  8
0
 10
1339.825871
 20
2205.844373
 42
0.023245
  0
VERTEX
  8
0
 10
1340.557555
 20
2207.111299
 42
0.108368
  0
VERTEX
  8
0
 10
1341.792955
 20
2211.730056
 42
0.096452
  0
VERTEX
  8
0
 10
1341.064657
 20
2216.653932
 42
0.100263
  0
VERTEX
  8
0
 10
1338.589057
 20
2220.793092
 42
0.128239
  0
VERTEX
  8
0
 10
1334.879199
 20
2223.206934
 42
-0.149986
  0
VERTEX
  8
0
 10
1334.398057
 20
2223.550064
 42
-0.204120
  0
VERTEX
  8
0
 10
1334.267270
 20
2224.060495
 42
-0.094706
  0
VERTEX
  8
0
 10
1334.541323
 20
2224.833453
 42
-0.020363
  0
VERTEX
  8
0
 10
1335.312067
 20
2226.035151
 42
0.096398
  0
VERTEX
  8
0
 10
1336.753976
 20
2229.274326
 42
0.078644
  0
VERTEX
  8
0
 10
1337.018521
 20
2233.066729
 42
0.077503
  0
VERTEX
  8
0
 10
1336.095190
 20
2236.807088
 42
0.088894
  0
VERTEX
  8
0
 10
1334.098790
 20
2239.894245
 42
0.024436
  0
VERTEX
  8
0
 10
1332.874190
 20
2241.083067
 42
0.028179
  0
VERTEX
  8
0
 10
1331.594006
 20
2242.087684
 42
0.029031
  0
VERTEX
  8
0
 10
1330.430493
 20
2242.802611
 42
0.123861
  0
VERTEX
  8
0
 10
1329.645905
 20
2243.000000
 42
-0.177055
  0
VERTEX
  8
0
 10
1328.908352
 20
2243.269628
 42
-0.171197
  0
VERTEX
  8
0
 10
1328.505882
 20
2243.955380
 42
-0.066715
  0
VERTEX
  8
0
 10
1328.426299
 20
2245.316668
 42
-0.010763
  0
VERTEX
  8
0
 10
1328.682410
 20
2247.966262
 42
0.072591
  0
VERTEX
  8
0
 10
1328.531406
 20
2253.548830
 42
0.108237
  0
VERTEX
  8
0
 10
1326.691898
 20
2258.054557
 42
0.124920
  0
VERTEX
  8
0
 10
1323.379561
 20
2260.953858
 42
0.118158
  0
VERTEX
  8
0
 10
1319.014476
 20
2262.000000
 42
-0.032628
  0
VERTEX
  8
0
 10
1317.923844
 20
2262.071246
 42
-0.240253
  0
VERTEX
  8
0
 10
1317.506794
 20
2262.357811
 42
-0.222484
  0
VERTEX
  8
0
 10
1317.475674
 20
2262.881460
 42
-0.028237
  0
VERTEX
  8
0
 10
1317.964816
 20
2263.934259
 42
0.145099
  0
VERTEX
  8
0
 10
1318.894606
 20
2268.446629
 42
0.104051
  0
VERTEX
  8
0
 10
1317.401758
 20
2273.406964
 42
0.099889
  0
VERTEX
  8
0
 10
1313.958086
 20
2277.505327
 42
0.122462
  0
VERTEX
  8
0
 10
1309.423611
 20
2279.580309
 42
-0.027464
  0
VERTEX
  8
0
 10
1307.538517
 20
2280.042342
 42
-0.128841
  0
VERTEX
  8
0
 10
1306.595930
 20
2280.622251
 42
-0.150113
  0
VERTEX
  8
0
 10
1306.135674
 20
2281.539702
 42
-0.041770
  0
VERTEX
  8
0
 10
1306.000000
 20
2283.160951
 42
0.114547
  0
VERTEX
  8
0
 10
1304.905332
 20
2287.876512
 42
0.099379
  0
VERTEX
  8
0
 10
1301.810370
 20
2291.911541
 42
0.102024
  0
VERTEX
  8
0
 10
1297.477191
 20
2294.364080
 42
0.127964
  0
VERTEX
  8
0
 10
1292.884242
 20
2294.626848
 42
-0.026644
  0
VERTEX
  8
0
 10
1291.133619
 20
2294.372788
 42
-0.227719
  0
VERTEX
  8
0
 10
1290.411356
 20
2294.642145
 42
-0.177851
  0
VERTEX
  8
0
 10
1290.068279
 20
2295.422907
 42
-0.015500
  0
VERTEX
  8
0
 10
1290.000000
 20
2297.625000
 42
0.048368
  0
VERTEX
  8
0
 10
1289.813404
 20
2299.549396
 42
0.066974
  0
VERTEX
  8
0
 10
1289.257015
 20
2301.189427
 42
0.056632
  0
VERTEX
  8
0
 10
1288.206061
 20
2302.814855
 42
0.024579
  0
VERTEX
  8
0
 10
1286.475158
 20
2304.724842
 42
0.020397
  0
VERTEX
  8
0
 10
1284.268884
 20
2306.758095
 42
0.089313
  0
VERTEX
  8
0
 10
1282.741200
 20
2307.644322
 42
0.090106
  0
VERTEX
  8
0
 10
1281.007020
 20
2307.938056
 42
0.020966
  0
VERTEX
  8
0
 10
1278.045038
 20
2307.778349
 42
-0.011106
  0
VERTEX
  8
0
 10
1275.038144
 20
2307.556696
 42
-0.104698
  0
VERTEX
  8
0
 10
1273.766977
 20
2307.758271
 42
-0.189490
  0
VERTEX
  8
0
 10
1273.036061
 20
2308.426251
 42
-0.053479
  0
VERTEX
  8
0
 10
1272.498557
 20
2309.903507
 42
0.113994
  0
VERTEX
  8
0
 10
1270.299244
 20
2314.242677
 42
0.102434
  0
VERTEX
  8
0
 10
1266.343722
 20
2317.379795
 42
0.105411
  0
VERTEX
  8
0
 10
1261.568825
 20
2318.631206
 42
0.127944
  0
VERTEX
  8
0
 10
1257.055427
 20
2317.677537
 42
-0.008850
  0
VERTEX
  8
0
 10
1255.248672
 20
2316.815802
 42
-0.107169
  0
VERTEX
  8
0
 10
1254.501577
 20
2316.653582
 42
-0.318564
  0
VERTEX
  8
0
 10
1254.129356
 20
2316.917357
 42
-0.084573
  0
VERTEX
  8
0
 10
1254.000000
 20
2317.676645
 42
0.127241
  0
VERTEX
  8
0
 10
1253.793773
 20
2318.473903
 42
0.024539
  0
VERTEX
  8
0
 10
1253.001250
 20
2319.751264
 42
0.024684
  0
VERTEX
  8
0
 10
1251.901633
 20
2321.186574
 42
0.020579
  0
VERTEX
  8
0
 10
1250.600000
 20
2322.600000
 42
0.025298
  0
VERTEX
  8
0
 10
1248.628022
 20
2324.381921
 42
0.068669
  0
VERTEX
  8
0
 10
1247.022758
 20
2325.359727
 42
0.073016
  0
VERTEX
  8
0
 10
1245.271383
 20
2325.833526
 42
0.031446
  0
VERTEX
  8
0
 10
1242.850000
 20
2325.968197
 42
0.028366
  0
VERTEX
  8
0
 10
1241.048738
 20
2325.852709
 42
0.026658
  0
VERTEX
  8
0
 10
1239.233778
 20
2325.533591
 42
0.027658
  0
VERTEX
  8
0
 10
1237.657055
 20
2325.075662
 42
0.077749
  0
VERTEX
  8
0
 10
1236.647969
 20
2324.533347
 42
-0.088863
  0
VERTEX
  8
0
 10
1235.481340
 20
2323.939171
 42
-0.183624
  0
VERTEX
  8
0
 10
1234.475675
 20
2324.009070
 42
-0.084402
  0
VERTEX
  8
0
 10
1233.257627
 20
2324.844171
 42
-0.010240
  0
VERTEX
  8
0
 10
1230.964838
 20
2327.157622
 42
-0.021690
  0
VERTEX
  8
0
 10
1229.492822
 20
2328.845944
 42
-0.032928
  0
VERTEX
  8
0
 10
1228.381131
 20
2330.443813
 42
-0.036166
  0
VERTEX
  8
0
 10
1227.693542
 20
2331.798348
 42
-0.193314
  0
VERTEX
  8
0
 10
1227.680939
 20
2332.610923
 42
0.138768
  0
VERTEX
  8
0
 10
1227.898651
 20
2335.006485
 42
0.027478
  0
VERTEX
  8
0
 10
1226.863959
 20
2339.233061
 42
0.030074
  0
VERTEX
  8
0
 10
1225.257308
 20
2343.565028
 42
0.058991
  0
VERTEX
  8
0
 10
1223.390918
 20
2346.727704
 42
0.098845
  0
VERTEX
  8
0
 10
1217.510870
 20
2351.913793
 42
0.072981
  0
VERTEX
  8
0
 10
1209.432097
 20
2355.140705
 42
0.072597
  0
VERTEX
  8
0
 10
1200.721295
 20
2355.921281
 42
0.095545
  0
SEQEND
  0
POLYLINE
  8
0
 66
1
 70
1
  0
VERTEX
  8
0
 10
1207.204514
 20
2342.959978
 42
-0.073638
  0
VERTEX
  8
0
 10
1210.234732
 20
2341.614333
 42
-0.073229
  0
VERTEX
  8
0
 10
1212.751460
 20
2339.446215
 42
-0.077548
  0
VERTEX
  8
0
 10
1214.422964
 20
2336.772360
 42
-0.101321
  0
VERTEX
  8
0
 10
1215.000000
 20
2333.954035
 42
-0.139518
  0
VERTEX
  8
0
 10
1214.258297
 20
2331.347686
 42
-0.072179
  0
VERTEX
  8
0
 10
1212.062189
 20
2328.732959
 42
-0.065575
  0
VERTEX
  8
0
 10
1208.931181
 20
2326.604104
 42
-0.070295
  0
VERTEX
  8
0
 10
1205.427612
 20
2325.420442
 42
-0.112678
  0
VERTEX
  8
0
 10
1199.752376
 20
2325.641685
 42
-0.112251
  0
VERTEX
  8
0
 10
1194.726324
 20
2328.302795
 42
-0.131592
  0
VERTEX
  8
0
 10
1191.866840
 20
2332.494977
 42
-0.184457
  0
VERTEX
  8
0
 10
1191.991953
 20
2336.980572
 42
-0.063924
  0
VERTEX
  8
0
 10
1193.205367
 20
2339.098007
 42
-0.057093
  0
VERTEX
  8
0
 10
1194.955928
 20
2340.932060
 42
-0.055835
  0
VERTEX
  8
0
 10
1197.117327
 20
2342.357647
 42
-0.055749
  0
VERTEX
  8
0
 10
1199.541681
 20
2343.270556
 42
-0.018076
  0
VERTEX
  8
0
 10
1201.632867
 20
2343.721975
 42
-0.054295
  0
VERTEX
  8
0
 10
1203.088207
 20
2343.821054
 42
-0.046759
  0
VERTEX
  8
0
 10
1204.644796
 20
2343.611281
 42
-0.010875
  0
SEQEND
  0
POLYLINE
  8
0
 66
1
 70
1
  0
VERTEX
  8
0
 10
1219.565666
 20
2308.927584
 42
-0.061704
  0
VERTEX
  8
0
 10
1246.596821
 20
2301.694644
 42
-0.058892
  0
VERTEX
  8
0
 10
1271.510979
 20
2288.007775
 42
-0.058920
  0
VERTEX
  8
0
 10
1292.537277
 20
2268.897228
 42
-0.061884
  0
VERTEX
  8
0
 10
1308.126976
 20
2245.702900
 42
-0.098196
  0
VERTEX
  8
0
 10
1320.484002
 20
2201.467592
 42
-0.098527
  0
VERTEX
  8
0
 10
1315.002129
 20
2155.920584
 42
-0.098441
  0
VERTEX
  8
0
 10
1292.493379
 20
2115.910588
 42
-0.097840
  0
VERTEX
  8
0
 10
1256.350204
 20
2087.449784
 42
-0.071461
  0
VERTEX
  8
0
 10
1225.805430
 20
2077.011292
 42
-0.068524
  0
VERTEX
  8
0
 10
1193.104452
 20
2075.381815
 42
-0.068500
  0
VERTEX
  8
0
 10
1161.169979
 20
2082.651582
 42
-0.071326
  0
VERTEX
  8
0
 10
1132.865913
 20
2098.225694
 42
-0.024534
  0
VERTEX
  8
0
 10
1125.638487
 20
2104.245619
 42
-0.016647
  0
VERTEX
  8
0
 10
1117.998142
 20
2111.756410
 42
-0.016728
  0
VERTEX
  8
0
 10
1110.950091
 20
2119.676463
 42
-0.026768
  0
VERTEX
  8
0
 10
1105.543470
 20
2126.934612
 42
-0.022943
  0
VERTEX
  8
0
 10
1100.651161
 20
2135.080875
 42
-0.017446
  0
VERTEX
  8
0
 10
1096.026991
 20
2144.412701
 42
-0.017556
  0
VERTEX
  8
0
 10
1092.104758
 20
2153.952812
 42
-0.024730
  0
VERTEX
  8
0
 10
1089.338925
 20
2162.722651
 42
-0.035447
  0
VERTEX
  8
0
 10
1087.230703
 20
2173.976123
 42
-0.019107
  0
VERTEX
  8
0
 10
1086.157322
 20
2188.050143
 42
-0.019111
  0
VERTEX
  8
0
 10
1086.161653
 20
2202.104707
 42
-0.036913
  0
VERTEX
  8
0
 10
1087.421580
 20
2213.274884
 42
-0.074804
  0
VERTEX
  8
0
 10
1099.261897
 20
2247.238606
 42
-0.076562
  0
VERTEX
  8
0
 10
1120.504351
 20
2275.912974
 42
-0.076536
  0
VERTEX
  8
0
 10
1149.397865
 20
2296.873512
 42
-0.074678
  0
VERTEX
  8
0
 10
1183.500000
 20
2308.392340
 42
-0.025362
  0
VERTEX
  8
0
 10
1191.594077
 20
2309.417208
 42
-0.015100
  0
VERTEX
  8
0
 10
1201.300898
 20
2309.854679
 42
-0.015042
  0
VERTEX
  8
0
 10
1211.117031
 20
2309.705041
 42
-0.023223
  0
SEQEND
  0
POLYLINE
  8
0
 66
1
 70
1
  0
VERTEX
  8
0
 10
315.581217
 20
2353.047802
 42
0.061710
  0
VERTEX
  8
0
 10
309.597880
 20
2349.729030
 42
0.072064
  0
VERTEX
  8
0
 10
304.953330
 20
2345.193129
 42
0.077051
  0
VERTEX
  8
0
 10
302.014031
 20
2339.807093
 42
0.086655
  0
VERTEX
  8
0
 10
301.000000
 20
2334.000081
 42
-0.031122
  0
VERTEX
  8
0
 10
300.861308
 20
2331.774007
 42
-0.067104
  0
VERTEX
  8
0
 10
300.423260
 20
2330.117026
 42
-0.070074
  0
VERTEX
  8
0
 10
299.576645
 20
2328.679936
 42
-0.036662
  0
VERTEX
  8
0
 10
298.165031
 20
2327.151210
 42
0.016183
  0
VERTEX
  8
0
 10
297.046091
 20
2326.034773
 42
0.017330
  0
VERTEX
  8
0
 10
296.027976
 20
2324.872779
 42
0.017141
  0
VERTEX
  8
0
 10
295.225515
 20
2323.818420
 42
0.074034
  0
VERTEX
  8
0
 10
294.870972
 20
2323.117824
 42
-0.127183
  0
VERTEX
  8
0
 10
294.476279
 20
2322.507025
 42
-0.206131
  0
VERTEX
  8
0
 10
293.902006
 20
2322.305479
 42
-0.088595
  0
VERTEX
  8
0
 10
292.972942
 20
2322.538524
 42
-0.013690
  0
VERTEX
  8
0
 10
291.255601
 20
2323.367824
 42
0.095767
  0
VERTEX
  8
0
 10
286.519922
 20
2324.761936
 42
0.103184
  0
VERTEX
  8
0
 10
281.737842
 20
2324.232351
 42
0.106815
  0
VERTEX
  8
0
 10
277.691007
 20
2321.867993
 42
0.109564
  0
VERTEX
  8
0
 10
275.025944
 20
2318.062635
 42
-0.022726
  0
VERTEX
  8
0
 10
274.362380
 20
2316.646319
 42
-0.089715
  0
VERTEX
  8
0
 10
273.772617
 20
2315.890388
 42
-0.199096
  0
VERTEX
  8
0
 10
273.212923
 20
2315.694760
 42
-0.184191
  0
VERTEX
  8
0
 10
272.655635
 20
2315.944365
 42
0.126646
  0
VERTEX
  8
0
 10
271.962258
 20
2316.353845
 42
0.024761
  0
VERTEX
  8
0
 10
270.539707
 20
2316.689907
 42
0.024846
  0
VERTEX
  8
0
 10
268.798291
 20
2316.922521
 42
0.020780
  0
VERTEX
  8
0
 10
266.934859
 20
2317.000000
 42
0.061254
  0
VERTEX
  8
0
 10
263.100100
 20
2316.528440
 42
0.088314
  0
VERTEX
  8
0
 10
259.987480
 20
2315.135136
 42
0.091990
  0
VERTEX
  8
0
 10
257.634602
 20
2312.805114
 42
0.072135
  0
VERTEX
  8
0
 10
256.028200
 20
2309.585447
 42
-0.025409
  0
VERTEX
  8
0
 10
255.248978
 20
2307.573942
 42
-0.158079
  0
VERTEX
  8
0
 10
254.517892
 20
2306.763481
 42
-0.144907
  0
VERTEX
  8
0
 10
253.417003
 20
2306.499354
 42
-0.020251
  0
VERTEX
  8
0
 10
251.059463
 20
2306.718850
 42
0.115856
  0
VERTEX
  8
0
 10
246.387166
 20
2306.262553
 42
0.098629
  0
VERTEX
  8
0
 10
242.090774
 20
2303.775963
 42
0.098416
  0
VERTEX
  8
0
 10
239.068205
 20
2299.827226
 42
0.114779
  0
VERTEX
  8
0
 10
238.000000
 20
2295.235235
 42
-0.098808
  0
VERTEX
  8
0
 10
237.801601
 20
2294.241072
 42
-0.181318
  0
VERTEX
  8
0
 10
237.244599
 20
2293.646392
 42
-0.097344
  0
VERTEX
  8
0
 10
236.146402
 20
2293.348021
 42
-0.017804
  0
VERTEX
  8
0
 10
234.032590
 20
2293.272727
 42
0.035354
  0
VERTEX
  8
0
 10
232.329517
 20
2293.152156
 42
0.026855
  0
VERTEX
  8
0
 10
230.492771
 20
2292.789279
 42
0.027453
  0
VERTEX
  8
0
 10
228.799089
 20
2292.258596
 42
0.055433
  0
VERTEX
  8
0
 10
227.553400
 20
2291.626946
 42
0.075236
  0
VERTEX
  8
0
 10
225.249476
 20
2289.564175
 42
0.058671
  0
VERTEX
  8
0
 10
223.424908
 20
2286.737362
 42
0.060826
  0
VERTEX
  8
0
 10
222.368471
 20
2283.697385
 42
0.102949
  0
VERTEX
  8
0
 10
222.347577
 20
2281.012114
 42
-0.030189
  0
VERTEX
  8
0
 10
222.563291
 20
2279.447844
 42
-0.203233
  0
VERTEX
  8
0
 10
222.319110
 20
2278.721539
 42
-0.182553
  0
VERTEX
  8
0
 10
221.608173
 20
2278.347491
 42
-0.023700
  0
VERTEX
  8
0
 10
219.868095
 20
2278.215313
 42
0.122972
  0
VERTEX
  8
0
 10
215.299912
 20
2276.935572
 42
0.105981
  0
VERTEX
  8
0
 10
211.573420
 20
2273.607167
 42
0.106735
  0
VERTEX
  8
0
 10
209.556658
 20
2269.065794
 42
0.126428
  0
VERTEX
  8
0
 10
209.773255
 20
2264.387144
 42
-0.018293
  0
VERTEX
  8
0
 10
210.293065
 20
2262.442531
 42
-0.169181
  0
VERTEX
  8
0
 10
210.198344
 20
2261.589369
 42
-0.205937
  0
VERTEX
  8
0
 10
209.603494
 20
2261.068864
 42
-0.028820
  0
VERTEX
  8
0
 10
207.986195
 20
2260.647239
 42
0.049522
  0
VERTEX
  8
0
 10
206.723040
 20
2260.261533
 42
0.024009
  0
VERTEX
  8
0
 10
205.195933
 20
2259.536378
 42
0.023541
  0
VERTEX
  8
0
 10
203.664298
 20
2258.621576
 42
0.031231
  0
VERTEX
  8
0
 10
202.370395
 20
2257.642178
 42
0.038380
  0
VERTEX
  8
0
 10
200.873570
 20
2256.140284
 42
0.084297
  0
VERTEX
  8
0
 10
200.043947
 20
2254.752453
 42
0.071636
  0
VERTEX
  8
0
 10
199.644286
 20
2253.026619
 42
0.021933
  0
VERTEX
  8
0
 10
199.535147
 20
2250.345072
 42
0.015304
  0
VERTEX
  8
0
 10
199.602178
 20
2248.361816
 42
0.015841
  0
VERTEX
  8
0
 10
199.790345
 20
2246.409177
 42
0.015741
  0
VERTEX
  8
0
 10
200.059461
 20
2244.733359
 42
0.063323
  0
VERTEX
  8
0
 10
200.382267
 20
2243.750000
 42
-0.041023
  0
VERTEX
  8
0
 10
200.703800
 20
2242.900061
 42
-0.188029
  0
VERTEX
  8
0
 10
200.656204
 20
2242.384490
 42
-0.222480
  0
VERTEX
  8
0
 10
200.284282
 20
2242.090322
 42
-0.057905
  0
VERTEX
  8
0
 10
199.506989
 20
2242.000000
 42
0.120384
  0
VERTEX
  8
0
 10
198.632589
 20
2241.786376
 42
0.027041
  0
VERTEX
  8
0
 10
197.302678
 20
2241.001250
 42
0.026540
  0
VERTEX
  8
0
 10
195.826937
 20
2239.901489
 42
0.022977
  0
VERTEX
  8
0
 10
194.400000
 20
2238.600000
 42
0.077943
  0
VERTEX
  8
0
 10
192.001359
 20
2235.308998
 42
0.095157
  0
VERTEX
  8
0
 10
190.933762
 20
2231.658399
 42
0.099084
  0
VERTEX
  8
0
 10
191.312216
 20
2227.988332
 42
0.091816
  0
VERTEX
  8
0
 10
193.072580
 20
2224.634859
 42
-0.015734
  0
VERTEX
  8
0
 10
194.007394
 20
2223.366250
 42
-0.087346
  0
VERTEX
  8
0
 10
194.358465
 20
2222.599418
 42
-0.278784
  0
VERTEX
  8
0
 10
194.235084
 20
2222.183947
 42
-0.186716
  0
VERTEX
  8
0
 10
193.759671
 20
2222.000000
 42
0.175647
  0
VERTEX
  8
0
 10
192.014404
 20
2221.367379
 42
0.037228
  0
VERTEX
  8
0
 10
189.653739
 20
2219.078700
 42
0.039305
  0
VERTEX
  8
0
 10
187.546839
 20
2216.295027
 42
0.081950
  0
VERTEX
  8
0
 10
186.476244
 20
2213.803107
 42
0.089010
  0
VERTEX
  8
0
 10
186.291378
 20
2210.949597
 42
0.051474
  0
VERTEX
  8
0
 10
187.029652
 20
2207.580373
 42
0.052040
  0
VERTEX
  8
0
 10
188.410065
 20
2204.510352
 42
0.108736
  0
VERTEX
  8
0
 10
190.174185
 20
2202.590549
 42
0.000000
  0
VERTEX
  8
0
 10
192.195313
 20
2201.174896
 42
0.000000
  0
VERTEX
  8
0
 10
190.108007
 20
2200.057804
 42
0.097557
  0
VERTEX
  8
0
 10
188.228539
 20
2198.519538
 42
0.052163
  0
VERTEX
  8
0
 10
186.562077
 20
2196.009899
 42
0.050737
  0
VERTEX
  8
0
 10
185.393826
 20
2193.089665
 42
0.070241
  0
VERTEX
  8
0
 10
185.003738
 20
2190.299660
 42
0.086195
  0
VERTEX
  8
0
 10
185.461069
 20
2187.687186
 42
0.038157
  0
VERTEX
  8
0
 10
186.898757
 20
2184.481106
 42
0.034273
  0
VERTEX
  8
0
 10
188.664261
 20
2181.704354
 42
0.238350
  0
VERTEX
  8
0
 10
190.057882
 20
2181.000000
 42
-0.381557
  0
VERTEX
  8
0
 10
190.299443
 20
2180.784251
 42
-0.115020
  0
VERTEX
  8
0
 10
190.237262
 20
2180.251830
 42
-0.055342
  0
VERTEX
  8
0
 10
189.834994
 20
2179.431401
 42
-0.025024
  0
VERTEX
  8
0
 10
189.141721
 20
2178.453040
 42
0.032665
  0
VERTEX
  8
0
 10
188.327747
 20
2177.266338
 42
0.021197
  0
VERTEX
  8
0
 10
187.539291
 20
2175.800563
 42
0.021319
  0
VERTEX
  8
0
 10
186.888571
 20
2174.297203
 42
0.037433
  0
VERTEX
  8
0
 10
186.499981
 20
2172.999913
 42
0.102820
  0
VERTEX
  8
0
 10
186.466027
 20
2169.991000
 42
0.059105
  0
VERTEX
  8
0
 10
187.582624
 20
2166.525606
 42
0.059788
  0
VERTEX
  8
0
 10
189.447052
 20
2163.479296
 42
0.119215
  0
VERTEX
  8
0
 10
191.658352
 20
2161.745896
 42
-0.038378
  0
VERTEX
  8
0
 10
193.313223
 20
2160.832695
 42
-0.211465
  0
VERTEX
  8
0
 10
193.852540
 20
2159.996898
 42
-0.144735
  0
VERTEX
  8
0
 10
193.699357
 20
2158.836233
 42
-0.015509
  0
VERTEX
  8
0
 10
192.506161
 20
2156.364307
 42
0.022980
  0
VERTEX
  8
0
 10
191.933868
 20
2155.132015
 42
0.020178
  0
VERTEX
  8
0
 10
191.449327
 20
2153.798284
 42
0.020666
  0
VERTEX
  8
0
 10
191.110374
 20
2152.558106
 42
0.055591
  0
VERTEX
  8
0
 10
191.006161
 20
2151.651129
 42
0.090280
  0
VERTEX
  8
0
 10
191.514017
 20
2148.807646
 42
0.052182
  0
VERTEX
  8
0
 10
193.064570
 20
2145.686547
 42
0.052096
  0
VERTEX
  8
0
 10
195.233387
 20
2142.945926
 42
0.088298
  0
VERTEX
  8
0
 10
197.606250
 20
2141.247942
 42
-0.020837
  0
VERTEX
  8
0
 10
199.301183
 20
2140.351192
 42
-0.108229
  0
VERTEX
  8
0
 10
200.075403
 20
2139.638669
 42
-0.187754
  0
VERTEX
  8
0
 10
200.261840
 20
2138.877041
 42
-0.090314
  0
VERTEX
  8
0
 10
199.949061
 20
2137.904820
 42
0.093625
  0
VERTEX
  8
0
 10
199.128316
 20
2135.294993
 42
0.051861
  0
VERTEX
  8
0
 10
199.080220
 20
2131.944470
 42
0.051313
  0
VERTEX
  8
0
 10
199.730728
 20
2128.594786
 42
0.081285
  0
VERTEX
  8
0
 10
201.016827
 20
2125.976369
 42
0.051018
  0
VERTEX
  8
0
 10
202.043946
 20
2124.806995
 42
0.030719
  0
VERTEX
  8
0
 10
203.472903
 20
2123.635518
 42
0.030538
  0
VERTEX
  8
0
 10
205.053552
 20
2122.635190
 42
0.046132
  0
VERTEX
  8
0
 10
206.545797
 20
2121.984886
 42
-0.021636
  0
VERTEX
  8
0
 10
208.619795
 20
2121.199396
 42
-0.149097
  0
VERTEX
  8
0
 10
209.442392
 20
2120.504678
 42
-0.163675
  0
VERTEX
  8
0
 10
209.697295
 20
2119.502185
 42
-0.027498
  0
VERTEX
  8
0
 10
209.435919
 20
2117.510108
 42
0.117042
  0
VERTEX
  8
0
 10
209.663304
 20
2112.734490
 42
0.101189
  0
VERTEX
  8
0
 10
211.995749
 20
2108.279252
 42
0.101939
  0
VERTEX
  8
0
 10
215.871649
 20
2105.121593
 42
0.120695
  0
VERTEX
  8
0
 10
220.450340
 20
2104.000000
 42
-0.055594
  0
VERTEX
  8
0
 10
221.894913
 20
2103.838883
 42
-0.210961
  0
VERTEX
  8
0
 10
222.607854
 20
2103.310312
 42
-0.117072
  0
VERTEX
  8
0
 10
222.931753
 20
2102.200304
 42
-0.012709
  0
VERTEX
  8
0
 10
223.000000
 20
2099.515777
 42
0.029969
  0
VERTEX
  8
0
 10
223.143378
 20
2097.125790
 42
0.059699
  0
VERTEX
  8
0
 10
223.591614
 20
2095.286937
 42
0.060737
  0
VERTEX
  8
0
 10
224.455478
 20
2093.626302
 42
0.032063
  0
VERTEX
  8
0
 10
225.891429
 20
2091.795482
 42
0.029884
  0
VERTEX
  8
0
 10
227.620144
 20
2090.079047
 42
0.077970
  0
VERTEX
  8
0
 10
229.094089
 20
2089.141644
 42
0.075040
  0
VERTEX
  8
0
 10
230.818083
 20
2088.681115
 42
0.026202
  0
VERTEX
  8
0
 10
233.388243
 20
2088.529706
 42
-0.011584
  0
VERTEX
  8
0
 10
236.332754
 20
2088.442474
 42
-0.141800
  0
VERTEX
  8
0
 10
237.385514
 20
2088.076569
 42
-0.211178
  0
VERTEX
  8
0
 10
237.874035
 20
2087.258493
 42
-0.030285
  0
VERTEX
  8
0
 10
237.996814
 20
2085.265777
 42
0.056548
  0
VERTEX
  8
0
 10
238.182226
 20
2083.645839
 42
0.048954
  0
VERTEX
  8
0
 10
238.728387
 20
2082.023673
 42
0.044393
  0
VERTEX
  8
0
 10
239.640794
 20
2080.397555
 42
0.032379
  0
VERTEX
  8
0
 10
240.919782
 20
2078.765777
 42
0.029441
  0
VERTEX
  8
0
 10
242.763815
 20
2076.932730
 42
0.090788
  0
VERTEX
  8
0
 10
244.263455
 20
2076.028768
 42
0.076129
  0
VERTEX
  8
0
 10
246.131219
 20
2075.631800
 42
0.016735
  0
VERTEX
  8
0
 10
249.419782
 20
2075.552898
 42
-0.010147
  0
VERTEX
  8
0
 10
252.478075
 20
2075.519825
 42
-0.067656
  0
VERTEX
  8
0
 10
253.976785
 20
2075.268401
 42
-0.167502
  0
VERTEX
  8
0
 10
254.716787
 20
2074.725174
 42
-0.152576
  0
VERTEX
  8
0
 10
255.000000
 20
2073.818675
 42
0.151081
  0
VERTEX
  8
0
 10
255.681155
 20
2071.615862
 42
0.044392
  0
VERTEX
  8
0
 10
257.955803
 20
2068.851476
 42
0.044772
  0
VERTEX
  8
0
 10
260.840248
 20
2066.401789
 42
0.085590
  0
VERTEX
  8
0
 10
263.576963
 20
2065.100588
 42
0.044242
  0
VERTEX
  8
0
 10
265.142538
 20
2064.808199
 42
0.038906
  0
VERTEX
  8
0
 10
266.805069
 20
2064.777547
 42
0.036806
  0
VERTEX
  8
0
 10
268.541376
 20
2065.009702
 42
0.031167
  0
VERTEX
  8
0
 10
270.326963
 20
2065.501594
 42
-0.009413
  0
VERTEX
  8
0
 10
272.524546
 20
2066.211119
 42
-0.110475
  0
VERTEX
  8
0
 10
273.416207
 20
2066.276700
 42
-0.286860
  0
VERTEX
  8
0
 10
273.853944
 20
2065.903972
 42
-0.076831
  0
VERTEX
  8
0
 10
274.000000
 20
2064.959085
 42
0.110731
  0
VERTEX
  8
0
 10
274.201409
 20
2064.060785
 42
0.030317
  0
VERTEX
  8
0
 10
274.903846
 20
2062.780289
 42
0.029087
  0
VERTEX
  8
0
 10
275.899267
 20
2061.387483
 42
0.026688
  0
VERTEX
  8
0
 10
277.076923
 20
2060.076923
 42
0.030655
  0
VERTEX
  8
0
 10
278.860933
 20
2058.499215
 42
0.068894
  0
VERTEX
  8
0
 10
280.420999
 20
2057.595081
 42
0.067923
  0
VERTEX
  8
0
 10
282.182032
 20
2057.141590
 42
0.029108
  0
VERTEX
  8
0
 10
284.612106
 20
2057.000000
 42
0.030413
  0
VERTEX
  8
0
 10
286.493508
 20
2057.114546
 42
0.025637
  0
VERTEX
  8
0
 10
288.459529
 20
2057.457856
 42
0.026423
  0
VERTEX
  8
0
 10
290.224440
 20
2057.959586
 42
0.062640
  0
VERTEX
  8
0
 10
291.449178
 20
2058.558657
 42
-0.014728
  0
VERTEX
  8
0
 10
292.915637
 20
2059.458933
 42
-0.170779
  0
VERTEX
  8
0
 10
293.568420
 20
2059.579634
 42
-0.249129
  0
VERTEX
  8
0
 10
294.021004
 20
2059.240003
 42
-0.032855
  0
VERTEX
  8
0
 10
294.473104
 20
2058.084743
 42
0.157748
  0
VERTEX
  8
0
 10
297.096137
 20
2054.412496
 42
0.107581
  0
VERTEX
  8
0
 10
301.810150
 20
2052.288707
 42
0.101735
  0
VERTEX
  8
0
 10
307.213883
 20
2052.255301
 42
0.126396
  0
VERTEX
  8
0
 10
311.729198
 20
2054.425589
 42
-0.009040
  0
VERTEX
  8
0
 10
313.630580
 20
2055.967657
 42
-0.141064
  0
VERTEX
  8
0
 10
314.400105
 20
2056.277758
 42
-0.250647
  0
VERTEX
  8
0
 10
315.013083
 20
2056.026948
 42
-0.033260
  0
VERTEX
  8
0
 10
315.860507
 20
2054.851756
 42
0.142003
  0
VERTEX
  8
0
 10
319.134075
 20
2051.919647
 42
0.106848
  0
VERTEX
  8
0
 10
323.857768
 20
2050.786578
 42
0.100360
  0
VERTEX
  8
0
 10
328.881729
 20
2051.687905
 42
0.110203
  0
VERTEX
  8
0
 10
332.968254
 20
2054.466208
 42
0.000000
  0
VERTEX
  8
0
 10
335.287993
 20
2056.935457
 42
0.000000
  0
VERTEX
  8
0
 10
338.220722
 20
2054.467729
 42
0.125144
  0
VERTEX
  8
0
 10
342.764094
 20
2052.270161
 42
0.102242
  0
VERTEX
  8
0
 10
348.179514
 20
2052.282394
 42
0.108430
  0
VERTEX
  8
0
 10
352.896517
 20
2054.400499
 42
0.157636
  0
VERTEX
  8
0
 10
355.526896
 20
2058.084743
 42
-0.032855
  0
VERTEX
  8
0
 10
355.978996
 20
2059.240003
 42
-0.249129
  0
VERTEX
  8
0
 10
356.431580
 20
2059.579634
 42
-0.170779
  0
VERTEX
  8
0
 10
357.084363
 20
2059.458933
 42
-0.014728
  0
VERTEX
  8
0
 10
358.550822
 20
2058.558657
 42
0.062640
  0
VERTEX
  8
0
 10
359.775560
 20
2057.959586
 42
0.026423
  0
VERTEX
  8
0
 10
361.540471
 20
2057.457856
 42
0.025637
  0
VERTEX
  8
0
 10
363.506492
 20
2057.114546
 42
0.030413
  0
VERTEX
  8
0
 10
365.387894
 20
2057.000000
 42
0.029108
  0
VERTEX
  8
0
 10
367.817968
 20
2057.141590
 42
0.067923
  0
VERTEX
  8
0
 10
369.579001
 20
2057.595081
 42
0.068894
  0
VERTEX
  8
0
 10
371.139067
 20
2058.499215
 42
0.030655
  0
VERTEX
  8
0
 10
372.923077
 20
2060.076923
 42
0.026688
  0
VERTEX
  8
0
 10
374.100733
 20
2061.387483
 42
0.029087
  0
VERTEX
  8
0
 10
375.096154
 20
2062.780289
 42
0.030317
  0
VERTEX
  8
0
 10
375.798591
 20
2064.060785
 42
0.110731
  0
VERTEX
  8
0
 10
376.000000
 20
2064.959085
 42
-0.076831
  0
VERTEX
  8
0
 10
376.146056
 20
2065.903972
 42
-0.286860
  0
VERTEX
  8
0
 10
376.583793
 20
2066.276700
 42
-0.110475
  0
VERTEX
  8
0
 10
377.475454
 20
2066.211119
 42
-0.009413
  0
VERTEX
  8
0
 10
379.673037
 20
2065.501594
 42
0.031167
  0
VERTEX
  8
0
 10
381.458624
 20
2065.009702
 42
0.036806
  0
VERTEX
  8
0
 10
383.194931
 20
2064.777547
 42
0.038906
  0
VERTEX
  8
0
 10
384.857462
 20
2064.808199
 42
0.044242
  0
VERTEX
  8
0
 10
386.423037
 20
2065.100588
 42
0.085590
  0
VERTEX
  8
0
 10
389.159752
 20
2066.401789
 42
0.044772
  0
VERTEX
  8
0
 10
392.044197
 20
2068.851476
 42
0.044392
  0
VERTEX
  8
0
 10
394.318845
 20
2071.615862
 42
0.151081
  0
VERTEX
  8
0
 10
395.000000
 20
2073.818675
 42
-0.149438
  0
VERTEX
  8
0
 10
395.276404
 20
2074.722832
 42
-0.168473
  0
VERTEX
  8
0
 10
396.000441
 20
2075.265997
 42
-0.069357
  0
VERTEX
  8
0
 10
397.461686
 20
2075.518815
 42
-0.010648
  0
VERTEX
  8
0
 10
400.417413
 20
2075.552898
 42
0.018800
  0
VERTEX
  8
0
 10
403.311785
 20
2075.633473
 42
0.055205
  0
VERTEX
  8
0
 10
405.271964
 20
2075.981513
 42
0.070188
  0
VERTEX
  8
0
 10
406.834379
 20
2076.690838
 42
0.046904
  0
VERTEX
  8
0
 10
408.388391
 20
2077.897050
 42
0.064616
  0
VERTEX
  8
0
 10
410.207816
 20
2080.110741
 42
0.037058
  0
VERTEX
  8
0
 10
411.820985
 20
2083.173251
 42
0.033725
  0
VERTEX
  8
0
 10
412.887532
 20
2086.156899
 42
0.209335
  0
VERTEX
  8
0
 10
412.670876
 20
2087.730450
 42
-0.464544
  0
VERTEX
  8
0
 10
412.769964
 20
2088.029225
 42
-0.044410
  0
VERTEX
  8
0
 10
413.607568
 20
2088.281038
 42
-0.032571
  0
VERTEX
  8
0
 10
414.896252
 20
2088.460222
 42
-0.016865
  0
VERTEX
  8
0
 10
416.521473
 20
2088.524149
 42
0.030364
  0
VERTEX
  8
0
 10
418.543873
 20
2088.658423
 42
0.042488
  0
VERTEX
  8
0
 10
420.313750
 20
2089.039230
 42
0.047694
  0
VERTEX
  8
0
 10
421.821582
 20
2089.662859
 42
0.060226
  0
VERTEX
  8
0
 10
423.059713
 20
2090.524149
 42
0.065890
  0
VERTEX
  8
0
 10
425.087856
 20
2092.878469
 42
0.050678
  0
VERTEX
  8
0
 10
426.650640
 20
2095.893179
 42
0.052696
  0
VERTEX
  8
0
 10
427.509288
 20
2098.975510
 42
0.103440
  0
VERTEX
  8
0
 10
427.408530
 20
2101.508421
 42
-0.031309
  0
VERTEX
  8
0
 10
427.149817
 20
2102.903945
 42
-0.204020
  0
VERTEX
  8
0
 10
427.343943
 20
2103.574475
 42
-0.195528
  0
VERTEX
  8
0
 10
427.968451
 20
2103.915880
 42
-0.028534
  0
VERTEX
  8
0
 10
429.441252
 20
2104.000000
 42
0.109357
  0
VERTEX
  8
0
 10
434.134926
 20
2105.039001
 42
0.106744
  0
VERTEX
  8
0
 10
437.998911
 20
2107.966559
 42
0.105817
  0
VERTEX
  8
0
 10
440.333726
 20
2112.251786
 42
0.105733
  0
VERTEX
  8
0
 10
440.710924
 20
2117.118556
 42
-0.021057
  0
VERTEX
  8
0
 10
440.499507
 20
2119.429679
 42
-0.145680
  0
VERTEX
  8
0
 10
440.767263
 20
2120.522836
 42
-0.156497
  0
VERTEX
  8
0
 10
441.580314
 20
2121.251604
 42
-0.025390
  0
VERTEX
  8
0
 10
443.584257
 20
2122.027807
 42
0.047591
  0
VERTEX
  8
0
 10
445.026601
 20
2122.661368
 42
0.030627
  0
VERTEX
  8
0
 10
446.565301
 20
2123.648126
 42
0.030698
  0
VERTEX
  8
0
 10
447.965065
 20
2124.810106
 42
0.049491
  0
VERTEX
  8
0
 10
448.983173
 20
2125.976369
 42
0.081285
  0
VERTEX
  8
0
 10
450.269272
 20
2128.594786
 42
0.051313
  0
VERTEX
  8
0
 10
450.919780
 20
2131.944470
 42
0.051861
  0
VERTEX
  8
0
 10
450.871684
 20
2135.294993
 42
0.093625
  0
VERTEX
  8
0
 10
450.050939
 20
2137.904820
 42
-0.088541
  0
VERTEX
  8
0
 10
449.735112
 20
2138.874797
 42
-0.187242
  0
VERTEX
  8
0
 10
449.914130
 20
2139.632389
 42
-0.109866
  0
VERTEX
  8
0
 10
450.671448
 20
2140.337483
 42
-0.021473
  0
VERTEX
  8
0
 10
452.327331
 20
2141.216269
 42
0.053905
  0
VERTEX
  8
0
 10
453.703439
 20
2142.065044
 42
0.030597
  0
VERTEX
  8
0
 10
455.174329
 20
2143.359170
 42
0.030214
  0
VERTEX
  8
0
 10
456.512428
 20
2144.861464
 42
0.043339
  0
VERTEX
  8
0
 10
457.489881
 20
2146.351351
 42
0.065265
  0
VERTEX
  8
0
 10
458.517478
 20
2149.051430
 42
0.075955
  0
VERTEX
  8
0
 10
458.741395
 20
2151.786387
 42
0.059665
  0
VERTEX
  8
0
 10
458.134096
 20
2154.959218
 42
0.024486
  0
VERTEX
  8
0
 10
456.598884
 20
2159.071880
 42
-0.116686
  0
VERTEX
  8
0
 10
456.462491
 20
2159.848217
 42
-0.138209
  0
VERTEX
  8
0
 10
456.705281
 20
2160.549970
 42
-0.096860
  0
VERTEX
  8
0
 10
457.374481
 20
2161.198763
 42
-0.037335
  0
VERTEX
  8
0
 10
458.513323
 20
2161.824117
 42
0.120253
  0
VERTEX
  8
0
 10
460.744070
 20
2163.580143
 42
0.063059
  0
VERTEX
  8
0
 10
462.566446
 20
2166.629956
 42
0.061362
  0
VERTEX
  8
0
 10
463.621575
 20
2170.164666
 42
0.091481
  0
VERTEX
  8
0
 10
463.573495
 20
2173.382526
 42
0.043757
  0
VERTEX
  8
0
 10
463.185754
 20
2174.706696
 42
0.026701
  0
VERTEX
  8
0
 10
462.512547
 20
2176.191396
 42
0.026650
  0
VERTEX
  8
0
 10
461.681390
 20
2177.602252
 42
0.042156
  0
VERTEX
  8
0
 10
460.810301
 20
2178.701925
 42
-0.026028
  0
VERTEX
  8
0
 10
460.062956
 20
2179.585351
 42
-0.062764
  0
VERTEX
  8
0
 10
459.634830
 20
2180.324941
 42
-0.150580
  0
VERTEX
  8
0
 10
459.587647
 20
2180.793028
 42
-0.357212
  0
VERTEX
  8
0
 10
459.840384
 20
2181.000000
 42
0.233265
  0
VERTEX
  8
0
 10
461.290796
 20
2181.715598
 42
0.036992
  0
VERTEX
  8
0
 10
463.081540
 20
2184.447796
 42
0.040206
  0
VERTEX
  8
0
 10
464.530852
 20
2187.642796
 42
0.086252
  0
VERTEX
  8
0
 10
464.996262
 20
2190.299660
 42
0.070364
  0
VERTEX
  8
0
 10
464.603218
 20
2193.105769
 42
0.051512
  0
VERTEX
  8
0
 10
463.427563
 20
2196.027216
 42
0.052965
  0
VERTEX
  8
0
 10
461.742672
 20
2198.536274
 42
0.095845
  0
VERTEX
  8
0
 10
459.829746
 20
2200.091117
 42
-0.014757
  0
VERTEX
  8
0
 10
458.602848
 20
2200.795074
 42
-0.199879
  0
VERTEX
  8
0
 10
458.306503
 20
2201.205112
 42
-0.301241
  0
VERTEX
  8
0
 10
458.452551
 20
2201.600382
 42
-0.030377
  0
VERTEX
  8
0
 10
459.340119
 20
2202.170464
 42
0.106719
  0
VERTEX
  8
0
 10
461.017593
 20
2203.650168
 42
0.047357
  0
VERTEX
  8
0
 10
462.544322
 20
2206.193207
 42
0.046080
  0
VERTEX
  8
0
 10
463.635276
 20
2209.145698
 42
0.065555
  0
VERTEX
  8
0
 10
464.000000
 20
2211.915544
 42
0.120228
  0
VERTEX
  8
0
 10
463.318091
 20
2214.710463
 42
0.043029
  0
VERTEX
  8
0
 10
461.107663
 20
2218.200236
 42
0.041569
  0
VERTEX
  8
0
 10
458.435553
 20
2221.163894
 42
0.190763
  0
VERTEX
  8
0
 10
456.323828
 20
2222.000000
 42
-0.140182
  0
VERTEX
  8
0
 10
455.757550
 20
2222.161946
 42
-0.320022
  0
VERTEX
  8
0
 10
455.595634
 20
2222.551136
 42
-0.097298
  0
VERTEX
  8
0
 10
455.922504
 20
2223.284705
 42
-0.013338
  0
VERTEX
  8
0
 10
456.927420
 20
2224.634859
 42
0.091816
  0
VERTEX
  8
0
 10
458.687784
 20
2227.988332
 42
0.099084
  0
VERTEX
  8
0
 10
459.066238
 20
2231.658399
 42
0.095157
  0
VERTEX
  8
0
 10
457.998641
 20
2235.308998
 42
0.077943
  0
VERTEX
  8
0
 10
455.600000
 20
2238.600000
 42
0.021582
  0
VERTEX
  8
0
 10
454.180939
 20
2239.901571
 42
0.025482
  0
VERTEX
  8
0
 10
452.728750
 20
2241.001250
 42
0.025624
  0
VERTEX
  8
0
 10
451.429649
 20
2241.790495
 42
0.124310
  0
VERTEX
  8
0
 10
450.600000
 20
2242.000000
 42
-0.115544
  0
VERTEX
  8
0
 10
449.569011
 20
2242.241473
 42
-0.222338
  0
VERTEX
  8
0
 10
449.051311
 20
2242.890776
 42
-0.210351
  0
VERTEX
  8
0
 10
449.204273
 20
2243.735629
 42
-0.106261
  0
VERTEX
  8
0
 10
450.000000
 20
2244.500000
 42
0.181122
  0
VERTEX
  8
0
 10
450.389055
 20
2245.002470
 42
0.027057
  0
VERTEX
  8
0
 10
450.706250
 20
2246.263621
 42
0.027507
  0
VERTEX
  8
0
 10
450.926906
 20
2247.860627
 42
0.020577
  0
VERTEX
  8
0
 10
451.000000
 20
2249.635940
 42
0.027909
  0
VERTEX
  8
0
 10
450.863561
 20
2252.078349
 42
0.065984
  0
VERTEX
  8
0
 10
450.425171
 20
2253.843858
 42
0.069276
  0
VERTEX
  8
0
 10
449.557562
 20
2255.382296
 42
0.033406
  0
VERTEX
  8
0
 10
448.064904
 20
2257.088942
 42
0.034742
  0
VERTEX
  8
0
 10
446.722983
 20
2258.256299
 42
0.027027
  0
VERTEX
  8
0
 10
445.117927
 20
2259.336667
 42
0.027699
  0
VERTEX
  8
0
 10
443.504280
 20
2260.182953
 42
0.057624
  0
VERTEX
  8
0
 10
442.154268
 20
2260.619146
 42
-0.022976
  0
VERTEX
  8
0
 10
440.398791
 20
2261.054958
 42
-0.192853
  0
VERTEX
  8
0
 10
439.771262
 20
2261.552438
 42
-0.193044
  0
VERTEX
  8
0
 10
439.661099
 20
2262.345287
 42
-0.023027
  0
VERTEX
  8
0
 10
440.176775
 20
2264.077254
 42
0.131220
  0
VERTEX
  8
0
 10
440.522729
 20
2268.713606
 42
0.104810
  0
VERTEX
  8
0
 10
438.585765
 20
2273.355314
 42
0.105947
  0
VERTEX
  8
0
 10
434.955527
 20
2276.774750
 42
0.136946
  0
VERTEX
  8
0
 10
430.565942
 20
2278.000000
 42
-0.023812
  0
VERTEX
  8
0
 10
428.676208
 20
2278.090046
 42
-0.192424
  0
VERTEX
  8
0
 10
427.919160
 20
2278.479784
 42
-0.185234
  0
VERTEX
  8
0
 10
427.623437
 20
2279.292816
 42
-0.021814
  0
VERTEX
  8
0
 10
427.743138
 20
2281.250000
 42
0.137733
  0
VERTEX
  8
0
 10
426.932979
 20
2285.996968
 42
0.096701
  0
VERTEX
  8
0
 10
423.696872
 20
2290.383692
 42
0.098564
  0
VERTEX
  8
0
 10
419.111717
 20
2293.169179
 42
0.149941
  0
VERTEX
  8
0
 10
414.491579
 20
2293.408530
 42
-0.029585
  0
VERTEX
  8
0
 10
413.148480
 20
2293.154746
 42
-0.175081
  0
VERTEX
  8
0
 10
412.461373
 20
2293.307709
 42
-0.209958
  0
VERTEX
  8
0
 10
412.101978
 20
2293.843088
 42
-0.044352
  0
VERTEX
  8
0
 10
412.000000
 20
2294.990463
 42
0.082703
  0
VERTEX
  8
0
 10
411.511700
 20
2297.922415
 42
0.050895
  0
VERTEX
  8
0
 10
410.043856
 20
2301.108152
 42
0.051181
  0
VERTEX
  8
0
 10
407.981013
 20
2303.903572
 42
0.089119
  0
VERTEX
  8
0
 10
405.702408
 20
2305.653891
 42
0.044092
  0
VERTEX
  8
0
 10
404.178056
 20
2306.278922
 42
0.036830
  0
VERTEX
  8
0
 10
402.473027
 20
2306.673419
 42
0.035812
  0
VERTEX
  8
0
 10
400.677097
 20
2306.821291
 42
0.035988
  0
VERTEX
  8
0
 10
398.881444
 20
2306.710924
 42
-0.021060
  0
VERTEX
  8
0
 10
396.570193
 20
2306.499509
 42
-0.145714
  0
VERTEX
  8
0
 10
395.477049
 20
2306.767352
 42
-0.156480
  0
VERTEX
  8
0
 10
394.748258
 20
2307.580612
 42
-0.025370
  0
VERTEX
  8
0
 10
393.971800
 20
2309.585447
 42
0.072455
  0
VERTEX
  8
0
 10
392.426998
 20
2312.676717
 42
0.083406
  0
VERTEX
  8
0
 10
390.123206
 20
2315.031200
 42
0.083798
  0
VERTEX
  8
0
 10
387.186197
 20
2316.496031
 42
0.073995
  0
VERTEX
  8
0
 10
383.799400
 20
2317.000000
 42
0.021877
  0
VERTEX
  8
0
 10
382.160710
 20
2316.928266
 42
0.020121
  0
VERTEX
  8
0
 10
380.487701
 20
2316.713402
 42
0.020584
  0
VERTEX
  8
0
 10
379.012305
 20
2316.400277
 42
0.060350
  0
VERTEX
  8
0
 10
378.045494
 20
2316.024348
 42
-0.075099
  0
VERTEX
  8
0
 10
377.049345
 20
2315.670312
 42
-0.200191
  0
VERTEX
  8
0
 10
376.325076
 20
2315.819841
 42
-0.123297
  0
VERTEX
  8
0
 10
375.694779
 20
2316.528858
 42
-0.022162
  0
VERTEX
  8
0
 10
374.940926
 20
2318.142617
 42
0.111190
  0
VERTEX
  8
0
 10
372.291084
 20
2321.900492
 42
0.106167
  0
VERTEX
  8
0
 10
368.244601
 20
2324.236810
 42
0.102211
  0
VERTEX
  8
0
 10
363.463081
 20
2324.756961
 42
0.095765
  0
VERTEX
  8
0
 10
358.744399
 20
2323.367824
 42
-0.013690
  0
VERTEX
  8
0
 10
357.027058
 20
2322.538524
 42
-0.088595
  0
VERTEX
  8
0
 10
356.097994
 20
2322.305479
 42
-0.206131
  0
VERTEX
  8
0
 10
355.523721
 20
2322.507025
 42
-0.127183
  0
VERTEX
  8
0
 10
355.129028
 20
2323.117824
 42
0.074034
  0
VERTEX
  8
0
 10
354.774485
 20
2323.818420
 42
0.017141
  0
VERTEX
  8
0
 10
353.972024
 20
2324.872779
 42
0.017330
  0
VERTEX
  8
0
 10
352.953909
 20
2326.034773
 42
0.016183
  0
VERTEX
  8
0
 10
351.834969
 20
2327.151210
 42
-0.036589
  0
VERTEX
  8
0
 10
350.440830
 20
2328.660570
 42
-0.067978
  0
VERTEX
  8
0
 10
349.590022
 20
2330.090146
 42
-0.066595
  0
VERTEX
  8
0
 10
349.143463
 20
2331.715676
 42
-0.033790
  0
VERTEX
  8
0
 10
349.000000
 20
2333.836110
 42
0.040171
  0
VERTEX
  8
0
 10
348.696470
 20
2337.607999
 42
0.056868
  0
VERTEX
  8
0
 10
347.785183
 20
2340.847578
 42
0.056071
  0
VERTEX
  8
0
 10
346.155411
 20
2343.831910
 42
0.037693
  0
VERTEX
  8
0
 10
343.688666
 20
2346.837629
 42
0.075977
  0
VERTEX
  8
0
 10
337.701699
 20
2351.451197
 42
0.071985
  0
VERTEX
  8
0
 10
330.500197
 20
2354.171505
 42
0.072346
  0
VERTEX
  8
0
 10
322.856693
 20
2354.730550
 42
0.078090
  0
SEQEND
  0
POLYLINE
  8
0
 66
1
 70
1
  0
VERTEX
  8
0
 10
332.020016
 20
2340.489650
 42
-0.087052
  0
VERTEX
  8
0
 10
335.322183
 20
2337.974549
 42
-0.147443
  0
VERTEX
  8
0
 10
336.832613
 20
2334.874971
 42
-0.143218
  0
VERTEX
  8
0
 10
336.398819
 20
2331.390039
 42
-0.080390
  0
VERTEX
  8
0
 10
334.082029
 20
2327.765777
 42
-0.030390
  0
VERTEX
  8
0
 10
332.214480
 20
2325.915242
 42
-0.092532
  0
VERTEX
  8
0
 10
330.684797
 20
2325.007593
 42
-0.073381
  0
VERTEX
  8
0
 10
328.736986
 20
2324.603655
 42
-0.014497
  0
VERTEX
  8
0
 10
325.162593
 20
2324.500000
 42
-0.015608
  0
VERTEX
  8
0
 10
321.906018
 20
2324.601685
 42
-0.052965
  0
VERTEX
  8
0
 10
319.813716
 20
2324.957097
 42
-0.071721
  0
VERTEX
  8
0
 10
318.196889
 20
2325.673877
 42
-0.048464
  0
VERTEX
  8
0
 10
316.597751
 20
2326.908167
 42
-0.024393
  0
VERTEX
  8
0
 10
315.571837
 20
2327.970775
 42
-0.021556
  0
VERTEX
  8
0
 10
314.608775
 20
2329.171629
 42
-0.022127
  0
VERTEX
  8
0
 10
313.835411
 20
2330.330183
 42
-0.059324
  0
VERTEX
  8
0
 10
313.426402
 20
2331.231886
 42
-0.124364
  0
VERTEX
  8
0
 10
313.287784
 20
2333.544321
 42
-0.065357
  0
VERTEX
  8
0
 10
314.194223
 20
2336.296977
 42
-0.063368
  0
VERTEX
  8
0
 10
315.836044
 20
2338.829319
 42
-0.093065
  0
VERTEX
  8
0
 10
317.888053
 20
2340.500358
 42
-0.081106
  0
VERTEX
  8
0
 10
320.925326
 20
2341.561013
 42
-0.043746
  0
VERTEX
  8
0
 10
324.884082
 20
2341.905015
 42
-0.043599
  0
VERTEX
  8
0
 10
328.875248
 20
2341.553286
 42
-0.075696
  0
SEQEND
  0
POLYLINE
  8
0
 66
1
 70
1
  0
VERTEX
  8
0
 10
610.826373
 20
2354.020956
 42
0.042932
  0
VERTEX
  8
0
 10
606.794995
 20
2352.415446
 42
0.038047
  0
VERTEX
  8
0
 10
602.921279
 20
2350.088856
 42
0.039017
  0
VERTEX
  8
0
 10
599.552887
 20
2347.280830
 42
0.053265
  0
VERTEX
  8
0
 10
597.034930
 20
2344.239019
 42
0.043648
  0
VERTEX
  8
0
 10
595.134110
 20
2340.741177
 42
0.036274
  0
VERTEX
  8
0
 10
593.729359
 20
2336.744903
 42
0.035443
  0
VERTEX
  8
0
 10
593.011548
 20
2333.103907
 42
0.170980
  0
VERTEX
  8
0
 10
593.454777
 20
2331.073173
 42
-0.262695
  0
VERTEX
  8
0
 10
593.478944
 20
2330.466173
 42
-0.029001
  0
VERTEX
  8
0
 10
592.746751
 20
2329.222154
 42
-0.029388
  0
VERTEX
  8
0
 10
591.624516
 20
2327.741992
 42
-0.019483
  0
VERTEX
  8
0
 10
590.176403
 20
2326.176403
 42
-0.010891
  0
VERTEX
  8
0
 10
587.784846
 20
2323.886819
 42
-0.088605
  0
VERTEX
  8
0
 10
586.510378
 20
2323.078726
 42
-0.163277
  0
VERTEX
  8
0
 10
585.378553
 20
2323.005459
 42
-0.061841
  0
VERTEX
  8
0
 10
583.889929
 20
2323.604493
 42
0.118344
  0
VERTEX
  8
0
 10
579.468941
 20
2324.830486
 42
0.093122
  0
VERTEX
  8
0
 10
574.540058
 20
2324.081598
 42
0.095103
  0
VERTEX
  8
0
 10
570.305399
 20
2321.622406
 42
0.130636
  0
VERTEX
  8
0
 10
567.847707
 20
2317.992978
 42
-0.023107
  0
VERTEX
  8
0
 10
567.223140
 20
2316.436650
 42
-0.135869
  0
VERTEX
  8
0
 10
566.663029
 20
2315.768854
 42
-0.210449
  0
VERTEX
  8
0
 10
565.975482
 20
2315.638092
 42
-0.066220
  0
VERTEX
  8
0
 10
564.972961
 20
2316.014471
 42
0.059973
  0
VERTEX
  8
0
 10
563.998654
 20
2316.394158
 42
0.020676
  0
VERTEX
  8
0
 10
562.517720
 20
2316.710501
 42
0.020203
  0
VERTEX
  8
0
 10
560.840646
 20
2316.927543
 42
0.022079
  0
VERTEX
  8
0
 10
559.200600
 20
2317.000000
 42
0.074123
  0
VERTEX
  8
0
 10
555.831916
 20
2316.497850
 42
0.082103
  0
VERTEX
  8
0
 10
552.884121
 20
2315.038148
 42
0.080927
  0
VERTEX
  8
0
 10
550.530951
 20
2312.686251
 42
0.069409
  0
VERTEX
  8
0
 10
548.895001
 20
2309.586176
 42
-0.025958
  0
VERTEX
  8
0
 10
548.069413
 20
2307.627359
 42
-0.148810
  0
VERTEX
  8
0
 10
547.312984
 20
2306.809236
 42
-0.143160
  0
VERTEX
  8
0
 10
546.213574
 20
2306.534685
 42
-0.023421
  0
VERTEX
  8
0
 10
544.003969
 20
2306.726293
 42
0.107912
  0
VERTEX
  8
0
 10
539.206293
 20
2306.333640
 42
0.104906
  0
VERTEX
  8
0
 10
534.953664
 20
2303.978846
 42
0.105304
  0
VERTEX
  8
0
 10
532.034977
 20
2300.109191
 42
0.109530
  0
VERTEX
  8
0
 10
531.000000
 20
2295.441252
 42
-0.028534
  0
VERTEX
  8
0
 10
530.915880
 20
2293.968451
 42
-0.195528
  0
VERTEX
  8
0
 10
530.574475
 20
2293.343943
 42
-0.204020
  0
VERTEX
  8
0
 10
529.903945
 20
2293.149817
 42
-0.031309
  0
VERTEX
  8
0
 10
528.508421
 20
2293.408530
 42
0.063451
  0
VERTEX
  8
0
 10
527.320929
 20
2293.550720
 42
0.030698
  0
VERTEX
  8
0
 10
525.791582
 20
2293.445123
 42
0.029844
  0
VERTEX
  8
0
 10
524.188764
 20
2293.136896
 42
0.037688
  0
VERTEX
  8
0
 10
522.758421
 20
2292.654955
 42
0.052084
  0
VERTEX
  8
0
 10
519.507373
 20
2290.860242
 42
0.085219
  0
VERTEX
  8
0
 10
517.272608
 20
2288.656046
 42
0.090003
  0
VERTEX
  8
0
 10
515.977997
 20
2285.925519
 42
0.064480
  0
VERTEX
  8
0
 10
515.524149
 20
2282.569829
 42
-0.014257
  0
VERTEX
  8
0
 10
515.434970
 20
2279.960418
 42
-0.133953
  0
VERTEX
  8
0
 10
515.075665
 20
2278.907982
 42
-0.200397
  0
VERTEX
  8
0
 10
514.291974
 20
2278.394617
 42
-0.038745
  0
VERTEX
  8
0
 10
512.571258
 20
2278.209933
 42
0.113420
  0
VERTEX
  8
0
 10
508.297259
 20
2277.094244
 42
0.106921
  0
VERTEX
  8
0
 10
504.832179
 20
2274.209550
 42
0.102165
  0
VERTEX
  8
0
 10
502.760477
 20
2270.026940
 42
0.094900
  0
VERTEX
  8
0
 10
502.439784
 20
2265.250000
 42
-0.011920
  0
VERTEX
  8
0
 10
502.684214
 20
2262.773011
 42
-0.106927
  0
VERTEX
  8
0
 10
502.534328
 20
2261.697895
 42
-0.230439
  0
VERTEX
  8
0
 10
501.991446
 20
2261.175404
 42
-0.078483
  0
VERTEX
  8
0
 10
500.880870
 20
2261.000000
 42
0.108083
  0
VERTEX
  8
0
 10
499.853378
 20
2260.775265
 42
0.031155
  0
VERTEX
  8
0
 10
498.412505
 20
2260.001250
 42
0.029770
  0
VERTEX
  8
0
 10
496.854528
 20
2258.901268
 42
0.027785
  0
VERTEX
  8
0
 10
495.400000
 20
2257.600000
 42
0.025644
  0
VERTEX
  8
0
 10
493.650821
 20
2255.661569
 42
0.065216
  0
VERTEX
  8
0
 10
492.658091
 20
2254.051786
 42
0.070901
  0
VERTEX
  8
0
 10
492.159601
 20
2252.323348
 42
0.034819
  0
VERTEX
  8
0
 10
492.000000
 20
2250.034259
 42
0.021901
  0
VERTEX
  8
0
 10
492.076111
 20
2248.297492
 42
0.020130
  0
VERTEX
  8
0
 10
492.304085
 20
2246.524015
 42
0.020595
  0
VERTEX
  8
0
 10
492.636322
 20
2244.959775
 42
0.060305
  0
VERTEX
  8
0
 10
493.035184
 20
2243.934259
 42
-0.025237
  0
VERTEX
  8
0
 10
493.511321
 20
2242.925326
 42
-0.174555
  0
VERTEX
  8
0
 10
493.535457
 20
2242.387458
 42
-0.266221
  0
VERTEX
  8
0
 10
493.215798
 20
2242.089879
 42
-0.057380
  0
VERTEX
  8
0
 10
492.435184
 20
2242.000000
 42
0.122998
  0
VERTEX
  8
0
 10
491.590762
 20
2241.789085
 42
0.026103
  0
VERTEX
  8
0
 10
490.281585
 20
2241.001250
 42
0.025837
  0
VERTEX
  8
0
 10
488.821650
 20
2239.901543
 42
0.022042
  0
VERTEX
  8
0
 10
487.400000
 20
2238.600000
 42
0.071124
  0
VERTEX
  8
0
 10
485.133967
 20
2235.577917
 42
0.089769
  0
VERTEX
  8
0
 10
484.028831
 20
2232.268802
 42
0.088469
  0
VERTEX
  8
0
 10
484.145946
 20
2228.744313
 42
0.066988
  0
VERTEX
  8
0
 10
485.451672
 20
2225.093456
 42
-0.019821
  0
VERTEX
  8
0
 10
486.266159
 20
2223.352602
 42
-0.164687
  0
VERTEX
  8
0
 10
486.327576
 20
2222.495464
 42
-0.182636
  0
VERTEX
  8
0
 10
485.851805
 20
2221.823651
 42
-0.025482
  0
VERTEX
  8
0
 10
484.366359
 20
2220.928477
 42
0.136081
  0
VERTEX
  8
0
 10
481.033096
 20
2217.748316
 42
0.100727
  0
VERTEX
  8
0
 10
479.337373
 20
2212.918083
 42
0.098753
  0
VERTEX
  8
0
 10
479.649465
 20
2207.724753
 42
0.124969
  0
VERTEX
  8
0
 10
481.970645
 20
2203.531247
 42
0.000000
  0
VERTEX
  8
0
 10
484.105234
 20
2201.259081
 42
0.000000
  0
VERTEX
  8
0
 10
481.052617
 20
2198.206463
 42
0.031177
  0
VERTEX
  8
0
 10
479.471067
 20
2196.414349
 42
0.071014
  0
VERTEX
  8
0
 10
478.577967
 20
2194.850678
 42
0.067882
  0
VERTEX
  8
0
 10
478.135614
 20
2193.055460
 42
0.026516
  0
VERTEX
  8
0
 10
478.000000
 20
2190.500000
 42
0.025921
  0
VERTEX
  8
0
 10
478.129879
 20
2187.996398
 42
0.064048
  0
VERTEX
  8
0
 10
478.551071
 20
2186.210266
 42
0.070189
  0
VERTEX
  8
0
 10
479.382585
 20
2184.686929
 42
0.036416
  0
VERTEX
  8
0
 10
480.802280
 20
2183.043874
 42
0.000000
  0
VERTEX
  8
0
 10
483.604561
 20
2180.241593
 42
0.000000
  0
VERTEX
  8
0
 10
481.302280
 20
2177.565033
 42
0.045559
  0
VERTEX
  8
0
 10
480.374453
 20
2176.263491
 42
0.038789
  0
VERTEX
  8
0
 10
479.639549
 20
2174.744901
 42
0.039553
  0
VERTEX
  8
0
 10
479.161962
 20
2173.168167
 42
0.054107
  0
VERTEX
  8
0
 10
479.003738
 20
2171.694236
 42
0.081649
  0
VERTEX
  8
0
 10
479.510862
 20
2168.631826
 42
0.049753
  0
VERTEX
  8
0
 10
481.031221
 20
2165.285609
 42
0.050617
  0
VERTEX
  8
0
 10
483.048377
 20
2162.501740
 42
0.147770
  0
VERTEX
  8
0
 10
485.050222
 20
2161.276616
 42
-0.049035
  0
VERTEX
  8
0
 10
486.405636
 20
2160.776054
 42
-0.259140
  0
VERTEX
  8
0
 10
486.844326
 20
2160.150933
 42
-0.143525
  0
VERTEX
  8
0
 10
486.666249
 20
2159.174082
 42
-0.013474
  0
VERTEX
  8
0
 10
485.500000
 20
2157.000000
 42
0.112895
  0
VERTEX
  8
0
 10
484.167114
 20
2152.605314
 42
0.099280
  0
VERTEX
  8
0
 10
484.781312
 20
2147.843321
 42
0.099557
  0
VERTEX
  8
0
 10
487.180992
 20
2143.696939
 42
0.114242
  0
VERTEX
  8
0
 10
490.897922
 20
2141.042282
 42
-0.019456
  0
VERTEX
  8
0
 10
492.487081
 20
2140.310370
 42
-0.116723
  0
VERTEX
  8
0
 10
493.176905
 20
2139.725905
 42
-0.235638
  0
VERTEX
  8
0
 10
493.284200
 20
2139.110688
 42
-0.100980
  0
VERTEX
  8
0
 10
492.879828
 20
2138.355202
 42
0.140113
  0
VERTEX
  8
0
 10
491.936415
 20
2136.209943
 42
0.046213
  0
VERTEX
  8
0
 10
491.785053
 20
2132.735543
 42
0.046197
  0
VERTEX
  8
0
 10
492.299061
 20
2129.118206
 42
0.086858
  0
VERTEX
  8
0
 10
493.463211
 20
2126.415804
 42
0.055288
  0
VERTEX
  8
0
 10
494.397919
 20
2125.284447
 42
0.027901
  0
VERTEX
  8
0
 10
495.798001
 20
2124.071164
 42
0.027319
  0
VERTEX
  8
0
 10
497.401335
 20
2122.965699
 42
0.036364
  0
VERTEX
  8
0
 10
498.973734
 20
2122.154452
 42
-0.020426
  0
VERTEX
  8
0
 10
501.209113
 20
2121.089872
 42
-0.131518
  0
VERTEX
  8
0
 10
502.119099
 20
2120.247484
 42
-0.147252
  0
VERTEX
  8
0
 10
502.434052
 20
2119.109544
 42
-0.027743
  0
VERTEX
  8
0
 10
502.264320
 20
2116.933986
 42
0.109334
  0
VERTEX
  8
0
 10
502.664639
 20
2112.206130
 42
0.102778
  0
VERTEX
  8
0
 10
505.018831
 20
2107.968713
 42
0.103422
  0
VERTEX
  8
0
 10
508.851101
 20
2105.038816
 42
0.112123
  0
VERTEX
  8
0
 10
513.425340
 20
2104.000000
 42
-0.035317
  0
VERTEX
  8
0
 10
514.829319
 20
2103.900709
 42
-0.211996
  0
VERTEX
  8
0
 10
515.435471
 20
2103.521514
 42
-0.176272
  0
VERTEX
  8
0
 10
515.623951
 20
2102.767713
 42
-0.023367
  0
VERTEX
  8
0
 10
515.373152
 20
2101.115758
 42
0.131162
  0
VERTEX
  8
0
 10
515.660287
 20
2096.595682
 42
0.098344
  0
VERTEX
  8
0
 10
518.150397
 20
2092.249949
 42
0.096102
  0
VERTEX
  8
0
 10
522.174729
 20
2089.108597
 42
0.118342
  0
VERTEX
  8
0
 10
526.793001
 20
2088.000000
 42
-0.039789
  0
VERTEX
  8
0
 10
528.438607
 20
2087.868839
 42
-0.147425
  0
VERTEX
  8
0
 10
529.365067
 20
2087.419233
 42
-0.131739
  0
VERTEX
  8
0
 10
529.947241
 20
2086.499405
 42
-0.029222
  0
VERTEX
  8
0
 10
530.401162
 20
2084.675161
 42
0.125765
  0
VERTEX
  8
0
 10
532.456130
 20
2080.260550
 42
0.092767
  0
VERTEX
  8
0
 10
536.596948
 20
2076.773403
 42
0.097151
  0
VERTEX
  8
0
 10
541.534868
 20
2075.130368
 42
0.155976
  0
VERTEX
  8
0
 10
545.862847
 20
2075.926598
 42
-0.020732
  0
VERTEX
  8
0
 10
547.080036
 20
2076.514474
 42
-0.208774
  0
VERTEX
  8
0
 10
547.630880
 20
2076.512736
 42
-0.262944
  0
VERTEX
  8
0
 10
547.927874
 20
2076.115301
 42
-0.031888
  0
VERTEX
  8
0
 10
548.000000
 20
2074.985524
 42
0.081823
  0
VERTEX
  8
0
 10
548.403037
 20
2072.539153
 42
0.052683
  0
VERTEX
  8
0
 10
549.608653
 20
2069.923030
 42
0.052755
  0
VERTEX
  8
0
 10
551.331257
 20
2067.621491
 42
0.083059
  0
VERTEX
  8
0
 10
553.281065
 20
2066.117170
 42
0.052914
  0
VERTEX
  8
0
 10
555.542384
 20
2065.199077
 42
0.052652
  0
VERTEX
  8
0
 10
557.949833
 20
2064.774085
 42
0.046687
  0
VERTEX
  8
0
 10
560.638224
 20
2064.838030
 42
0.028951
  0
VERTEX
  8
0
 10
563.750000
 20
2065.388134
 42
-0.016965
  0
VERTEX
  8
0
 10
565.484527
 20
2065.737813
 42
-0.108179
  0
VERTEX
  8
0
 10
566.375807
 20
2065.692752
 42
-0.227037
  0
VERTEX
  8
0
 10
566.834132
 20
2065.296781
 42
-0.103304
  0
VERTEX
  8
0
 10
567.000000
 20
2064.502532
 42
0.112903
  0
VERTEX
  8
0
 10
567.189730
 20
2063.673008
 42
0.029609
  0
VERTEX
  8
0
 10
567.858654
 20
2062.474061
 42
0.028522
  0
VERTEX
  8
0
 10
568.804271
 20
2061.163782
 42
0.025814
  0
VERTEX
  8
0
 10
569.923077
 20
2059.923077
 42
0.033588
  0
VERTEX
  8
0
 10
571.607325
 20
2058.451088
 42
0.067765
  0
VERTEX
  8
0
 10
573.138011
 20
2057.583244
 42
0.065556
  0
VERTEX
  8
0
 10
574.878394
 20
2057.139730
 42
0.029659
  0
VERTEX
  8
0
 10
577.231947
 20
2057.000000
 42
0.029651
  0
VERTEX
  8
0
 10
579.053469
 20
2057.108114
 42
0.027370
  0
VERTEX
  8
0
 10
580.899621
 20
2057.431283
 42
0.028426
  0
VERTEX
  8
0
 10
582.511382
 20
2057.903238
 42
0.076616
  0
VERTEX
  8
0
 10
583.558870
 20
2058.468197
 42
-0.023414
  0
VERTEX
  8
0
 10
585.195153
 20
2059.589421
 42
-0.130448
  0
VERTEX
  8
0
 10
586.204586
 20
2059.895593
 42
-0.297386
  0
VERTEX
  8
0
 10
586.780705
 20
2059.547854
 42
-0.112883
  0
VERTEX
  8
0
 10
587.000000
 20
2058.588894
 42
0.134523
  0
VERTEX
  8
0
 10
587.194445
 20
2057.879249
 42
0.030206
  0
VERTEX
  8
0
 10
587.903788
 20
2056.831812
 42
0.029235
  0
VERTEX
  8
0
 10
588.898965
 20
2055.683597
 42
0.024684
  0
VERTEX
  8
0
 10
590.076725
 20
2054.588894
 42
0.085768
  0
VERTEX
  8
0
 10
593.283327
 20
2052.717021
 42
0.081066
  0
VERTEX
  8
0
 10
596.996325
 20
2051.981760
 42
0.080529
  0
VERTEX
  8
0
 10
600.772222
 20
2052.463874
 42
0.082957
  0
VERTEX
  8
0
 10
604.159946
 20
2054.113892
 42
0.000000
  0
VERTEX
  8
0
 10
607.128633
 20
2056.227783
 42
0.000000
  0
VERTEX
  8
0
 10
609.404189
 20
2054.090010
 42
0.099876
  0
VERTEX
  8
0
 10
613.580800
 20
2051.499929
 42
0.103293
  0
VERTEX
  8
0
 10
618.383945
 20
2050.773278
 42
0.108033
  0
VERTEX
  8
0
 10
622.906770
 20
2052.029588
 42
0.118959
  0
VERTEX
  8
0
 10
626.310425
 20
2055.032806
 42
0.000000
  0
VERTEX
  8
0
 10
627.882235
 20
2057.276880
 42
0.000000
  0
VERTEX
  8
0
 10
631.017843
 20
2054.638440
 42
0.036049
  0
VERTEX
  8
0
 10
632.639360
 20
2053.462518
 42
0.046575
  0
VERTEX
  8
0
 10
634.284268
 20
2052.642856
 42
0.048409
  0
VERTEX
  8
0
 10
635.998655
 20
2052.163832
 42
0.044214
  0
VERTEX
  8
0
 10
637.826725
 20
2052.003738
 42
0.071468
  0
VERTEX
  8
0
 10
641.104746
 20
2052.478097
 42
0.055521
  0
VERTEX
  8
0
 10
644.431484
 20
2053.874176
 42
0.058578
  0
VERTEX
  8
0
 10
647.130364
 20
2055.822547
 42
0.131031
  0
VERTEX
  8
0
 10
648.480569
 20
2057.938779
 42
-0.029924
  0
VERTEX
  8
0
 10
648.931868
 20
2059.112196
 42
-0.240518
  0
VERTEX
  8
0
 10
649.370717
 20
2059.461117
 42
-0.187084
  0
VERTEX
  8
0
 10
649.986112
 20
2059.355336
 42
-0.017725
  0
VERTEX
  8
0
 10
651.292362
 20
2058.507775
 42
0.068693
  0
VERTEX
  8
0
 10
652.422976
 20
2057.927987
 42
0.027445
  0
VERTEX
  8
0
 10
654.098560
 20
2057.442909
 42
0.026529
  0
VERTEX
  8
0
 10
655.988611
 20
2057.110928
 42
0.030216
  0
VERTEX
  8
0
 10
657.822506
 20
2057.000000
 42
0.031344
  0
VERTEX
  8
0
 10
660.252098
 20
2057.152456
 42
0.071820
  0
VERTEX
  8
0
 10
662.016476
 20
2057.638350
 42
0.067846
  0
VERTEX
  8
0
 10
663.631408
 20
2058.623166
 42
0.025582
  0
VERTEX
  8
0
 10
665.600000
 20
2060.400000
 42
0.020038
  0
VERTEX
  8
0
 10
666.901669
 20
2061.810400
 42
0.024241
  0
VERTEX
  8
0
 10
668.001250
 20
2063.236635
 42
0.023931
  0
VERTEX
  8
0
 10
668.795660
 20
2064.502440
 42
0.128858
  0
VERTEX
  8
0
 10
669.000000
 20
2065.282162
 42
-0.129627
  0
VERTEX
  8
0
 10
669.183730
 20
2065.978940
 42
-0.254142
  0
VERTEX
  8
0
 10
669.656553
 20
2066.273677
 42
-0.087704
  0
VERTEX
  8
0
 10
670.613627
 20
2066.162844
 42
-0.010219
  0
VERTEX
  8
0
 10
672.673037
 20
2065.501594
 42
0.101825
  0
VERTEX
  8
0
 10
677.382866
 20
2064.894585
 42
0.100175
  0
VERTEX
  8
0
 10
681.979751
 20
2066.188914
 42
0.103708
  0
VERTEX
  8
0
 10
685.591451
 20
2069.114469
 42
0.117307
  0
VERTEX
  8
0
 10
687.527394
 20
2073.124724
 42
-0.034296
  0
VERTEX
  8
0
 10
688.015094
 20
2074.790789
 42
-0.187432
  0
VERTEX
  8
0
 10
688.625404
 20
2075.481191
 42
-0.142416
  0
VERTEX
  8
0
 10
689.642786
 20
2075.680444
 42
-0.017260
  0
VERTEX
  8
0
 10
691.928419
 20
2075.395456
 42
0.102730
  0
VERTEX
  8
0
 10
696.625008
 20
2075.612484
 42
0.098751
  0
VERTEX
  8
0
 10
700.921222
 20
2077.676046
 42
0.104220
  0
VERTEX
  8
0
 10
703.927372
 20
2081.114195
 42
0.128392
  0
VERTEX
  8
0
 10
705.000000
 20
2085.222506
 42
-0.037136
  0
VERTEX
  8
0
 10
705.113819
 20
2086.752873
 42
-0.172583
  0
VERTEX
  8
0
 10
705.524497
 20
2087.522311
 42
-0.156757
  0
VERTEX
  8
0
 10
706.355060
 20
2087.900957
 42
-0.029198
  0
VERTEX
  8
0
 10
708.049660
 20
2088.000000
 42
0.089530
  0
VERTEX
  8
0
 10
712.788607
 20
2088.855411
 42
0.105035
  0
VERTEX
  8
0
 10
716.634460
 20
2091.301376
 42
0.106172
  0
VERTEX
  8
0
 10
719.125676
 20
2095.075143
 42
0.093249
  0
VERTEX
  8
0
 10
720.000000
 20
2099.722506
 42
-0.013926
  0
VERTEX
  8
0
 10
720.070995
 20
2102.271048
 42
-0.123047
  0
VERTEX
  8
0
 10
720.401707
 20
2103.338022
 42
-0.207832
  0
VERTEX
  8
0
 10
721.122785
 20
2103.847966
 42
-0.051473
  0
VERTEX
  8
0
 10
722.595708
 20
2104.000000
 42
0.082442
  0
VERTEX
  8
0
 10
725.243131
 20
2104.439506
 42
0.054220
  0
VERTEX
  8
0
 10
728.047188
 20
2105.750561
 42
0.054028
  0
VERTEX
  8
0
 10
730.516307
 20
2107.641824
 42
0.079619
  0
VERTEX
  8
0
 10
732.166657
 20
2109.811402
 42
0.055605
  0
VERTEX
  8
0
 10
732.663830
 20
2111.055073
 42
0.024260
  0
VERTEX
  8
0
 10
733.053529
 20
2112.792080
 42
0.023646
  0
VERTEX
  8
0
 10
733.292571
 20
2114.695933
 42
0.029084
  0
VERTEX
  8
0
 10
733.327425
 20
2116.485994
 42
-0.022782
  0
VERTEX
  8
0
 10
733.345009
 20
2119.044193
 42
-0.129048
  0
VERTEX
  8
0
 10
733.756148
 20
2120.331652
 42
-0.126501
  0
VERTEX
  8
0
 10
734.750421
 20
2121.264152
 42
-0.021546
  0
VERTEX
  8
0
 10
737.097604
 20
2122.422963
 42
0.090769
  0
VERTEX
  8
0
 10
740.818893
 20
2124.950047
 42
0.104069
  0
VERTEX
  8
0
 10
743.191468
 20
2128.525870
 42
0.101989
  0
VERTEX
  8
0
 10
743.950421
 20
2132.814756
 42
0.083995
  0
VERTEX
  8
0
 10
743.044948
 20
2137.381779
 42
-0.027390
  0
VERTEX
  8
0
 10
742.619114
 20
2138.717796
 42
-0.129581
  0
VERTEX
  8
0
 10
742.622252
 20
2139.514579
 42
-0.184575
  0
VERTEX
  8
0
 10
743.010673
 20
2140.051009
 42
-0.068033
  0
VERTEX
  8
0
 10
743.868880
 20
2140.458384
 42
0.100756
  0
VERTEX
  8
0
 10
746.181519
 20
2141.746416
 42
0.047587
  0
VERTEX
  8
0
 10
748.561905
 20
2144.217560
 42
0.047011
  0
VERTEX
  8
0
 10
750.493641
 20
2147.181274
 42
0.077973
  0
VERTEX
  8
0
 10
751.452994
 20
2150.000000
 42
0.037982
  0
VERTEX
  8
0
 10
751.625058
 20
2151.777646
 42
0.052197
  0
VERTEX
  8
0
 10
751.490853
 20
2153.376625
 42
0.052543
  0
VERTEX
  8
0
 10
751.029691
 20
2154.905128
 42
0.039190
  0
VERTEX
  8
0
 10
750.221644
 20
2156.471164
 42
0.000000
  0
VERTEX
  8
0
 10
748.380769
 20
2159.442327
 42
0.000000
  0
VERTEX
  8
0
 10
752.190384
 20
2163.066327
 42
0.021210
  0
VERTEX
  8
0
 10
754.269864
 20
2165.219674
 42
0.072123
  0
VERTEX
  8
0
 10
755.338847
 20
2166.845823
 42
0.079772
  0
VERTEX
  8
0
 10
755.845445
 20
2168.618667
 42
0.029791
  0
VERTEX
  8
0
 10
756.000000
 20
2171.210305
 42
0.029147
  0
VERTEX
  8
0
 10
755.877772
 20
2173.305312
 42
0.037870
  0
VERTEX
  8
0
 10
755.510500
 20
2175.192041
 42
0.042008
  0
VERTEX
  8
0
 10
754.911333
 20
2176.823698
 42
0.057720
  0
VERTEX
  8
0
 10
754.093535
 20
2178.153960
 42
-0.019157
  0
VERTEX
  8
0
 10
752.939848
 20
2179.742243
 42
-0.173999
  0
VERTEX
  8
0
 10
752.735080
 20
2180.560021
 42
-0.161738
  0
VERTEX
  8
0
 10
753.088438
 20
2181.351510
 42
-0.015983
  0
VERTEX
  8
0
 10
754.562267
 20
2182.863683
 42
0.082208
  0
VERTEX
  8
0
 10
756.533243
 20
2185.508288
 42
0.081786
  0
VERTEX
  8
0
 10
757.551299
 20
2188.651604
 42
0.078963
  0
VERTEX
  8
0
 10
757.525492
 20
2192.051221
 42
0.069581
  0
VERTEX
  8
0
 10
756.462703
 20
2195.437355
 42
0.027117
  0
VERTEX
  8
0
 10
755.669386
 20
2196.898927
 42
0.025987
  0
VERTEX
  8
0
 10
754.712119
 20
2198.287797
 42
0.026921
  0
VERTEX
  8
0
 10
753.739263
 20
2199.421341
 42
0.079243
  0
VERTEX
  8
0
 10
752.923365
 20
2200.041014
 42
-0.046354
  0
VERTEX
  8
0
 10
751.939975
 20
2200.690992
 42
-0.269527
  0
VERTEX
  8
0
 10
751.725344
 20
2201.248369
 42
-0.137339
  0
VERTEX
  8
0
 10
752.059014
 20
2201.972211
 42
-0.010625
  0
VERTEX
  8
0
 10
753.491614
 20
2203.585452
 42
0.034932
  0
VERTEX
  8
0
 10
754.449905
 20
2204.776385
 42
0.024862
  0
VERTEX
  8
0
 10
755.357218
 20
2206.229945
 42
0.025230
  0
VERTEX
  8
0
 10
756.087025
 20
2207.710921
 42
0.047838
  0
VERTEX
  8
0
 10
756.494602
 20
2208.975424
 42
0.098156
  0
VERTEX
  8
0
 10
756.558243
 20
2212.076529
 42
0.063437
  0
VERTEX
  8
0
 10
755.487181
 20
2215.516190
 42
0.062491
  0
VERTEX
  8
0
 10
753.559752
 20
2218.636101
 42
0.086767
  0
VERTEX
  8
0
 10
751.093377
 20
2220.797020
 42
-0.014322
  0
VERTEX
  8
0
 10
749.358301
 20
2221.921485
 42
-0.139397
  0
VERTEX
  8
0
 10
748.806681
 20
2222.589677
 42
-0.251419
  0
VERTEX
  8
0
 10
748.859367
 20
2223.250872
 42
-0.053364
  0
VERTEX
  8
0
 10
749.609905
 20
2224.181333
 42
0.078260
  0
VERTEX
  8
0
 10
750.236428
 20
2225.042078
 42
0.029265
  0
VERTEX
  8
0
 10
750.839774
 20
2226.413408
 42
0.028132
  0
VERTEX
  8
0
 10
751.333435
 20
2228.010857
 42
0.030430
  0
VERTEX
  8
0
 10
751.629225
 20
2229.612417
 42
0.085123
  0
VERTEX
  8
0
 10
751.456914
 20
2233.195982
 42
0.075484
  0
VERTEX
  8
0
 10
750.110312
 20
2236.682656
 42
0.077107
  0
VERTEX
  8
0
 10
747.825234
 20
2239.548292
 42
0.095994
  0
VERTEX
  8
0
 10
744.930547
 20
2241.332317
 42
-0.030358
  0
VERTEX
  8
0
 10
743.589446
 20
2241.933825
 42
-0.093530
  0
VERTEX
  8
0
 10
742.812806
 20
2242.547651
 42
-0.151391
  0
VERTEX
  8
0
 10
742.517321
 20
2243.218415
 42
-0.133311
  0
VERTEX
  8
0
 10
742.632416
 20
2243.976774
 42
0.056353
  0
VERTEX
  8
0
 10
743.468745
 20
2246.651093
 42
0.048937
  0
VERTEX
  8
0
 10
743.740760
 20
2249.576836
 42
0.050124
  0
VERTEX
  8
0
 10
743.440286
 20
2252.420998
 42
0.068062
  0
VERTEX
  8
0
 10
742.577059
 20
2254.850985
 42
0.073967
  0
VERTEX
  8
0
 10
741.010753
 20
2257.022322
 42
0.046840
  0
VERTEX
  8
0
 10
738.628342
 20
2259.047821
 42
0.047650
  0
VERTEX
  8
0
 10
736.021786
 20
2260.525605
 42
0.105788
  0
VERTEX
  8
0
 10
733.799660
 20
2260.998637
 42
-0.257191
  0
VERTEX
  8
0
 10
733.219362
 20
2261.317482
 42
-0.096766
  0
VERTEX
  8
0
 10
732.870882
 20
2262.210713
 42
-0.047823
  0
VERTEX
  8
0
 10
732.738505
 20
2263.792975
 42
-0.012553
  0
VERTEX
  8
0
 10
732.833263
 20
2266.338451
 42
0.017638
  0
VERTEX
  8
0
 10
732.918904
 20
2269.504673
 42
0.078358
  0
VERTEX
  8
0
 10
732.614800
 20
2271.335182
 42
0.089434
  0
VERTEX
  8
0
 10
731.781549
 20
2272.862551
 42
0.026903
  0
VERTEX
  8
0
 10
730.006339
 20
2274.839814
 42
0.029947
  0
VERTEX
  8
0
 10
728.358646
 20
2276.301131
 42
0.052518
  0
VERTEX
  8
0
 10
726.816896
 20
2277.269248
 42
0.059731
  0
VERTEX
  8
0
 10
725.256300
 20
2277.815057
 42
0.054335
  0
VERTEX
  8
0
 10
723.559441
 20
2278.000000
 42
-0.026696
  0
VERTEX
  8
0
 10
721.558126
 20
2278.106929
 42
-0.195485
  0
VERTEX
  8
0
 10
720.729834
 20
2278.551776
 42
-0.158212
  0
VERTEX
  8
0
 10
720.351830
 20
2279.503661
 42
-0.016049
  0
VERTEX
  8
0
 10
720.272727
 20
2281.967410
 42
0.084974
  0
VERTEX
  8
0
 10
719.454474
 20
2286.747391
 42
0.119900
  0
VERTEX
  8
0
 10
717.103963
 20
2290.352776
 42
0.116283
  0
VERTEX
  8
0
 10
713.297145
 20
2292.546945
 42
0.076765
  0
VERTEX
  8
0
 10
708.272917
 20
2293.245307
 42
-0.018727
  0
VERTEX
  8
0
 10
706.588846
 20
2293.282926
 42
-0.045135
  0
VERTEX
  8
0
 10
705.357476
 20
2293.469021
 42
-0.086261
  0
VERTEX
  8
0
 10
704.674340
 20
2293.767802
 42
-0.405215
  0
VERTEX
  8
0
 10
704.590939
 20
2294.147143
 42
0.168750
  0
VERTEX
  8
0
 10
704.930030
 20
2295.669061
 42
0.057770
  0
VERTEX
  8
0
 10
704.406261
 20
2297.900613
 42
0.049367
  0
VERTEX
  8
0
 10
703.202486
 20
2300.427350
 42
0.039083
  0
VERTEX
  8
0
 10
701.440011
 20
2302.888924
 42
0.079798
  0
VERTEX
  8
0
 10
698.902871
 20
2305.078644
 42
0.072124
  0
VERTEX
  8
0
 10
695.720032
 20
2306.457363
 42
0.074772
  0
VERTEX
  8
0
 10
692.390102
 20
2306.843714
 42
0.098761
  0
VERTEX
  8
0
 10
689.423474
 20
2306.147086
 42
-0.021728
  0
VERTEX
  8
0
 10
687.958185
 20
2305.554893
 42
-0.249698
  0
VERTEX
  8
0
 10
687.363666
 20
2305.643993
 42
-0.219602
  0
VERTEX
  8
0
 10
687.059277
 20
2306.200770
 42
-0.016992
  0
VERTEX
  8
0
 10
687.000000
 20
2307.944516
 42
0.067424
  0
VERTEX
  8
0
 10
686.803341
 20
2309.396275
 42
0.051551
  0
VERTEX
  8
0
 10
686.219796
 20
2310.890600
 42
0.045451
  0
VERTEX
  8
0
 10
685.256245
 20
2312.406700
 42
0.032114
  0
VERTEX
  8
0
 10
683.923077
 20
2313.923077
 42
0.030844
  0
VERTEX
  8
0
 10
682.093515
 20
2315.539837
 42
0.073230
  0
VERTEX
  8
0
 10
680.517241
 20
2316.433708
 42
0.068340
  0
VERTEX
  8
0
 10
678.683510
 20
2316.869248
 42
0.024187
  0
VERTEX
  8
0
 10
675.982094
 20
2317.000000
 42
0.019127
  0
VERTEX
  8
0
 10
674.074114
 20
2316.926985
 42
0.025988
  0
VERTEX
  8
0
 10
672.365304
 20
2316.706250
 42
0.024844
  0
VERTEX
  8
0
 10
671.014321
 20
2316.389775
 42
0.186477
  0
VERTEX
  8
0
 10
670.500000
 20
2316.000000
 42
-0.106622
  0
VERTEX
  8
0
 10
669.720416
 20
2315.189595
 42
-0.223707
  0
VERTEX
  8
0
 10
668.875915
 20
2315.060085
 42
-0.217589
  0
VERTEX
  8
0
 10
668.220861
 20
2315.630562
 42
-0.102262
  0
VERTEX
  8
0
 10
667.968197
 20
2316.750000
 42
0.149895
  0
VERTEX
  8
0
 10
667.060538
 20
2319.528473
 42
0.072405
  0
VERTEX
  8
0
 10
664.462823
 20
2322.273241
 42
0.068856
  0
VERTEX
  8
0
 10
661.001592
 20
2324.305259
 42
0.099175
  0
VERTEX
  8
0
 10
657.527494
 20
2324.993839
 42
0.040316
  0
VERTEX
  8
0
 10
656.152651
 20
2324.879987
 42
0.022718
  0
VERTEX
  8
0
 10
654.513953
 20
2324.533042
 42
0.022552
  0
VERTEX
  8
0
 10
652.881653
 20
2324.029608
 42
0.034109
  0
VERTEX
  8
0
 10
651.520006
 20
2323.433820
 42
-0.015640
  0
VERTEX
  8
0
 10
649.951930
 20
2322.677579
 42
-0.086920
  0
VERTEX
  8
0
 10
649.048310
 20
2322.451956
 42
-0.194321
  0
VERTEX
  8
0
 10
648.482820
 20
2322.634706
 42
-0.139325
  0
VERTEX
  8
0
 10
648.104976
 20
2323.189981
 42
0.076047
  0
VERTEX
  8
0
 10
647.762260
 20
2323.860627
 42
0.016469
  0
VERTEX
  8
0
 10
646.964959
 20
2324.893975
 42
0.016816
  0
VERTEX
  8
0
 10
645.952160
 20
2326.040082
 42
0.015382
  0
VERTEX
  8
0
 10
644.834969
 20
2327.151210
 42
-0.036832
  0
VERTEX
  8
0
 10
643.467515
 20
2328.633125
 42
-0.064466
  0
VERTEX
  8
0
 10
642.606311
 20
2330.060544
 42
-0.064740
  0
VERTEX
  8
0
 10
642.139227
 20
2331.655930
 42
-0.037469
  0
VERTEX
  8
0
 10
641.978038
 20
2333.651210
 42
0.139982
  0
VERTEX
  8
0
 10
639.248127
 20
2343.008508
 42
0.107833
  0
VERTEX
  8
0
 10
631.757765
 20
2350.627948
 42
0.102854
  0
VERTEX
  8
0
 10
621.436975
 20
2354.679969
 42
0.116097
  0
SEQEND
  0
POLYLINE
  8
0
 66
1
 70
1
  0
VERTEX
  8
0
 10
625.869827
 20
2339.456080
 42
-0.023058
  0
VERTEX
  8
0
 10
627.069595
 20
2338.348169
 42
-0.022368
  0
VERTEX
  8
0
 10
628.175073
 20
2337.123637
 42
-0.022938
  0
VERTEX
  8
0
 10
629.047726
 20
2335.960701
 42
-0.072765
  0
VERTEX
  8
0
 10
629.472019
 20
2335.088162
 42
-0.118369
  0
VERTEX
  8
0
 10
629.637162
 20
2332.788518
 42
-0.078476
  0
VERTEX
  8
0
 10
628.799518
 20
2330.265773
 42
-0.070820
  0
VERTEX
  8
0
 10
627.104838
 20
2327.885023
 42
-0.065908
  0
VERTEX
  8
0
 10
624.774926
 20
2326.004198
 42
-0.128475
  0
VERTEX
  8
0
 10
618.228036
 20
2324.036454
 42
-0.127769
  0
VERTEX
  8
0
 10
611.540277
 20
2325.516096
 42
-0.149513
  0
VERTEX
  8
0
 10
607.112350
 20
2329.798802
 42
-0.190025
  0
VERTEX
  8
0
 10
606.383183
 20
2335.390587
 42
-0.182441
  0
VERTEX
  8
0
 10
609.105604
 20
2339.312304
 42
-0.099675
  0
VERTEX
  8
0
 10
614.562340
 20
2341.647558
 42
-0.093052
  0
VERTEX
  8
0
 10
620.848654
 20
2341.773997
 42
-0.134311
  0
SEQEND
  0
POLYLINE
  8
0
 66
1
 70
1
  0
VERTEX
  8
0
 10
643.000000
 20
2306.098728
 42
-0.055524
  0
VERTEX
  8
0
 10
667.455104
 20
2297.654702
 42
-0.053459
  0
VERTEX
  8
0
 10
689.791761
 20
2283.953254
 42
-0.053763
  0
VERTEX
  8
0
 10
708.603053
 20
2265.913781
 42
-0.057527
  0
VERTEX
  8
0
 10
722.649295
 20
2244.660135
 42
-0.024395
  0
VERTEX
  8
0
 10
726.201110
 20
2236.712664
 42
-0.015080
  0
VERTEX
  8
0
 10
729.627211
 20
2227.068449
 42
-0.015127
  0
VERTEX
  8
0
 10
732.431661
 20
2217.349827
 42
-0.027070
  0
VERTEX
  8
0
 10
734.054472
 20
2209.200125
 42
-0.030654
  0
VERTEX
  8
0
 10
734.940907
 20
2198.299219
 42
-0.017388
  0
VERTEX
  8
0
 10
734.743253
 20
2185.054878
 42
-0.017403
  0
VERTEX
  8
0
 10
733.639182
 20
2172.019768
 42
-0.034467
  0
VERTEX
  8
0
 10
731.698495
 20
2161.830461
 42
-0.072692
  0
VERTEX
  8
0
 10
718.381227
 20
2130.528319
 42
-0.071080
  0
VERTEX
  8
0
 10
696.581270
 20
2104.076998
 42
-0.071604
  0
VERTEX
  8
0
 10
668.408647
 20
2084.942792
 42
-0.075640
  0
VERTEX
  8
0
 10
636.500000
 20
2074.979300
 42
-0.026008
  0
VERTEX
  8
0
 10
627.410873
 20
2074.070459
 42
-0.014723
  0
VERTEX
  8
0
 10
616.343174
 20
2073.868863
 42
-0.014734
  0
VERTEX
  8
0
 10
605.400994
 20
2074.314408
 42
-0.028777
  0
VERTEX
  8
0
 10
596.745196
 20
2075.425783
 42
-0.088920
  0
VERTEX
  8
0
 10
557.303198
 20
2090.389465
 42
-0.089887
  0
VERTEX
  8
0
 10
525.685290
 20
2118.079968
 42
-0.090236
  0
VERTEX
  8
0
 10
505.883762
 20
2155.004048
 42
-0.090485
  0
VERTEX
  8
0
 10
500.383410
 20
2196.500000
 42
-0.044358
  0
VERTEX
  8
0
 10
503.392071
 20
2218.266463
 42
-0.048068
  0
VERTEX
  8
0
 10
510.162356
 20
2238.555387
 42
-0.047980
  0
VERTEX
  8
0
 10
520.695723
 20
2257.209977
 42
-0.043900
  0
VERTEX
  8
0
 10
534.875189
 20
2274.124811
 42
-0.037158
  0
VERTEX
  8
0
 10
549.165762
 20
2286.435738
 42
-0.040698
  0
VERTEX
  8
0
 10
564.710525
 20
2296.084006
 42
-0.040660
  0
VERTEX
  8
0
 10
581.626093
 20
2303.093808
 42
-0.036960
  0
VERTEX
  8
0
 10
600.000000
 20
2307.545365
 42
-0.032714
  0
VERTEX
  8
0
 10
609.428526
 20
2308.476186
 42
-0.016659
  0
VERTEX
  8
0
 10
621.341529
 20
2308.472435
 42
-0.016654
  0
VERTEX
  8
0
 10
633.322706
 20
2307.669270
 42
-0.030333
  0
SEQEND
  0
POLYLINE
  8
0
 66
1
 70
1
  0
VERTEX
  8
0
 10
251.993526
 20
2029.065659
 42
0.057026
  0
VERTEX
  8
0
 10
245.109248
 20
2026.079915
 42
0.064637
  0
VERTEX
  8
0
 10
239.392766
 20
2021.713962
 42
0.067406
  0
VERTEX
  8
0
 10
235.167300
 20
2016.211245
 42
0.071343
  0
VERTEX
  8
0
 10
232.656840
 20
2009.885436
 42
-0.078500
  0
VERTEX
  8
0
 10
232.043867
 20
2008.402778
 42
-0.158527
  0
VERTEX
  8
0
 10
231.093661
 20
2007.589922
 42
-0.072645
  0
VERTEX
  8
0
 10
229.336441
 20
2007.144636
 42
-0.007929
  0
VERTEX
  8
0
 10
225.170825
 20
2006.780110
 42
0.021485
  0
VERTEX
  8
0
 10
221.896470
 20
2006.403908
 42
0.020866
  0
VERTEX
  8
0
 10
218.633981
 20
2005.745687
 42
0.021353
  0
VERTEX
  8
0
 10
215.519068
 20
2004.838140
 42
0.025788
  0
VERTEX
  8
0
 10
212.687820
 20
2003.714617
 42
0.056848
  0
VERTEX
  8
0
 10
205.836596
 20
1999.580669
 42
0.042407
  0
VERTEX
  8
0
 10
199.321338
 20
1993.616774
 42
0.043546
  0
VERTEX
  8
0
 10
194.162412
 20
1986.938626
 42
0.081381
  0
VERTEX
  8
0
 10
191.457251
 20
1980.685697
 42
-0.060011
  0
VERTEX
  8
0
 10
190.852404
 20
1979.106544
 42
-0.205455
  0
VERTEX
  8
0
 10
190.015975
 20
1978.430343
 42
-0.086069
  0
VERTEX
  8
0
 10
188.483416
 20
1978.272114
 42
-0.005960
  0
VERTEX
  8
0
 10
184.138046
 20
1978.623787
 42
0.040067
  0
VERTEX
  8
0
 10
178.425619
 20
1978.695671
 42
0.032884
  0
VERTEX
  8
0
 10
172.375592
 20
1977.884687
 42
0.032423
  0
VERTEX
  8
0
 10
166.388506
 20
1976.267487
 42
0.035791
  0
VERTEX
  8
0
 10
160.862743
 20
1973.929977
 42
0.054446
  0
VERTEX
  8
0
 10
156.081757
 20
1970.794012
 42
0.034623
  0
VERTEX
  8
0
 10
151.245440
 20
1966.210824
 42
0.033777
  0
VERTEX
  8
0
 10
146.926816
 20
1960.821127
 42
0.041423
  0
VERTEX
  8
0
 10
143.693133
 20
1955.240752
 42
0.017307
  0
VERTEX
  8
0
 10
141.890613
 20
1951.068206
 42
0.046045
  0
VERTEX
  8
0
 10
140.991085
 20
1947.953425
 42
0.037467
  0
VERTEX
  8
0
 10
140.581150
 20
1944.380037
 42
0.008470
  0
VERTEX
  8
0
 10
140.444316
 20
1938.267287
 42
0.000000
  0
VERTEX
  8
0
 10
140.388633
 20
1928.034574
 42
0.000000
  0
VERTEX
  8
0
 10
134.260293
 20
1924.972206
 42
0.050851
  0
VERTEX
  8
0
 10
128.364581
 20
1921.234473
 42
0.038372
  0
VERTEX
  8
0
 10
122.714601
 20
1916.040727
 42
0.038824
  0
VERTEX
  8
0
 10
118.009353
 20
1910.139713
 42
0.057695
  0
VERTEX
  8
0
 10
114.959173
 20
1904.284580
 42
0.061918
  0
VERTEX
  8
0
 10
112.494922
 20
1894.272011
 42
0.060338
  0
VERTEX
  8
0
 10
112.524973
 20
1883.870352
 42
0.061666
  0
VERTEX
  8
0
 10
115.012516
 20
1873.988114
 42
0.070679
  0
VERTEX
  8
0
 10
119.770402
 20
1865.500000
 42
0.000000
  0
VERTEX
  8
0
 10
123.587384
 20
1860.500000
 42
0.000000
  0
VERTEX
  8
0
 10
119.798082
 20
1855.500000
 42
0.043380
  0
VERTEX
  8
0
 10
116.102227
 20
1849.628615
 42
0.048661
  0
VERTEX
  8
0
 10
113.639550
 20
1843.424281
 42
0.046919
  0
VERTEX
  8
0
 10
112.362097
 20
1836.666928
 42
0.035881
  0
VERTEX
  8
0
 10
112.201511
 20
1829.142827
 42
0.013020
  0
VERTEX
  8
0
 10
112.559675
 20
1824.465884
 42
0.031077
  0
VERTEX
  8
0
 10
113.130186
 20
1821.031324
 42
0.035416
  0
VERTEX
  8
0
 10
114.068336
 20
1817.971932
 42
0.022319
  0
VERTEX
  8
0
 10
115.568706
 20
1814.547782
 42
0.043878
  0
VERTEX
  8
0
 10
119.127520
 20
1808.681594
 42
0.038967
  0
VERTEX
  8
0
 10
123.786467
 20
1803.271121
 42
0.039469
  0
VERTEX
  8
0
 10
129.156164
 20
1798.719737
 42
0.048509
  0
VERTEX
  8
0
 10
134.831993
 20
1795.415005
 42
0.000000
  0
VERTEX
  8
0
 10
141.140582
 20
1792.519298
 42
0.000000
  0
VERTEX
  8
0
 10
140.490427
 20
1786.917515
 42
0.081544
  0
VERTEX
  8
0
 10
141.074251
 20
1774.553104
 42
0.076742
  0
VERTEX
  8
0
 10
145.562400
 20
1762.740353
 42
0.075963
  0
VERTEX
  8
0
 10
153.458139
 20
1752.731358
 42
0.077336
  0
VERTEX
  8
0
 10
163.938252
 20
1745.609367
 42
0.018128
  0
VERTEX
  8
0
 10
168.006484
 20
1743.859205
 42
0.046564
  0
VERTEX
  8
0
 10
171.084061
 20
1742.984365
 42
0.037147
  0
VERTEX
  8
0
 10
174.649320
 20
1742.591907
 42
0.008270
  0
VERTEX
  8
0
 10
180.782592
 20
1742.476351
 42
0.000000
  0
VERTEX
  8
0
 10
191.065183
 20
1742.452702
 42
0.000000
  0
VERTEX
  8
0
 10
193.435420
 20
1737.336789
 42
0.115704
  0
VERTEX
  8
0
 10
204.374338
 20
1723.365124
 42
0.108625
  0
VERTEX
  8
0
 10
220.629332
 20
1715.316446
 42
0.109866
  0
VERTEX
  8
0
 10
238.606621
 20
1714.875843
 42
0.120759
  0
VERTEX
  8
0
 10
254.387870
 20
1722.203516
 42
-0.014955
  0
VERTEX
  8
0
 10
256.480828
 20
1723.778635
 42
-0.068327
  0
VERTEX
  8
0
 10
257.828821
 20
1724.478362
 42
-0.125635
  0
VERTEX
  8
0
 10
258.882129
 20
1724.575963
 42
-0.116257
  0
VERTEX
  8
0
 10
259.887870
 20
1724.163680
 42
0.012001
  0
VERTEX
  8
0
 10
260.812038
 20
1723.536146
 42
0.002390
  0
VERTEX
  8
0
 10
262.495187
 20
1722.462681
 42
0.002527
  0
VERTEX
  8
0
 10
264.467534
 20
1721.231888
 42
0.002352
  0
VERTEX
  8
0
 10
266.500000
 20
1719.990968
 42
0.075204
  0
VERTEX
  8
0
 10
278.007060
 20
1715.216341
 42
0.078046
  0
VERTEX
  8
0
 10
290.262314
 20
1714.142387
 42
0.077586
  0
VERTEX
  8
0
 10
302.317819
 20
1716.879127
 42
0.073070
  0
VERTEX
  8
0
 10
313.241844
 20
1723.191544
 42
0.050648
  0
VERTEX
  8
0
 10
316.790858
 20
1726.640240
 42
0.023454
  0
VERTEX
  8
0
 10
320.695354
 20
1731.759081
 42
0.022734
  0
VERTEX
  8
0
 10
324.008281
 20
1737.051918
 42
0.074538
  0
VERTEX
  8
0
 10
325.477086
 20
1740.895673
 42
-0.038921
  0
VERTEX
  8
0
 10
325.990878
 20
1742.592576
 42
-0.226807
  0
VERTEX
  8
0
 10
326.653774
 20
1743.213752
 42
-0.118178
  0
VERTEX
  8
0
 10
327.822284
 20
1743.297545
 42
-0.007882
  0
VERTEX
  8
0
 10
331.151472
 20
1742.693652
 42
0.056250
  0
VERTEX
  8
0
 10
336.400895
 20
1742.257865
 42
0.035125
  0
VERTEX
  8
0
 10
342.547316
 20
1742.873167
 42
0.033756
  0
VERTEX
  8
0
 10
348.882566
 20
1744.406610
 42
0.037609
  0
VERTEX
  8
0
 10
354.720227
 20
1746.739274
 42
0.049614
  0
VERTEX
  8
0
 10
360.055154
 20
1750.043133
 42
0.036969
  0
VERTEX
  8
0
 10
365.229131
 20
1754.650477
 42
0.036249
  0
VERTEX
  8
0
 10
369.782471
 20
1760.090603
 42
0.041792
  0
VERTEX
  8
0
 10
373.265100
 20
1765.888775
 42
0.017657
  0
VERTEX
  8
0
 10
375.130188
 20
1770.042383
 42
0.050535
  0
VERTEX
  8
0
 10
376.021258
 20
1773.075378
 42
0.038945
  0
VERTEX
  8
0
 10
376.403184
 20
1776.633923
 42
0.007321
  0
VERTEX
  8
0
 10
376.497684
 20
1783.184575
 42
-0.003281
  0
VERTEX
  8
0
 10
376.542293
 20
1790.213685
 42
-0.051064
  0
VERTEX
  8
0
 10
376.818323
 20
1792.604433
 42
-0.168001
  0
VERTEX
  8
0
 10
377.550275
 20
1793.798594
 42
-0.112029
  0
VERTEX
  8
0
 10
378.997684
 20
1794.524551
 42
0.080834
  0
VERTEX
  8
0
 10
384.072448
 20
1796.688581
 42
0.033889
  0
VERTEX
  8
0
 10
390.082630
 20
1801.090526
 42
0.033577
  0
VERTEX
  8
0
 10
395.723087
 20
1806.527505
 42
0.051212
  0
VERTEX
  8
0
 10
399.749336
 20
1812.000000
 42
0.058940
  0
VERTEX
  8
0
 10
402.852012
 20
1819.056960
 42
0.044543
  0
VERTEX
  8
0
 10
404.597080
 20
1827.347864
 42
0.044532
  0
VERTEX
  8
0
 10
404.846382
 20
1835.819452
 42
0.058805
  0
VERTEX
  8
0
 10
403.487189
 20
1843.415533
 42
0.028804
  0
VERTEX
  8
0
 10
401.911430
 20
1847.704020
 42
0.024558
  0
VERTEX
  8
0
 10
399.777083
 20
1852.024694
 42
0.025390
  0
VERTEX
  8
0
 10
397.418762
 20
1855.797167
 42
0.056501
  0
VERTEX
  8
0
 10
395.182374
 20
1858.334954
 42
-0.057171
  0
VERTEX
  8
0
 10
394.078367
 20
1859.591125
 42
-0.221052
  0
VERTEX
  8
0
 10
393.905590
 20
1860.587542
 42
-0.090680
  0
VERTEX
  8
0
 10
394.528977
 20
1861.897123
 42
-0.005751
  0
VERTEX
  8
0
 10
397.069823
 20
1865.333736
 42
0.080515
  0
VERTEX
  8
0
 10
402.873773
 20
1876.281703
 42
0.076729
  0
VERTEX
  8
0
 10
405.049804
 20
1888.688363
 42
0.076550
  0
VERTEX
  8
0
 10
403.384411
 20
1901.199527
 42
0.079543
  0
VERTEX
  8
0
 10
398.034314
 20
1912.450126
 42
0.043094
  0
VERTEX
  8
0
 10
394.471014
 20
1916.778325
 42
0.031523
  0
VERTEX
  8
0
 10
389.842402
 20
1920.944490
 42
0.031897
  0
VERTEX
  8
0
 10
384.823711
 20
1924.422847
 42
0.050298
  0
VERTEX
  8
0
 10
380.090635
 20
1926.661405
 42
0.000000
  0
VERTEX
  8
0
 10
375.318455
 20
1928.356333
 42
0.000000
  0
VERTEX
  8
0
 10
376.263694
 20
1932.788262
 42
0.060816
  0
VERTEX
  8
0
 10
376.722087
 20
1937.945646
 42
0.031119
  0
VERTEX
  8
0
 10
376.104558
 20
1944.422768
 42
0.030646
  0
VERTEX
  8
0
 10
374.638152
 20
1951.025534
 42
0.043828
  0
VERTEX
  8
0
 10
372.484146
 20
1956.621931
 42
0.046254
  0
VERTEX
  8
0
 10
369.147064
 20
1962.096040
 42
0.039951
  0
VERTEX
  8
0
 10
364.707825
 20
1967.159956
 42
0.039062
  0
VERTEX
  8
0
 10
359.407116
 20
1971.562469
 42
0.039511
  0
VERTEX
  8
0
 10
353.505664
 20
1975.068200
 42
0.015601
  0
VERTEX
  8
0
 10
349.075265
 20
1977.077861
 42
0.050966
  0
VERTEX
  8
0
 10
345.997085
 20
1978.005846
 42
0.040769
  0
VERTEX
  8
0
 10
342.455788
 20
1978.395066
 42
0.007417
  0
VERTEX
  8
0
 10
335.847182
 20
1978.481918
 42
0.000000
  0
VERTEX
  8
0
 10
325.167039
 20
1978.463836
 42
0.000000
  0
VERTEX
  8
0
 10
323.955895
 20
1982.133641
 42
0.057760
  0
VERTEX
  8
0
 10
322.042877
 20
1986.259424
 42
0.029632
  0
VERTEX
  8
0
 10
318.778082
 20
1990.942540
 42
0.028711
  0
VERTEX
  8
0
 10
314.750984
 20
1995.483842
 42
0.035092
  0
VERTEX
  8
0
 10
310.476103
 20
1999.216412
 42
0.041255
  0
VERTEX
  8
0
 10
305.949813
 20
2002.086792
 42
0.027738
  0
VERTEX
  8
0
 10
300.374583
 20
2004.625061
 42
0.027973
  0
VERTEX
  8
0
 10
294.835500
 20
2006.435119
 42
0.065069
  0
VERTEX
  8
0
 10
290.513233
 20
2007.000000
 42
-0.047230
  0
VERTEX
  8
0
 10
288.713265
 20
2007.170405
 42
-0.161013
  0
VERTEX
  8
0
 10
287.698156
 20
2007.735639
 42
-0.106127
  0
VERTEX
  8
0
 10
286.984368
 20
2008.948358
 42
-0.014873
  0
VERTEX
  8
0
 10
286.145947
 20
2011.750000
 42
0.085522
  0
VERTEX
  8
0
 10
283.952014
 20
2016.512848
 42
0.046169
  0
VERTEX
  8
0
 10
279.806487
 20
2021.489250
 42
0.045487
  0
VERTEX
  8
0
 10
274.683518
 20
2025.743744
 42
0.068542
  0
VERTEX
  8
0
 10
269.504351
 20
2028.343817
 42
0.043219
  0
VERTEX
  8
0
 10
265.368805
 20
2029.364682
 42
0.028615
  0
VERTEX
  8
0
 10
260.498166
 20
2029.845575
 42
0.028903
  0
VERTEX
  8
0
 10
255.742822
 20
2029.766671
 42
0.055284
  0
SEQEND
  0
POLYLINE
  8
0
 66
1
 70
1
  0
VERTEX
  8
0
 10
263.473209
 20
2016.010186
 42
-0.070030
  0
VERTEX
  8
0
 10
266.645161
 20
2014.264336
 42
-0.081407
  0
VERTEX
  8
0
 10
269.028352
 20
2011.783653
 42
-0.081321
  0
VERTEX
  8
0
 10
270.496702
 20
2008.669658
 42
-0.069695
  0
VERTEX
  8
0
 10
271.000000
 20
2005.076484
 42
-0.049449
  0
VERTEX
  8
0
 10
270.645157
 20
2001.497273
 42
-0.079907
  0
VERTEX
  8
0
 10
269.577510
 20
1998.635759
 42
-0.084013
  0
VERTEX
  8
0
 10
267.713850
 20
1996.350898
 42
-0.060499
  0
VERTEX
  8
0
 10
264.988956
 20
1994.494289
 42
-0.125230
  0
VERTEX
  8
0
 10
259.076600
 20
1993.121877
 42
-0.137373
  0
VERTEX
  8
0
 10
253.454656
 20
1994.824750
 42
-0.134449
  0
VERTEX
  8
0
 10
249.451233
 20
1999.241480
 42
-0.117805
  0
VERTEX
  8
0
 10
248.000000
 20
2005.315481
 42
-0.087535
  0
VERTEX
  8
0
 10
248.533336
 20
2008.338544
 42
-0.069216
  0
VERTEX
  8
0
 10
250.090992
 20
2011.276780
 42
-0.066273
  0
VERTEX
  8
0
 10
252.472687
 20
2013.792564
 42
-0.067545
  0
VERTEX
  8
0
 10
255.415186
 20
2015.578588
 42
-0.019803
  0
VERTEX
  8
0
 10
257.919708
 20
2016.553013
 42
-0.069596
  0
VERTEX
  8
0
 10
259.613426
 20
2016.883102
 42
-0.076789
  0
VERTEX
  8
0
 10
261.243631
 20
2016.719918
 42
-0.027576
  0
SEQEND
  0
POLYLINE
  8
0
 66
1
 70
1
  0
VERTEX
  8
0
 10
286.000000
 20
1973.427671
 42
-0.067840
  0
VERTEX
  8
0
 10
316.543161
 20
1961.085714
 42
-0.070955
  0
VERTEX
  8
0
 10
342.151503
 20
1941.163065
 42
-0.071118
  0
VERTEX
  8
0
 10
361.123504
 20
1914.920430
 42
-0.068648
  0
VERTEX
  8
0
 10
372.265133
 20
1884.099856
 42
-0.031172
  0
VERTEX
  8
0
 10
373.807947
 20
1873.714560
 42
-0.019161
  0
VERTEX
  8
0
 10
374.387121
 20
1861.358366
 42
-0.019174
  0
VERTEX
  8
0
 10
374.019022
 20
1849.018422
 42
-0.031704
  0
VERTEX
  8
0
 10
372.652157
 20
1838.688010
 42
-0.076392
  0
VERTEX
  8
0
 10
360.409549
 20
1804.879256
 42
-0.077624
  0
VERTEX
  8
0
 10
338.628940
 20
1776.514900
 42
-0.077624
  0
VERTEX
  8
0
 10
309.236532
 20
1756.143409
 42
-0.076396
  0
VERTEX
  8
0
 10
274.871662
 20
1745.564395
 42
-0.010619
  0
VERTEX
  8
0
 10
266.359692
 20
1744.495653
 42
-0.021333
  0
VERTEX
  8
0
 10
259.602010
 20
1744.082884
 42
-0.022484
  0
VERTEX
  8
0
 10
253.066274
 20
1744.256879
 42
-0.013291
  0
VERTEX
  8
0
 10
245.298465
 20
1745.021807
 42
-0.026589
  0
VERTEX
  8
0
 10
232.358563
 20
1747.348473
 42
-0.026378
  0
VERTEX
  8
0
 10
219.703464
 20
1751.039829
 42
-0.026489
  0
VERTEX
  8
0
 10
207.559045
 20
1756.025093
 42
-0.027364
  0
VERTEX
  8
0
 10
196.145454
 20
1762.218980
 42
-0.037992
  0
VERTEX
  8
0
 10
186.833788
 20
1768.977842
 42
-0.020707
  0
VERTEX
  8
0
 10
176.448047
 20
1778.560837
 42
-0.020701
  0
VERTEX
  8
0
 10
166.871668
 20
1788.990527
 42
-0.037312
  0
VERTEX
  8
0
 10
160.067737
 20
1798.385590
 42
-0.105321
  0
VERTEX
  8
0
 10
143.388165
 20
1845.191337
 42
-0.107000
  0
VERTEX
  8
0
 10
147.373317
 20
1894.447966
 42
-0.107541
  0
VERTEX
  8
0
 10
171.327917
 20
1937.456975
 42
-0.107367
  0
VERTEX
  8
0
 10
211.000000
 20
1966.653625
 42
-0.024989
  0
VERTEX
  8
0
 10
223.608240
 20
1971.552109
 42
-0.032499
  0
VERTEX
  8
0
 10
235.592031
 20
1974.683952
 42
-0.032009
  0
VERTEX
  8
0
 10
248.026214
 20
1976.267236
 42
-0.023141
  0
VERTEX
  8
0
 10
262.000000
 20
1976.496178
 42
-0.008538
  0
VERTEX
  8
0
 10
269.106391
 20
1976.162165
 42
-0.015782
  0
VERTEX
  8
0
 10
274.860328
 20
1975.610384
 42
-0.017282
  0
VERTEX
  8
0
 10
280.202673
 20
1974.738782
 42
-0.013067
  0
SEQEND
  0
POLYLINE
  8
0
 66
1
 70
1
  0
VERTEX
  8
0
 10
582.882283
 20
2028.619422
 42
0.047328
  0
VERTEX
  8
0
 10
576.702616
 20
2025.726803
 42
0.059707
  0
VERTEX
  8
0
 10
571.686430
 20
2021.900409
 42
0.063470
  0
VERTEX
  8
0
 10
567.949538
 20
2017.213594
 42
0.065102
  0
VERTEX
  8
0
 10
565.546246
 20
2011.778211
 42
0.000000
  0
VERTEX
  8
0
 10
564.286834
 20
2007.500000
 42
0.000000
  0
VERTEX
  8
0
 10
557.893417
 20
2006.871054
 42
0.015166
  0
VERTEX
  8
0
 10
555.133745
 20
2006.514785
 42
0.011442
  0
VERTEX
  8
0
 10
552.126402
 20
2005.962568
 42
0.011596
  0
VERTEX
  8
0
 10
549.322039
 20
2005.312825
 42
0.026092
  0
VERTEX
  8
0
 10
547.239016
 20
2004.661537
 42
0.057660
  0
VERTEX
  8
0
 10
540.177229
 20
2001.070845
 42
0.046357
  0
VERTEX
  8
0
 10
533.537745
 20
1995.721065
 42
0.046768
  0
VERTEX
  8
0
 10
528.060501
 20
1989.302642
 42
0.062121
  0
VERTEX
  8
0
 10
524.459894
 20
1982.534155
 42
0.000000
  0
VERTEX
  8
0
 10
522.732448
 20
1978.010902
 42
0.000000
  0
VERTEX
  8
0
 10
516.111919
 20
1978.626216
 42
0.078320
  0
VERTEX
  8
0
 10
503.871815
 20
1977.846105
 42
0.076424
  0
VERTEX
  8
0
 10
492.352479
 20
1973.344726
 42
0.075840
  0
VERTEX
  8
0
 10
482.645101
 20
1965.551359
 42
0.075310
  0
VERTEX
  8
0
 10
475.675630
 20
1955.200712
 42
0.017605
  0
VERTEX
  8
0
 10
473.887543
 20
1951.053413
 42
0.045865
  0
VERTEX
  8
0
 10
472.989845
 20
1947.933839
 42
0.037042
  0
VERTEX
  8
0
 10
472.576714
 20
1944.340778
 42
0.008379
  0
VERTEX
  8
0
 10
472.431236
 20
1938.195935
 42
0.000000
  0
VERTEX
  8
0
 10
472.360004
 20
1927.891869
 42
0.000000
  0
VERTEX
  8
0
 10
467.192568
 20
1925.497761
 42
0.046582
  0
VERTEX
  8
0
 10
462.428608
 20
1922.725885
 42
0.028655
  0
VERTEX
  8
0
 10
457.367812
 20
1918.655516
 42
0.028698
  0
VERTEX
  8
0
 10
452.823021
 20
1914.050050
 42
0.048075
  0
VERTEX
  8
0
 10
449.641938
 20
1909.643853
 42
0.074103
  0
VERTEX
  8
0
 10
445.297943
 20
1898.808800
 42
0.070537
  0
VERTEX
  8
0
 10
444.201203
 20
1886.989200
 42
0.071443
  0
VERTEX
  8
0
 10
446.428421
 20
1875.467982
 42
0.079582
  0
VERTEX
  8
0
 10
451.776405
 20
1865.500000
 42
0.000000
  0
VERTEX
  8
0
 10
455.587384
 20
1860.500000
 42
0.000000
  0
VERTEX
  8
0
 10
451.803383
 20
1855.500000
 42
0.064613
  0
VERTEX
  8
0
 10
447.255317
 20
1847.534356
 42
0.055119
  0
VERTEX
  8
0
 10
444.584211
 20
1838.232021
 42
0.055022
  0
VERTEX
  8
0
 10
444.007059
 20
1828.553479
 42
0.063834
  0
VERTEX
  8
0
 10
445.638623
 20
1819.477473
 42
0.061465
  0
VERTEX
  8
0
 10
449.232867
 20
1811.601743
 42
0.050110
  0
VERTEX
  8
0
 10
454.853478
 20
1804.224266
 42
0.050736
  0
VERTEX
  8
0
 10
461.737678
 20
1798.207922
 42
0.067966
  0
VERTEX
  8
0
 10
469.079197
 20
1794.375420
 42
0.000000
  0
VERTEX
  8
0
 10
473.658395
 20
1792.727751
 42
0.000000
  0
VERTEX
  8
0
 10
472.688354
 20
1787.821731
 42
0.074605
  0
VERTEX
  8
0
 10
472.302553
 20
1779.490012
 42
0.054608
  0
VERTEX
  8
0
 10
474.251392
 20
1770.425384
 42
0.053338
  0
VERTEX
  8
0
 10
478.196645
 20
1761.764790
 42
0.062321
  0
VERTEX
  8
0
 10
483.722436
 20
1754.622916
 42
0.046762
  0
VERTEX
  8
0
 10
490.934332
 20
1748.617735
 42
0.059364
  0
VERTEX
  8
0
 10
498.605830
 20
1744.601361
 42
0.060393
  0
VERTEX
  8
0
 10
506.896531
 20
1742.545427
 42
0.050878
  0
VERTEX
  8
0
 10
515.944645
 20
1742.357478
 42
0.000000
  0
VERTEX
  8
0
 10
523.500000
 20
1742.970043
 42
0.000000
  0
VERTEX
  8
0
 10
525.898953
 20
1737.427504
 42
0.045995
  0
VERTEX
  8
0
 10
529.110260
 20
1731.554897
 42
0.046434
  0
VERTEX
  8
0
 10
533.332106
 20
1726.388550
 42
0.045015
  0
VERTEX
  8
0
 10
538.563582
 20
1721.956176
 42
0.038496
  0
VERTEX
  8
0
 10
544.776525
 20
1718.265884
 42
0.012865
  0
VERTEX
  8
0
 10
549.597175
 20
1716.035811
 42
0.049440
  0
VERTEX
  8
0
 10
552.740612
 20
1715.033172
 42
0.043860
  0
VERTEX
  8
0
 10
556.197620
 20
1714.608260
 42
0.008659
  0
VERTEX
  8
0
 10
562.448137
 20
1714.500000
 42
0.008568
  0
VERTEX
  8
0
 10
568.220307
 20
1714.598914
 42
0.033607
  0
VERTEX
  8
0
 10
571.762138
 20
1714.959501
 42
0.044135
  0
VERTEX
  8
0
 10
574.722115
 20
1715.736975
 42
0.023303
  0
VERTEX
  8
0
 10
578.235464
 20
1717.188021
 42
0.012155
  0
VERTEX
  8
0
 10
580.681435
 20
1718.407735
 42
0.009378
  0
VERTEX
  8
0
 10
583.289240
 20
1719.851542
 42
0.009500
  0
VERTEX
  8
0
 10
585.675654
 20
1721.293062
 42
0.022306
  0
VERTEX
  8
0
 10
587.385755
 20
1722.480658
 42
0.000000
  0
VERTEX
  8
0
 10
590.800582
 20
1725.085274
 42
0.000000
  0
VERTEX
  8
0
 10
597.076223
 20
1721.029131
 42
0.028687
  0
VERTEX
  8
0
 10
602.733957
 20
1717.816463
 42
0.039520
  0
VERTEX
  8
0
 10
608.159491
 20
1715.648950
 42
0.040939
  0
VERTEX
  8
0
 10
613.703774
 20
1714.413530
 42
0.034367
  0
VERTEX
  8
0
 10
619.713047
 20
1714.000000
 42
0.072824
  0
VERTEX
  8
0
 10
631.078865
 20
1715.664245
 42
0.071245
  0
VERTEX
  8
0
 10
641.583399
 20
1720.520487
 42
0.071885
  0
VERTEX
  8
0
 10
650.224671
 20
1728.081268
 42
0.076432
  0
VERTEX
  8
0
 10
656.158899
 20
1737.633357
 42
0.000000
  0
VERTEX
  8
0
 10
658.500000
 20
1743.119579
 42
0.000000
  0
VERTEX
  8
0
 10
664.500000
 20
1742.522428
 42
0.073886
  0
VERTEX
  8
0
 10
676.793788
 20
1743.116754
 42
0.077481
  0
VERTEX
  8
0
 10
688.168622
 20
1747.274874
 42
0.077593
  0
VERTEX
  8
0
 10
697.724889
 20
1754.691444
 42
0.074410
  0
VERTEX
  8
0
 10
704.727657
 20
1764.766964
 42
0.012984
  0
VERTEX
  8
0
 10
706.985595
 20
1769.653223
 42
0.050917
  0
VERTEX
  8
0
 10
707.982258
 20
1772.817274
 42
0.043265
  0
VERTEX
  8
0
 10
708.397951
 20
1776.355962
 42
0.007615
  0
VERTEX
  8
0
 10
708.500000
 20
1783.055974
 42
0.000000
  0
VERTEX
  8
0
 10
708.500000
 20
1793.708659
 42
0.000000
  0
VERTEX
  8
0
 10
713.229588
 20
1795.388204
 42
0.069922
  0
VERTEX
  8
0
 10
718.585942
 20
1798.182501
 42
0.037636
  0
VERTEX
  8
0
 10
724.314176
 20
1802.965302
 42
0.036739
  0
VERTEX
  8
0
 10
729.496786
 20
1808.798325
 42
0.048916
  0
VERTEX
  8
0
 10
733.232296
 20
1814.820295
 42
0.017220
  0
VERTEX
  8
0
 10
735.114871
 20
1819.001815
 42
0.050144
  0
VERTEX
  8
0
 10
736.014630
 20
1822.034765
 42
0.039430
  0
VERTEX
  8
0
 10
736.401976
 20
1825.562294
 42
0.007638
  0
VERTEX
  8
0
 10
736.500000
 20
1831.978973
 42
0.007589
  0
VERTEX
  8
0
 10
736.402854
 20
1838.378733
 42
0.039134
  0
VERTEX
  8
0
 10
736.019099
 20
1841.898959
 42
0.050373
  0
VERTEX
  8
0
 10
735.129978
 20
1844.906146
 42
0.017871
  0
VERTEX
  8
0
 10
733.282717
 20
1849.000000
 42
0.009178
  0
VERTEX
  8
0
 10
731.892723
 20
1851.683217
 42
0.008625
  0
VERTEX
  8
0
 10
730.377001
 20
1854.370369
 42
0.008623
  0
VERTEX
  8
0
 10
728.951158
 20
1856.706071
 42
0.029252
  0
VERTEX
  8
0
 10
727.908806
 20
1858.154448
 42
0.000000
  0
VERTEX
  8
0
 10
725.752178
 20
1860.808896
 42
0.000000
  0
VERTEX
  8
0
 10
728.830492
 20
1864.654448
 42
0.054940
  0
VERTEX
  8
0
 10
733.145723
 20
1871.457460
 42
0.049246
  0
VERTEX
  8
0
 10
736.067354
 20
1879.288588
 42
0.049345
  0
VERTEX
  8
0
 10
737.396780
 20
1887.523162
 42
0.055710
  0
VERTEX
  8
0
 10
736.997754
 20
1895.520650
 42
0.064555
  0
VERTEX
  8
0
 10
734.158213
 20
1905.033044
 42
0.058115
  0
VERTEX
  8
0
 10
728.913040
 20
1913.880944
 42
0.059160
  0
VERTEX
  8
0
 10
721.884373
 20
1921.138151
 42
0.072700
  0
VERTEX
  8
0
 10
713.793960
 20
1925.966565
 42
0.000000
  0
VERTEX
  8
0
 10
708.500000
 20
1928.160789
 42
0.000000
  0
VERTEX
  8
0
 10
708.500000
 20
1938.330395
 42
0.008341
  0
VERTEX
  8
0
 10
708.398637
 20
1944.406445
 42
0.037794
  0
VERTEX
  8
0
 10
708.013748
 20
1947.926319
 42
0.047325
  0
VERTEX
  8
0
 10
707.142837
 20
1950.965912
 42
0.018174
  0
VERTEX
  8
0
 10
705.389643
 20
1955.000000
 42
0.034275
  0
VERTEX
  8
0
 10
701.704591
 20
1961.513849
 42
0.046858
  0
VERTEX
  8
0
 10
697.484233
 20
1966.764862
 42
0.047749
  0
VERTEX
  8
0
 10
692.426950
 20
1971.065496
 42
0.037602
  0
VERTEX
  8
0
 10
686.235316
 20
1974.727657
 42
0.013056
  0
VERTEX
  8
0
 10
681.402895
 20
1976.960563
 42
0.049102
  0
VERTEX
  8
0
 10
678.225884
 20
1977.973377
 42
0.042926
  0
VERTEX
  8
0
 10
674.709585
 20
1978.414089
 42
0.008367
  0
VERTEX
  8
0
 10
668.317922
 20
1978.555684
 42
0.000000
  0
VERTEX
  8
0
 10
658.034574
 20
1978.611367
 42
0.000000
  0
VERTEX
  8
0
 10
655.006738
 20
1984.670603
 42
0.065310
  0
VERTEX
  8
0
 10
649.586218
 20
1992.699316
 42
0.055769
  0
VERTEX
  8
0
 10
642.006849
 20
1999.552050
 42
0.056705
  0
VERTEX
  8
0
 10
633.248328
 20
2004.455586
 42
0.073692
  0
VERTEX
  8
0
 10
624.349064
 20
2006.727686
 42
-0.013368
  0
VERTEX
  8
0
 10
621.261952
 20
2007.129992
 42
-0.100360
  0
VERTEX
  8
0
 10
619.887172
 20
2007.641777
 42
-0.157896
  0
VERTEX
  8
0
 10
619.117387
 20
2008.553535
 42
-0.047677
  0
VERTEX
  8
0
 10
618.587787
 20
2010.311064
 42
0.079110
  0
VERTEX
  8
0
 10
616.507225
 20
2015.918593
 42
0.061385
  0
VERTEX
  8
0
 10
612.636011
 20
2021.163974
 42
0.058632
  0
VERTEX
  8
0
 10
607.399936
 20
2025.531991
 42
0.058944
  0
VERTEX
  8
0
 10
601.302010
 20
2028.556065
 42
0.054612
  0
VERTEX
  8
0
 10
597.198624
 20
2029.532043
 42
0.030247
  0
VERTEX
  8
0
 10
592.054495
 20
2029.861281
 42
0.030271
  0
VERTEX
  8
0
 10
586.927288
 20
2029.568277
 42
0.056460
  0
SEQEND
  0
POLYLINE
  8
0
 66
1
 70
1
  0
VERTEX
  8
0
 10
598.781252
 20
2014.407674
 42
-0.091871
  0
VERTEX
  8
0
 10
601.170554
 20
2012.121853
 42
-0.072274
  0
VERTEX
  8
0
 10
602.827923
 20
2008.938385
 42
-0.071443
  0
VERTEX
  8
0
 10
603.524306
 20
2005.376344
 42
-0.085588
  0
VERTEX
  8
0
 10
603.114607
 20
2001.988189
 42
-0.063762
  0
VERTEX
  8
0
 10
601.455441
 20
1998.257317
 42
-0.094136
  0
VERTEX
  8
0
 10
599.062922
 20
1995.602726
 42
-0.095476
  0
VERTEX
  8
0
 10
595.890985
 20
1994.034426
 42
-0.067303
  0
VERTEX
  8
0
 10
591.938667
 20
1993.500000
 42
-0.023841
  0
VERTEX
  8
0
 10
589.209522
 20
1993.630206
 42
-0.068579
  0
VERTEX
  8
0
 10
587.368847
 20
1994.065638
 42
-0.073619
  0
VERTEX
  8
0
 10
585.788464
 20
1994.962565
 42
-0.030564
  0
VERTEX
  8
0
 10
583.945081
 20
1996.593380
 42
-0.182605
  0
VERTEX
  8
0
 10
580.448303
 20
2004.336793
 42
-0.191639
  0
VERTEX
  8
0
 10
583.039145
 20
2012.267636
 42
-0.188904
  0
VERTEX
  8
0
 10
590.414116
 20
2016.324898
 42
-0.179280
  0
SEQEND
  0
POLYLINE
  8
0
 66
1
 70
1
  0
VERTEX
  8
0
 10
613.837625
 20
1974.562432
 42
-0.031746
  0
VERTEX
  8
0
 10
629.825072
 20
1970.060365
 42
-0.035859
  0
VERTEX
  8
0
 10
644.451155
 20
1963.709481
 42
-0.036175
  0
VERTEX
  8
0
 10
657.909490
 20
1955.390210
 42
-0.033420
  0
VERTEX
  8
0
 10
670.411152
 20
1945.013288
 42
-0.099230
  0
VERTEX
  8
0
 10
697.097698
 20
1907.103837
 42
-0.100913
  0
VERTEX
  8
0
 10
706.905243
 20
1862.066924
 42
-0.101095
  0
VERTEX
  8
0
 10
698.292340
 20
1816.851502
 42
-0.099958
  0
VERTEX
  8
0
 10
672.622599
 20
1778.429189
 42
-0.124552
  0
VERTEX
  8
0
 10
622.924047
 20
1748.993659
 42
-0.127116
  0
VERTEX
  8
0
 10
565.608257
 20
1747.042895
 42
-0.126518
  0
VERTEX
  8
0
 10
514.321908
 20
1773.130236
 42
-0.122748
  0
VERTEX
  8
0
 10
481.280588
 20
1820.986693
 42
-0.024847
  0
VERTEX
  8
0
 10
478.444900
 20
1829.829621
 42
-0.022520
  0
VERTEX
  8
0
 10
476.391910
 20
1839.203973
 42
-0.021639
  0
VERTEX
  8
0
 10
475.125578
 20
1849.098466
 42
-0.019031
  0
VERTEX
  8
0
 10
474.647159
 20
1859.500000
 42
-0.025705
  0
VERTEX
  8
0
 10
475.286941
 20
1874.200699
 42
-0.033874
  0
VERTEX
  8
0
 10
477.458710
 20
1887.438064
 42
-0.034092
  0
VERTEX
  8
0
 10
481.383534
 20
1900.193876
 42
-0.026568
  0
VERTEX
  8
0
 10
487.296837
 20
1913.443292
 42
-0.057329
  0
VERTEX
  8
0
 10
502.400045
 20
1936.125948
 42
-0.059706
  0
VERTEX
  8
0
 10
522.076067
 20
1954.439769
 42
-0.059211
  0
VERTEX
  8
0
 10
545.678642
 20
1967.704181
 42
-0.054782
  0
VERTEX
  8
0
 10
572.356589
 20
1975.498857
 42
-0.034208
  0
VERTEX
  8
0
 10
581.200760
 20
1976.443635
 42
-0.015152
  0
VERTEX
  8
0
 10
592.948670
 20
1976.534457
 42
-0.015189
  0
VERTEX
  8
0
 10
604.756003
 20
1975.908719
 42
-0.031936
  0
SEQEND
  0
POLYLINE
  8
0
 66
1
 70
1
  0
VERTEX
  8
0
 10
913.359775
 20
2027.918957
 42
0.064735
  0
VERTEX
  8
0
 10
908.451663
 20
2025.260330
 42
0.045607
  0
VERTEX
  8
0
 10
903.714505
 20
2021.131646
 42
0.046361
  0
VERTEX
  8
0
 10
899.912534
 20
2016.333853
 42
0.079194
  0
VERTEX
  8
0
 10
897.835859
 20
2011.676109
 42
0.000000
  0
VERTEX
  8
0
 10
896.650375
 20
2007.243719
 42
0.000000
  0
VERTEX
  8
0
 10
889.924236
 20
2006.762467
 42
0.069839
  0
VERTEX
  8
0
 10
880.096342
 20
2004.658695
 42
0.064048
  0
VERTEX
  8
0
 10
870.908167
 20
1999.895651
 42
0.063583
  0
VERTEX
  8
0
 10
863.166130
 20
1992.922896
 42
0.066913
  0
VERTEX
  8
0
 10
857.579553
 20
1984.340044
 42
0.000000
  0
VERTEX
  8
0
 10
854.760501
 20
1978.404165
 42
0.000000
  0
VERTEX
  8
0
 10
845.630250
 20
1978.452082
 42
0.034008
  0
VERTEX
  8
0
 10
836.583664
 20
1977.883734
 42
0.063995
  0
VERTEX
  8
0
 10
829.518519
 20
1976.015236
 42
0.064411
  0
VERTEX
  8
0
 10
823.185212
 20
1972.430894
 42
0.034888
  0
VERTEX
  8
0
 10
816.405115
 20
1966.563014
 42
0.012764
  0
VERTEX
  8
0
 10
812.881029
 20
1962.870941
 42
0.027401
  0
VERTEX
  8
0
 10
810.401508
 20
1959.816051
 42
0.033571
  0
VERTEX
  8
0
 10
808.605773
 20
1956.951181
 42
0.034105
  0
VERTEX
  8
0
 10
807.220212
 20
1953.886474
 42
0.032417
  0
VERTEX
  8
0
 10
805.554532
 20
1948.337226
 42
0.029228
  0
VERTEX
  8
0
 10
804.549494
 20
1942.423989
 42
0.030513
  0
VERTEX
  8
0
 10
804.274613
 20
1936.808207
 42
0.053394
  0
VERTEX
  8
0
 10
804.825784
 20
1932.189964
 42
-0.012040
  0
VERTEX
  8
0
 10
805.377745
 20
1929.486388
 42
-0.121491
  0
VERTEX
  8
0
 10
805.304223
 20
1928.347796
 42
-0.192186
  0
VERTEX
  8
0
 10
804.707260
 20
1927.618609
 42
-0.039066
  0
VERTEX
  8
0
 10
803.157192
 20
1926.913450
 42
0.063351
  0
VERTEX
  8
0
 10
793.843534
 20
1922.119241
 42
0.064496
  0
VERTEX
  8
0
 10
786.089853
 20
1915.170233
 42
0.064470
  0
VERTEX
  8
0
 10
780.360162
 20
1906.472341
 42
0.063215
  0
VERTEX
  8
0
 10
776.987658
 20
1896.544594
 42
0.058058
  0
VERTEX
  8
0
 10
776.296034
 20
1888.449035
 42
0.049885
  0
VERTEX
  8
0
 10
777.408352
 20
1879.970527
 42
0.049737
  0
VERTEX
  8
0
 10
780.183999
 20
1871.854526
 42
0.056855
  0
VERTEX
  8
0
 10
784.417419
 20
1864.832122
 42
0.000000
  0
VERTEX
  8
0
 10
787.752592
 20
1860.500000
 42
0.000000
  0
VERTEX
  8
0
 10
784.860296
 20
1856.835894
 42
0.023045
  0
VERTEX
  8
0
 10
783.558351
 20
1855.020425
 42
0.010445
  0
VERTEX
  8
0
 10
782.016073
 20
1852.533825
 42
0.010316
  0
VERTEX
  8
0
 10
780.495421
 20
1849.838374
 42
0.013914
  0
VERTEX
  8
0
 10
779.239358
 20
1847.335894
 42
0.022603
  0
VERTEX
  8
0
 10
777.762421
 20
1843.764837
 42
0.044085
  0
VERTEX
  8
0
 10
776.974133
 20
1840.787822
 42
0.033907
  0
VERTEX
  8
0
 10
776.608317
 20
1837.247029
 42
0.008657
  0
VERTEX
  8
0
 10
776.505358
 20
1831.478973
 42
0.008437
  0
VERTEX
  8
0
 10
776.603932
 20
1825.446248
 42
0.039489
  0
VERTEX
  8
0
 10
776.992310
 20
1821.997698
 42
0.048985
  0
VERTEX
  8
0
 10
777.881529
 20
1819.006703
 42
0.017652
  0
VERTEX
  8
0
 10
779.702126
 20
1814.953503
 42
0.043519
  0
VERTEX
  8
0
 10
783.393324
 20
1808.857348
 42
0.039680
  0
VERTEX
  8
0
 10
788.188992
 20
1803.286423
 42
0.040579
  0
VERTEX
  8
0
 10
793.674088
 20
1798.670028
 42
0.051914
  0
VERTEX
  8
0
 10
799.417881
 20
1795.421164
 42
0.000000
  0
VERTEX
  8
0
 10
805.500000
 20
1792.770236
 42
0.000000
  0
VERTEX
  8
0
 10
805.500000
 20
1782.111439
 42
0.007427
  0
VERTEX
  8
0
 10
805.596855
 20
1775.591654
 42
0.039336
  0
VERTEX
  8
0
 10
805.982722
 20
1772.043976
 42
0.050480
  0
VERTEX
  8
0
 10
806.882693
 20
1769.004218
 42
0.017229
  0
VERTEX
  8
0
 10
808.774113
 20
1764.804626
 42
0.080036
  0
VERTEX
  8
0
 10
816.099459
 20
1754.486154
 42
0.076131
  0
VERTEX
  8
0
 10
826.410242
 20
1746.781409
 42
0.077797
  0
VERTEX
  8
0
 10
838.337591
 20
1742.636087
 42
0.089870
  0
VERTEX
  8
0
 10
850.357710
 20
1742.636707
 42
0.000000
  0
VERTEX
  8
0
 10
855.919116
 20
1743.644749
 42
0.000000
  0
VERTEX
  8
0
 10
856.528333
 20
1740.871003
 42
0.075802
  0
VERTEX
  8
0
 10
858.067666
 20
1736.872849
 42
0.023958
  0
VERTEX
  8
0
 10
861.511951
 20
1731.460523
 42
0.024559
  0
VERTEX
  8
0
 10
865.560760
 20
1726.283932
 42
0.055832
  0
VERTEX
  8
0
 10
869.201369
 20
1722.916862
 42
0.071420
  0
VERTEX
  8
0
 10
880.972681
 20
1716.604318
 42
0.078364
  0
VERTEX
  8
0
 10
893.674355
 20
1714.118962
 42
0.080583
  0
VERTEX
  8
0
 10
906.225952
 20
1715.683359
 42
0.081743
  0
VERTEX
  8
0
 10
917.571377
 20
1721.135025
 42
0.000000
  0
VERTEX
  8
0
 10
923.166409
 20
1725.054358
 42
0.000000
  0
VERTEX
  8
0
 10
928.995182
 20
1721.162053
 42
0.104774
  0
VERTEX
  8
0
 10
945.084864
 20
1714.735939
 42
0.107294
  0
VERTEX
  8
0
 10
962.252791
 20
1715.467260
 42
0.107927
  0
VERTEX
  8
0
 10
977.494789
 20
1723.235866
 42
0.107143
  0
VERTEX
  8
0
 10
988.157878
 20
1736.669131
 42
0.000000
  0
VERTEX
  8
0
 10
991.351164
 20
1743.155617
 42
0.000000
  0
VERTEX
  8
0
 10
996.925582
 20
1742.532198
 42
0.117298
  0
VERTEX
  8
0
 10
1014.507102
 20
1744.690623
 42
0.109738
  0
VERTEX
  8
0
 10
1029.728079
 20
1754.539059
 42
0.110169
  0
VERTEX
  8
0
 10
1039.305895
 20
1769.868432
 42
0.119028
  0
VERTEX
  8
0
 10
1041.098536
 20
1787.371671
 42
0.000000
  0
VERTEX
  8
0
 10
1040.338821
 20
1792.970041
 42
0.000000
  0
VERTEX
  8
0
 10
1046.694675
 20
1795.944304
 42
0.046301
  0
VERTEX
  8
0
 10
1052.258111
 20
1799.205669
 42
0.037799
  0
VERTEX
  8
0
 10
1057.545723
 20
1803.644183
 42
0.037934
  0
VERTEX
  8
0
 10
1062.084036
 20
1808.807289
 42
0.047748
  0
VERTEX
  8
0
 10
1065.408804
 20
1814.232209
 42
0.064412
  0
VERTEX
  8
0
 10
1068.913112
 20
1824.606361
 42
0.070409
  0
VERTEX
  8
0
 10
1069.513379
 20
1835.214344
 42
0.069883
  0
VERTEX
  8
0
 10
1067.142869
 20
1845.638638
 42
0.062060
  0
VERTEX
  8
0
 10
1061.933919
 20
1855.472957
 42
0.000000
  0
VERTEX
  8
0
 10
1057.964073
 20
1861.140099
 42
0.000000
  0
VERTEX
  8
0
 10
1061.385054
 20
1865.136746
 42
0.081938
  0
VERTEX
  8
0
 10
1066.320833
 20
1873.288678
 42
0.059260
  0
VERTEX
  8
0
 10
1069.082342
 20
1883.564290
 42
0.058138
  0
VERTEX
  8
0
 10
1069.386710
 20
1894.426778
 42
0.070971
  0
VERTEX
  8
0
 10
1067.072674
 20
1904.317030
 42
0.058807
  0
VERTEX
  8
0
 10
1063.966858
 20
1910.153622
 42
0.035185
  0
VERTEX
  8
0
 10
1059.038446
 20
1916.287734
 42
0.035125
  0
VERTEX
  8
0
 10
1053.277806
 20
1921.690994
 42
0.057022
  0
VERTEX
  8
0
 10
1047.631467
 20
1925.304187
 42
0.005415
  0
VERTEX
  8
0
 10
1045.463195
 20
1926.336927
 42
0.007602
  0
VERTEX
  8
0
 10
1043.504356
 20
1927.208105
 42
0.004819
  0
VERTEX
  8
0
 10
1041.848041
 20
1927.895983
 42
0.096294
  0
VERTEX
  8
0
 10
1041.312950
 20
1928.000000
 42
-0.385993
  0
VERTEX
  8
0
 10
1040.986657
 20
1928.295994
 42
-0.005456
  0
VERTEX
  8
0
 10
1040.738804
 20
1931.157813
 42
-0.011780
  0
VERTEX
  8
0
 10
1040.558459
 20
1934.628124
 42
-0.007091
  0
VERTEX
  8
0
 10
1040.500000
 20
1938.750000
 42
0.007249
  0
VERTEX
  8
0
 10
1040.406971
 20
1945.166051
 42
0.036035
  0
VERTEX
  8
0
 10
1040.043520
 20
1948.751065
 42
0.049236
  0
VERTEX
  8
0
 10
1039.218641
 20
1951.714657
 42
0.021497
  0
VERTEX
  8
0
 10
1037.579097
 20
1955.457751
 42
0.069223
  0
VERTEX
  8
0
 10
1030.601076
 20
1965.788700
 42
0.076766
  0
VERTEX
  8
0
 10
1021.281803
 20
1973.406624
 42
0.077581
  0
VERTEX
  8
0
 10
1010.186945
 20
1977.802078
 42
0.072824
  0
VERTEX
  8
0
 10
998.029874
 20
1978.739501
 42
0.000000
  0
VERTEX
  8
0
 10
990.460218
 20
1978.220665
 42
0.000000
  0
VERTEX
  8
0
 10
987.719176
 20
1984.054902
 42
0.067765
  0
VERTEX
  8
0
 10
982.515810
 20
1992.092380
 42
0.056071
  0
VERTEX
  8
0
 10
975.039178
 20
1999.042400
 42
0.056140
  0
VERTEX
  8
0
 10
966.216037
 20
2004.149695
 42
0.068363
  0
VERTEX
  8
0
 10
957.039336
 20
2006.749282
 42
-0.012400
  0
VERTEX
  8
0
 10
953.719292
 20
2007.299842
 42
-0.098296
  0
VERTEX
  8
0
 10
952.283121
 20
2007.881967
 42
-0.154123
  0
VERTEX
  8
0
 10
951.481647
 20
2008.865210
 42
-0.044109
  0
VERTEX
  8
0
 10
950.912689
 20
2010.772518
 42
0.092044
  0
VERTEX
  8
0
 10
948.647907
 20
2016.356536
 42
0.058532
  0
VERTEX
  8
0
 10
944.192587
 20
2021.801017
 42
0.056415
  0
VERTEX
  8
0
 10
938.367998
 20
2026.278207
 42
0.068018
  0
VERTEX
  8
0
 10
932.034520
 20
2029.006916
 42
0.047137
  0
VERTEX
  8
0
 10
927.660091
 20
2029.788357
 42
0.035205
  0
VERTEX
  8
0
 10
922.758546
 20
2029.848102
 42
0.034810
  0
VERTEX
  8
0
 10
917.827002
 20
2029.214470
 42
0.042467
  0
SEQEND
  0
POLYLINE
  8
0
 66
1
 70
1
  0
VERTEX
  8
0
 10
928.282119
 20
2015.638016
 42
-0.089121
  0
VERTEX
  8
0
 10
932.462292
 20
2012.910260
 42
-0.109140
  0
VERTEX
  8
0
 10
935.080521
 20
2009.062117
 42
-0.111188
  0
VERTEX
  8
0
 10
935.805634
 20
2004.527234
 42
-0.095326
  0
VERTEX
  8
0
 10
934.593297
 20
1999.837853
 42
-0.150152
  0
VERTEX
  8
0
 10
929.859490
 20
1994.665352
 42
-0.160076
  0
VERTEX
  8
0
 10
923.164837
 20
1993.209595
 42
-0.155410
  0
VERTEX
  8
0
 10
916.764365
 20
1996.004343
 42
-0.140833
  0
VERTEX
  8
0
 10
912.854159
 20
2002.092437
 42
-0.096139
  0
VERTEX
  8
0
 10
912.480714
 20
2005.836747
 42
-0.086400
  0
VERTEX
  8
0
 10
913.501708
 20
2009.604116
 42
-0.084017
  0
VERTEX
  8
0
 10
915.773201
 20
2012.891332
 42
-0.083996
  0
VERTEX
  8
0
 10
919.000000
 20
2015.248446
 42
-0.022013
  0
VERTEX
  8
0
 10
921.799460
 20
2016.496169
 42
-0.083521
  0
VERTEX
  8
0
 10
923.667024
 20
2016.891494
 42
-0.086328
  0
VERTEX
  8
0
 10
925.528942
 20
2016.647535
 42
-0.024475
  0
SEQEND
  0
POLYLINE
  8
0
 66
1
 70
1
  0
VERTEX
  8
0
 10
940.303482
 20
1975.510526
 42
-0.089046
  0
VERTEX
  8
0
 10
979.183772
 20
1962.313339
 42
-0.089421
  0
VERTEX
  8
0
 10
1010.981077
 20
1936.430260
 42
-0.089294
  0
VERTEX
  8
0
 10
1031.770420
 20
1901.037242
 42
-0.088474
  0
VERTEX
  8
0
 10
1039.000000
 20
1860.500000
 42
-0.037293
  0
VERTEX
  8
0
 10
1037.666766
 20
1842.649594
 42
-0.039161
  0
VERTEX
  8
0
 10
1033.697094
 20
1825.493519
 42
-0.038869
  0
VERTEX
  8
0
 10
1027.065762
 20
1809.051679
 42
-0.035660
  0
VERTEX
  8
0
 10
1017.803754
 20
1793.328915
 42
-0.032949
  0
VERTEX
  8
0
 10
1012.042855
 20
1786.050168
 42
-0.016047
  0
VERTEX
  8
0
 10
1003.810972
 20
1777.517928
 42
-0.016057
  0
VERTEX
  8
0
 10
994.980825
 20
1769.469607
 42
-0.030541
  0
VERTEX
  8
0
 10
987.307835
 20
1763.685626
 42
-0.073716
  0
VERTEX
  8
0
 10
956.381663
 20
1749.212756
 42
-0.073752
  0
VERTEX
  8
0
 10
922.592181
 20
1744.337233
 42
-0.073669
  0
VERTEX
  8
0
 10
888.808637
 20
1749.477973
 42
-0.073286
  0
VERTEX
  8
0
 10
857.900670
 20
1764.195004
 42
-0.045637
  0
VERTEX
  8
0
 10
841.367100
 20
1777.617471
 42
-0.047358
  0
VERTEX
  8
0
 10
827.768684
 20
1793.663305
 42
-0.046384
  0
VERTEX
  8
0
 10
817.206216
 20
1812.297414
 42
-0.040546
  0
VERTEX
  8
0
 10
809.692468
 20
1833.409054
 42
-0.020982
  0
VERTEX
  8
0
 10
808.545672
 20
1838.563494
 42
-0.025205
  0
VERTEX
  8
0
 10
807.918766
 20
1843.490215
 42
-0.016152
  0
VERTEX
  8
0
 10
807.635381
 20
1849.946136
 42
-0.003589
  0
VERTEX
  8
0
 10
807.586861
 20
1861.000000
 42
-0.009333
  0
VERTEX
  8
0
 10
807.887490
 20
1875.011130
 42
-0.032645
  0
VERTEX
  8
0
 10
808.837545
 20
1883.992751
 42
-0.036061
  0
VERTEX
  8
0
 10
810.897433
 20
1892.311242
 42
-0.013309
  0
VERTEX
  8
0
 10
814.945957
 20
1903.703639
 42
-0.068656
  0
VERTEX
  8
0
 10
828.970064
 20
1929.062491
 42
-0.062103
  0
VERTEX
  8
0
 10
849.759574
 20
1950.661350
 42
-0.062061
  0
VERTEX
  8
0
 10
875.231311
 20
1966.506219
 42
-0.068372
  0
VERTEX
  8
0
 10
903.000000
 20
1974.974084
 42
0.000629
  0
VERTEX
  8
0
 10
905.981764
 20
1975.457457
 42
0.000795
  0
VERTEX
  8
0
 10
908.737500
 20
1975.912250
 42
0.000627
  0
VERTEX
  8
0
 10
911.048018
 20
1976.300322
 42
0.006454
  0
VERTEX
  8
0
 10
912.000000
 20
1976.474111
 42
-0.047410
  0
VERTEX
  8
0
 10
916.498753
 20
1976.919699
 42
-0.009502
  0
VERTEX
  8
0
 10
924.564164
 20
1976.798486
 42
-0.010665
  0
VERTEX
  8
0
 10
933.162014
 20
1976.322022
 42
-0.018231
  0
SEQEND
  0
POLYLINE
  8
0
 66
1
 70
1
  0
VERTEX
  8
0
 10
1246.615224
 20
2028.360789
 42
0.075567
  0
VERTEX
  8
0
 10
1241.596666
 20
2025.944176
 42
0.046239
  0
VERTEX
  8
0
 10
1236.527628
 20
2021.743212
 42
0.046495
  0
VERTEX
  8
0
 10
1232.364267
 20
2016.733914
 42
0.082332
  0
VERTEX
  8
0
 10
1230.100413
 20
2011.877625
 42
0.000000
  0
VERTEX
  8
0
 10
1228.811544
 20
2007.255251
 42
0.000000
  0
VERTEX
  8
0
 10
1221.896842
 20
2006.760506
 42
0.074932
  0
VERTEX
  8
0
 10
1212.169811
 20
2004.575017
 42
0.062553
  0
VERTEX
  8
0
 10
1202.845840
 20
1999.535180
 42
0.061712
  0
VERTEX
  8
0
 10
1194.941464
 20
1992.263234
 42
0.068719
  0
VERTEX
  8
0
 10
1189.382626
 20
1983.524588
 42
0.000000
  0
VERTEX
  8
0
 10
1186.873479
 20
1978.043889
 42
0.000000
  0
VERTEX
  8
0
 10
1181.166006
 20
1978.640438
 42
0.086777
  0
VERTEX
  8
0
 10
1167.780008
 20
1977.715622
 42
0.083448
  0
VERTEX
  8
0
 10
1155.301125
 20
1972.312505
 42
0.082362
  0
VERTEX
  8
0
 10
1145.144305
 20
1963.048173
 42
0.081450
  0
VERTEX
  8
0
 10
1138.474863
 20
1950.967234
 42
0.054885
  0
VERTEX
  8
0
 10
1137.468478
 20
1946.711773
 42
0.018134
  0
VERTEX
  8
0
 10
1136.914102
 20
1940.304067
 42
0.017291
  0
VERTEX
  8
0
 10
1136.816063
 20
1933.963186
 42
0.072178
  0
VERTEX
  8
0
 10
1137.435067
 20
1930.204587
 42
-0.157615
  0
VERTEX
  8
0
 10
1137.428850
 20
1929.037581
 42
-0.137551
  0
VERTEX
  8
0
 10
1136.745618
 20
1928.020174
 42
-0.057984
  0
VERTEX
  8
0
 10
1135.069850
 20
1926.897666
 42
-0.009170
  0
VERTEX
  8
0
 10
1131.507361
 20
1925.150240
 42
0.114704
  0
VERTEX
  8
0
 10
1117.620039
 20
1914.235940
 42
0.110245
  0
VERTEX
  8
0
 10
1109.722888
 20
1898.162944
 42
0.111147
  0
VERTEX
  8
0
 10
1109.443492
 20
1880.366284
 42
0.118212
  0
VERTEX
  8
0
 10
1116.879711
 20
1864.612495
 42
-0.006525
  0
VERTEX
  8
0
 10
1118.075289
 20
1863.082470
 42
-0.009558
  0
VERTEX
  8
0
 10
1119.083415
 20
1861.703098
 42
-0.005486
  0
VERTEX
  8
0
 10
1119.891309
 20
1860.524859
 42
-0.148599
  0
VERTEX
  8
0
 10
1120.000000
 20
1860.167214
 42
-0.156458
  0
VERTEX
  8
0
 10
1119.893397
 20
1859.834877
 42
-0.010434
  0
VERTEX
  8
0
 10
1119.286689
 20
1859.022836
 42
-0.014241
  0
VERTEX
  8
0
 10
1118.501937
 20
1858.073972
 42
-0.010134
  0
VERTEX
  8
0
 10
1117.571709
 20
1857.054719
 42
0.054458
  0
VERTEX
  8
0
 10
1114.855856
 20
1853.491239
 42
0.028754
  0
VERTEX
  8
0
 10
1112.260760
 20
1848.565845
 42
0.027989
  0
VERTEX
  8
0
 10
1110.129559
 20
1843.094906
 42
0.035301
  0
VERTEX
  8
0
 10
1108.812355
 20
1837.825003
 42
0.044186
  0
VERTEX
  8
0
 10
1108.321506
 20
1832.134448
 42
0.035438
  0
VERTEX
  8
0
 10
1108.770829
 20
1826.000153
 42
0.034767
  0
VERTEX
  8
0
 10
1110.102100
 20
1819.858829
 42
0.037950
  0
VERTEX
  8
0
 10
1112.245142
 20
1814.145231
 42
0.061115
  0
VERTEX
  8
0
 10
1115.517627
 20
1808.887999
 42
0.031234
  0
VERTEX
  8
0
 10
1120.774593
 20
1803.145733
 42
0.031240
  0
VERTEX
  8
0
 10
1126.687391
 20
1798.118938
 42
0.062952
  0
VERTEX
  8
0
 10
1132.000000
 20
1795.102570
 42
0.000000
  0
VERTEX
  8
0
 10
1137.500000
 20
1792.837585
 42
0.000000
  0
VERTEX
  8
0
 10
1137.545549
 20
1782.168793
 42
0.007506
  0
VERTEX
  8
0
 10
1137.667474
 20
1775.846130
 42
0.035468
  0
VERTEX
  8
0
 10
1138.048033
 20
1772.242003
 42
0.047821
  0
VERTEX
  8
0
 10
1138.881797
 20
1769.248898
 42
0.021446
  0
VERTEX
  8
0
 10
1140.511754
 20
1765.500000
 42
0.065656
  0
VERTEX
  8
0
 10
1146.303111
 20
1756.739781
 42
0.061434
  0
VERTEX
  8
0
 10
1154.286071
 20
1749.555028
 42
0.062065
  0
VERTEX
  8
0
 10
1163.690351
 20
1744.585475
 42
0.069886
  0
VERTEX
  8
0
 10
1173.656086
 20
1742.329502
 42
0.016375
  0
VERTEX
  8
0
 10
1176.539115
 20
1742.184278
 42
0.014546
  0
VERTEX
  8
0
 10
1179.542023
 20
1742.218834
 42
0.014764
  0
VERTEX
  8
0
 10
1182.242397
 20
1742.408498
 42
0.042734
  0
VERTEX
  8
0
 10
1184.082715
 20
1742.753014
 42
0.000000
  0
VERTEX
  8
0
 10
1187.665430
 20
1743.746406
 42
0.000000
  0
VERTEX
  8
0
 10
1190.432692
 20
1737.394336
 42
0.026061
  0
VERTEX
  8
0
 10
1192.087656
 20
1734.078744
 42
0.030717
  0
VERTEX
  8
0
 10
1193.999479
 20
1731.138204
 42
0.028187
  0
VERTEX
  8
0
 10
1196.396263
 20
1728.259267
 42
0.017031
  0
VERTEX
  8
0
 10
1199.532947
 20
1725.118061
 42
0.034999
  0
VERTEX
  8
0
 10
1205.878509
 20
1719.964669
 42
0.061509
  0
VERTEX
  8
0
 10
1211.836327
 20
1716.792501
 42
0.060000
  0
VERTEX
  8
0
 10
1218.489874
 20
1715.118060
 42
0.031682
  0
VERTEX
  8
0
 10
1227.000000
 20
1714.578281
 42
0.029405
  0
VERTEX
  8
0
 10
1234.666884
 20
1715.029567
 42
0.048012
  0
VERTEX
  8
0
 10
1241.026804
 20
1716.408676
 42
0.052913
  0
VERTEX
  8
0
 10
1246.556098
 20
1718.846243
 42
0.046785
  0
VERTEX
  8
0
 10
1251.702275
 20
1722.477154
 42
-0.007173
  0
VERTEX
  8
0
 10
1254.388317
 20
1724.710341
 42
-0.109532
  0
VERTEX
  8
0
 10
1255.463570
 20
1725.244493
 42
-0.228949
  0
VERTEX
  8
0
 10
1256.341421
 20
1725.059884
 42
-0.044483
  0
VERTEX
  8
0
 10
1257.563892
 20
1723.929400
 42
0.059956
  0
VERTEX
  8
0
 10
1258.714896
 20
1722.929092
 42
0.011389
  0
VERTEX
  8
0
 10
1261.053113
 20
1721.420724
 42
0.012008
  0
VERTEX
  8
0
 10
1263.881709
 20
1719.778086
 42
0.010774
  0
VERTEX
  8
0
 10
1266.889102
 20
1718.210246
 42
0.013263
  0
VERTEX
  8
0
 10
1271.633289
 20
1716.020121
 42
0.049534
  0
VERTEX
  8
0
 10
1274.761679
 20
1715.028406
 42
0.043441
  0
VERTEX
  8
0
 10
1278.219922
 20
1714.607313
 42
0.008585
  0
VERTEX
  8
0
 10
1284.469165
 20
1714.500000
 42
0.008397
  0
VERTEX
  8
0
 10
1290.573206
 20
1714.602520
 42
0.040155
  0
VERTEX
  8
0
 10
1294.032066
 20
1714.998036
 42
0.049166
  0
VERTEX
  8
0
 10
1297.053973
 20
1715.907627
 42
0.016712
  0
VERTEX
  8
0
 10
1301.238951
 20
1717.796871
 42
0.040271
  0
VERTEX
  8
0
 10
1307.253376
 20
1721.385484
 42
0.041618
  0
VERTEX
  8
0
 10
1312.543928
 20
1725.856621
 42
0.042318
  0
VERTEX
  8
0
 10
1316.943054
 20
1731.064947
 42
0.044805
  0
VERTEX
  8
0
 10
1320.308179
 20
1736.844868
 42
0.000000
  0
VERTEX
  8
0
 10
1323.279982
 20
1743.195465
 42
0.000000
  0
VERTEX
  8
0
 10
1328.548725
 20
1742.537179
 42
0.064592
  0
VERTEX
  8
0
 10
1337.831073
 20
1742.580867
 42
0.058502
  0
VERTEX
  8
0
 10
1347.129397
 20
1744.960886
 42
0.057292
  0
VERTEX
  8
0
 10
1355.801601
 20
1749.496831
 42
0.056943
  0
VERTEX
  8
0
 10
1363.238010
 20
1755.890363
 42
0.060240
  0
VERTEX
  8
0
 10
1368.659083
 20
1763.379403
 42
0.053674
  0
VERTEX
  8
0
 10
1372.393206
 20
1772.236460
 42
0.056048
  0
VERTEX
  8
0
 10
1374.029507
 20
1781.240741
 42
0.084669
  0
VERTEX
  8
0
 10
1373.226607
 20
1789.151240
 42
0.000000
  0
VERTEX
  8
0
 10
1372.215753
 20
1792.802480
 42
0.000000
  0
VERTEX
  8
0
 10
1379.466432
 20
1796.385960
 42
0.038625
  0
VERTEX
  8
0
 10
1385.529351
 20
1799.989254
 42
0.046713
  0
VERTEX
  8
0
 10
1390.560941
 20
1804.286128
 42
0.046081
  0
VERTEX
  8
0
 10
1394.759780
 20
1809.493979
 42
0.036018
  0
VERTEX
  8
0
 10
1398.335479
 20
1815.820391
 42
0.017098
  0
VERTEX
  8
0
 10
1400.103707
 20
1819.908365
 42
0.045407
  0
VERTEX
  8
0
 10
1400.992351
 20
1822.960764
 42
0.038531
  0
VERTEX
  8
0
 10
1401.391137
 20
1826.397385
 42
0.009625
  0
VERTEX
  8
0
 10
1401.500000
 20
1832.051863
 42
0.009658
  0
VERTEX
  8
0
 10
1401.386681
 20
1837.918093
 42
0.043911
  0
VERTEX
  8
0
 10
1400.956408
 20
1841.304156
 42
0.048128
  0
VERTEX
  8
0
 10
1399.957811
 20
1844.417922
 42
0.013124
  0
VERTEX
  8
0
 10
1397.789754
 20
1849.110898
 42
0.010816
  0
VERTEX
  8
0
 10
1396.221304
 20
1852.118839
 42
0.012038
  0
VERTEX
  8
0
 10
1394.576841
 20
1854.949091
 42
0.011428
  0
VERTEX
  8
0
 10
1393.066068
 20
1857.289154
 42
0.059845
  0
VERTEX
  8
0
 10
1392.062310
 20
1858.443610
 42
-0.037653
  0
VERTEX
  8
0
 10
1390.895990
 20
1859.670826
 42
-0.217624
  0
VERTEX
  8
0
 10
1390.674979
 20
1860.514778
 42
-0.116869
  0
VERTEX
  8
0
 10
1391.112608
 20
1861.535256
 42
-0.008012
  0
VERTEX
  8
0
 10
1393.038556
 20
1864.048681
 42
0.022616
  0
VERTEX
  8
0
 10
1394.380130
 20
1865.909597
 42
0.010548
  0
VERTEX
  8
0
 10
1395.955789
 20
1868.432269
 42
0.010426
  0
VERTEX
  8
0
 10
1397.500648
 20
1871.153313
 42
0.014351
  0
VERTEX
  8
0
 10
1398.766000
 20
1873.664106
 42
0.022536
  0
VERTEX
  8
0
 10
1400.247145
 20
1877.236348
 42
0.044286
  0
VERTEX
  8
0
 10
1401.035753
 20
1880.207087
 42
0.034086
  0
VERTEX
  8
0
 10
1401.400113
 20
1883.738426
 42
0.008668
  0
VERTEX
  8
0
 10
1401.500000
 20
1889.500000
 42
0.008668
  0
VERTEX
  8
0
 10
1401.400113
 20
1895.261574
 42
0.034086
  0
VERTEX
  8
0
 10
1401.035753
 20
1898.792913
 42
0.044286
  0
VERTEX
  8
0
 10
1400.247145
 20
1901.763652
 42
0.022536
  0
VERTEX
  8
0
 10
1398.766000
 20
1905.335894
 42
0.014601
  0
VERTEX
  8
0
 10
1397.496244
 20
1907.852298
 42
0.010468
  0
VERTEX
  8
0
 10
1395.937629
 20
1910.590659
 42
0.010584
  0
VERTEX
  8
0
 10
1394.342292
 20
1913.137807
 42
0.022287
  0
VERTEX
  8
0
 10
1392.976737
 20
1915.029371
 42
0.050729
  0
VERTEX
  8
0
 10
1389.550296
 20
1918.554355
 42
0.021772
  0
VERTEX
  8
0
 10
1384.338029
 20
1922.555248
 42
0.020729
  0
VERTEX
  8
0
 10
1378.967950
 20
1925.994840
 42
0.078163
  0
VERTEX
  8
0
 10
1375.257499
 20
1927.443444
 42
0.000000
  0
VERTEX
  8
0
 10
1372.500000
 20
1928.049092
 42
0.000000
  0
VERTEX
  8
0
 10
1372.500000
 20
1938.795574
 42
0.007289
  0
VERTEX
  8
0
 10
1372.404270
 20
1945.361542
 42
0.038887
  0
VERTEX
  8
0
 10
1372.021970
 20
1948.924411
 42
0.050558
  0
VERTEX
  8
0
 10
1371.130912
 20
1951.958440
 42
0.017697
  0
VERTEX
  8
0
 10
1369.266372
 20
1956.110486
 42
0.046594
  0
VERTEX
  8
0
 10
1365.664395
 20
1961.977703
 42
0.037455
  0
VERTEX
  8
0
 10
1360.787201
 20
1967.554396
 42
0.037520
  0
VERTEX
  8
0
 10
1355.143825
 20
1972.330293
 42
0.047307
  0
VERTEX
  8
0
 10
1349.252644
 20
1975.804113
 42
0.023627
  0
VERTEX
  8
0
 10
1345.681137
 20
1977.276362
 42
0.045321
  0
VERTEX
  8
0
 10
1342.683531
 20
1978.051914
 42
0.033118
  0
VERTEX
  8
0
 10
1339.031844
 20
1978.404962
 42
0.007592
  0
VERTEX
  8
0
 10
1332.831269
 20
1978.497891
 42
0.000000
  0
VERTEX
  8
0
 10
1322.162537
 20
1978.495783
 42
0.000000
  0
VERTEX
  8
0
 10
1320.082962
 20
1983.513131
 42
0.076330
  0
VERTEX
  8
0
 10
1315.166814
 20
1991.617009
 42
0.057039
  0
VERTEX
  8
0
 10
1307.576741
 20
1998.819286
 42
0.056944
  0
VERTEX
  8
0
 10
1298.539487
 20
2004.132198
 42
0.075332
  0
VERTEX
  8
0
 10
1289.344082
 20
2006.650599
 42
-0.015159
  0
VERTEX
  8
0
 10
1286.040195
 20
2007.140662
 42
-0.126653
  0
VERTEX
  8
0
 10
1284.677751
 20
2007.764743
 42
-0.136552
  0
VERTEX
  8
0
 10
1283.834284
 20
2008.951554
 42
-0.018632
  0
VERTEX
  8
0
 10
1282.899441
 20
2011.878148
 42
0.082012
  0
VERTEX
  8
0
 10
1280.684791
 20
2016.636787
 42
0.045736
  0
VERTEX
  8
0
 10
1276.602363
 20
2021.576636
 42
0.045251
  0
VERTEX
  8
0
 10
1271.595195
 20
2025.779561
 42
0.069979
  0
VERTEX
  8
0
 10
1266.563372
 20
2028.323707
 42
0.044189
  0
VERTEX
  8
0
 10
1261.883150
 20
2029.469409
 42
0.037491
  0
VERTEX
  8
0
 10
1256.806547
 20
2029.860094
 42
0.036754
  0
VERTEX
  8
0
 10
1251.620933
 20
2029.488080
 42
0.038225
  0
SEQEND
  0
POLYLINE
  8
0
 66
1
 70
1
  0
VERTEX
  8
0
 10
1264.750000
 20
2012.443564
 42
-0.176760
  0
VERTEX
  8
0
 10
1267.913207
 20
2005.182745
 42
-0.180487
  0
VERTEX
  8
0
 10
1265.619553
 20
1997.666263
 42
-0.178463
  0
VERTEX
  8
0
 10
1258.932466
 20
1993.433784
 42
-0.173800
  0
VERTEX
  8
0
 10
1251.011044
 20
1994.494289
 42
-0.058640
  0
VERTEX
  8
0
 10
1248.372765
 20
1996.277612
 42
-0.077165
  0
VERTEX
  8
0
 10
1246.492223
 20
1998.486731
 42
-0.077676
  0
VERTEX
  8
0
 10
1245.378246
 20
2001.149990
 42
-0.060353
  0
VERTEX
  8
0
 10
1245.000000
 20
2004.272166
 42
-0.062029
  0
VERTEX
  8
0
 10
1245.535153
 20
2008.569313
 42
-0.098381
  0
VERTEX
  8
0
 10
1247.122825
 20
2011.907643
 42
-0.095726
  0
VERTEX
  8
0
 10
1249.903386
 20
2014.445862
 42
-0.056144
  0
VERTEX
  8
0
 10
1254.000000
 20
2016.358602
 42
-0.102698
  0
VERTEX
  8
0
 10
1256.496142
 20
2016.659527
 42
-0.066236
  0
VERTEX
  8
0
 10
1259.350708
 20
2016.030236
 42
-0.060172
  0
VERTEX
  8
0
 10
1262.217606
 20
2014.575900
 42
-0.055149
  0
SEQEND
  0
POLYLINE
  8
0
 66
1
 70
1
  0
VERTEX
  8
0
 10
248.777457
 20
1634.900513
 42
0.000000
  0
VERTEX
  8
0
 10
248.500000
 20
1620.801025
 42
0.000000
  0
VERTEX
  8
0
 10
239.500000
 20
1618.470275
 42
0.054845
  0
VERTEX
  8
0
 10
215.370857
 20
1609.305690
 42
0.052438
  0
VERTEX
  8
0
 10
193.414386
 20
1595.003704
 42
0.052261
  0
VERTEX
  8
0
 10
174.847672
 20
1576.394141
 42
0.053705
  0
VERTEX
  8
0
 10
160.736454
 20
1554.500000
 42
0.022027
  0
VERTEX
  8
0
 10
158.120641
 20
1548.660683
 42
0.010162
  0
VERTEX
  8
0
 10
155.212037
 20
1540.857462
 42
0.010126
  0
VERTEX
  8
0
 10
152.639335
 20
1532.994586
 42
0.023705
  0
VERTEX
  8
0
 10
151.117826
 20
1527.000000
 42
0.032556
  0
VERTEX
  8
0
 10
149.292652
 20
1513.669980
 42
0.022152
  0
VERTEX
  8
0
 10
148.884000
 20
1498.363021
 42
0.022275
  0
VERTEX
  8
0
 10
149.824201
 20
1483.253965
 42
0.035768
  0
VERTEX
  8
0
 10
152.111710
 20
1470.553026
 42
0.072372
  0
VERTEX
  8
0
 10
165.482139
 20
1438.409802
 42
0.071498
  0
VERTEX
  8
0
 10
187.501821
 20
1411.259907
 42
0.071477
  0
VERTEX
  8
0
 10
216.283223
 20
1391.404485
 42
0.072259
  0
VERTEX
  8
0
 10
249.385369
 20
1380.547951
 42
0.027520
  0
VERTEX
  8
0
 10
258.906682
 20
1379.422834
 42
0.015633
  0
VERTEX
  8
0
 10
270.506026
 20
1379.059270
 42
0.015647
  0
VERTEX
  8
0
 10
281.995987
 20
1379.418126
 42
0.030065
  0
VERTEX
  8
0
 10
291.139532
 20
1380.545025
 42
0.075228
  0
VERTEX
  8
0
 10
327.019559
 20
1392.951693
 42
0.078005
  0
VERTEX
  8
0
 10
357.124998
 20
1415.309460
 42
0.078069
  0
VERTEX
  8
0
 10
378.914074
 20
1445.797968
 42
0.075528
  0
VERTEX
  8
0
 10
390.616185
 20
1481.844043
 42
0.031413
  0
VERTEX
  8
0
 10
391.617066
 20
1491.786191
 42
0.015596
  0
VERTEX
  8
0
 10
391.697402
 20
1504.462055
 42
0.015489
  0
VERTEX
  8
0
 10
391.001573
 20
1516.913085
 42
0.037500
  0
VERTEX
  8
0
 10
389.518633
 20
1526.000000
 42
0.063507
  0
VERTEX
  8
0
 10
377.139694
 20
1558.533921
 42
0.069809
  0
VERTEX
  8
0
 10
357.283294
 20
1585.778241
 42
0.070646
  0
VERTEX
  8
0
 10
330.925264
 20
1606.257434
 42
0.067464
  0
VERTEX
  8
0
 10
299.500000
 20
1618.982570
 42
0.000000
  0
VERTEX
  8
0
 10
292.500000
 20
1620.770167
 42
0.000000
  0
VERTEX
  8
0
 10
292.222543
 20
1634.885083
 42
0.000000
  0
VERTEX
  8
0
 10
291.945087
 20
1649.000000
 42
0.000000
  0
VERTEX
  8
0
 10
270.500000
 20
1649.000000
 42
0.000000
  0
VERTEX
  8
0
 10
249.054913
 20
1649.000000
 42
0.000000
  0
SEQEND
  0
POLYLINE
  8
0
 66
1
 70
1
  0
VERTEX
  8
0
 10
277.250000
 20
1634.187816
 42
-0.038610
  0
VERTEX
  8
0
 10
278.575046
 20
1632.747079
 42
-0.065812
  0
VERTEX
  8
0
 10
279.407613
 20
1631.342193
 42
-0.064775
  0
VERTEX
  8
0
 10
279.854494
 20
1629.753323
 42
-0.036217
  0
VERTEX
  8
0
 10
280.000000
 20
1627.747167
 42
-0.041061
  0
VERTEX
  8
0
 10
279.729154
 20
1624.454614
 42
-0.082768
  0
VERTEX
  8
0
 10
278.889258
 20
1621.997017
 42
-0.091186
  0
VERTEX
  8
0
 10
277.363732
 20
1620.096349
 42
-0.058902
  0
VERTEX
  8
0
 10
275.020016
 20
1618.510350
 42
-0.056892
  0
VERTEX
  8
0
 10
271.738620
 20
1617.261764
 42
-0.103147
  0
VERTEX
  8
0
 10
268.881312
 20
1617.134934
 42
-0.101901
  0
VERTEX
  8
0
 10
266.188008
 20
1618.161976
 42
-0.054551
  0
VERTEX
  8
0
 10
263.400000
 20
1620.400000
 42
-0.101300
  0
VERTEX
  8
0
 10
260.671980
 20
1624.532332
 42
-0.133223
  0
VERTEX
  8
0
 10
260.148191
 20
1629.000619
 42
-0.135078
  0
VERTEX
  8
0
 10
261.952301
 20
1633.076311
 42
-0.105512
  0
VERTEX
  8
0
 10
265.746046
 20
1636.114743
 42
-0.070550
  0
VERTEX
  8
0
 10
268.745992
 20
1637.122828
 42
-0.087541
  0
VERTEX
  8
0
 10
271.686211
 20
1637.148337
 42
-0.084722
  0
VERTEX
  8
0
 10
274.530848
 20
1636.158054
 42
-0.061572
  0
SEQEND
  0
POLYLINE
  8
0
 66
1
 70
1
  0
VERTEX
  8
0
 10
282.026234
 20
1602.959119
 42
-0.077528
  0
VERTEX
  8
0
 10
313.532842
 20
1594.002566
 42
-0.079844
  0
VERTEX
  8
0
 10
340.459730
 20
1575.932010
 42
-0.079850
  0
VERTEX
  8
0
 10
360.367002
 20
1550.335821
 42
-0.077557
  0
VERTEX
  8
0
 10
371.499893
 20
1519.536777
 42
-0.035385
  0
VERTEX
  8
0
 10
372.730909
 20
1509.438823
 42
-0.020681
  0
VERTEX
  8
0
 10
372.843255
 20
1497.243836
 42
-0.020671
  0
VERTEX
  8
0
 10
371.946527
 20
1485.062009
 42
-0.034899
  0
VERTEX
  8
0
 10
370.067844
 20
1475.000000
 42
-0.037138
  0
VERTEX
  8
0
 10
365.584044
 20
1461.849365
 42
-0.030845
  0
VERTEX
  8
0
 10
358.960297
 20
1448.630288
 42
-0.031173
  0
VERTEX
  8
0
 10
350.860806
 20
1436.494186
 42
-0.040951
  0
VERTEX
  8
0
 10
341.955758
 20
1426.597075
 42
-0.094912
  0
VERTEX
  8
0
 10
307.946770
 20
1404.942089
 42
-0.097403
  0
VERTEX
  8
0
 10
268.657550
 20
1397.648455
 42
-0.098172
  0
VERTEX
  8
0
 10
229.783803
 20
1405.786238
 42
-0.098084
  0
VERTEX
  8
0
 10
196.941049
 20
1428.140499
 42
-0.111331
  0
VERTEX
  8
0
 10
173.154304
 20
1466.429958
 42
-0.109517
  0
VERTEX
  8
0
 10
167.908430
 20
1511.459917
 42
-0.110167
  0
VERTEX
  8
0
 10
182.176004
 20
1554.278541
 42
-0.113816
  0
VERTEX
  8
0
 10
213.168460
 20
1586.384982
 42
-0.040851
  0
VERTEX
  8
0
 10
229.486578
 20
1595.188439
 42
-0.044247
  0
VERTEX
  8
0
 10
246.594882
 20
1600.946277
 42
-0.044925
  0
VERTEX
  8
0
 10
264.207934
 20
1603.543730
 42
-0.044743
  0
SEQEND
  0
POLYLINE
  8
0
 66
1
 70
1
  0
VERTEX
  8
0
 10
521.777457
 20
1634.885083
 42
0.000000
  0
VERTEX
  8
0
 10
521.500000
 20
1620.770167
 42
0.000000
  0
VERTEX
  8
0
 10
514.500000
 20
1618.982570
 42
0.069982
  0
VERTEX
  8
0
 10
481.925093
 20
1605.601517
 42
0.071934
  0
VERTEX
  8
0
 10
454.645953
 20
1583.850633
 42
0.072125
  0
VERTEX
  8
0
 10
434.702570
 20
1555.319301
 42
0.070947
  0
VERTEX
  8
0
 10
423.545025
 20
1522.139532
 42
0.030577
  0
VERTEX
  8
0
 10
422.411693
 20
1512.865683
 42
0.015136
  0
VERTEX
  8
0
 10
422.053445
 20
1501.006904
 42
0.015139
  0
VERTEX
  8
0
 10
422.416673
 20
1489.040624
 42
0.028014
  0
VERTEX
  8
0
 10
423.547951
 20
1479.385369
 42
0.072638
  0
VERTEX
  8
0
 10
434.368401
 20
1446.476988
 42
0.071662
  0
VERTEX
  8
0
 10
454.183874
 20
1417.868358
 42
0.071263
  0
VERTEX
  8
0
 10
481.382192
 20
1395.889251
 42
0.070531
  0
VERTEX
  8
0
 10
513.750547
 20
1382.335584
 42
0.034839
  0
VERTEX
  8
0
 10
524.864745
 20
1380.243354
 42
0.019540
  0
VERTEX
  8
0
 10
538.575508
 20
1379.180754
 42
0.019514
  0
VERTEX
  8
0
 10
552.403693
 20
1379.191143
 42
0.033161
  0
VERTEX
  8
0
 10
563.901166
 20
1380.415299
 42
0.074271
  0
VERTEX
  8
0
 10
598.759905
 20
1391.991885
 42
0.075976
  0
VERTEX
  8
0
 10
628.412523
 20
1413.186757
 42
0.075877
  0
VERTEX
  8
0
 10
650.410680
 20
1442.298767
 42
0.073784
  0
VERTEX
  8
0
 10
662.984393
 20
1476.923414
 42
0.029893
  0
VERTEX
  8
0
 10
664.519414
 20
1487.717274
 42
0.019830
  0
VERTEX
  8
0
 10
665.042888
 20
1500.221154
 42
0.019793
  0
VERTEX
  8
0
 10
664.573311
 20
1512.772049
 42
0.029038
  0
VERTEX
  8
0
 10
663.086621
 20
1523.714542
 42
0.055574
  0
VERTEX
  8
0
 10
654.903957
 20
1549.785017
 42
0.055724
  0
VERTEX
  8
0
 10
641.185707
 20
1573.387583
 42
0.056134
  0
VERTEX
  8
0
 10
622.702441
 20
1593.228915
 42
0.058046
  0
VERTEX
  8
0
 10
600.463608
 20
1608.206396
 42
0.010581
  0
VERTEX
  8
0
 10
592.761499
 20
1611.980125
 42
0.016260
  0
VERTEX
  8
0
 10
585.928499
 20
1614.884436
 42
0.017648
  0
VERTEX
  8
0
 10
579.365826
 20
1617.162399
 42
0.016420
  0
VERTEX
  8
0
 10
572.500000
 20
1619.032803
 42
0.000000
  0
VERTEX
  8
0
 10
565.500000
 20
1620.694947
 42
0.000000
  0
VERTEX
  8
0
 10
565.222543
 20
1634.847474
 42
0.000000
  0
VERTEX
  8
0
 10
564.945087
 20
1649.000000
 42
0.000000
  0
VERTEX
  8
0
 10
543.500000
 20
1649.000000
 42
0.000000
  0
VERTEX
  8
0
 10
522.054913
 20
1649.000000
 42
0.000000
  0
SEQEND
  0
POLYLINE
  8
0
 66
1
 70
1
  0
VERTEX
  8
0
 10
549.974541
 20
1635.515735
 42
-0.119116
  0
VERTEX
  8
0
 10
551.538548
 20
1633.935091
 42
-0.049248
  0
VERTEX
  8
0
 10
552.841068
 20
1631.200911
 42
-0.048661
  0
VERTEX
  8
0
 10
553.617252
 20
1628.147323
 42
-0.084479
  0
VERTEX
  8
0
 10
553.573191
 20
1625.538450
 42
-0.180051
  0
VERTEX
  8
0
 10
550.131507
 20
1619.819325
 42
-0.164575
  0
VERTEX
  8
0
 10
543.641601
 20
1617.475633
 42
-0.165469
  0
VERTEX
  8
0
 10
537.087836
 20
1619.557916
 42
-0.181709
  0
VERTEX
  8
0
 10
533.471503
 20
1625.129744
 42
-0.104696
  0
VERTEX
  8
0
 10
533.445854
 20
1628.517372
 42
-0.078461
  0
VERTEX
  8
0
 10
534.755498
 20
1632.021558
 42
-0.078836
  0
VERTEX
  8
0
 10
537.072588
 20
1634.936571
 42
-0.107720
  0
VERTEX
  8
0
 10
539.962711
 20
1636.619190
 42
-0.057142
  0
VERTEX
  8
0
 10
542.456846
 20
1637.120764
 42
-0.048555
  0
VERTEX
  8
0
 10
545.144110
 20
1637.086531
 42
-0.049074
  0
VERTEX
  8
0
 10
547.743057
 20
1636.538446
 42
-0.061995
  0
SEQEND
  0
POLYLINE
  8
0
 66
1
 70
1
  0
VERTEX
  8
0
 10
568.792554
 20
1600.455744
 42
-0.034014
  0
VERTEX
  8
0
 10
581.837417
 20
1596.191219
 42
-0.033214
  0
VERTEX
  8
0
 10
594.292018
 20
1590.169330
 42
-0.033208
  0
VERTEX
  8
0
 10
605.841630
 20
1582.550087
 42
-0.033974
  0
VERTEX
  8
0
 10
616.187670
 20
1573.522007
 42
-0.099538
  0
VERTEX
  8
0
 10
638.969047
 20
1539.273793
 42
-0.101273
  0
VERTEX
  8
0
 10
646.558495
 20
1499.095635
 42
-0.101321
  0
VERTEX
  8
0
 10
637.753694
 20
1459.181526
 42
-0.099730
  0
VERTEX
  8
0
 10
613.945809
 20
1425.682397
 42
-0.045155
  0
VERTEX
  8
0
 10
598.283792
 20
1413.429508
 42
-0.050538
  0
VERTEX
  8
0
 10
581.235988
 20
1404.713200
 42
-0.050153
  0
VERTEX
  8
0
 10
562.670311
 20
1399.546531
 42
-0.043324
  0
VERTEX
  8
0
 10
542.500000
 20
1397.835879
 42
-0.022151
  0
VERTEX
  8
0
 10
531.957047
 20
1398.324169
 42
-0.028109
  0
VERTEX
  8
0
 10
522.316386
 20
1399.749465
 42
-0.027627
  0
VERTEX
  8
0
 10
512.763696
 20
1402.272505
 42
-0.020257
  0
VERTEX
  8
0
 10
502.480323
 20
1406.072569
 42
-0.043239
  0
VERTEX
  8
0
 10
489.913578
 20
1412.629391
 42
-0.033281
  0
VERTEX
  8
0
 10
477.443324
 20
1421.795672
 42
-0.033090
  0
VERTEX
  8
0
 10
466.214334
 20
1432.609356
 42
-0.040995
  0
VERTEX
  8
0
 10
457.363337
 20
1444.105182
 42
-0.062086
  0
VERTEX
  8
0
 10
445.941958
 20
1467.738534
 42
-0.063282
  0
VERTEX
  8
0
 10
440.766633
 20
1493.299716
 42
-0.063689
  0
VERTEX
  8
0
 10
442.162051
 20
1519.194780
 42
-0.064336
  0
VERTEX
  8
0
 10
450.034658
 20
1543.810797
 42
-0.059680
  0
VERTEX
  8
0
 10
463.494699
 20
1565.411662
 42
-0.062044
  0
VERTEX
  8
0
 10
481.521523
 20
1582.905612
 42
-0.061971
  0
VERTEX
  8
0
 10
503.309780
 20
1595.458518
 42
-0.059296
  0
VERTEX
  8
0
 10
527.835499
 20
1602.522873
 42
-0.031115
  0
VERTEX
  8
0
 10
537.339317
 20
1603.474351
 42
-0.022004
  0
VERTEX
  8
0
 10
548.068163
 20
1603.405387
 42
-0.021771
  0
VERTEX
  8
0
 10
558.916710
 20
1602.383016
 42
-0.027622
  0
SEQEND
  0
POLYLINE
  8
0
 66
1
 70
1
  0
VERTEX
  8
0
 10
794.987662
 20
1634.750000
 42
0.000000
  0
VERTEX
  8
0
 10
794.975324
 20
1620.500000
 42
0.000000
  0
VERTEX
  8
0
 10
786.237662
 20
1618.384556
 42
0.031860
  0
VERTEX
  8
0
 10
773.284626
 20
1614.360200
 42
0.029128
  0
VERTEX
  8
0
 10
760.540815
 20
1608.620638
 42
0.028671
  0
VERTEX
  8
0
 10
748.350228
 20
1601.334192
 42
0.028513
  0
VERTEX
  8
0
 10
737.049735
 20
1592.688625
 42
0.019890
  0
VERTEX
  8
0
 10
730.324701
 20
1586.425408
 42
0.020458
  0
VERTEX
  8
0
 10
724.184277
 20
1579.703957
 42
0.019532
  0
VERTEX
  8
0
 10
718.369217
 20
1572.215767
 42
0.015152
  0
VERTEX
  8
0
 10
712.618982
 20
1563.644813
 42
0.058955
  0
VERTEX
  8
0
 10
701.671539
 20
1540.561930
 42
0.052834
  0
VERTEX
  8
0
 10
695.899378
 20
1514.689354
 42
0.052545
  0
VERTEX
  8
0
 10
695.661082
 20
1488.037794
 42
0.056868
  0
VERTEX
  8
0
 10
701.062611
 20
1462.653727
 42
0.076381
  0
VERTEX
  8
0
 10
718.579920
 20
1428.653502
 42
0.078940
  0
VERTEX
  8
0
 10
745.333203
 20
1401.919587
 42
0.079264
  0
VERTEX
  8
0
 10
778.950959
 20
1384.873108
 42
0.077929
  0
VERTEX
  8
0
 10
816.404468
 20
1379.000000
 42
0.044871
  0
VERTEX
  8
0
 10
839.735492
 20
1381.098002
 42
0.048484
  0
VERTEX
  8
0
 10
861.693820
 20
1387.323322
 42
0.048818
  0
VERTEX
  8
0
 10
881.911822
 20
1397.611414
 42
0.046684
  0
VERTEX
  8
0
 10
900.081889
 20
1411.758979
 42
0.040535
  0
VERTEX
  8
0
 10
913.254356
 20
1426.333728
 42
0.039222
  0
VERTEX
  8
0
 10
924.064621
 20
1442.997772
 42
0.039299
  0
VERTEX
  8
0
 10
932.121521
 20
1461.111750
 42
0.041071
  0
VERTEX
  8
0
 10
937.102909
 20
1480.000000
 42
0.031269
  0
VERTEX
  8
0
 10
938.086067
 20
1488.644591
 42
0.012682
  0
VERTEX
  8
0
 10
938.386824
 20
1500.500000
 42
0.012682
  0
VERTEX
  8
0
 10
938.086067
 20
1512.355409
 42
0.031269
  0
VERTEX
  8
0
 10
937.102909
 20
1521.000000
 42
0.071786
  0
VERTEX
  8
0
 10
926.157318
 20
1554.130451
 42
0.070303
  0
VERTEX
  8
0
 10
906.235130
 20
1583.076986
 42
0.070744
  0
VERTEX
  8
0
 10
879.202614
 20
1605.223788
 42
0.074271
  0
VERTEX
  8
0
 10
847.500000
 20
1618.510050
 42
0.000000
  0
VERTEX
  8
0
 10
838.500000
 20
1620.794562
 42
0.000000
  0
VERTEX
  8
0
 10
838.222543
 20
1634.897281
 42
0.000000
  0
VERTEX
  8
0
 10
837.945087
 20
1649.000000
 42
0.000000
  0
VERTEX
  8
0
 10
816.472543
 20
1649.000000
 42
0.000000
  0
VERTEX
  8
0
 10
795.000000
 20
1649.000000
 42
0.000000
  0
SEQEND
  0
POLYLINE
  8
0
 66
1
 70
1
  0
VERTEX
  8
0
 10
824.750000
 20
1633.461856
 42
-0.091409
  0
VERTEX
  8
0
 10
826.593488
 20
1630.359379
 42
-0.110863
  0
VERTEX
  8
0
 10
827.041220
 20
1627.013052
 42
-0.103538
  0
VERTEX
  8
0
 10
826.014045
 20
1623.622434
 42
-0.071345
  0
VERTEX
  8
0
 10
823.600000
 20
1620.400000
 42
-0.054551
  0
VERTEX
  8
0
 10
820.811992
 20
1618.161976
 42
-0.101901
  0
VERTEX
  8
0
 10
818.118688
 20
1617.134934
 42
-0.103147
  0
VERTEX
  8
0
 10
815.261380
 20
1617.261764
 42
-0.056892
  0
VERTEX
  8
0
 10
811.979984
 20
1618.510350
 42
-0.058902
  0
VERTEX
  8
0
 10
809.636268
 20
1620.096349
 42
-0.091186
  0
VERTEX
  8
0
 10
808.110742
 20
1621.997017
 42
-0.082768
  0
VERTEX
  8
0
 10
807.270846
 20
1624.454614
 42
-0.041061
  0
VERTEX
  8
0
 10
807.000000
 20
1627.747167
 42
-0.093958
  0
VERTEX
  8
0
 10
807.580986
 20
1630.811613
 42
-0.073964
  0
VERTEX
  8
0
 10
809.269928
 20
1633.745126
 42
-0.074789
  0
VERTEX
  8
0
 10
811.716528
 20
1636.030990
 42
-0.100646
  0
VERTEX
  8
0
 10
814.500000
 20
1637.212848
 42
-0.081700
  0
VERTEX
  8
0
 10
817.093758
 20
1637.311137
 42
-0.056473
  0
VERTEX
  8
0
 10
819.953983
 20
1636.617292
 42
-0.055429
  0
VERTEX
  8
0
 10
822.647412
 20
1635.277602
 42
-0.070124
  0
SEQEND
  0
POLYLINE
  8
0
 66
1
 70
1
  0
VERTEX
  8
0
 10
837.879571
 20
1601.525333
 42
-0.069900
  0
VERTEX
  8
0
 10
864.642579
 20
1591.849766
 42
-0.069403
  0
VERTEX
  8
0
 10
887.776096
 20
1575.157046
 42
-0.068938
  0
VERTEX
  8
0
 10
905.582960
 20
1552.657339
 42
-0.067444
  0
VERTEX
  8
0
 10
916.764052
 20
1526.000000
 42
-0.014595
  0
VERTEX
  8
0
 10
918.138859
 20
1520.213880
 42
-0.026125
  0
VERTEX
  8
0
 10
918.877844
 20
1515.384853
 42
-0.019814
  0
VERTEX
  8
0
 10
919.220155
 20
1509.685529
 42
-0.005150
  0
VERTEX
  8
0
 10
919.312619
 20
1500.500000
 42
-0.012874
  0
VERTEX
  8
0
 10
919.009444
 20
1488.833029
 42
-0.032649
  0
VERTEX
  8
0
 10
918.020128
 20
1480.415978
 42
-0.033047
  0
VERTEX
  8
0
 10
915.951525
 20
1472.258356
 42
-0.013476
  0
VERTEX
  8
0
 10
912.118439
 20
1461.469202
 42
-0.065450
  0
VERTEX
  8
0
 10
901.200196
 20
1441.437208
 42
-0.054727
  0
VERTEX
  8
0
 10
884.874843
 20
1423.525144
 42
-0.054507
  0
VERTEX
  8
0
 10
864.975150
 20
1409.514214
 42
-0.063626
  0
VERTEX
  8
0
 10
843.502191
 20
1401.000560
 42
-0.084471
  0
VERTEX
  8
0
 10
807.683089
 20
1398.062319
 42
-0.086997
  0
VERTEX
  8
0
 10
773.301791
 20
1407.217817
 42
-0.087662
  0
VERTEX
  8
0
 10
744.291426
 20
1427.437059
 42
-0.087474
  0
VERTEX
  8
0
 10
723.940140
 20
1456.386666
 42
-0.019909
  0
VERTEX
  8
0
 10
719.611833
 20
1466.669545
 42
-0.030582
  0
VERTEX
  8
0
 10
716.781402
 20
1475.902729
 42
-0.030517
  0
VERTEX
  8
0
 10
715.094618
 20
1485.426513
 42
-0.019716
  0
VERTEX
  8
0
 10
714.256856
 20
1496.597958
 42
-0.025106
  0
VERTEX
  8
0
 10
714.463799
 20
1510.600390
 42
-0.036018
  0
VERTEX
  8
0
 10
716.157771
 20
1522.889085
 42
-0.036514
  0
VERTEX
  8
0
 10
719.573790
 20
1534.680432
 42
-0.026837
  0
VERTEX
  8
0
 10
724.982972
 20
1547.172205
 42
-0.060595
  0
VERTEX
  8
0
 10
737.962719
 20
1566.839593
 42
-0.056727
  0
VERTEX
  8
0
 10
755.541785
 20
1583.317447
 42
-0.057069
  0
VERTEX
  8
0
 10
776.262696
 20
1595.339591
 42
-0.062925
  0
VERTEX
  8
0
 10
798.500000
 20
1601.879458
 42
0.000278
  0
VERTEX
  8
0
 10
801.363286
 20
1602.344179
 42
0.000292
  0
VERTEX
  8
0
 10
804.178125
 20
1602.804329
 42
0.000279
  0
VERTEX
  8
0
 10
806.606137
 20
1603.204091
 42
0.001313
  0
VERTEX
  8
0
 10
808.000000
 20
1603.438148
 42
-0.049634
  0
VERTEX
  8
0
 10
812.808594
 20
1603.774372
 42
-0.008638
  0
VERTEX
  8
0
 10
821.908891
 20
1603.349496
 42
-0.009915
  0
VERTEX
  8
0
 10
831.237756
 20
1602.566279
 42
-0.025942
  0
SEQEND
  0
POLYLINE
  8
0
 66
1
 70
1
  0
VERTEX
  8
0
 10
1068.777457
 20
1634.897281
 42
0.000000
  0
VERTEX
  8
0
 10
1068.500000
 20
1620.794562
 42
0.000000
  0
VERTEX
  8
0
 10
1059.500000
 20
1618.510050
 42
0.062698
  0
VERTEX
  8
0
 10
1032.588673
 20
1607.953810
 42
0.059171
  0
VERTEX
  8
0
 10
1008.550100
 20
1590.891962
 42
0.059088
  0
VERTEX
  8
0
 10
989.147274
 20
1568.648706
 42
0.062171
  0
VERTEX
  8
0
 10
975.875934
 20
1542.847526
 42
0.068660
  0
VERTEX
  8
0
 10
968.653968
 20
1509.583039
 42
0.070224
  0
VERTEX
  8
0
 10
970.798693
 20
1475.870533
 42
0.070393
  0
VERTEX
  8
0
 10
982.177606
 20
1444.137885
 42
0.069531
  0
VERTEX
  8
0
 10
1001.948614
 20
1416.659232
 42
0.099555
  0
VERTEX
  8
0
 10
1041.267394
 20
1389.189949
 42
0.098759
  0
VERTEX
  8
0
 10
1088.262070
 20
1378.953529
 42
0.099119
  0
VERTEX
  8
0
 10
1135.447058
 20
1387.539872
 42
0.101077
  0
VERTEX
  8
0
 10
1175.318472
 20
1413.609147
 42
0.043674
  0
VERTEX
  8
0
 10
1190.171867
 20
1431.137819
 42
0.047928
  0
VERTEX
  8
0
 10
1201.235171
 20
1450.464950
 42
0.048059
  0
VERTEX
  8
0
 10
1208.393567
 20
1471.496252
 42
0.044358
  0
VERTEX
  8
0
 10
1211.654286
 20
1494.084278
 42
0.086403
  0
VERTEX
  8
0
 10
1206.749081
 20
1535.577644
 42
0.086621
  0
VERTEX
  8
0
 10
1188.109001
 20
1572.931412
 42
0.086384
  0
VERTEX
  8
0
 10
1157.862648
 20
1601.839957
 42
0.085311
  0
VERTEX
  8
0
 10
1119.500000
 20
1618.982570
 42
0.000000
  0
VERTEX
  8
0
 10
1112.500000
 20
1620.770167
 42
0.000000
  0
VERTEX
  8
0
 10
1112.222543
 20
1634.885083
 42
0.000000
  0
VERTEX
  8
0
 10
1111.945087
 20
1649.000000
 42
0.000000
  0
VERTEX
  8
0
 10
1090.500000
 20
1649.000000
 42
0.000000
  0
VERTEX
  8
0
 10
1069.054913
 20
1649.000000
 42
0.000000
  0
SEQEND
  0
POLYLINE
  8
0
 66
1
 70
1
  0
VERTEX
  8
0
 10
1097.510963
 20
1633.804602
 42
-0.078671
  0
VERTEX
  8
0
 10
1099.105748
 20
1631.159045
 42
-0.065853
  0
VERTEX
  8
0
 10
1099.930134
 20
1627.982918
 42
-0.066858
  0
VERTEX
  8
0
 10
1099.894323
 20
1624.751572
 42
-0.086917
  0
VERTEX
  8
0
 10
1098.970356
 20
1621.944609
 42
-0.101860
  0
VERTEX
  8
0
 10
1097.494885
 20
1620.172885
 42
-0.048626
  0
VERTEX
  8
0
 10
1094.998112
 20
1618.550656
 42
-0.047649
  0
VERTEX
  8
0
 10
1092.118138
 20
1617.387700
 42
-0.072265
  0
VERTEX
  8
0
 10
1089.449660
 20
1617.000000
 42
-0.139506
  0
VERTEX
  8
0
 10
1086.377987
 20
1617.874042
 42
-0.068179
  0
VERTEX
  8
0
 10
1083.212527
 20
1620.489760
 42
-0.067132
  0
VERTEX
  8
0
 10
1080.809443
 20
1623.928084
 42
-0.119548
  0
VERTEX
  8
0
 10
1080.000000
 20
1627.265141
 42
-0.084947
  0
VERTEX
  8
0
 10
1080.536285
 20
1630.398951
 42
-0.078971
  0
VERTEX
  8
0
 10
1082.089178
 20
1633.264697
 42
-0.079306
  0
VERTEX
  8
0
 10
1084.446817
 20
1635.497957
 42
-0.086838
  0
VERTEX
  8
0
 10
1087.312846
 20
1636.801261
 42
-0.048034
  0
VERTEX
  8
0
 10
1090.473925
 20
1637.303465
 42
-0.087059
  0
VERTEX
  8
0
 10
1093.068416
 20
1637.011346
 42
-0.090702
  0
VERTEX
  8
0
 10
1095.337527
 20
1635.868092
 42
-0.055976
  0
SEQEND
  0
ENDSEC
  0
EOF
