  0
SECTION
  2
HEADER
  9
$ACADVER
  1
AC1012
  9
$DWGCODEPAGE
  3
ansi_1252
  9
$INSBASE
 10
0.0
 20
0.0
 30
0.0
  9
$EXTMIN
 10
-0.202499
 20
-0.178687
 30
0.0
  9
$EXTMAX
 10
4.797501
 20
3.106242
 30
0.0
  9
$LIMMIN
 10
0.0
 20
0.0
  9
$LIMMAX
 10
10.0
 20
10.0
  9
$ORTHOMODE
 70
     0
  9
$REGENMODE
 70
     1
  9
$FILLMODE
 70
     1
  9
$QTEXTMODE
 70
     0
  9
$MIRRTEXT
 70
     1
  9
$DRAGMODE
 70
     2
  9
$LTSCALE
 40
1.0
  9
$OSMODE
 70
     0
  9
$ATTMODE
 70
     1
  9
$TEXTSIZE
 40
0.2
  9
$TRACEWID
 40
0.05
  9
$TEXTSTYLE
  7
STANDARD
  9
$CLAYER
  8
0
  9
$CELTYPE
  6
BYLAYER
  9
$CECOLOR
 62
   256
  9
$CELTSCALE
 40
1.0
  9
$DELOBJ
 70
     1
  9
$DISPSILH
 70
     0
  9
$DIMSCALE
 40
1.0
  9
$DIMASZ
 40
0.18
  9
$DIMEXO
 40
0.0625
  9
$DIMDLI
 40
0.38
  9
$DIMRND
 40
0.0
  9
$DIMDLE
 40
0.0
  9
$DIMEXE
 40
0.18
  9
$DIMTP
 40
0.0
  9
$DIMTM
 40
0.0
  9
$DIMTXT
 40
0.18
  9
$DIMCEN
 40
0.09
  9
$DIMTSZ
 40
0.0
  9
$DIMTOL
 70
     0
  9
$DIMLIM
 70
     0
  9
$DIMTIH
 70
     1
  9
$DIMTOH
 70
     1
  9
$DIMSE1
 70
     0
  9
$DIMSE2
 70
     0
  9
$DIMTAD
 70
     0
  9
$DIMZIN
 70
     4
  9
$DIMBLK
  1

  9
$DIMASO
 70
     1
  9
$DIMSHO
 70
     0
  9
$DIMPOST
  1

  9
$DIMAPOST
  1

  9
$DIMALT
 70
     0
  9
$DIMALTD
 70
     2
  9
$DIMALTF
 40
25.4
  9
$DIMLFAC
 40
1.0
  9
$DIMTOFL
 70
     0
  9
$DIMTVP
 40
0.0
  9
$DIMTIX
 70
     0
  9
$DIMSOXD
 70
     0
  9
$DIMSAH
 70
     0
  9
$DIMBLK1
  1

  9
$DIMBLK2
  1

  9
$DIMSTYLE
  2
STANDARD
  9
$DIMCLRD
 70
     0
  9
$DIMCLRE
 70
     0
  9
$DIMCLRT
 70
     0
  9
$DIMTFAC
 40
1.0
  9
$DIMGAP
 40
0.09
  9
$DIMJUST
 70
     0
  9
$DIMSD1
 70
     0
  9
$DIMSD2
 70
     0
  9
$DIMTOLJ
 70
     1
  9
$DIMTZIN
 70
     0
  9
$DIMALTZ
 70
     0
  9
$DIMALTTZ
 70
     0
  9
$DIMFIT
 70
     3
  9
$DIMUPT
 70
     0
  9
$DIMUNIT
 70
     2
  9
$DIMDEC
 70
     4
  9
$DIMTDEC
 70
     4
  9
$DIMALTU
 70
     2
  9
$DIMALTTD
 70
     2
  9
$DIMTXSTY
  7
STANDARD
  9
$DIMAUNIT
 70
     0
  9
$LUNITS
 70
     2
  9
$LUPREC
 70
     3
  9
$SKETCHINC
 40
0.1
  9
$FILLETRAD
 40
0.0
  9
$AUNITS
 70
     0
  9
$AUPREC
 70
     0
  9
$MENU
  1
a
  9
$ELEVATION
 40
0.0
  9
$PELEVATION
 40
0.0
  9
$THICKNESS
 40
0.0
  9
$LIMCHECK
 70
     0
  9
$BLIPMODE
 70
     0
  9
$CHAMFERA
 40
0.0
  9
$CHAMFERB
 40
0.0
  9
$CHAMFERC
 40
0.0
  9
$CHAMFERD
 40
0.0
  9
$SKPOLY
 70
     0
  9
$TDCREATE
 40
2449581.402251041
  9
$TDUPDATE
 40
2449729.647321643
  9
$TDINDWG
 40
0.0000567130
  9
$TDUSRTIMER
 40
0.0000567130
  9
$USRTIMER
 70
     1
  9
$ANGBASE
 50
0.0
  9
$ANGDIR
 70
     0
  9
$PDMODE
 70
     0
  9
$PDSIZE
 40
0.0
  9
$PLINEWID
 40
0.0
  9
$COORDS
 70
     2
  9
$SPLFRAME
 70
     0
  9
$SPLINETYPE
 70
     6
  9
$SPLINESEGS
 70
     8
  9
$ATTDIA
 70
     0
  9
$ATTREQ
 70
     1
  9
$HANDLING
 70
     1
  9
$HANDSEED
  5
E8
  9
$SURFTAB1
 70
     6
  9
$SURFTAB2
 70
     6
  9
$SURFTYPE
 70
     6
  9
$SURFU
 70
     6
  9
$SURFV
 70
     6
  9
$UCSNAME
  2

  9
$UCSORG
 10
0.0
 20
0.0
 30
0.0
  9
$UCSXDIR
 10
1.0
 20
0.0
 30
0.0
  9
$UCSYDIR
 10
0.0
 20
1.0
 30
0.0
  9
$PUCSNAME
  2

  9
$PUCSORG
 10
0.0
 20
0.0
 30
0.0
  9
$PUCSXDIR
 10
1.0
 20
0.0
 30
0.0
  9
$PUCSYDIR
 10
0.0
 20
1.0
 30
0.0
  9
$USERI1
 70
     0
  9
$USERI2
 70
     0
  9
$USERI3
 70
     0
  9
$USERI4
 70
     0
  9
$USERI5
 70
     0
  9
$USERR1
 40
0.0
  9
$USERR2
 40
0.0
  9
$USERR3
 40
0.0
  9
$USERR4
 40
0.0
  9
$USERR5
 40
0.0
  9
$WORLDVIEW
 70
     1
  9
$SHADEDGE
 70
     3
  9
$SHADEDIF
 70
    70
  9
$TILEMODE
 70
     1
  9
$MAXACTVP
 70
    16
  9
$PINSBASE
 10
0.0
 20
0.0
 30
0.0
  9
$PLIMCHECK
 70
     0
  9
$PEXTMIN
 10
1.000000E+20
 20
1.000000E+20
 30
1.000000E+20
  9
$PEXTMAX
 10
-1.000000E+20
 20
-1.000000E+20
 30
-1.000000E+20
  9
$PLIMMIN
 10
0.0
 20
0.0
  9
$PLIMMAX
 10
12.0
 20
9.0
  9
$UNITMODE
 70
     0
  9
$VISRETAIN
 70
     0
  9
$PLINEGEN
 70
     0
  9
$PSLTSCALE
 70
     0
  9
$TREEDEPTH
 70
  3020
  9
$PICKSTYLE
 70
     1
  9
$CMLSTYLE
  2
STANDARD
  9
$CMLJUST
 70
     0
  9
$CMLSCALE
 40
1.0
  9
$SAVEIMAGES
 70
     0
  0
ENDSEC
  0
SECTION
  2
CLASSES
  0
ENDSEC
  0
SECTION
  2
TABLES
  0
TABLE
  2
VPORT
  5
8
100
AcDbSymbolTable
 70
     3
  0
VPORT
  5
E7
100
AcDbSymbolTableRecord
100
AcDbViewportTableRecord
  2
*ACTIVE
 70
     0
 10
0.0
 20
0.0
 11
1.0
 21
1.0
 12
2.371812
 22
1.488512
 13
0.0
 23
0.0
 14
1.0
 24
1.0
 15
0.0
 25
0.0
 16
0.0
 26
0.0
 36
1.0
 17
0.0
 27
0.0
 37
0.0
 40
3.901476
 41
1.426117
 42
50.0
 43
0.0
 44
0.0
 50
0.0
 51
0.0
 71
     0
 72
   100
 73
     1
 74
     0
 75
     0
 76
     0
 77
     0
 78
     0
  0
ENDTAB
  0
TABLE
  2
LTYPE
  5
5
100
AcDbSymbolTable
 70
     1
  0
LTYPE
  5
12
100
AcDbSymbolTableRecord
100
AcDbLinetypeTableRecord
  2
BYBLOCK
 70
     0
  3

 72
    65
 73
     0
 40
0.0
  0
LTYPE
  5
13
100
AcDbSymbolTableRecord
100
AcDbLinetypeTableRecord
  2
BYLAYER
 70
     0
  3

 72
    65
 73
     0
 40
0.0
  0
LTYPE
  5
14
100
AcDbSymbolTableRecord
100
AcDbLinetypeTableRecord
  2
CONTINUOUS
 70
    64
  3
Solid line
 72
    65
 73
     0
 40
0.0
  0
ENDTAB
  0
TABLE
  2
LAYER
  5
2
100
AcDbSymbolTable
 70
     1
  0
LAYER
  5
F
100
AcDbSymbolTableRecord
100
AcDbLayerTableRecord
  2
0
 70
    64
 62
     7
  6
CONTINUOUS
  0
ENDTAB
  0
TABLE
  2
STYLE
  5
3
100
AcDbSymbolTable
 70
     1
  0
STYLE
  5
10
100
AcDbSymbolTableRecord
100
AcDbTextStyleTableRecord
  2
STANDARD
 70
     0
 40
0.0
 41
1.0
 50
0.0
 71
     0
 42
0.2
  3
txt
  4

  0
ENDTAB
  0
TABLE
  2
VIEW
  5
6
100
AcDbSymbolTable
 70
     0
  0
ENDTAB
  0
TABLE
  2
UCS
  5
7
100
AcDbSymbolTable
 70
     0
  0
ENDTAB
  0
TABLE
  2
APPID
  5
9
100
AcDbSymbolTable
 70
     1
  0
APPID
  5
11
100
AcDbSymbolTableRecord
100
AcDbRegAppTableRecord
  2
ACAD
 70
     0
  0
ENDTAB
  0
TABLE
  2
DIMSTYLE
  5
A
100
AcDbSymbolTable
 70
     1
  0
DIMSTYLE
105
E5
100
AcDbSymbolTableRecord
100
AcDbDimStyleTableRecord
  2
STANDARD
 70
     0
  3

  4

  5

  6

  7

 40
1.0
 41
0.18
 42
0.0625
 43
0.38
 44
0.18
 45
0.0
 46
0.0
 47
0.0
 48
0.0
140
0.18
141
0.09
142
0.0
143
25.4
144
1.0
145
0.0
146
1.0
147
0.09
 71
     0
 72
     0
 73
     1
 74
     1
 75
     0
 76
     0
 77
     0
 78
     0
170
     0
171
     2
172
     0
173
     0
174
     0
175
     0
176
     0
177
     0
178
     0
270
     2
271
     4
272
     4
273
     2
274
     2
340
10
275
     0
280
     0
281
     0
282
     0
283
     1
284
     0
285
     0
286
     0
287
     3
288
     0
  0
ENDTAB
  0
TABLE
  2
BLOCK_RECORD
  5
1
100
AcDbSymbolTable
 70
     0
  0
BLOCK_RECORD
  5
18
100
AcDbSymbolTableRecord
100
AcDbBlockTableRecord
  2
*MODEL_SPACE
  0
BLOCK_RECORD
  5
15
100
AcDbSymbolTableRecord
100
AcDbBlockTableRecord
  2
*PAPER_SPACE
  0
ENDTAB
  0
ENDSEC
  0
SECTION
  2
BLOCKS
  0
BLOCK
  5
20
100
AcDbEntity
  8
0
100
AcDbBlockBegin
  2
*MODEL_SPACE
 70
     0
 10
0.0
 20
0.0
 30
0.0
  3
*MODEL_SPACE
  1

  0
ENDBLK
  5
21
100
AcDbEntity
  8
0
100
AcDbBlockEnd
  0
BLOCK
  5
1E
100
AcDbEntity
 67
     1
  8
0
100
AcDbBlockBegin
  2
*PAPER_SPACE
 70
     0
 10
0.0
 20
0.0
 30
0.0
  3
*PAPER_SPACE
  1

  0
ENDBLK
  5
1F
100
AcDbEntity
 67
     1
  8
0
100
AcDbBlockEnd
  0
ENDSEC
  0
SECTION
  2
ENTITIES
  0
POINT
  5
22
100
AcDbEntity
  8
0
100
AcDbPoint
 10
0.0
 20
0.13
 30
0.0
  0
POINT
  5
23
100
AcDbEntity
  8
0
100
AcDbPoint
 10
0.03
 20
0.15
 30
0.0
  0
POINT
  5
24
100
AcDbEntity
  8
0
100
AcDbPoint
 10
0.09
 20
0.16
 30
0.0
  0
POINT
  5
25
100
AcDbEntity
  8
0
100
AcDbPoint
 10
0.21
 20
0.223
 30
0.0
  0
POINT
  5
26
100
AcDbEntity
  8
0
100
AcDbPoint
 10
0.305
 20
0.265
 30
0.0
  0
POINT
  5
27
100
AcDbEntity
  8
0
100
AcDbPoint
 10
0.375
 20
0.282
 30
0.0
  0
POINT
  5
28
100
AcDbEntity
  8
0
100
AcDbPoint
 10
0.495
 20
0.35
 30
0.0
  0
POINT
  5
29
100
AcDbEntity
  8
0
100
AcDbPoint
 10
0.59
 20
0.44
 30
0.0
  0
POINT
  5
2A
100
AcDbEntity
  8
0
100
AcDbPoint
 10
1.555
 20
1.325
 30
0.0
  0
POINT
  5
2B
100
AcDbEntity
  8
0
100
AcDbPoint
 10
1.944
 20
1.25
 30
0.0
  0
POINT
  5
2C
100
AcDbEntity
  8
0
100
AcDbPoint
 10
2.63
 20
0.803
 30
0.0
  0
POINT
  5
2D
100
AcDbEntity
  8
0
100
AcDbPoint
 10
2.785
 20
0.865
 30
0.0
  0
POINT
  5
2E
100
AcDbEntity
  8
0
100
AcDbPoint
 10
3.161
 20
0.81
 30
0.0
  0
POINT
  5
2F
100
AcDbEntity
  8
0
100
AcDbPoint
 10
3.218
 20
0.623
 30
0.0
  0
POINT
  5
30
100
AcDbEntity
  8
0
100
AcDbPoint
 10
2.098
 20
0.192
 30
0.0
  0
POINT
  5
31
100
AcDbEntity
  8
0
100
AcDbPoint
 10
1.595
 20
0.169
 30
0.0
  0
POINT
  5
32
100
AcDbEntity
  8
0
100
AcDbPoint
 10
1.15
 20
0.1
 30
0.0
  0
POINT
  5
33
100
AcDbEntity
  8
0
100
AcDbPoint
 10
1.024
 20
0.131
 30
0.0
  0
POINT
  5
34
100
AcDbEntity
  8
0
100
AcDbPoint
 10
0.884
 20
0.144
 30
0.0
  0
POINT
  5
35
100
AcDbEntity
  8
0
100
AcDbPoint
 10
0.51
 20
0.127
 30
0.0
  0
POINT
  5
36
100
AcDbEntity
  8
0
100
AcDbPoint
 10
0.412
 20
0.065
 30
0.0
  0
POINT
  5
37
100
AcDbEntity
  8
0
100
AcDbPoint
 10
0.281
 20
0.09
 30
0.0
  0
POINT
  5
38
100
AcDbEntity
  8
0
100
AcDbPoint
 10
0.037
 20
0.083
 30
0.0
  0
ARC
  5
39
100
AcDbEntity
  8
0
100
AcDbCircle
 10
0.041444
 20
0.266338
 30
0.0
 40
0.1169
100
AcDbArc
 50
264.382151
 51
294.542493
  0
ARC
  5
3A
100
AcDbEntity
  8
0
100
AcDbCircle
 10
0.050109
 20
0.131384
 30
0.0
 40
0.050128
100
AcDbArc
 50
181.581571
 51
254.84048
  0
ARC
  5
3B
100
AcDbEntity
  8
0
100
AcDbCircle
 10
0.03084
 20
0.130852
 30
0.0
 40
0.030852
100
AcDbArc
 50
141.68479
 51
181.581571
  0
LINE
  5
3C
100
AcDbEntity
  8
0
100
AcDbLine
 10
0.006633
 20
0.149979
 30
0.0
 11
0.03
 21
0.15
 31
0.0
  0
ARC
  5
3D
100
AcDbEntity
  8
0
100
AcDbCircle
 10
0.507
 20
-0.4885
 30
0.0
 40
0.771
100
AcDbArc
 50
112.657022
 51
122.741924
  0
ARC
  5
3E
100
AcDbEntity
  8
0
100
AcDbCircle
 10
0.144687
 20
0.379465
 30
0.0
 40
0.16955
100
AcDbArc
 50
292.657022
 51
306.761176
  0
ARC
  5
3F
100
AcDbEntity
  8
0
100
AcDbCircle
 10
0.355312
 20
0.456625
 30
0.0
 40
0.175731
100
AcDbArc
 50
276.432455
 51
322.645109
  0
ARC
  5
40
100
AcDbEntity
  8
0
100
AcDbCircle
 10
0.407115
 20
-0.002857
 30
0.0
 40
0.286661
100
AcDbArc
 50
96.432455
 51
110.868383
  0
ARC
  5
41
100
AcDbEntity
  8
0
100
AcDbCircle
 10
0.338866
 20
0.071415
 30
0.0
 40
0.196525
100
AcDbArc
 50
99.923054
 51
114.584028
  0
ARC
  5
42
100
AcDbEntity
  8
0
100
AcDbCircle
 10
0.282068
 20
0.195564
 30
0.0
 40
0.06
100
AcDbArc
 50
114.584028
 51
126.761176
  0
ARC
  5
43
100
AcDbEntity
  8
0
100
AcDbCircle
 10
0.141944
 20
0.681035
 30
0.0
 40
0.607173
100
AcDbArc
 50
260.047031
 51
283.239531
  0
ARC
  5
44
100
AcDbEntity
  8
0
100
AcDbCircle
 10
0.31408
 20
-0.050603
 30
0.0
 40
0.144442
100
AcDbArc
 50
72.29812
 51
103.239531
  0
ARC
  5
45
100
AcDbEntity
  8
0
100
AcDbCircle
 10
0.244115
 20
-0.269809
 30
0.0
 40
0.374543
100
AcDbArc
 50
63.369188
 51
72.29812
  0
ARC
  5
46
100
AcDbEntity
  8
0
100
AcDbCircle
 10
0.434931
 20
0.108609
 30
0.0
 40
0.049271
100
AcDbArc
 50
242.263153
 51
293.7766
  0
ARC
  5
47
100
AcDbEntity
  8
0
100
AcDbCircle
 10
0.645877
 20
-0.017143
 30
0.0
 40
0.19809
100
AcDbArc
 50
133.30916
 51
150.492499
  0
ARC
  5
48
100
AcDbEntity
  8
0
100
AcDbCircle
 10
0.438669
 20
0.100125
 30
0.0
 40
0.04
100
AcDbArc
 50
293.7766
 51
330.492499
  0
ARC
  5
49
100
AcDbEntity
  8
0
100
AcDbCircle
 10
0.663677
 20
-0.036026
 30
0.0
 40
0.224041
100
AcDbArc
 50
125.611081
 51
133.30916
  0
ARC
  5
4A
100
AcDbEntity
  8
0
100
AcDbCircle
 10
2.045799
 20
45.280026
 30
0.0
 40
45.150976
100
AcDbArc
 50
268.111455
 51
268.525536
  0
ARC
  5
4B
100
AcDbEntity
  8
0
100
AcDbCircle
 10
0.556514
 20
0.113597
 30
0.0
 40
0.04
100
AcDbArc
 50
88.111455
 51
125.611081
  0
ARC
  5
4C
100
AcDbEntity
  8
0
100
AcDbCircle
 10
0.856923
 20
-0.907945
 30
0.0
 40
1.052293
100
AcDbArc
 50
80.864245
 51
88.525536
  0
ARC
  5
4D
100
AcDbEntity
  8
0
100
AcDbCircle
 10
1.28597
 20
0.924219
 30
0.0
 40
0.835359
100
AcDbArc
 50
251.723542
 51
260.632349
  0
ARC
  5
4E
100
AcDbEntity
  8
0
100
AcDbCircle
 10
1.235241
 20
0.616712
 30
0.0
 40
0.523696
100
AcDbArc
 50
260.632349
 51
277.258776
  0
ARC
  5
4F
100
AcDbEntity
  8
0
100
AcDbCircle
 10
1.229614
 20
1.02709
 30
0.0
 40
0.932645
100
AcDbArc
 50
274.415152
 51
293.064969
  0
ARC
  5
50
100
AcDbEntity
  8
0
100
AcDbCircle
 10
1.87877
 20
-0.525227
 30
0.0
 40
0.749985
100
AcDbArc
 50
73.003522
 51
112.232604
  0
ARC
  5
51
100
AcDbEntity
  8
0
100
AcDbCircle
 10
1.895756
 20
-1.079271
 30
0.0
 40
1.287258
100
AcDbArc
 50
69.953772
 51
80.960679
  0
ARC
  5
52
100
AcDbEntity
  8
0
100
AcDbCircle
 10
2.889235
 20
1.643452
 30
0.0
 40
1.611056
100
AcDbArc
 50
249.953772
 51
259.187218
  0
ARC
  5
53
100
AcDbEntity
  8
0
100
AcDbCircle
 10
2.800226
 20
1.177417
 30
0.0
 40
1.136597
100
AcDbArc
 50
259.187218
 51
272.358532
  0
ARC
  5
54
100
AcDbEntity
  8
0
100
AcDbCircle
 10
2.832657
 20
0.466202
 30
0.0
 40
0.424643
100
AcDbArc
 50
272.610819
 51
355.515524
  0
ARC
  5
55
100
AcDbEntity
  8
0
100
AcDbCircle
 10
2.86571
 20
0.453742
 30
0.0
 40
0.390841
100
AcDbArc
 50
356.957884
 51
25.661981
  0
ARC
  5
56
100
AcDbEntity
  8
0
100
AcDbCircle
 10
3.799807
 20
0.902529
 30
0.0
 40
0.645473
100
AcDbArc
 50
188.241808
 51
205.661981
  0
ARC
  5
57
100
AcDbEntity
  8
0
100
AcDbCircle
 10
0.704091
 20
0.224432
 30
0.0
 40
0.243898
100
AcDbArc
 50
117.890332
 51
149.013353
  0
ARC
  5
58
100
AcDbEntity
  8
0
100
AcDbCircle
 10
0.440446
 20
0.722574
 30
0.0
 40
0.31971
100
AcDbArc
 50
297.890332
 51
314.617343
  0
ARC
  5
59
100
AcDbEntity
  8
0
100
AcDbCircle
 10
-2.086277
 20
3.283274
 30
0.0
 40
3.917141
100
AcDbArc
 50
314.617343
 51
316.924154
  0
ARC
  5
5A
100
AcDbEntity
  8
0
100
AcDbCircle
 10
1.579323
 20
-0.144036
 30
0.0
 40
1.101133
100
AcDbArc
 50
124.540059
 51
136.924154
  0
ARC
  5
5B
100
AcDbEntity
  8
0
100
AcDbCircle
 10
0.621972
 20
1.246834
 30
0.0
 40
0.58737
100
AcDbArc
 50
304.540059
 51
319.709033
  0
ARC
  5
5C
100
AcDbEntity
  8
0
100
AcDbCircle
 10
2.323391
 20
-0.195613
 30
0.0
 40
1.643209
100
AcDbArc
 50
130.601512
 51
139.709033
  0
ARC
  5
5D
100
AcDbEntity
  8
0
100
AcDbCircle
 10
0.378498
 20
2.073411
 30
0.0
 40
1.345282
100
AcDbArc
 50
310.601512
 51
317.352427
  0
ARC
  5
5E
100
AcDbEntity
  8
0
100
AcDbCircle
 10
1.969259
 20
0.608192
 30
0.0
 40
0.817445
100
AcDbArc
 50
128.266425
 51
137.352427
  0
ARC
  5
5F
100
AcDbEntity
  8
0
100
AcDbCircle
 10
1.873304
 20
0.84062
 30
0.0
 40
0.579605
100
AcDbArc
 50
123.310422
 51
135.064614
  0
ARC
  5
60
100
AcDbEntity
  8
0
100
AcDbCircle
 10
1.638687
 20
1.197649
 30
0.0
 40
0.152387
100
AcDbArc
 50
88.754257
 51
123.310422
  0
ARC
  5
61
100
AcDbEntity
  8
0
100
AcDbCircle
 10
1.633672
 20
0.967033
 30
0.0
 40
0.383058
100
AcDbArc
 50
72.321098
 51
88.754257
  0
ARC
  5
62
100
AcDbEntity
  8
0
100
AcDbCircle
 10
1.399422
 20
0.232097
 30
0.0
 40
1.154423
100
AcDbArc
 50
61.853245
 51
72.321098
  0
ARC
  5
63
100
AcDbEntity
  8
0
100
AcDbCircle
 10
-1.217284
 20
-4.658949
 30
0.0
 40
6.701447
100
AcDbArc
 50
60.211434
 51
61.677212
  0
ARC
  5
64
100
AcDbEntity
  8
0
100
AcDbCircle
 10
1.284196
 20
-0.610296
 30
0.0
 40
1.951562
100
AcDbArc
 50
46.401253
 51
64.901525
  0
ARC
  5
65
100
AcDbEntity
  8
0
100
AcDbCircle
 10
2.111136
 20
1.086591
 30
0.0
 40
0.709362
100
AcDbArc
 50
341.797252
 51
357.851727
  0
ARC
  5
66
100
AcDbEntity
  8
0
100
AcDbCircle
 10
2.687387
 20
1.1065
 30
0.0
 40
0.140529
100
AcDbArc
 50
340.677057
 51
42.850904
  0
ARC
  5
67
100
AcDbEntity
  8
0
100
AcDbCircle
 10
2.514051
 20
1.220657
 30
0.0
 40
0.163096
100
AcDbArc
 50
173.826001
 51
214.104422
  0
ARC
  5
68
100
AcDbEntity
  8
0
100
AcDbCircle
 10
2.767217
 20
1.219012
 30
0.0
 40
0.415759
100
AcDbArc
 50
160.533712
 51
177.354999
  0
ARC
  5
69
100
AcDbEntity
  8
0
100
AcDbCircle
 10
3.162203
 20
0.542214
 30
0.0
 40
1.16629
100
AcDbArc
 50
104.763403
 51
109.442055
  0
ARC
  5
6A
100
AcDbEntity
  8
0
100
AcDbCircle
 10
2.798931
 20
1.920709
 30
0.0
 40
0.259268
100
AcDbArc
 50
284.763403
 51
305.638844
  0
ARC
  5
6B
100
AcDbEntity
  8
0
100
AcDbCircle
 10
2.808429
 20
1.907461
 30
0.0
 40
0.242967
100
AcDbArc
 50
305.638844
 51
330.549272
  0
ARC
  5
6C
100
AcDbEntity
  8
0
100
AcDbCircle
 10
2.935953
 20
1.835456
 30
0.0
 40
0.096519
100
AcDbArc
 50
330.549272
 51
24.185859
  0
ARC
  5
6D
100
AcDbEntity
  8
0
100
AcDbCircle
 10
2.931315
 20
1.833373
 30
0.0
 40
0.101604
100
AcDbArc
 50
24.185859
 51
60.724533
  0
LINE
  5
6E
100
AcDbEntity
  8
0
100
AcDbLine
 10
2.891894
 20
1.914195
 30
0.0
 11
2.915
 21
1.913
 31
0.0
  0
LINE
  5
6F
100
AcDbEntity
  8
0
100
AcDbLine
 10
2.915
 20
1.913
 30
0.0
 11
2.981
 21
1.922
 31
0.0
  0
LINE
  5
70
100
AcDbEntity
  8
0
100
AcDbLine
 10
2.840958
 20
2.005235
 30
0.0
 11
2.82145
 21
2.016529
 31
0.0
  0
LINE
  5
71
100
AcDbEntity
  8
0
100
AcDbLine
 10
2.811493
 20
2.032908
 30
0.0
 11
2.810514
 21
2.053957
 31
0.0
  0
LINE
  5
72
100
AcDbEntity
  8
0
100
AcDbLine
 10
2.800376
 20
2.070439
 30
0.0
 11
2.798183
 21
2.071679
 31
0.0
  0
LINE
  5
73
100
AcDbEntity
  8
0
100
AcDbLine
 10
2.788097
 20
2.090799
 30
0.0
 11
2.790221
 21
2.115574
 31
0.0
  0
LINE
  5
74
100
AcDbEntity
  8
0
100
AcDbLine
 10
2.758344
 20
2.170893
 30
0.0
 11
2.813
 21
2.275
 31
0.0
  0
LINE
  5
75
100
AcDbEntity
  8
0
100
AcDbLine
 10
2.850868
 20
1.989588
 30
0.0
 11
2.854098
 21
1.95082
 31
0.0
  0
ARC
  5
76
100
AcDbEntity
  8
0
100
AcDbCircle
 10
2.89396
 20
1.954142
 30
0.0
 40
0.04
100
AcDbArc
 50
184.763642
 51
267.039064
  0
ARC
  5
77
100
AcDbEntity
  8
0
100
AcDbCircle
 10
2.830937
 20
1.987927
 30
0.0
 40
0.02
100
AcDbArc
 50
4.763642
 51
59.931417
  0
ARC
  5
78
100
AcDbEntity
  8
0
100
AcDbCircle
 10
2.831471
 20
2.033837
 30
0.0
 40
0.02
100
AcDbArc
 50
182.663001
 51
239.931417
  0
ARC
  5
79
100
AcDbEntity
  8
0
100
AcDbCircle
 10
2.790535
 20
2.053028
 30
0.0
 40
0.02
100
AcDbArc
 50
2.663001
 51
60.524111
  0
ARC
  5
7A
100
AcDbEntity
  8
0
100
AcDbCircle
 10
2.808024
 20
2.089091
 30
0.0
 40
0.02
100
AcDbArc
 50
175.100908
 51
240.524111
  0
LINE
  5
7B
100
AcDbEntity
  8
0
100
AcDbLine
 10
2.764902
 20
2.144993
 30
0.0
 11
2.781443
 21
2.133886
 31
0.0
  0
ARC
  5
7C
100
AcDbEntity
  8
0
100
AcDbCircle
 10
2.770294
 20
2.117282
 30
0.0
 40
0.02
100
AcDbArc
 50
355.100908
 51
56.118297
  0
ARC
  5
7D
100
AcDbEntity
  8
0
100
AcDbCircle
 10
2.776052
 20
2.161597
 30
0.0
 40
0.02
100
AcDbArc
 50
152.300527
 51
236.118297
  0
ARC
  5
7E
100
AcDbEntity
  8
0
100
AcDbCircle
 10
3.136215
 20
2.661894
 30
0.0
 40
0.504138
100
AcDbArc
 50
208.932875
 51
230.124307
  0
ARC
  5
7F
100
AcDbEntity
  8
0
100
AcDbCircle
 10
2.935944
 20
2.516298
 30
0.0
 40
0.260224
100
AcDbArc
 50
127.727566
 51
202.194119
  0
ARC
  5
80
100
AcDbEntity
  8
0
100
AcDbCircle
 10
3.050157
 20
2.371383
 30
0.0
 40
0.444733
100
AcDbArc
 50
91.308715
 51
127.941456
  0
ARC
  5
81
100
AcDbEntity
  8
0
100
AcDbCircle
 10
3.291676
 20
4.052732
 30
0.0
 40
1.262081
100
AcDbArc
 50
258.497331
 51
272.648726
  0
ARC
  5
82
100
AcDbEntity
  8
0
100
AcDbCircle
 10
3.375833
 20
2.531167
 30
0.0
 40
0.262109
100
AcDbArc
 50
37.109483
 51
95.656216
  0
ARC
  5
83
100
AcDbEntity
  8
0
100
AcDbCircle
 10
3.080066
 20
2.428525
 30
0.0
 40
0.568178
100
AcDbArc
 50
11.41752
 51
27.321352
  0
ARC
  5
84
100
AcDbEntity
  8
0
100
AcDbCircle
 10
4.11704
 20
2.637946
 30
0.0
 40
0.489732
100
AcDbArc
 50
191.41752
 51
206.034056
  0
ARC
  5
85
100
AcDbEntity
  8
0
100
AcDbCircle
 10
3.020344
 20
2.102244
 30
0.0
 40
0.730809
100
AcDbArc
 50
15.374391
 51
26.034056
  0
ARC
  5
86
100
AcDbEntity
  8
0
100
AcDbCircle
 10
6.9579
 20
3.184935
 30
0.0
 40
3.352887
100
AcDbArc
 50
195.374391
 51
198.158831
  0
ARC
  5
87
100
AcDbEntity
  8
0
100
AcDbCircle
 10
2.915752
 20
1.859162
 30
0.0
 40
0.901127
100
AcDbArc
 50
9.313705
 51
18.158831
  0
ARC
  5
88
100
AcDbEntity
  8
0
100
AcDbCircle
 10
4.147734
 20
2.135771
 30
0.0
 40
0.366834
100
AcDbArc
 50
200.8845
 51
246.251307
  0
ARC
  5
89
100
AcDbEntity
  8
0
100
AcDbCircle
 10
3.627317
 20
0.918217
 30
0.0
 40
0.478709
100
AcDbArc
 50
153.207449
 51
193.065167
  0
ARC
  5
8A
100
AcDbEntity
  8
0
100
AcDbCircle
 10
3.507985
 20
0.978476
 30
0.0
 40
0.345026
100
AcDbArc
 50
113.031194
 51
153.207449
  0
ARC
  5
8B
100
AcDbEntity
  8
0
100
AcDbCircle
 10
3.400227
 20
1.231954
 30
0.0
 40
0.069593
100
AcDbArc
 50
25.577904
 51
113.031194
  0
ARC
  5
8C
100
AcDbEntity
  8
0
100
AcDbCircle
 10
4.040974
 20
1.538645
 30
0.0
 40
0.640771
100
AcDbArc
 50
205.577904
 51
216.667036
  0
ARC
  5
8D
100
AcDbEntity
  8
0
100
AcDbCircle
 10
4.256259
 20
1.266161
 30
0.0
 40
0.719433
100
AcDbArc
 50
198.994655
 51
225.27604
  0
ARC
  5
8E
100
AcDbEntity
  8
0
100
AcDbCircle
 10
2.168771
 20
0.547599
 30
0.0
 40
1.488266
100
AcDbArc
 50
18.994655
 51
24.129372
  0
ARC
  5
8F
100
AcDbEntity
  8
0
100
AcDbCircle
 10
2.642883
 20
-0.086803
 30
0.0
 40
1.390806
100
AcDbArc
 50
22.480582
 51
37.247747
  0
ARC
  5
90
100
AcDbEntity
  8
0
100
AcDbCircle
 10
4.576117
 20
0.713202
 30
0.0
 40
0.701419
100
AcDbArc
 50
202.480582
 51
215.488539
  0
ARC
  5
91
100
AcDbEntity
  8
0
100
AcDbCircle
 10
3.911527
 20
0.239355
 30
0.0
 40
0.114799
100
AcDbArc
 50
4.31896
 51
35.488539
  0
ARC
  5
92
100
AcDbEntity
  8
0
100
AcDbCircle
 10
4.927802
 20
0.164284
 30
0.0
 40
0.905679
100
AcDbArc
 50
174.696352
 51
183.689789
  0
LINE
  5
93
100
AcDbEntity
  8
0
100
AcDbLine
 10
4.024
 20
0.106
 30
0.0
 11
3.959686
 21
0.047121
 31
0.0
  0
ARC
  5
94
100
AcDbEntity
  8
0
100
AcDbCircle
 10
3.974134
 20
0.034319
 30
0.0
 40
0.022165
100
AcDbArc
 50
244.194391
 51
262.755353
  0
ARC
  5
95
100
AcDbEntity
  8
0
100
AcDbCircle
 10
3.973191
 20
0.03237
 30
0.0
 40
0.02
100
AcDbArc
 50
132.473883
 51
244.194391
  0
ARC
  5
96
100
AcDbEntity
  8
0
100
AcDbCircle
 10
3.952211
 20
0.191634
 30
0.0
 40
0.180926
100
AcDbArc
 50
277.731616
 51
321.092145
  0
ARC
  5
97
100
AcDbEntity
  8
0
100
AcDbCircle
 10
4.136567
 20
0.042836
 30
0.0
 40
0.055988
100
AcDbArc
 50
99.838945
 51
141.092145
  0
ARC
  5
98
100
AcDbEntity
  8
0
100
AcDbCircle
 10
3.973861
 20
0.032171
 30
0.0
 40
0.02
100
AcDbArc
 50
262.755353
 51
277.731616
  0
ARC
  5
99
100
AcDbEntity
  8
0
100
AcDbCircle
 10
3.967294
 20
-1.549999
 30
0.0
 40
1.655719
100
AcDbArc
 50
79.887771
 51
84.464807
  0
ARC
  5
9A
100
AcDbEntity
  8
0
100
AcDbCircle
 10
4.270473
 20
0.149936
 30
0.0
 40
0.071039
100
AcDbArc
 50
259.887771
 51
289.381592
  0
ARC
  5
9B
100
AcDbEntity
  8
0
100
AcDbCircle
 10
4.386395
 20
0.218352
 30
0.0
 40
0.084455
100
AcDbArc
 50
279.270263
 51
305.969467
  0
ARC
  5
9C
100
AcDbEntity
  8
0
100
AcDbCircle
 10
4.418307
 20
0.174379
 30
0.0
 40
0.030122
100
AcDbArc
 50
305.969467
 51
29.994266
  0
ARC
  5
9D
100
AcDbEntity
  8
0
100
AcDbCircle
 10
4.37454
 20
-0.137731
 30
0.0
 40
0.341491
100
AcDbArc
 50
80.595268
 51
98.510943
  0
ARC
  5
9E
100
AcDbEntity
  8
0
100
AcDbCircle
 10
4.427074
 20
0.179439
 30
0.0
 40
0.02
100
AcDbArc
 50
29.994266
 51
80.595268
  0
ARC
  5
9F
100
AcDbEntity
  8
0
100
AcDbCircle
 10
4.256598
 20
0.600738
 30
0.0
 40
0.406367
100
AcDbArc
 50
266.812158
 51
279.547503
  0
ARC
  5
A0
100
AcDbEntity
  8
0
100
AcDbCircle
 10
1.416979
 20
-0.437447
 30
0.0
 40
2.83167
100
AcDbArc
 50
18.328216
 51
25.396509
  0
ARC
  5
A1
100
AcDbEntity
  8
0
100
AcDbCircle
 10
4.227115
 20
0.28538
 30
0.0
 40
0.090642
100
AcDbArc
 50
205.050877
 51
274.356227
  0
ARC
  5
A2
100
AcDbEntity
  8
0
100
AcDbCircle
 10
0.977614
 20
-0.261143
 30
0.0
 40
3.207887
100
AcDbArc
 50
9.114283
 51
12.863019
  0
ARC
  5
A3
100
AcDbEntity
  8
0
100
AcDbCircle
 10
2.225188
 20
0.090909
 30
0.0
 40
1.879512
100
AcDbArc
 50
21.40984
 51
30.895876
  0
ARC
  5
A4
100
AcDbEntity
  8
0
100
AcDbCircle
 10
4.349958
 20
1.36235
 30
0.0
 40
0.596617
100
AcDbArc
 50
197.19257
 51
210.895876
  0
ARC
  5
A5
100
AcDbEntity
  8
0
100
AcDbCircle
 10
2.545294
 20
0.80397
 30
0.0
 40
1.292457
100
AcDbArc
 50
17.19257
 51
23.338825
  0
ARC
  5
A6
100
AcDbEntity
  8
0
100
AcDbCircle
 10
3.7616
 20
1.328771
 30
0.0
 40
0.032238
100
AcDbArc
 50
134.636225
 51
203.338825
  0
ARC
  5
A7
100
AcDbEntity
  8
0
100
AcDbCircle
 10
3.730693
 20
1.122937
 30
0.0
 40
0.235699
100
AcDbArc
 50
56.728262
 51
84.06355
  0
ARC
  5
A8
100
AcDbEntity
  8
0
100
AcDbCircle
 10
3.753002
 20
1.33748
 30
0.0
 40
0.02
100
AcDbArc
 50
84.06355
 51
134.636225
  0
ARC
  5
A9
100
AcDbEntity
  8
0
100
AcDbCircle
 10
4.282929
 20
2.045857
 30
0.0
 40
0.840082
100
AcDbArc
 50
239.772318
 51
255.105926
  0
ARC
  5
AA
100
AcDbEntity
  8
0
100
AcDbCircle
 10
4.37801
 20
2.403347
 30
0.0
 40
1.21
100
AcDbArc
 50
255.105926
 51
264.973793
  0
ARC
  5
AB
100
AcDbEntity
  8
0
100
AcDbCircle
 10
4.285717
 20
1.353963
 30
0.0
 40
0.156565
100
AcDbArc
 50
264.973793
 51
312.753382
  0
ARC
  5
AC
100
AcDbEntity
  8
0
100
AcDbCircle
 10
4.37116
 20
1.261542
 30
0.0
 40
0.030699
100
AcDbArc
 50
312.753382
 51
82.814395
  0
ARC
  5
AD
100
AcDbEntity
  8
0
100
AcDbCircle
 10
4.01264
 20
-1.582183
 30
0.0
 40
2.896935
100
AcDbArc
 50
82.814395
 51
85.062027
  0
ARC
  5
AE
100
AcDbEntity
  8
0
100
AcDbCircle
 10
4.309925
 20
1.858703
 30
0.0
 40
0.55677
100
AcDbArc
 50
253.092363
 51
265.062027
  0
ARC
  5
AF
100
AcDbEntity
  8
0
100
AcDbCircle
 10
4.504196
 20
2.497819
 30
0.0
 40
1.224759
100
AcDbArc
 50
246.457918
 51
253.092363
  0
ARC
  5
B0
100
AcDbEntity
  8
0
100
AcDbCircle
 10
4.226749
 20
1.861014
 30
0.0
 40
0.530139
100
AcDbArc
 50
229.915986
 51
246.457918
  0
ARC
  5
B1
100
AcDbEntity
  8
0
100
AcDbCircle
 10
4.160571
 20
2.089026
 30
0.0
 40
0.330634
100
AcDbArc
 50
240.945299
 51
264.346652
  0
ARC
  5
B2
100
AcDbEntity
  8
0
100
AcDbCircle
 10
4.08891
 20
1.365119
 30
0.0
 40
0.396811
100
AcDbArc
 50
75.875602
 51
84.346652
  0
ARC
  5
B3
100
AcDbEntity
  8
0
100
AcDbCircle
 10
4.231996
 20
1.691934
 30
0.0
 40
0.044111
100
AcDbArc
 50
23.906087
 51
75.456629
  0
ARC
  5
B4
100
AcDbEntity
  8
0
100
AcDbCircle
 10
4.187165
 20
1.779756
 30
0.0
 40
0.122781
100
AcDbArc
 50
291.468855
 51
310.589726
  0
ARC
  5
B5
100
AcDbEntity
  8
0
100
AcDbCircle
 10
4.254038
 20
1.701705
 30
0.0
 40
0.02
100
AcDbArc
 50
310.589726
 51
23.906087
  0
ARC
  5
B6
100
AcDbEntity
  8
0
100
AcDbCircle
 10
4.269642
 20
3.005414
 30
0.0
 40
1.349061
100
AcDbArc
 50
250.980674
 51
266.597167
  0
ARC
  5
B7
100
AcDbEntity
  8
0
100
AcDbCircle
 10
3.960078
 20
1.511614
 30
0.0
 40
0.114718
100
AcDbArc
 50
31.011988
 51
61.27324
  0
ARC
  5
B8
100
AcDbEntity
  8
0
100
AcDbCircle
 10
3.991045
 20
1.608726
 30
0.0
 40
0.08968
100
AcDbArc
 50
274.419272
 51
316.105079
  0
ARC
  5
B9
100
AcDbEntity
  8
0
100
AcDbCircle
 10
4.041257
 20
1.560414
 30
0.0
 40
0.02
100
AcDbArc
 50
316.105079
 51
31.011988
  0
ARC
  5
BA
100
AcDbEntity
  8
0
100
AcDbCircle
 10
4.004633
 20
1.810133
 30
0.0
 40
0.19214
100
AcDbArc
 50
204.648889
 51
266.816078
  0
ARC
  5
BB
100
AcDbEntity
  8
0
100
AcDbCircle
 10
3.966689
 20
1.88198
 30
0.0
 40
0.362157
100
AcDbArc
 50
232.75087
 51
263.499725
  0
ARC
  5
BC
100
AcDbEntity
  8
0
100
AcDbCircle
 10
4.078391
 20
1.789161
 30
0.0
 40
0.384326
100
AcDbArc
 50
210.569573
 51
237.896571
  0
ARC
  5
BD
100
AcDbEntity
  8
0
100
AcDbCircle
 10
3.820997
 20
1.378894
 30
0.0
 40
0.1
100
AcDbArc
 50
49.915986
 51
57.896571
  0
ARC
  5
BE
100
AcDbEntity
  8
0
100
AcDbCircle
 10
0.209244
 20
2.601128
 30
0.0
 40
2.201862
100
AcDbArc
 50
292.166351
 51
304.613981
  0
ARC
  5
BF
100
AcDbEntity
  8
0
100
AcDbCircle
 10
1.178395
 20
1.196996
 30
0.0
 40
0.495744
100
AcDbArc
 50
304.613981
 51
327.82377
  0
ARC
  5
C0
100
AcDbEntity
  8
0
100
AcDbCircle
 10
1.865631
 20
0.764619
 30
0.0
 40
0.316194
100
AcDbArc
 50
134.167875
 51
147.82377
  0
ARC
  5
C1
100
AcDbEntity
  8
0
100
AcDbCircle
 10
1.669445
 20
0.966588
 30
0.0
 40
0.034626
100
AcDbArc
 50
61.438403
 51
134.167875
  0
ARC
  5
C2
100
AcDbEntity
  8
0
100
AcDbCircle
 10
1.636828
 20
0.634245
 30
0.0
 40
0.353748
100
AcDbArc
 50
39.446205
 51
60.98853
  0
ARC
  5
C3
100
AcDbEntity
  8
0
100
AcDbCircle
 10
1.443053
 20
0.272877
 30
0.0
 40
0.763791
100
AcDbArc
 50
61.798556
 51
71.453115
  0
ARC
  5
C4
100
AcDbEntity
  8
0
100
AcDbCircle
 10
1.717286
 20
1.373757
 30
0.0
 40
0.850068
100
AcDbArc
 50
272.355668
 51
295.797291
  0
ARC
  5
C5
100
AcDbEntity
  8
0
100
AcDbCircle
 10
1.717536
 20
0.133722
 30
0.0
 40
0.392222
100
AcDbArc
 50
84.925952
 51
118.19431
  0
ARC
  5
C6
100
AcDbEntity
  8
0
100
AcDbCircle
 10
1.274149
 20
0.895125
 30
0.0
 40
0.48931
100
AcDbArc
 50
272.820364
 51
301.83191
  0
ARC
  5
C7
100
AcDbEntity
  8
0
100
AcDbCircle
 10
0.890181
 20
0.665356
 30
0.0
 40
0.309728
100
AcDbArc
 50
267.190622
 51
285.704319
  0
ARC
  5
C8
100
AcDbEntity
  8
0
100
AcDbCircle
 10
0.823102
 20
0.415444
 30
0.0
 40
0.078912
100
AcDbArc
 50
311.122972
 51
47.905937
  0
ARC
  5
C9
100
AcDbEntity
  8
0
100
AcDbCircle
 10
1.596043
 20
-0.67108
 30
0.0
 40
1.352653
100
AcDbArc
 50
114.272435
 51
122.162277
  0
ARC
  5
CA
100
AcDbEntity
  8
0
100
AcDbCircle
 10
2.686169
 20
0.887327
 30
0.0
 40
0.101321
100
AcDbArc
 50
236.3327
 51
347.270119
  0
LINE
  5
CB
100
AcDbEntity
  8
0
100
AcDbLine
 10
2.389072
 20
1.093254
 30
0.0
 11
2.41958
 21
1.08852
 31
0.0
  0
LINE
  5
CC
100
AcDbEntity
  8
0
100
AcDbLine
 10
2.380624
 20
1.10253
 30
0.0
 11
2.379005
 21
1.129208
 31
0.0
  0
ARC
  5
CD
100
AcDbEntity
  8
0
100
AcDbCircle
 10
2.390605
 20
1.103135
 30
0.0
 40
0.01
100
AcDbArc
 50
183.472466
 51
261.180254
  0
ARC
  5
CE
100
AcDbEntity
  8
0
100
AcDbCircle
 10
4.020214
 20
0.68281
 30
0.0
 40
0.659432
100
AcDbArc
 50
294.535568
 51
299.869102
  0
ARC
  5
CF
100
AcDbEntity
  8
0
100
AcDbCircle
 10
4.359304
 20
0.155078
 30
0.0
 40
0.045379
100
AcDbArc
 50
256.387466
 51
333.739791
  0
ARC
  5
D0
100
AcDbEntity
  8
0
100
AcDbCircle
 10
3.991184
 20
1.568367
 30
0.0
 40
0.05
100
AcDbArc
 50
61.27324
 51
86.816078
  0
ARC
  5
D1
100
AcDbEntity
  8
0
100
AcDbCircle
 10
3.973426
 20
1.81613
 30
0.0
 40
0.297829
100
AcDbArc
 50
260.776806
 51
274.724132
  0
ARC
  5
D2
100
AcDbEntity
  8
0
100
AcDbCircle
 10
3.967754
 20
0.818187
 30
0.0
 40
0.956908
100
AcDbArc
 50
73.278672
 51
76.832058
  0
ARC
  5
D3
100
AcDbEntity
  8
0
100
AcDbCircle
 10
4.195503
 20
1.758555
 30
0.0
 40
0.1
100
AcDbArc
 50
266.597167
 51
291.468855
  0
ARC
  5
D4
100
AcDbEntity
  8
0
100
AcDbCircle
 10
3.707217
 20
-18.274724
 30
0.0
 40
18.841214
100
AcDbArc
 50
97.643068
 51
98.341043
  0
LINE
  5
D5
100
AcDbEntity
  8
0
100
AcDbLine
 10
2.11
 20
0.616
 30
0.0
 11
2.087226
 21
0.608407
 31
0.0
  0
ARC
  5
D6
100
AcDbEntity
  8
0
100
AcDbCircle
 10
1.217946
 20
0.824863
 30
0.0
 40
0.426086
100
AcDbArc
 50
267.76221
 51
280.860154
  0
LINE
  5
D7
100
AcDbEntity
  8
0
100
AcDbLine
 10
-0.202499
 20
-0.178687
 30
0.0
 11
2.847
 21
-0.178687
 31
0.0
  0
LINE
  5
D8
100
AcDbEntity
  8
0
100
AcDbLine
 10
4.797501
 20
-0.178687
 30
0.0
 11
4.797501
 21
3.106242
 31
0.0
  0
LINE
  5
D9
100
AcDbEntity
  8
0
100
AcDbLine
 10
4.797501
 20
3.106242
 30
0.0
 11
-0.202499
 21
3.106242
 31
0.0
  0
LINE
  5
DA
100
AcDbEntity
  8
0
100
AcDbLine
 10
-0.202499
 20
3.106242
 30
0.0
 11
-0.202499
 21
-0.178687
 31
0.0
  0
LINE
  5
DB
100
AcDbEntity
  8
0
100
AcDbLine
 10
2.852
 20
0.042
 30
0.0
 11
2.852
 21
-0.178687
 31
0.0
  0
LINE
  5
DC
100
AcDbEntity
  8
0
100
AcDbLine
 10
2.847
 20
0.041783
 30
0.0
 11
2.847
 21
-0.178687
 31
0.0
  0
LINE
  5
DD
100
AcDbEntity
  8
0
100
AcDbLine
 10
2.852
 20
-0.178687
 30
0.0
 11
4.797501
 21
-0.178687
 31
0.0
  0
LINE
  5
DE
100
AcDbEntity
  8
0
100
AcDbLine
 10
1.804
 20
0.946
 30
0.0
 11
1.957737
 21
1.24263
 31
0.0
  0
LINE
  5
DF
100
AcDbEntity
  8
0
100
AcDbLine
 10
1.808391
 20
0.943606
 30
0.0
 11
1.962139
 21
1.24026
 31
0.0
  0
ARC
  5
E0
100
AcDbEntity
  8
0
100
AcDbCircle
 10
-1.217284
 20
-4.658949
 30
0.0
 40
6.701447
100
AcDbArc
 50
61.719966
 51
61.853245
  0
LINE
  5
E1
100
AcDbEntity
  8
0
100
AcDbLine
 10
1.91
 20
0.859
 30
0.0
 11
2.11
 21
0.616
 31
0.0
  0
ARC
  5
E2
100
AcDbEntity
  8
0
100
AcDbCircle
 10
2.880298
 20
1.071213
 30
0.0
 40
0.580601
100
AcDbArc
 50
100.549418
 51
150.449
  0
ARC
  5
E3
100
AcDbEntity
  8
0
100
AcDbCircle
 10
2.57338
 20
1.274369
 30
0.0
 40
0.228758
100
AcDbArc
 50
253.168116
 51
341.576414
  0
ARC
  5
E4
100
AcDbEntity
  8
0
100
AcDbCircle
 10
2.521161
 20
1.224833
 30
0.0
 40
0.17
100
AcDbArc
 50
233.306076
 51
265.268777
  0
ENDSEC
  0
SECTION
  2
OBJECTS
  0
DICTIONARY
  5
C
100
AcDbDictionary
  3
ACAD_GROUP
350
D
  3
ACAD_MLINESTYLE
350
E
  0
DICTIONARY
  5
D
102
{ACAD_REACTORS
330
C
102
}
100
AcDbDictionary
  0
DICTIONARY
  5
E
102
{ACAD_REACTORS
330
C
102
}
100
AcDbDictionary
  3
STANDARD
350
1B
  0
MLINESTYLE
  5
1B
102
{ACAD_REACTORS
330
E
102
}
100
AcDbMlineStyle
  2
STANDARD
 70
     0
  3

 62
     0
 51
90.0
 52
90.0
 71
     2
 49
0.5
 62
   256
  6
BYLAYER
 49
-0.5
 62
   256
  6
BYLAYER
  0
ENDSEC
  0
EOF
