  0
SECTION
  2
HEADER
  9
$ACADVER
  1
AC1021
  9
$ACADMAINTVER
 70
    25
  9
$DWGCODEPAGE
  3
MAC-ROMAN
  9
$INSBASE
 10
0.0
 20
0.0
 30
0.0
  9
$EXTMIN
 10
-927.3566
 20
-255.8888
 30
0.0
  9
$EXTMAX
 10
-430.2392
 20
88.9756
 30
0.0
  9
$LIMMIN
 10
0.0
 20
0.0
  9
$LIMMAX
 10
12.0
 20
9.0
  9
$ORTHOMODE
 70
     0
  9
$REGENMODE
 70
     1
  9
$FILLMODE
 70
     1
  9
$QTEXTMODE
 70
     0
  9
$MIRRTEXT
 70
     1
  9
$LTSCALE
 40
1.0
  9
$ATTMODE
 70
     1
  9
$TEXTSIZE
 40
0.2
  9
$TRACEWID
 40
0.05
  9
$TEXTSTYLE
  7
Standard
  9
$CLAYER
  8
0
  9
$CELTYPE
  6
ByLayer
  9
$CECOLOR
 62
   256
  9
$CELTSCALE
 40
1.0
  9
$DISPSILH
 70
     0
  9
$DIMSCALE
 40
1.0
  9
$DIMASZ
 40
0.18
  9
$DIMEXO
 40
0.0625
  9
$DIMDLI
 40
0.38
  9
$DIMRND
 40
0.0
  9
$DIMDLE
 40
0.0
  9
$DIMEXE
 40
0.18
  9
$DIMTP
 40
0.0
  9
$DIMTM
 40
0.0
  9
$DIMTXT
 40
0.18
  9
$DIMCEN
 40
0.09
  9
$DIMTSZ
 40
0.0
  9
$DIMTOL
 70
     0
  9
$DIMLIM
 70
     0
  9
$DIMTIH
 70
     1
  9
$DIMTOH
 70
     1
  9
$DIMSE1
 70
     0
  9
$DIMSE2
 70
     0
  9
$DIMTAD
 70
     0
  9
$DIMZIN
 70
     0
  9
$DIMBLK
  1

  9
$DIMASO
 70
     1
  9
$DIMSHO
 70
     1
  9
$DIMPOST
  1

  9
$DIMAPOST
  1

  9
$DIMALT
 70
     0
  9
$DIMALTD
 70
     2
  9
$DIMALTF
 40
25.4
  9
$DIMLFAC
 40
1.0
  9
$DIMTOFL
 70
     0
  9
$DIMTVP
 40
0.0
  9
$DIMTIX
 70
     0
  9
$DIMSOXD
 70
     0
  9
$DIMSAH
 70
     0
  9
$DIMBLK1
  1

  9
$DIMBLK2
  1

  9
$DIMSTYLE
  2
Standard
  9
$DIMCLRD
 70
     0
  9
$DIMCLRE
 70
     0
  9
$DIMCLRT
 70
     0
  9
$DIMTFAC
 40
1.0
  9
$DIMGAP
 40
0.09
  9
$DIMJUST
 70
     0
  9
$DIMSD1
 70
     0
  9
$DIMSD2
 70
     0
  9
$DIMTOLJ
 70
     1
  9
$DIMTZIN
 70
     0
  9
$DIMALTZ
 70
     0
  9
$DIMALTTZ
 70
     0
  9
$DIMUPT
 70
     0
  9
$DIMDEC
 70
     4
  9
$DIMTDEC
 70
     4
  9
$DIMALTU
 70
     2
  9
$DIMALTTD
 70
     2
  9
$DIMTXSTY
  7
Standard
  9
$DIMAUNIT
 70
     0
  9
$DIMADEC
 70
     0
  9
$DIMALTRND
 40
0.0
  9
$DIMAZIN
 70
     0
  9
$DIMDSEP
 70
    46
  9
$DIMATFIT
 70
     3
  9
$DIMFRAC
 70
     0
  9
$DIMLDRBLK
  1

  9
$DIMLUNIT
 70
     2
  9
$DIMLWD
 70
    -2
  9
$DIMLWE
 70
    -2
  9
$DIMTMOVE
 70
     0
  9
$DIMFXL
 40
1.0
  9
$DIMFXLON
 70
     0
  9
$DIMJOGANG
 40
0.7853981633974483
  9
$DIMTFILL
 70
     0
  9
$DIMTFILLCLR
 70
     0
  9
$DIMARCSYM
 70
     0
  9
$DIMLTYPE
  6

  9
$DIMLTEX1
  6

  9
$DIMLTEX2
  6

  9
$LUNITS
 70
     2
  9
$LUPREC
 70
     4
  9
$SKETCHINC
 40
0.1
  9
$FILLETRAD
 40
0.5
  9
$AUNITS
 70
     0
  9
$AUPREC
 70
     0
  9
$MENU
  1
.
  9
$ELEVATION
 40
0.0
  9
$PELEVATION
 40
0.0
  9
$THICKNESS
 40
0.0
  9
$LIMCHECK
 70
     0
  9
$CHAMFERA
 40
0.0
  9
$CHAMFERB
 40
0.0
  9
$CHAMFERC
 40
0.0
  9
$CHAMFERD
 40
0.0
  9
$SKPOLY
 70
     0
  9
$TDCREATE
 40
2458937.085016956
  9
$TDUCREATE
 40
2458937.210016956
  9
$TDUPDATE
 40
2458937.08501772
  9
$TDUUPDATE
 40
2458937.21001772
  9
$TDINDWG
 40
0.0000000116
  9
$TDUSRTIMER
 40
0.0000000116
  9
$USRTIMER
 70
     1
  9
$ANGBASE
 50
0.0
  9
$ANGDIR
 70
     0
  9
$PDMODE
 70
     0
  9
$PDSIZE
 40
0.0
  9
$PLINEWID
 40
0.0
  9
$SPLFRAME
 70
     0
  9
$SPLINETYPE
 70
     6
  9
$SPLINESEGS
 70
     8
  9
$HANDSEED
  5
F6
  9
$SURFTAB1
 70
     6
  9
$SURFTAB2
 70
     6
  9
$SURFTYPE
 70
     6
  9
$SURFU
 70
     6
  9
$SURFV
 70
     6
  9
$UCSBASE
  2

  9
$UCSNAME
  2

  9
$UCSORG
 10
0.0
 20
0.0
 30
0.0
  9
$UCSXDIR
 10
1.0
 20
0.0
 30
0.0
  9
$UCSYDIR
 10
0.0
 20
1.0
 30
0.0
  9
$UCSORTHOREF
  2

  9
$UCSORTHOVIEW
 70
     0
  9
$UCSORGTOP
 10
0.0
 20
0.0
 30
0.0
  9
$UCSORGBOTTOM
 10
0.0
 20
0.0
 30
0.0
  9
$UCSORGLEFT
 10
0.0
 20
0.0
 30
0.0
  9
$UCSORGRIGHT
 10
0.0
 20
0.0
 30
0.0
  9
$UCSORGFRONT
 10
0.0
 20
0.0
 30
0.0
  9
$UCSORGBACK
 10
0.0
 20
0.0
 30
0.0
  9
$PUCSBASE
  2

  9
$PUCSNAME
  2

  9
$PUCSORG
 10
0.0
 20
0.0
 30
0.0
  9
$PUCSXDIR
 10
1.0
 20
0.0
 30
0.0
  9
$PUCSYDIR
 10
0.0
 20
1.0
 30
0.0
  9
$PUCSORTHOREF
  2

  9
$PUCSORTHOVIEW
 70
     0
  9
$PUCSORGTOP
 10
0.0
 20
0.0
 30
0.0
  9
$PUCSORGBOTTOM
 10
0.0
 20
0.0
 30
0.0
  9
$PUCSORGLEFT
 10
0.0
 20
0.0
 30
0.0
  9
$PUCSORGRIGHT
 10
0.0
 20
0.0
 30
0.0
  9
$PUCSORGFRONT
 10
0.0
 20
0.0
 30
0.0
  9
$PUCSORGBACK
 10
0.0
 20
0.0
 30
0.0
  9
$USERI1
 70
     0
  9
$USERI2
 70
     0
  9
$USERI3
 70
     0
  9
$USERI4
 70
     0
  9
$USERI5
 70
     0
  9
$USERR1
 40
0.0
  9
$USERR2
 40
0.0
  9
$USERR3
 40
0.0
  9
$USERR4
 40
0.0
  9
$USERR5
 40
0.0
  9
$WORLDVIEW
 70
     1
  9
$SHADEDGE
 70
     3
  9
$SHADEDIF
 70
    70
  9
$TILEMODE
 70
     1
  9
$MAXACTVP
 70
    64
  9
$PINSBASE
 10
0.0
 20
0.0
 30
0.0
  9
$PLIMCHECK
 70
     0
  9
$PEXTMIN
 10
1.000000000000000E+20
 20
1.000000000000000E+20
 30
1.000000000000000E+20
  9
$PEXTMAX
 10
-1.000000000000000E+20
 20
-1.000000000000000E+20
 30
-1.000000000000000E+20
  9
$PLIMMIN
 10
0.0
 20
0.0
  9
$PLIMMAX
 10
12.0
 20
9.0
  9
$UNITMODE
 70
     0
  9
$VISRETAIN
 70
     1
  9
$PLINEGEN
 70
     0
  9
$PSLTSCALE
 70
     1
  9
$TREEDEPTH
 70
  3020
  9
$CMLSTYLE
  2
Standard
  9
$CMLJUST
 70
     0
  9
$CMLSCALE
 40
1.0
  9
$PROXYGRAPHICS
 70
     1
  9
$MEASUREMENT
 70
     0
  9
$CELWEIGHT
370
    -1
  9
$ENDCAPS
280
     0
  9
$JOINSTYLE
280
     0
  9
$LWDISPLAY
290
     0
  9
$INSUNITS
 70
     4
  9
$HYPERLINKBASE
  1

  9
$STYLESHEET
  1

  9
$XEDIT
290
     1
  9
$CEPSNTYPE
380
     0
  9
$PSTYLEMODE
290
     1
  9
$FINGERPRINTGUID
  2
{aec4485f-0bb3-2343-b423-d9b253871165}
  9
$VERSIONGUID
  2
{FAEB1C32-E019-11D5-929B-00C0DF256EC4}
  9
$EXTNAMES
290
     1
  9
$PSVPSCALE
 40
0.0
  9
$OLESTARTUP
290
     0
  9
$SORTENTS
280
   127
  9
$INDEXCTL
280
     0
  9
$HIDETEXT
280
     1
  9
$XCLIPFRAME
290
     0
  9
$HALOGAP
280
     0
  9
$OBSCOLOR
 70
   257
  9
$OBSLTYPE
280
     0
  9
$INTERSECTIONDISPLAY
280
     0
  9
$INTERSECTIONCOLOR
 70
   257
  9
$DIMASSOC
280
     2
  9
$PROJECTNAME
  1

  9
$CAMERADISPLAY
290
     0
  9
$LENSLENGTH
 40
50.0
  9
$CAMERAHEIGHT
 40
0.0
  9
$STEPSPERSEC
 40
2.0
  9
$STEPSIZE
 40
6.0
  9
$3DDWFPREC
 40
2.0
  9
$PSOLWIDTH
 40
0.25
  9
$PSOLHEIGHT
 40
4.0
  9
$LOFTANG1
 40
1.570796326794897
  9
$LOFTANG2
 40
1.570796326794897
  9
$LOFTMAG1
 40
0.0
  9
$LOFTMAG2
 40
0.0
  9
$LOFTPARAM
 70
     7
  9
$LOFTNORMALS
280
     1
  9
$LATITUDE
 40
37.795
  9
$LONGITUDE
 40
-122.394
  9
$NORTHDIRECTION
 40
0.0
  9
$TIMEZONE
 70
 -8000
  9
$LIGHTGLYPHDISPLAY
280
     1
  9
$TILEMODELIGHTSYNCH
280
     1
  9
$CMATERIAL
347
44
  9
$SOLIDHIST
280
     0
  9
$SHOWHIST
280
     1
  9
$DWFFRAME
280
     2
  9
$DGNFRAME
280
     2
  9
$REALWORLDSCALE
290
     1
  9
$INTERFERECOLOR
 62
   256
  9
$CSHADOW
280
     0
  9
$SHADOWPLANELOCATION
 40
0.0
  0
ENDSEC
  0
SECTION
  2
CLASSES
  0
CLASS
  1
ACDBDICTIONARYWDFLT
  2
AcDbDictionaryWithDefault
  3
ObjectDBX Classes
 90
        0
 91
        3
280
     0
281
     0
  0
CLASS
  1
VISUALSTYLE
  2
AcDbVisualStyle
  3
ObjectDBX Classes
 90
     4095
 91
        3
280
     0
281
     0
  0
CLASS
  1
MATERIAL
  2
AcDbMaterial
  3
ObjectDBX Classes
 90
     1153
 91
        3
280
     0
281
     0
  0
CLASS
  1
SCALE
  2
AcDbScale
  3
ObjectDBX Classes
 90
     1153
 91
        3
280
     0
281
     0
  0
CLASS
  1
TABLESTYLE
  2
AcDbTableStyle
  3
ObjectDBX Classes
 90
     4095
 91
        3
280
     0
281
     0
  0
CLASS
  1
MLEADERSTYLE
  2
AcDbMLeaderStyle
  3
ACDB_MLEADERSTYLE_CLASS
 90
     4095
 91
        3
280
     0
281
     0
  0
CLASS
  1
SUN
  2
AcDbSun
  3
SCENEOE
 90
     1153
 91
        3
280
     0
281
     0
  0
CLASS
  1
DICTIONARYVAR
  2
AcDbDictionaryVar
  3
ObjectDBX Classes
 90
        0
 91
        3
280
     0
281
     0
  0
CLASS
  1
CELLSTYLEMAP
  2
AcDbCellStyleMap
  3
ObjectDBX Classes
 90
     1152
 91
        3
280
     0
281
     0
  0
ENDSEC
  0
SECTION
  2
TABLES
  0
TABLE
  2
VPORT
  5
8
330
0
100
AcDbSymbolTable
 70
     1
  0
VPORT
  5
29
330
8
100
AcDbSymbolTableRecord
100
AcDbViewportTableRecord
  2
*Active
 70
     0
 10
0.0
 20
0.0
 11
1.0
 21
1.0
 12
10.42990654205607
 22
4.5
 13
0.0
 23
0.0
 14
0.5
 24
0.5
 15
0.5
 25
0.5
 16
0.0
 26
0.0
 36
1.0
 17
0.0
 27
0.0
 37
0.0
 40
9.0
 41
1.972972972850329
 42
50.0
 43
0.0
 44
0.0
 50
0.0
 51
0.0
 71
     0
 72
   100
 73
     1
 74
     3
 75
     0
 76
     0
 77
     0
 78
     0
281
     0
 65
     1
110
0.0
120
0.0
130
0.0
111
1.0
121
0.0
131
0.0
112
0.0
122
1.0
132
0.0
 79
     0
146
0.0
348
2F
 60
     3
 61
     5
292
     1
282
     1
141
0.0
142
0.0
 63
   250
361
6D
  0
ENDTAB
  0
TABLE
  2
LTYPE
  5
5
330
0
100
AcDbSymbolTable
 70
     1
  0
LTYPE
  5
14
330
5
100
AcDbSymbolTableRecord
100
AcDbLinetypeTableRecord
  2
ByBlock
 70
     0
  3

 72
    65
 73
     0
 40
0.0
  0
LTYPE
  5
15
330
5
100
AcDbSymbolTableRecord
100
AcDbLinetypeTableRecord
  2
ByLayer
 70
     0
  3

 72
    65
 73
     0
 40
0.0
  0
LTYPE
  5
16
330
5
100
AcDbSymbolTableRecord
100
AcDbLinetypeTableRecord
  2
Continuous
 70
     0
  3
Solid line
 72
    65
 73
     0
 40
0.0
  0
ENDTAB
  0
TABLE
  2
LAYER
  5
2
330
0
100
AcDbSymbolTable
 70
     2
  0
LAYER
  5
10
330
2
100
AcDbSymbolTableRecord
100
AcDbLayerTableRecord
  2
0
 70
     0
 62
     7
  6
Continuous
370
    -3
390
F
347
46
  0
LAYER
  5
6F
330
2
100
AcDbSymbolTableRecord
100
AcDbLayerTableRecord
  2
Camada 1
 70
     0
 62
     7
  6
Continuous
370
    -3
390
F
347
46
  0
ENDTAB
  0
TABLE
  2
STYLE
  5
3
330
0
100
AcDbSymbolTable
 70
     1
  0
STYLE
  5
11
330
3
100
AcDbSymbolTableRecord
100
AcDbTextStyleTableRecord
  2
Standard
 70
     0
 40
0.0
 41
1.0
 50
0.0
 71
     0
 42
0.2
  3
txt
  4

  0
ENDTAB
  0
TABLE
  2
VIEW
  5
6
330
0
100
AcDbSymbolTable
 70
     0
  0
ENDTAB
  0
TABLE
  2
UCS
  5
7
330
0
100
AcDbSymbolTable
 70
     0
  0
ENDTAB
  0
TABLE
  2
APPID
  5
9
330
0
100
AcDbSymbolTable
 70
     3
  0
APPID
  5
12
330
9
100
AcDbSymbolTableRecord
100
AcDbRegAppTableRecord
  2
ACAD
 70
     0
  0
APPID
  5
6E
330
9
100
AcDbSymbolTableRecord
100
AcDbRegAppTableRecord
  2
ODA
 70
     0
  0
APPID
  5
EE
330
9
100
AcDbSymbolTableRecord
100
AcDbRegAppTableRecord
  2
ACAD_MLEADERVER
 70
     0
  0
ENDTAB
  0
TABLE
  2
DIMSTYLE
  5
A
330
0
100
AcDbSymbolTable
 70
     1
100
AcDbDimStyleTable
  0
DIMSTYLE
105
27
330
A
100
AcDbSymbolTableRecord
100
AcDbDimStyleTableRecord
  2
Standard
 70
     0
178
     0
340
11
  0
ENDTAB
  0
TABLE
  2
BLOCK_RECORD
  5
1
330
0
100
AcDbSymbolTable
 70
     1
  0
BLOCK_RECORD
  5
1F
330
1
100
AcDbSymbolTableRecord
100
AcDbBlockTableRecord
  2
*Model_Space
340
22
 70
     0
280
     1
281
     0
  0
BLOCK_RECORD
  5
1B
330
1
100
AcDbSymbolTableRecord
100
AcDbBlockTableRecord
  2
*Paper_Space
340
1E
 70
     0
280
     1
281
     0
  0
BLOCK_RECORD
  5
23
330
1
100
AcDbSymbolTableRecord
100
AcDbBlockTableRecord
  2
*Paper_Space0
340
26
 70
     0
280
     1
281
     0
  0
ENDTAB
  0
ENDSEC
  0
SECTION
  2
BLOCKS
  0
BLOCK
  5
20
330
1F
100
AcDbEntity
  8
0
100
AcDbBlockBegin
  2
*Model_Space
 70
     0
 10
0.0
 20
0.0
 30
0.0
  3
*Model_Space
  1

  0
ENDBLK
  5
21
330
1F
100
AcDbEntity
  8
0
100
AcDbBlockEnd
  0
BLOCK
  5
1C
330
1B
100
AcDbEntity
 67
     1
  8
0
100
AcDbBlockBegin
  2
*Paper_Space
 70
     0
 10
0.0
 20
0.0
 30
0.0
  3
*Paper_Space
  1

  0
ENDBLK
  5
1D
330
1B
100
AcDbEntity
 67
     1
  8
0
100
AcDbBlockEnd
  0
BLOCK
  5
24
330
23
100
AcDbEntity
  8
0
100
AcDbBlockBegin
  2
*Paper_Space0
 70
     0
 10
0.0
 20
0.0
 30
0.0
  3
*Paper_Space0
  1

  0
ENDBLK
  5
25
330
23
100
AcDbEntity
  8
0
100
AcDbBlockEnd
  0
ENDSEC
  0
SECTION
  2
ENTITIES
  0
SPLINE
  5
70
330
1F
100
AcDbEntity
  8
Camada 1
370
     9
100
AcDbSpline
210
0.0
220
0.0
230
1.0
 70
    11
 71
     3
 72
   120
 73
   116
 74
     0
 42
0.000000001
 43
0.0000000001
 40
0.0
 40
0.0
 40
0.0
 40
0.0
 40
0.0333333333333333
 40
0.0333333333333333
 40
0.0333333333333333
 40
0.0333333333333333
 40
0.0666666666666667
 40
0.0666666666666667
 40
0.0666666666666667
 40
0.0666666666666667
 40
0.1
 40
0.1
 40
0.1
 40
0.1
 40
0.1333333333333333
 40
0.1333333333333333
 40
0.1333333333333333
 40
0.1333333333333333
 40
0.1666666666666667
 40
0.1666666666666667
 40
0.1666666666666667
 40
0.1666666666666667
 40
0.2
 40
0.2
 40
0.2
 40
0.2
 40
0.2333333333333333
 40
0.2333333333333333
 40
0.2333333333333333
 40
0.2333333333333333
 40
0.2666666666666667
 40
0.2666666666666667
 40
0.2666666666666667
 40
0.2666666666666667
 40
0.3
 40
0.3
 40
0.3
 40
0.3
 40
0.3333333333333333
 40
0.3333333333333333
 40
0.3333333333333333
 40
0.3333333333333333
 40
0.3666666666666666
 40
0.3666666666666666
 40
0.3666666666666666
 40
0.3666666666666666
 40
0.4
 40
0.4
 40
0.4
 40
0.4
 40
0.4333333333333333
 40
0.4333333333333333
 40
0.4333333333333333
 40
0.4333333333333333
 40
0.4666666666666667
 40
0.4666666666666667
 40
0.4666666666666667
 40
0.4666666666666667
 40
0.5
 40
0.5
 40
0.5
 40
0.5
 40
0.5333333333333333
 40
0.5333333333333333
 40
0.5333333333333333
 40
0.5333333333333333
 40
0.5666666666666667
 40
0.5666666666666667
 40
0.5666666666666667
 40
0.5666666666666667
 40
0.6
 40
0.6
 40
0.6
 40
0.6
 40
0.6333333333333333
 40
0.6333333333333333
 40
0.6333333333333333
 40
0.6333333333333333
 40
0.6666666666666666
 40
0.6666666666666666
 40
0.6666666666666666
 40
0.6666666666666666
 40
0.7
 40
0.7
 40
0.7
 40
0.7
 40
0.7333333333333333
 40
0.7333333333333333
 40
0.7333333333333333
 40
0.7333333333333333
 40
0.7666666666666667
 40
0.7666666666666667
 40
0.7666666666666667
 40
0.7666666666666667
 40
0.8
 40
0.8
 40
0.8
 40
0.8
 40
0.8333333333333334
 40
0.8333333333333334
 40
0.8333333333333334
 40
0.8333333333333334
 40
0.8666666666666667
 40
0.8666666666666667
 40
0.8666666666666667
 40
0.8666666666666667
 40
0.9
 40
0.9
 40
0.9
 40
0.9
 40
0.9333333333333333
 40
0.9333333333333333
 40
0.9333333333333333
 40
0.9333333333333333
 40
1.0
 40
1.0
 40
1.0
 40
1.0
 10
-580.8185
 20
-225.8507
 30
0.0
 10
-580.8135
 20
-233.8022
 30
0.0
 10
-583.9673
 20
-241.43
 30
0.0
 10
-589.5863
 20
-247.056
 30
0.0
 10
-589.5863
 20
-247.056
 30
0.0
 10
-595.2053
 20
-252.6821
 30
0.0
 10
-602.867
 20
-255.8457
 30
0.0
 10
-610.8185
 20
-255.8507
 30
0.0
 10
-610.8185
 20
-255.8507
 30
0.0
 10
-610.8185
 20
-255.8507
 30
0.0
 10
-790.8185
 20
-255.8507
 30
0.0
 10
-790.8185
 20
-255.8507
 30
0.0
 10
-790.8185
 20
-255.8507
 30
0.0
 10
-798.77
 20
-255.8557
 30
0.0
 10
-806.3978
 20
-252.7019
 30
0.0
 10
-812.0238
 20
-247.0829
 30
0.0
 10
-812.0238
 20
-247.0829
 30
0.0
 10
-817.6499
 20
-241.4639
 30
0.0
 10
-820.8135
 20
-233.8022
 30
0.0
 10
-820.8185
 20
-225.8507
 30
0.0
 10
-820.8185
 20
-225.8507
 30
0.0
 10
-820.8185
 20
-225.8507
 30
0.0
 10
-839.9185
 20
-55.8507
 30
0.0
 10
-839.9185
 20
-55.8507
 30
0.0
 10
-839.9185
 20
-55.8507
 30
0.0
 10
-839.9202
 20
-53.1969
 30
0.0
 10
-840.976
 20
-50.6523
 30
0.0
 10
-842.8538
 20
-48.777
 30
0.0
 10
-842.8538
 20
-48.777
 30
0.0
 10
-844.7314
 20
-46.9017
 30
0.0
 10
-847.2647
 20
-45.849
 30
0.0
 10
-849.9185
 20
-45.8507
 30
0.0
 10
-849.9185
 20
-45.8507
 30
0.0
 10
-849.9185
 20
-45.8507
 30
0.0
 10
-917.3185
 20
-45.8507
 30
0.0
 10
-917.3185
 20
-45.8507
 30
0.0
 10
-917.3185
 20
-45.8507
 30
0.0
 10
-919.969
 20
-45.8524
 30
0.0
 10
-922.5117
 20
-44.801
 30
0.0
 10
-924.3869
 20
-42.9281
 30
0.0
 10
-924.3869
 20
-42.9281
 30
0.0
 10
-926.2622
 20
-41.0552
 30
0.0
 10
-927.3168
 20
-38.5012
 30
0.0
 10
-927.3185
 20
-35.8507
 30
0.0
 10
-927.3185
 20
-35.8507
 30
0.0
 10
-927.3185
 20
-35.8507
 30
0.0
 10
-927.3185
 20
-25.8507
 30
0.0
 10
-927.3185
 20
-25.8507
 30
0.0
 10
-927.3185
 20
-25.8507
 30
0.0
 10
-927.3202
 20
-23.2002
 30
0.0
 10
-926.2688
 20
-20.6575
 30
0.0
 10
-924.3959
 20
-18.7823
 30
0.0
 10
-924.3959
 20
-18.7823
 30
0.0
 10
-922.523
 20
-16.907
 30
0.0
 10
-919.969
 20
-15.8524
 30
0.0
 10
-917.3185
 20
-15.8507
 30
0.0
 10
-917.3185
 20
-15.8507
 30
0.0
 10
-917.3185
 20
-15.8507
 30
0.0
 10
-754.1142
 20
-15.8507
 30
0.0
 10
-754.1142
 20
-15.8507
 30
0.0
 10
-754.1142
 20
-15.8507
 30
0.0
 10
-741.2242
 20
-13.5245
 30
0.0
 10
-722.5954
 20
-12.0629
 30
0.0
 10
-701.8763
 20
-12.0629
 30
0.0
 10
-701.8763
 20
-12.0629
 30
0.0
 10
-681.1573
 20
-12.0629
 30
0.0
 10
-662.5285
 20
-13.5245
 30
0.0
 10
-649.6385
 20
-15.8507
 30
0.0
 10
-649.6385
 20
-15.8507
 30
0.0
 10
-649.6385
 20
-15.8507
 30
0.0
 10
-475.9185
 20
-15.8507
 30
0.0
 10
-475.9185
 20
-15.8507
 30
0.0
 10
-475.9185
 20
-15.8507
 30
0.0
 10
-472.1921
 20
-14.6892
 30
0.0
 10
-470.1856
 20
-10.5378
 30
0.0
 10
-464.7394
 20
-10.6662
 30
0.0
 10
-464.7394
 20
-10.6662
 30
0.0
 10
-464.7394
 20
-10.6662
 30
0.0
 10
-437.4212
 20
-10.6662
 30
0.0
 10
-437.4212
 20
-10.6662
 30
0.0
 10
-437.4212
 20
-10.6662
 30
0.0
 10
-433.4919
 20
-10.6662
 30
0.0
 10
-430.2773
 20
-15.5813
 30
0.0
 10
-430.2773
 20
-19.51
 30
0.0
 10
-430.2773
 20
-19.51
 30
0.0
 10
-430.2773
 20
-19.51
 30
0.0
 10
-430.2773
 20
-41.4704
 30
0.0
 10
-430.2773
 20
-41.4704
 30
0.0
 10
-430.2773
 20
-41.4704
 30
0.0
 10
-430.2773
 20
-45.3989
 30
0.0
 10
-433.4925
 20
-50.4142
 30
0.0
 10
-437.4212
 20
-50.4142
 30
0.0
 10
-437.4212
 20
-50.4142
 30
0.0
 10
-437.4212
 20
-50.4142
 30
0.0
 10
-464.7394
 20
-50.4142
 30
0.0
 10
-464.7394
 20
-50.4142
 30
0.0
 10
-464.7394
 20
-50.4142
 30
0.0
 10
-471.9385
 20
-50.4191
 30
0.0
 10
-472.1921
 20
-46.7719
 30
0.0
 10
-475.9185
 20
-45.8507
 30
0.0
 10
-475.9185
 20
-45.8507
 30
0.0
 10
-475.9185
 20
-45.8507
 30
0.0
 10
-551.7185
 20
-45.8507
 30
0.0
 10
-551.7185
 20
-45.8507
 30
0.0
 10
-551.7185
 20
-45.8507
 30
0.0
 10
-554.3723
 20
-45.8524
 30
0.0
 10
-556.917
 20
-46.9083
 30
0.0
 10
-558.7922
 20
-48.786
 30
0.0
 10
-558.7922
 20
-48.786
 30
0.0
 10
-560.6674
 20
-50.6635
 30
0.0
 10
-561.7202
 20
-53.1969
 30
0.0
 10
-561.7185
 20
-55.8507
 30
0.0
 10
-561.7185
 20
-55.8507
 30
0.0
 10
-561.7185
 20
-55.8507
 30
0.0
 10
-580.8185
 20
-225.8507
 30
0.0
 10
-580.8185
 20
-225.8507
 30
0.0
  0
SPLINE
  5
71
330
1F
100
AcDbEntity
  8
Camada 1
370
     9
100
AcDbSpline
210
0.0
220
0.0
230
1.0
 70
    11
 71
     3
 72
    52
 73
    48
 74
     0
 42
0.000000001
 43
0.0000000001
 40
0.0
 40
0.0
 40
0.0
 40
0.0
 40
0.0769230769230769
 40
0.0769230769230769
 40
0.0769230769230769
 40
0.0769230769230769
 40
0.1538461538461539
 40
0.1538461538461539
 40
0.1538461538461539
 40
0.1538461538461539
 40
0.2307692307692308
 40
0.2307692307692308
 40
0.2307692307692308
 40
0.2307692307692308
 40
0.3076923076923077
 40
0.3076923076923077
 40
0.3076923076923077
 40
0.3076923076923077
 40
0.3846153846153846
 40
0.3846153846153846
 40
0.3846153846153846
 40
0.3846153846153846
 40
0.4615384615384616
 40
0.4615384615384616
 40
0.4615384615384616
 40
0.4615384615384616
 40
0.5384615384615384
 40
0.5384615384615384
 40
0.5384615384615384
 40
0.5384615384615384
 40
0.6153846153846154
 40
0.6153846153846154
 40
0.6153846153846154
 40
0.6153846153846154
 40
0.6923076923076923
 40
0.6923076923076923
 40
0.6923076923076923
 40
0.6923076923076923
 40
0.7692307692307693
 40
0.7692307692307693
 40
0.7692307692307693
 40
0.7692307692307693
 40
0.8461538461538461
 40
0.8461538461538461
 40
0.8461538461538461
 40
0.8461538461538461
 40
1.0
 40
1.0
 40
1.0
 40
1.0
 10
-517.8096
 20
-64.7244
 30
0.0
 10
-517.8096
 20
-64.7244
 30
0.0
 10
-517.8096
 20
-239.0106
 30
0.0
 10
-517.8096
 20
-239.0106
 30
0.0
 10
-517.8096
 20
-239.0106
 30
0.0
 10
-517.8079
 20
-241.019
 30
0.0
 10
-518.8592
 20
-242.9457
 30
0.0
 10
-520.7322
 20
-244.3668
 30
0.0
 10
-520.7322
 20
-244.3668
 30
0.0
 10
-522.6052
 20
-245.7879
 30
0.0
 10
-525.1591
 20
-246.5869
 30
0.0
 10
-527.8096
 20
-246.5882
 30
0.0
 10
-527.8096
 20
-246.5882
 30
0.0
 10
-527.8096
 20
-246.5882
 30
0.0
 10
-537.8096
 20
-246.5882
 30
0.0
 10
-537.8096
 20
-246.5882
 30
0.0
 10
-537.8096
 20
-246.5882
 30
0.0
 10
-540.4601
 20
-246.5895
 30
0.0
 10
-543.0027
 20
-245.7929
 30
0.0
 10
-544.878
 20
-244.3736
 30
0.0
 10
-544.878
 20
-244.3736
 30
0.0
 10
-546.7534
 20
-242.9543
 30
0.0
 10
-547.8079
 20
-241.019
 30
0.0
 10
-547.8096
 20
-239.0106
 30
0.0
 10
-547.8096
 20
-239.0106
 30
0.0
 10
-547.8096
 20
-239.0106
 30
0.0
 10
-547.8096
 20
-64.7244
 30
0.0
 10
-547.8096
 20
-64.7244
 30
0.0
 10
-547.8096
 20
-64.7244
 30
0.0
 10
-547.8113
 20
-62.716
 30
0.0
 10
-546.76
 20
-60.7893
 30
0.0
 10
-544.887
 20
-59.3682
 30
0.0
 10
-544.887
 20
-59.3682
 30
0.0
 10
-543.014
 20
-57.9471
 30
0.0
 10
-540.4601
 20
-57.1481
 30
0.0
 10
-537.8096
 20
-57.1468
 30
0.0
 10
-537.8096
 20
-57.1468
 30
0.0
 10
-537.8096
 20
-57.1468
 30
0.0
 10
-527.8096
 20
-57.1468
 30
0.0
 10
-527.8096
 20
-57.1468
 30
0.0
 10
-527.8096
 20
-57.1468
 30
0.0
 10
-525.1591
 20
-57.1455
 30
0.0
 10
-522.6165
 20
-57.9421
 30
0.0
 10
-520.7412
 20
-59.3614
 30
0.0
 10
-520.7412
 20
-59.3614
 30
0.0
 10
-518.8658
 20
-60.7807
 30
0.0
 10
-517.8113
 20
-62.716
 30
0.0
 10
-517.8096
 20
-64.7244
 30
0.0
  0
SPLINE
  5
72
330
1F
100
AcDbEntity
  8
Camada 1
 62
   240
370
    20
100
AcDbSpline
210
0.0
220
0.0
230
1.0
 70
     8
 71
     3
 72
    36
 73
    32
 74
     0
 42
0.000000001
 43
0.0000000001
 40
0.0
 40
0.0
 40
0.0
 40
0.0
 40
0.1111111111111111
 40
0.1111111111111111
 40
0.1111111111111111
 40
0.1111111111111111
 40
0.2222222222222222
 40
0.2222222222222222
 40
0.2222222222222222
 40
0.2222222222222222
 40
0.3333333333333333
 40
0.3333333333333333
 40
0.3333333333333333
 40
0.3333333333333333
 40
0.4444444444444444
 40
0.4444444444444444
 40
0.4444444444444444
 40
0.4444444444444444
 40
0.5555555555555556
 40
0.5555555555555556
 40
0.5555555555555556
 40
0.5555555555555556
 40
0.6666666666666666
 40
0.6666666666666666
 40
0.6666666666666666
 40
0.6666666666666666
 40
0.7777777777777778
 40
0.7777777777777778
 40
0.7777777777777778
 40
0.7777777777777778
 40
1.0
 40
1.0
 40
1.0
 40
1.0
 10
-528.4577
 20
-203.6233
 30
0.0
 10
-528.4577
 20
-203.6233
 30
0.0
 10
-528.5002
 20
-207.3367
 30
0.0
 10
-528.5002
 20
-207.3367
 30
0.0
 10
-528.5002
 20
-207.3367
 30
0.0
 10
-528.5002
 20
-207.3367
 30
0.0
 10
-526.5098
 20
-207.3367
 30
0.0
 10
-526.5098
 20
-207.3367
 30
0.0
 10
-526.5098
 20
-207.3367
 30
0.0
 10
-526.3415
 20
-207.6237
 30
0.0
 10
-526.251
 20
-207.9269
 30
0.0
 10
-526.251
 20
-208.2406
 30
0.0
 10
-526.251
 20
-208.2406
 30
0.0
 10
-526.251
 20
-210.0307
 30
0.0
 10
-529.1874
 20
-211.4818
 30
0.0
 10
-532.8095
 20
-211.4818
 30
0.0
 10
-532.8095
 20
-211.4818
 30
0.0
 10
-536.4317
 20
-211.4818
 30
0.0
 10
-539.3681
 20
-210.0307
 30
0.0
 10
-539.3681
 20
-208.2406
 30
0.0
 10
-539.3681
 20
-208.2406
 30
0.0
 10
-539.3681
 20
-207.9269
 30
0.0
 10
-539.2776
 20
-207.6236
 30
0.0
 10
-539.1093
 20
-207.3367
 30
0.0
 10
-539.1093
 20
-207.3367
 30
0.0
 10
-539.1093
 20
-207.3367
 30
0.0
 10
-537.4426
 20
-207.3367
 30
0.0
 10
-537.4426
 20
-207.3367
 30
0.0
 10
-537.4426
 20
-207.3367
 30
0.0
 10
-537.4426
 20
-207.3367
 30
0.0
 10
-537.427
 20
-203.6233
 30
0.0
 10
-537.427
 20
-203.6233
 30
0.0
  0
SPLINE
  5
73
330
1F
100
AcDbEntity
  8
Camada 1
 62
   240
370
    20
100
AcDbSpline
210
0.0
220
0.0
230
1.0
 70
     8
 71
     3
 72
    36
 73
    32
 74
     0
 42
0.000000001
 43
0.0000000001
 40
0.0
 40
0.0
 40
0.0
 40
0.0
 40
0.1111111111111111
 40
0.1111111111111111
 40
0.1111111111111111
 40
0.1111111111111111
 40
0.2222222222222222
 40
0.2222222222222222
 40
0.2222222222222222
 40
0.2222222222222222
 40
0.3333333333333333
 40
0.3333333333333333
 40
0.3333333333333333
 40
0.3333333333333333
 40
0.4444444444444444
 40
0.4444444444444444
 40
0.4444444444444444
 40
0.4444444444444444
 40
0.5555555555555556
 40
0.5555555555555556
 40
0.5555555555555556
 40
0.5555555555555556
 40
0.6666666666666666
 40
0.6666666666666666
 40
0.6666666666666666
 40
0.6666666666666666
 40
0.7777777777777778
 40
0.7777777777777778
 40
0.7777777777777778
 40
0.7777777777777778
 40
1.0
 40
1.0
 40
1.0
 40
1.0
 10
-521.2368
 20
17.7536
 30
0.0
 10
-521.2368
 20
17.7536
 30
0.0
 10
-525.9117
 20
17.7001
 30
0.0
 10
-525.9117
 20
17.7001
 30
0.0
 10
-525.9117
 20
17.7001
 30
0.0
 10
-525.9117
 20
17.7001
 30
0.0
 10
-525.9117
 20
19.6905
 30
0.0
 10
-525.9117
 20
19.6905
 30
0.0
 10
-525.9117
 20
19.6905
 30
0.0
 10
-526.1987
 20
19.8588
 30
0.0
 10
-526.5019
 20
19.9493
 30
0.0
 10
-526.8156
 20
19.9493
 30
0.0
 10
-526.8156
 20
19.9493
 30
0.0
 10
-528.6057
 20
19.9493
 30
0.0
 10
-530.0568
 20
17.0129
 30
0.0
 10
-530.0568
 20
13.3908
 30
0.0
 10
-530.0568
 20
13.3908
 30
0.0
 10
-530.0568
 20
9.7686
 30
0.0
 10
-528.6057
 20
6.8322
 30
0.0
 10
-526.8156
 20
6.8322
 30
0.0
 10
-526.8156
 20
6.8322
 30
0.0
 10
-526.5019
 20
6.8322
 30
0.0
 10
-526.1986
 20
6.9227
 30
0.0
 10
-525.9117
 20
7.091
 30
0.0
 10
-525.9117
 20
7.091
 30
0.0
 10
-525.9117
 20
7.091
 30
0.0
 10
-525.9117
 20
8.7577
 30
0.0
 10
-525.9117
 20
8.7577
 30
0.0
 10
-525.9117
 20
8.7577
 30
0.0
 10
-525.9117
 20
8.7577
 30
0.0
 10
-521.2368
 20
8.7773
 30
0.0
 10
-521.2368
 20
8.7773
 30
0.0
  0
SPLINE
  5
74
330
1F
100
AcDbEntity
  8
Camada 1
 62
   240
370
    20
100
AcDbSpline
210
0.0
220
0.0
230
1.0
 70
     8
 71
     3
 72
    36
 73
    32
 74
     0
 42
0.000000001
 43
0.0000000001
 40
0.0
 40
0.0
 40
0.0
 40
0.0
 40
0.1111111111111111
 40
0.1111111111111111
 40
0.1111111111111111
 40
0.1111111111111111
 40
0.2222222222222222
 40
0.2222222222222222
 40
0.2222222222222222
 40
0.2222222222222222
 40
0.3333333333333333
 40
0.3333333333333333
 40
0.3333333333333333
 40
0.3333333333333333
 40
0.4444444444444444
 40
0.4444444444444444
 40
0.4444444444444444
 40
0.4444444444444444
 40
0.5555555555555556
 40
0.5555555555555556
 40
0.5555555555555556
 40
0.5555555555555556
 40
0.6666666666666666
 40
0.6666666666666666
 40
0.6666666666666666
 40
0.6666666666666666
 40
0.7777777777777778
 40
0.7777777777777778
 40
0.7777777777777778
 40
0.7777777777777778
 40
1.0
 40
1.0
 40
1.0
 40
1.0
 10
-544.2501
 20
17.7536
 30
0.0
 10
-544.2501
 20
17.7536
 30
0.0
 10
-548.925
 20
17.7001
 30
0.0
 10
-548.925
 20
17.7001
 30
0.0
 10
-548.925
 20
17.7001
 30
0.0
 10
-548.925
 20
17.7001
 30
0.0
 10
-548.925
 20
19.6905
 30
0.0
 10
-548.925
 20
19.6905
 30
0.0
 10
-548.925
 20
19.6905
 30
0.0
 10
-549.212
 20
19.8588
 30
0.0
 10
-549.5152
 20
19.9493
 30
0.0
 10
-549.8289
 20
19.9493
 30
0.0
 10
-549.8289
 20
19.9493
 30
0.0
 10
-551.619
 20
19.9493
 30
0.0
 10
-553.0701
 20
17.0129
 30
0.0
 10
-553.0701
 20
13.3908
 30
0.0
 10
-553.0701
 20
13.3908
 30
0.0
 10
-553.0701
 20
9.7686
 30
0.0
 10
-551.619
 20
6.8322
 30
0.0
 10
-549.8289
 20
6.8322
 30
0.0
 10
-549.8289
 20
6.8322
 30
0.0
 10
-549.5152
 20
6.8322
 30
0.0
 10
-549.2119
 20
6.9227
 30
0.0
 10
-548.925
 20
7.091
 30
0.0
 10
-548.925
 20
7.091
 30
0.0
 10
-548.925
 20
7.091
 30
0.0
 10
-548.925
 20
8.7577
 30
0.0
 10
-548.925
 20
8.7577
 30
0.0
 10
-548.925
 20
8.7577
 30
0.0
 10
-548.925
 20
8.7577
 30
0.0
 10
-544.2501
 20
8.7773
 30
0.0
 10
-544.2501
 20
8.7773
 30
0.0
  0
SPLINE
  5
75
330
1F
100
AcDbEntity
  8
Camada 1
 62
   250
370
    20
100
AcDbSpline
210
0.0
220
0.0
230
1.0
 70
    11
 71
     3
 72
    52
 73
    48
 74
     0
 42
0.000000001
 43
0.0000000001
 40
0.0
 40
0.0
 40
0.0
 40
0.0
 40
0.0769230769230769
 40
0.0769230769230769
 40
0.0769230769230769
 40
0.0769230769230769
 40
0.1538461538461539
 40
0.1538461538461539
 40
0.1538461538461539
 40
0.1538461538461539
 40
0.2307692307692308
 40
0.2307692307692308
 40
0.2307692307692308
 40
0.2307692307692308
 40
0.3076923076923077
 40
0.3076923076923077
 40
0.3076923076923077
 40
0.3076923076923077
 40
0.3846153846153846
 40
0.3846153846153846
 40
0.3846153846153846
 40
0.3846153846153846
 40
0.4615384615384616
 40
0.4615384615384616
 40
0.4615384615384616
 40
0.4615384615384616
 40
0.5384615384615384
 40
0.5384615384615384
 40
0.5384615384615384
 40
0.5384615384615384
 40
0.6153846153846154
 40
0.6153846153846154
 40
0.6153846153846154
 40
0.6153846153846154
 40
0.6923076923076923
 40
0.6923076923076923
 40
0.6923076923076923
 40
0.6923076923076923
 40
0.7692307692307693
 40
0.7692307692307693
 40
0.7692307692307693
 40
0.7692307692307693
 40
0.8461538461538461
 40
0.8461538461538461
 40
0.8461538461538461
 40
0.8461538461538461
 40
1.0
 40
1.0
 40
1.0
 40
1.0
 10
-861.3092
 20
25.3444
 30
0.0
 10
-861.3092
 20
25.3444
 30
0.0
 10
-737.9798
 20
25.3444
 30
0.0
 10
-737.9798
 20
25.3444
 30
0.0
 10
-737.9798
 20
25.3444
 30
0.0
 10
-737.9798
 20
25.3444
 30
0.0
 10
-629.3801
 20
25.3444
 30
0.0
 10
-629.3801
 20
25.3444
 30
0.0
 10
-629.3801
 20
25.3444
 30
0.0
 10
-629.3801
 20
25.3444
 30
0.0
 10
-506.0506
 20
25.3444
 30
0.0
 10
-506.0506
 20
25.3444
 30
0.0
 10
-506.0506
 20
25.3444
 30
0.0
 10
-501.9972
 20
25.3444
 30
0.0
 10
-498.6799
 20
22.0275
 30
0.0
 10
-498.6799
 20
17.9733
 30
0.0
 10
-498.6799
 20
17.9733
 30
0.0
 10
-498.6799
 20
17.9733
 30
0.0
 10
-498.6799
 20
8.8081
 30
0.0
 10
-498.6799
 20
8.8081
 30
0.0
 10
-498.6799
 20
8.8081
 30
0.0
 10
-498.6799
 20
4.7539
 30
0.0
 10
-501.9972
 20
1.437
 30
0.0
 10
-506.0506
 20
1.437
 30
0.0
 10
-506.0506
 20
1.437
 30
0.0
 10
-543.7415
 20
1.437
 30
0.0
 10
-598.9984
 20
-2.6556
 30
0.0
 10
-629.3801
 20
-2.6556
 30
0.0
 10
-629.3801
 20
-2.6556
 30
0.0
 10
-629.3801
 20
-2.6556
 30
0.0
 10
-737.9798
 20
-2.6556
 30
0.0
 10
-737.9798
 20
-2.6556
 30
0.0
 10
-737.9798
 20
-2.6556
 30
0.0
 10
-768.3615
 20
-2.6556
 30
0.0
 10
-823.6183
 20
1.437
 30
0.0
 10
-861.3092
 20
1.437
 30
0.0
 10
-861.3092
 20
1.437
 30
0.0
 10
-865.3626
 20
1.437
 30
0.0
 10
-868.6799
 20
4.7539
 30
0.0
 10
-868.6799
 20
8.8081
 30
0.0
 10
-868.6799
 20
8.8081
 30
0.0
 10
-868.6799
 20
8.8081
 30
0.0
 10
-868.6799
 20
17.9733
 30
0.0
 10
-868.6799
 20
17.9733
 30
0.0
 10
-868.6799
 20
17.9733
 30
0.0
 10
-868.6799
 20
22.0275
 30
0.0
 10
-865.3626
 20
25.3444
 30
0.0
 10
-861.3092
 20
25.3444
 30
0.0
  0
SPLINE
  5
76
330
1F
100
AcDbEntity
  8
Camada 1
 62
   240
370
    20
100
AcDbSpline
210
0.0
220
0.0
230
1.0
 70
     8
 71
     3
 72
    36
 73
    32
 74
     0
 42
0.000000001
 43
0.0000000001
 40
0.0
 40
0.0
 40
0.0
 40
0.0
 40
0.1111111111111111
 40
0.1111111111111111
 40
0.1111111111111111
 40
0.1111111111111111
 40
0.2222222222222222
 40
0.2222222222222222
 40
0.2222222222222222
 40
0.2222222222222222
 40
0.3333333333333333
 40
0.3333333333333333
 40
0.3333333333333333
 40
0.3333333333333333
 40
0.4444444444444444
 40
0.4444444444444444
 40
0.4444444444444444
 40
0.4444444444444444
 40
0.5555555555555556
 40
0.5555555555555556
 40
0.5555555555555556
 40
0.5555555555555556
 40
0.6666666666666666
 40
0.6666666666666666
 40
0.6666666666666666
 40
0.6666666666666666
 40
0.7777777777777778
 40
0.7777777777777778
 40
0.7777777777777778
 40
0.7777777777777778
 40
1.0
 40
1.0
 40
1.0
 40
1.0
 10
-846.123
 20
17.7536
 30
0.0
 10
-846.123
 20
17.7536
 30
0.0
 10
-841.4481
 20
17.7001
 30
0.0
 10
-841.4481
 20
17.7001
 30
0.0
 10
-841.4481
 20
17.7001
 30
0.0
 10
-841.4481
 20
17.7001
 30
0.0
 10
-841.4481
 20
19.6905
 30
0.0
 10
-841.4481
 20
19.6905
 30
0.0
 10
-841.4481
 20
19.6905
 30
0.0
 10
-841.1611
 20
19.8588
 30
0.0
 10
-840.8579
 20
19.9493
 30
0.0
 10
-840.5442
 20
19.9493
 30
0.0
 10
-840.5442
 20
19.9493
 30
0.0
 10
-838.7541
 20
19.9493
 30
0.0
 10
-837.303
 20
17.0129
 30
0.0
 10
-837.303
 20
13.3908
 30
0.0
 10
-837.303
 20
13.3908
 30
0.0
 10
-837.303
 20
9.7686
 30
0.0
 10
-838.7541
 20
6.8322
 30
0.0
 10
-840.5442
 20
6.8322
 30
0.0
 10
-840.5442
 20
6.8322
 30
0.0
 10
-840.8579
 20
6.8322
 30
0.0
 10
-841.1612
 20
6.9227
 30
0.0
 10
-841.4481
 20
7.091
 30
0.0
 10
-841.4481
 20
7.091
 30
0.0
 10
-841.4481
 20
7.091
 30
0.0
 10
-841.4481
 20
8.7577
 30
0.0
 10
-841.4481
 20
8.7577
 30
0.0
 10
-841.4481
 20
8.7577
 30
0.0
 10
-841.4481
 20
8.7577
 30
0.0
 10
-846.123
 20
8.7773
 30
0.0
 10
-846.123
 20
8.7773
 30
0.0
  0
SPLINE
  5
77
330
1F
100
AcDbEntity
  8
Camada 1
 62
   240
370
    20
100
AcDbSpline
210
0.0
220
0.0
230
1.0
 70
     8
 71
     3
 72
    36
 73
    32
 74
     0
 42
0.000000001
 43
0.0000000001
 40
0.0
 40
0.0
 40
0.0
 40
0.0
 40
0.1111111111111111
 40
0.1111111111111111
 40
0.1111111111111111
 40
0.1111111111111111
 40
0.2222222222222222
 40
0.2222222222222222
 40
0.2222222222222222
 40
0.2222222222222222
 40
0.3333333333333333
 40
0.3333333333333333
 40
0.3333333333333333
 40
0.3333333333333333
 40
0.4444444444444444
 40
0.4444444444444444
 40
0.4444444444444444
 40
0.4444444444444444
 40
0.5555555555555556
 40
0.5555555555555556
 40
0.5555555555555556
 40
0.5555555555555556
 40
0.6666666666666666
 40
0.6666666666666666
 40
0.6666666666666666
 40
0.6666666666666666
 40
0.7777777777777778
 40
0.7777777777777778
 40
0.7777777777777778
 40
0.7777777777777778
 40
1.0
 40
1.0
 40
1.0
 40
1.0
 10
-823.1097
 20
17.7536
 30
0.0
 10
-823.1097
 20
17.7536
 30
0.0
 10
-818.4348
 20
17.7001
 30
0.0
 10
-818.4348
 20
17.7001
 30
0.0
 10
-818.4348
 20
17.7001
 30
0.0
 10
-818.4348
 20
17.7001
 30
0.0
 10
-818.4348
 20
19.6905
 30
0.0
 10
-818.4348
 20
19.6905
 30
0.0
 10
-818.4348
 20
19.6905
 30
0.0
 10
-818.1478
 20
19.8588
 30
0.0
 10
-817.8446
 20
19.9493
 30
0.0
 10
-817.5309
 20
19.9493
 30
0.0
 10
-817.5309
 20
19.9493
 30
0.0
 10
-815.7408
 20
19.9493
 30
0.0
 10
-814.2897
 20
17.0129
 30
0.0
 10
-814.2897
 20
13.3908
 30
0.0
 10
-814.2897
 20
13.3908
 30
0.0
 10
-814.2897
 20
9.7686
 30
0.0
 10
-815.7408
 20
6.8322
 30
0.0
 10
-817.5309
 20
6.8322
 30
0.0
 10
-817.5309
 20
6.8322
 30
0.0
 10
-817.8446
 20
6.8322
 30
0.0
 10
-818.1479
 20
6.9227
 30
0.0
 10
-818.4348
 20
7.091
 30
0.0
 10
-818.4348
 20
7.091
 30
0.0
 10
-818.4348
 20
7.091
 30
0.0
 10
-818.4348
 20
8.7577
 30
0.0
 10
-818.4348
 20
8.7577
 30
0.0
 10
-818.4348
 20
8.7577
 30
0.0
 10
-818.4348
 20
8.7577
 30
0.0
 10
-823.1097
 20
8.7773
 30
0.0
 10
-823.1097
 20
8.7773
 30
0.0
  0
SPLINE
  5
78
330
1F
100
AcDbEntity
  8
Camada 1
 62
   240
370
    20
100
AcDbSpline
210
0.0
220
0.0
230
1.0
 70
    11
 71
     3
 72
    36
 73
    32
 74
     0
 42
0.000000001
 43
0.0000000001
 40
0.0
 40
0.0
 40
0.0
 40
0.0
 40
0.1111111111111111
 40
0.1111111111111111
 40
0.1111111111111111
 40
0.1111111111111111
 40
0.2222222222222222
 40
0.2222222222222222
 40
0.2222222222222222
 40
0.2222222222222222
 40
0.3333333333333333
 40
0.3333333333333333
 40
0.3333333333333333
 40
0.3333333333333333
 40
0.4444444444444444
 40
0.4444444444444444
 40
0.4444444444444444
 40
0.4444444444444444
 40
0.5555555555555556
 40
0.5555555555555556
 40
0.5555555555555556
 40
0.5555555555555556
 40
0.6666666666666666
 40
0.6666666666666666
 40
0.6666666666666666
 40
0.6666666666666666
 40
0.7777777777777778
 40
0.7777777777777778
 40
0.7777777777777778
 40
0.7777777777777778
 40
1.0
 40
1.0
 40
1.0
 40
1.0
 10
-464.3562
 20
-14.1177
 30
0.0
 10
-464.3562
 20
-14.1177
 30
0.0
 10
-463.779
 20
-14.1177
 30
0.0
 10
-463.779
 20
-14.1177
 30
0.0
 10
-463.779
 20
-14.1177
 30
0.0
 10
-463.5252
 20
-14.1177
 30
0.0
 10
-463.3176
 20
-14.3253
 30
0.0
 10
-463.3176
 20
-14.5791
 30
0.0
 10
-463.3176
 20
-14.5791
 30
0.0
 10
-463.3176
 20
-14.5791
 30
0.0
 10
-463.3176
 20
-46.5308
 30
0.0
 10
-463.3176
 20
-46.5308
 30
0.0
 10
-463.3176
 20
-46.5308
 30
0.0
 10
-463.3176
 20
-46.7846
 30
0.0
 10
-463.5252
 20
-46.9922
 30
0.0
 10
-463.779
 20
-46.9922
 30
0.0
 10
-463.779
 20
-46.9922
 30
0.0
 10
-463.779
 20
-46.9922
 30
0.0
 10
-464.3562
 20
-46.9922
 30
0.0
 10
-464.3562
 20
-46.9922
 30
0.0
 10
-464.3562
 20
-46.9922
 30
0.0
 10
-464.61
 20
-46.9922
 30
0.0
 10
-464.8176
 20
-46.7846
 30
0.0
 10
-464.8176
 20
-46.5308
 30
0.0
 10
-464.8176
 20
-46.5308
 30
0.0
 10
-464.8176
 20
-46.5308
 30
0.0
 10
-464.8176
 20
-14.5791
 30
0.0
 10
-464.8176
 20
-14.5791
 30
0.0
 10
-464.8176
 20
-14.5791
 30
0.0
 10
-464.8176
 20
-14.3253
 30
0.0
 10
-464.61
 20
-14.1177
 30
0.0
 10
-464.3562
 20
-14.1177
 30
0.0
  0
SPLINE
  5
79
330
1F
100
AcDbEntity
  8
Camada 1
 62
   240
370
    20
100
AcDbSpline
210
0.0
220
0.0
230
1.0
 70
    11
 71
     3
 72
    36
 73
    32
 74
     0
 42
0.000000001
 43
0.0000000001
 40
0.0
 40
0.0
 40
0.0
 40
0.0
 40
0.1111111111111111
 40
0.1111111111111111
 40
0.1111111111111111
 40
0.1111111111111111
 40
0.2222222222222222
 40
0.2222222222222222
 40
0.2222222222222222
 40
0.2222222222222222
 40
0.3333333333333333
 40
0.3333333333333333
 40
0.3333333333333333
 40
0.3333333333333333
 40
0.4444444444444444
 40
0.4444444444444444
 40
0.4444444444444444
 40
0.4444444444444444
 40
0.5555555555555556
 40
0.5555555555555556
 40
0.5555555555555556
 40
0.5555555555555556
 40
0.6666666666666666
 40
0.6666666666666666
 40
0.6666666666666666
 40
0.6666666666666666
 40
0.7777777777777778
 40
0.7777777777777778
 40
0.7777777777777778
 40
0.7777777777777778
 40
1.0
 40
1.0
 40
1.0
 40
1.0
 10
-442.1312
 20
-14.1177
 30
0.0
 10
-442.1312
 20
-14.1177
 30
0.0
 10
-441.554
 20
-14.1177
 30
0.0
 10
-441.554
 20
-14.1177
 30
0.0
 10
-441.554
 20
-14.1177
 30
0.0
 10
-441.3002
 20
-14.1177
 30
0.0
 10
-441.0926
 20
-14.3253
 30
0.0
 10
-441.0926
 20
-14.5791
 30
0.0
 10
-441.0926
 20
-14.5791
 30
0.0
 10
-441.0926
 20
-14.5791
 30
0.0
 10
-441.0926
 20
-46.5308
 30
0.0
 10
-441.0926
 20
-46.5308
 30
0.0
 10
-441.0926
 20
-46.5308
 30
0.0
 10
-441.0926
 20
-46.7846
 30
0.0
 10
-441.3002
 20
-46.9922
 30
0.0
 10
-441.554
 20
-46.9922
 30
0.0
 10
-441.554
 20
-46.9922
 30
0.0
 10
-441.554
 20
-46.9922
 30
0.0
 10
-442.1312
 20
-46.9922
 30
0.0
 10
-442.1312
 20
-46.9922
 30
0.0
 10
-442.1312
 20
-46.9922
 30
0.0
 10
-442.385
 20
-46.9922
 30
0.0
 10
-442.5926
 20
-46.7846
 30
0.0
 10
-442.5926
 20
-46.5308
 30
0.0
 10
-442.5926
 20
-46.5308
 30
0.0
 10
-442.5926
 20
-46.5308
 30
0.0
 10
-442.5926
 20
-14.5791
 30
0.0
 10
-442.5926
 20
-14.5791
 30
0.0
 10
-442.5926
 20
-14.5791
 30
0.0
 10
-442.5926
 20
-14.3253
 30
0.0
 10
-442.385
 20
-14.1177
 30
0.0
 10
-442.1312
 20
-14.1177
 30
0.0
  0
SPLINE
  5
7A
330
1F
100
AcDbEntity
  8
Camada 1
 62
   240
370
    20
100
AcDbSpline
210
0.0
220
0.0
230
1.0
 70
    11
 71
     3
 72
    36
 73
    32
 74
     0
 42
0.000000001
 43
0.0000000001
 40
0.0
 40
0.0
 40
0.0
 40
0.0
 40
0.1111111111111111
 40
0.1111111111111111
 40
0.1111111111111111
 40
0.1111111111111111
 40
0.2222222222222222
 40
0.2222222222222222
 40
0.2222222222222222
 40
0.2222222222222222
 40
0.3333333333333333
 40
0.3333333333333333
 40
0.3333333333333333
 40
0.3333333333333333
 40
0.4444444444444444
 40
0.4444444444444444
 40
0.4444444444444444
 40
0.4444444444444444
 40
0.5555555555555556
 40
0.5555555555555556
 40
0.5555555555555556
 40
0.5555555555555556
 40
0.6666666666666666
 40
0.6666666666666666
 40
0.6666666666666666
 40
0.6666666666666666
 40
0.7777777777777778
 40
0.7777777777777778
 40
0.7777777777777778
 40
0.7777777777777778
 40
1.0
 40
1.0
 40
1.0
 40
1.0
 10
-537.1184
 20
-25.8507
 30
0.0
 10
-537.1184
 20
-25.8507
 30
0.0
 10
-535.3186
 20
-25.8507
 30
0.0
 10
-535.3186
 20
-25.8507
 30
0.0
 10
-535.3186
 20
-25.8507
 30
0.0
 10
-534.9885
 20
-25.8507
 30
0.0
 10
-534.7185
 20
-26.1207
 30
0.0
 10
-534.7185
 20
-26.4508
 30
0.0
 10
-534.7185
 20
-26.4508
 30
0.0
 10
-534.7185
 20
-26.4508
 30
0.0
 10
-534.7185
 20
-35.2506
 30
0.0
 10
-534.7185
 20
-35.2506
 30
0.0
 10
-534.7185
 20
-35.2506
 30
0.0
 10
-534.7185
 20
-35.5807
 30
0.0
 10
-534.9885
 20
-35.8507
 30
0.0
 10
-535.3186
 20
-35.8507
 30
0.0
 10
-535.3186
 20
-35.8507
 30
0.0
 10
-535.3186
 20
-35.8507
 30
0.0
 10
-537.1184
 20
-35.8507
 30
0.0
 10
-537.1184
 20
-35.8507
 30
0.0
 10
-537.1184
 20
-35.8507
 30
0.0
 10
-537.4485
 20
-35.8507
 30
0.0
 10
-537.7185
 20
-35.5807
 30
0.0
 10
-537.7185
 20
-35.2506
 30
0.0
 10
-537.7185
 20
-35.2506
 30
0.0
 10
-537.7185
 20
-35.2506
 30
0.0
 10
-537.7185
 20
-26.4508
 30
0.0
 10
-537.7185
 20
-26.4508
 30
0.0
 10
-537.7185
 20
-26.4508
 30
0.0
 10
-537.7185
 20
-26.1207
 30
0.0
 10
-537.4485
 20
-25.8507
 30
0.0
 10
-537.1184
 20
-25.8507
 30
0.0
  0
SPLINE
  5
7B
330
1F
100
AcDbEntity
  8
Camada 1
 62
   240
370
    20
100
AcDbSpline
210
0.0
220
0.0
230
1.0
 70
    11
 71
     3
 72
    36
 73
    32
 74
     0
 42
0.000000001
 43
0.0000000001
 40
0.0
 40
0.0
 40
0.0
 40
0.0
 40
0.1111111111111111
 40
0.1111111111111111
 40
0.1111111111111111
 40
0.1111111111111111
 40
0.2222222222222222
 40
0.2222222222222222
 40
0.2222222222222222
 40
0.2222222222222222
 40
0.3333333333333333
 40
0.3333333333333333
 40
0.3333333333333333
 40
0.3333333333333333
 40
0.4444444444444444
 40
0.4444444444444444
 40
0.4444444444444444
 40
0.4444444444444444
 40
0.5555555555555556
 40
0.5555555555555556
 40
0.5555555555555556
 40
0.5555555555555556
 40
0.6666666666666666
 40
0.6666666666666666
 40
0.6666666666666666
 40
0.6666666666666666
 40
0.7777777777777778
 40
0.7777777777777778
 40
0.7777777777777778
 40
0.7777777777777778
 40
1.0
 40
1.0
 40
1.0
 40
1.0
 10
-514.1184
 20
-25.8507
 30
0.0
 10
-514.1184
 20
-25.8507
 30
0.0
 10
-512.3186
 20
-25.8507
 30
0.0
 10
-512.3186
 20
-25.8507
 30
0.0
 10
-512.3186
 20
-25.8507
 30
0.0
 10
-511.9885
 20
-25.8507
 30
0.0
 10
-511.7185
 20
-26.1207
 30
0.0
 10
-511.7185
 20
-26.4508
 30
0.0
 10
-511.7185
 20
-26.4508
 30
0.0
 10
-511.7185
 20
-26.4508
 30
0.0
 10
-511.7185
 20
-35.2506
 30
0.0
 10
-511.7185
 20
-35.2506
 30
0.0
 10
-511.7185
 20
-35.2506
 30
0.0
 10
-511.7185
 20
-35.5807
 30
0.0
 10
-511.9885
 20
-35.8507
 30
0.0
 10
-512.3186
 20
-35.8507
 30
0.0
 10
-512.3186
 20
-35.8507
 30
0.0
 10
-512.3186
 20
-35.8507
 30
0.0
 10
-514.1184
 20
-35.8507
 30
0.0
 10
-514.1184
 20
-35.8507
 30
0.0
 10
-514.1184
 20
-35.8507
 30
0.0
 10
-514.4485
 20
-35.8507
 30
0.0
 10
-514.7185
 20
-35.5807
 30
0.0
 10
-514.7185
 20
-35.2506
 30
0.0
 10
-514.7185
 20
-35.2506
 30
0.0
 10
-514.7185
 20
-35.2506
 30
0.0
 10
-514.7185
 20
-26.4508
 30
0.0
 10
-514.7185
 20
-26.4508
 30
0.0
 10
-514.7185
 20
-26.4508
 30
0.0
 10
-514.7185
 20
-26.1207
 30
0.0
 10
-514.4485
 20
-25.8507
 30
0.0
 10
-514.1184
 20
-25.8507
 30
0.0
  0
SPLINE
  5
7C
330
1F
100
AcDbEntity
  8
Camada 1
 62
   240
370
    20
100
AcDbSpline
210
0.0
220
0.0
230
1.0
 70
    11
 71
     3
 72
    36
 73
    32
 74
     0
 42
0.000000001
 43
0.0000000001
 40
0.0
 40
0.0
 40
0.0
 40
0.0
 40
0.1111111111111111
 40
0.1111111111111111
 40
0.1111111111111111
 40
0.1111111111111111
 40
0.2222222222222222
 40
0.2222222222222222
 40
0.2222222222222222
 40
0.2222222222222222
 40
0.3333333333333333
 40
0.3333333333333333
 40
0.3333333333333333
 40
0.3333333333333333
 40
0.4444444444444444
 40
0.4444444444444444
 40
0.4444444444444444
 40
0.4444444444444444
 40
0.5555555555555556
 40
0.5555555555555556
 40
0.5555555555555556
 40
0.5555555555555556
 40
0.6666666666666666
 40
0.6666666666666666
 40
0.6666666666666666
 40
0.6666666666666666
 40
0.7777777777777778
 40
0.7777777777777778
 40
0.7777777777777778
 40
0.7777777777777778
 40
1.0
 40
1.0
 40
1.0
 40
1.0
 10
-552.3987
 20
-25.8507
 30
0.0
 10
-552.3987
 20
-25.8507
 30
0.0
 10
-550.5989
 20
-25.8507
 30
0.0
 10
-550.5989
 20
-25.8507
 30
0.0
 10
-550.5989
 20
-25.8507
 30
0.0
 10
-550.2688
 20
-25.8507
 30
0.0
 10
-549.9988
 20
-26.1207
 30
0.0
 10
-549.9988
 20
-26.4508
 30
0.0
 10
-549.9988
 20
-26.4508
 30
0.0
 10
-549.9988
 20
-26.4508
 30
0.0
 10
-549.9988
 20
-35.2506
 30
0.0
 10
-549.9988
 20
-35.2506
 30
0.0
 10
-549.9988
 20
-35.2506
 30
0.0
 10
-549.9988
 20
-35.5807
 30
0.0
 10
-550.2688
 20
-35.8507
 30
0.0
 10
-550.5989
 20
-35.8507
 30
0.0
 10
-550.5989
 20
-35.8507
 30
0.0
 10
-550.5989
 20
-35.8507
 30
0.0
 10
-552.3987
 20
-35.8507
 30
0.0
 10
-552.3987
 20
-35.8507
 30
0.0
 10
-552.3987
 20
-35.8507
 30
0.0
 10
-552.7288
 20
-35.8507
 30
0.0
 10
-552.9988
 20
-35.5807
 30
0.0
 10
-552.9988
 20
-35.2506
 30
0.0
 10
-552.9988
 20
-35.2506
 30
0.0
 10
-552.9988
 20
-35.2506
 30
0.0
 10
-552.9988
 20
-26.4508
 30
0.0
 10
-552.9988
 20
-26.4508
 30
0.0
 10
-552.9988
 20
-26.4508
 30
0.0
 10
-552.9988
 20
-26.1207
 30
0.0
 10
-552.7288
 20
-25.8507
 30
0.0
 10
-552.3987
 20
-25.8507
 30
0.0
  0
SPLINE
  5
7D
330
1F
100
AcDbEntity
  8
Camada 1
 62
   240
370
    20
100
AcDbSpline
210
0.0
220
0.0
230
1.0
 70
    11
 71
     3
 72
    36
 73
    32
 74
     0
 42
0.000000001
 43
0.0000000001
 40
0.0
 40
0.0
 40
0.0
 40
0.0
 40
0.1111111111111111
 40
0.1111111111111111
 40
0.1111111111111111
 40
0.1111111111111111
 40
0.2222222222222222
 40
0.2222222222222222
 40
0.2222222222222222
 40
0.2222222222222222
 40
0.3333333333333333
 40
0.3333333333333333
 40
0.3333333333333333
 40
0.3333333333333333
 40
0.4444444444444444
 40
0.4444444444444444
 40
0.4444444444444444
 40
0.4444444444444444
 40
0.5555555555555556
 40
0.5555555555555556
 40
0.5555555555555556
 40
0.5555555555555556
 40
0.6666666666666666
 40
0.6666666666666666
 40
0.6666666666666666
 40
0.6666666666666666
 40
0.7777777777777778
 40
0.7777777777777778
 40
0.7777777777777778
 40
0.7777777777777778
 40
1.0
 40
1.0
 40
1.0
 40
1.0
 10
-572.0302
 20
-25.8507
 30
0.0
 10
-572.0302
 20
-25.8507
 30
0.0
 10
-570.2304
 20
-25.8507
 30
0.0
 10
-570.2304
 20
-25.8507
 30
0.0
 10
-570.2304
 20
-25.8507
 30
0.0
 10
-569.9003
 20
-25.8507
 30
0.0
 10
-569.6303
 20
-26.1207
 30
0.0
 10
-569.6303
 20
-26.4508
 30
0.0
 10
-569.6303
 20
-26.4508
 30
0.0
 10
-569.6303
 20
-26.4508
 30
0.0
 10
-569.6303
 20
-35.2506
 30
0.0
 10
-569.6303
 20
-35.2506
 30
0.0
 10
-569.6303
 20
-35.2506
 30
0.0
 10
-569.6303
 20
-35.5807
 30
0.0
 10
-569.9003
 20
-35.8507
 30
0.0
 10
-570.2304
 20
-35.8507
 30
0.0
 10
-570.2304
 20
-35.8507
 30
0.0
 10
-570.2304
 20
-35.8507
 30
0.0
 10
-572.0302
 20
-35.8507
 30
0.0
 10
-572.0302
 20
-35.8507
 30
0.0
 10
-572.0302
 20
-35.8507
 30
0.0
 10
-572.3603
 20
-35.8507
 30
0.0
 10
-572.6303
 20
-35.5807
 30
0.0
 10
-572.6303
 20
-35.2506
 30
0.0
 10
-572.6303
 20
-35.2506
 30
0.0
 10
-572.6303
 20
-35.2506
 30
0.0
 10
-572.6303
 20
-26.4508
 30
0.0
 10
-572.6303
 20
-26.4508
 30
0.0
 10
-572.6303
 20
-26.4508
 30
0.0
 10
-572.6303
 20
-26.1207
 30
0.0
 10
-572.3603
 20
-25.8507
 30
0.0
 10
-572.0302
 20
-25.8507
 30
0.0
  0
SPLINE
  5
7E
330
1F
100
AcDbEntity
  8
Camada 1
 62
   240
370
    20
100
AcDbSpline
210
0.0
220
0.0
230
1.0
 70
    11
 71
     3
 72
    36
 73
    32
 74
     0
 42
0.000000001
 43
0.0000000001
 40
0.0
 40
0.0
 40
0.0
 40
0.0
 40
0.1111111111111111
 40
0.1111111111111111
 40
0.1111111111111111
 40
0.1111111111111111
 40
0.2222222222222222
 40
0.2222222222222222
 40
0.2222222222222222
 40
0.2222222222222222
 40
0.3333333333333333
 40
0.3333333333333333
 40
0.3333333333333333
 40
0.3333333333333333
 40
0.4444444444444444
 40
0.4444444444444444
 40
0.4444444444444444
 40
0.4444444444444444
 40
0.5555555555555556
 40
0.5555555555555556
 40
0.5555555555555556
 40
0.5555555555555556
 40
0.6666666666666666
 40
0.6666666666666666
 40
0.6666666666666666
 40
0.6666666666666666
 40
0.7777777777777778
 40
0.7777777777777778
 40
0.7777777777777778
 40
0.7777777777777778
 40
1.0
 40
1.0
 40
1.0
 40
1.0
 10
-864.5186
 20
-25.8507
 30
0.0
 10
-864.5186
 20
-25.8507
 30
0.0
 10
-866.3184
 20
-25.8507
 30
0.0
 10
-866.3184
 20
-25.8507
 30
0.0
 10
-866.3184
 20
-25.8507
 30
0.0
 10
-866.6485
 20
-25.8507
 30
0.0
 10
-866.9185
 20
-26.1207
 30
0.0
 10
-866.9185
 20
-26.4508
 30
0.0
 10
-866.9185
 20
-26.4508
 30
0.0
 10
-866.9185
 20
-26.4508
 30
0.0
 10
-866.9185
 20
-35.2506
 30
0.0
 10
-866.9185
 20
-35.2506
 30
0.0
 10
-866.9185
 20
-35.2506
 30
0.0
 10
-866.9185
 20
-35.5807
 30
0.0
 10
-866.6485
 20
-35.8507
 30
0.0
 10
-866.3184
 20
-35.8507
 30
0.0
 10
-866.3184
 20
-35.8507
 30
0.0
 10
-866.3184
 20
-35.8507
 30
0.0
 10
-864.5186
 20
-35.8507
 30
0.0
 10
-864.5186
 20
-35.8507
 30
0.0
 10
-864.5186
 20
-35.8507
 30
0.0
 10
-864.1885
 20
-35.8507
 30
0.0
 10
-863.9185
 20
-35.5807
 30
0.0
 10
-863.9185
 20
-35.2506
 30
0.0
 10
-863.9185
 20
-35.2506
 30
0.0
 10
-863.9185
 20
-35.2506
 30
0.0
 10
-863.9185
 20
-26.4508
 30
0.0
 10
-863.9185
 20
-26.4508
 30
0.0
 10
-863.9185
 20
-26.4508
 30
0.0
 10
-863.9185
 20
-26.1207
 30
0.0
 10
-864.1885
 20
-25.8507
 30
0.0
 10
-864.5186
 20
-25.8507
 30
0.0
  0
SPLINE
  5
7F
330
1F
100
AcDbEntity
  8
Camada 1
 62
   240
370
    20
100
AcDbSpline
210
0.0
220
0.0
230
1.0
 70
    11
 71
     3
 72
    36
 73
    32
 74
     0
 42
0.000000001
 43
0.0000000001
 40
0.0
 40
0.0
 40
0.0
 40
0.0
 40
0.1111111111111111
 40
0.1111111111111111
 40
0.1111111111111111
 40
0.1111111111111111
 40
0.2222222222222222
 40
0.2222222222222222
 40
0.2222222222222222
 40
0.2222222222222222
 40
0.3333333333333333
 40
0.3333333333333333
 40
0.3333333333333333
 40
0.3333333333333333
 40
0.4444444444444444
 40
0.4444444444444444
 40
0.4444444444444444
 40
0.4444444444444444
 40
0.5555555555555556
 40
0.5555555555555556
 40
0.5555555555555556
 40
0.5555555555555556
 40
0.6666666666666666
 40
0.6666666666666666
 40
0.6666666666666666
 40
0.6666666666666666
 40
0.7777777777777778
 40
0.7777777777777778
 40
0.7777777777777778
 40
0.7777777777777778
 40
1.0
 40
1.0
 40
1.0
 40
1.0
 10
-887.5186
 20
-25.8507
 30
0.0
 10
-887.5186
 20
-25.8507
 30
0.0
 10
-889.3184
 20
-25.8507
 30
0.0
 10
-889.3184
 20
-25.8507
 30
0.0
 10
-889.3184
 20
-25.8507
 30
0.0
 10
-889.6485
 20
-25.8507
 30
0.0
 10
-889.9185
 20
-26.1207
 30
0.0
 10
-889.9185
 20
-26.4508
 30
0.0
 10
-889.9185
 20
-26.4508
 30
0.0
 10
-889.9185
 20
-26.4508
 30
0.0
 10
-889.9185
 20
-35.2506
 30
0.0
 10
-889.9185
 20
-35.2506
 30
0.0
 10
-889.9185
 20
-35.2506
 30
0.0
 10
-889.9185
 20
-35.5807
 30
0.0
 10
-889.6485
 20
-35.8507
 30
0.0
 10
-889.3184
 20
-35.8507
 30
0.0
 10
-889.3184
 20
-35.8507
 30
0.0
 10
-889.3184
 20
-35.8507
 30
0.0
 10
-887.5186
 20
-35.8507
 30
0.0
 10
-887.5186
 20
-35.8507
 30
0.0
 10
-887.5186
 20
-35.8507
 30
0.0
 10
-887.1885
 20
-35.8507
 30
0.0
 10
-886.9185
 20
-35.5807
 30
0.0
 10
-886.9185
 20
-35.2506
 30
0.0
 10
-886.9185
 20
-35.2506
 30
0.0
 10
-886.9185
 20
-35.2506
 30
0.0
 10
-886.9185
 20
-26.4508
 30
0.0
 10
-886.9185
 20
-26.4508
 30
0.0
 10
-886.9185
 20
-26.4508
 30
0.0
 10
-886.9185
 20
-26.1207
 30
0.0
 10
-887.1885
 20
-25.8507
 30
0.0
 10
-887.5186
 20
-25.8507
 30
0.0
  0
SPLINE
  5
80
330
1F
100
AcDbEntity
  8
Camada 1
 62
   240
370
    20
100
AcDbSpline
210
0.0
220
0.0
230
1.0
 70
    11
 71
     3
 72
    36
 73
    32
 74
     0
 42
0.000000001
 43
0.0000000001
 40
0.0
 40
0.0
 40
0.0
 40
0.0
 40
0.1111111111111111
 40
0.1111111111111111
 40
0.1111111111111111
 40
0.1111111111111111
 40
0.2222222222222222
 40
0.2222222222222222
 40
0.2222222222222222
 40
0.2222222222222222
 40
0.3333333333333333
 40
0.3333333333333333
 40
0.3333333333333333
 40
0.3333333333333333
 40
0.4444444444444444
 40
0.4444444444444444
 40
0.4444444444444444
 40
0.4444444444444444
 40
0.5555555555555556
 40
0.5555555555555556
 40
0.5555555555555556
 40
0.5555555555555556
 40
0.6666666666666666
 40
0.6666666666666666
 40
0.6666666666666666
 40
0.6666666666666666
 40
0.7777777777777778
 40
0.7777777777777778
 40
0.7777777777777778
 40
0.7777777777777778
 40
1.0
 40
1.0
 40
1.0
 40
1.0
 10
-849.2383
 20
-25.8507
 30
0.0
 10
-849.2383
 20
-25.8507
 30
0.0
 10
-851.0381
 20
-25.8507
 30
0.0
 10
-851.0381
 20
-25.8507
 30
0.0
 10
-851.0381
 20
-25.8507
 30
0.0
 10
-851.3682
 20
-25.8507
 30
0.0
 10
-851.6382
 20
-26.1207
 30
0.0
 10
-851.6382
 20
-26.4508
 30
0.0
 10
-851.6382
 20
-26.4508
 30
0.0
 10
-851.6382
 20
-26.4508
 30
0.0
 10
-851.6382
 20
-35.2506
 30
0.0
 10
-851.6382
 20
-35.2506
 30
0.0
 10
-851.6382
 20
-35.2506
 30
0.0
 10
-851.6382
 20
-35.5807
 30
0.0
 10
-851.3682
 20
-35.8507
 30
0.0
 10
-851.0381
 20
-35.8507
 30
0.0
 10
-851.0381
 20
-35.8507
 30
0.0
 10
-851.0381
 20
-35.8507
 30
0.0
 10
-849.2383
 20
-35.8507
 30
0.0
 10
-849.2383
 20
-35.8507
 30
0.0
 10
-849.2383
 20
-35.8507
 30
0.0
 10
-848.9082
 20
-35.8507
 30
0.0
 10
-848.6382
 20
-35.5807
 30
0.0
 10
-848.6382
 20
-35.2506
 30
0.0
 10
-848.6382
 20
-35.2506
 30
0.0
 10
-848.6382
 20
-35.2506
 30
0.0
 10
-848.6382
 20
-26.4508
 30
0.0
 10
-848.6382
 20
-26.4508
 30
0.0
 10
-848.6382
 20
-26.4508
 30
0.0
 10
-848.6382
 20
-26.1207
 30
0.0
 10
-848.9082
 20
-25.8507
 30
0.0
 10
-849.2383
 20
-25.8507
 30
0.0
  0
SPLINE
  5
81
330
1F
100
AcDbEntity
  8
Camada 1
 62
   240
370
    20
100
AcDbSpline
210
0.0
220
0.0
230
1.0
 70
    11
 71
     3
 72
    36
 73
    32
 74
     0
 42
0.000000001
 43
0.0000000001
 40
0.0
 40
0.0
 40
0.0
 40
0.0
 40
0.1111111111111111
 40
0.1111111111111111
 40
0.1111111111111111
 40
0.1111111111111111
 40
0.2222222222222222
 40
0.2222222222222222
 40
0.2222222222222222
 40
0.2222222222222222
 40
0.3333333333333333
 40
0.3333333333333333
 40
0.3333333333333333
 40
0.3333333333333333
 40
0.4444444444444444
 40
0.4444444444444444
 40
0.4444444444444444
 40
0.4444444444444444
 40
0.5555555555555556
 40
0.5555555555555556
 40
0.5555555555555556
 40
0.5555555555555556
 40
0.6666666666666666
 40
0.6666666666666666
 40
0.6666666666666666
 40
0.6666666666666666
 40
0.7777777777777778
 40
0.7777777777777778
 40
0.7777777777777778
 40
0.7777777777777778
 40
1.0
 40
1.0
 40
1.0
 40
1.0
 10
-829.6068
 20
-25.8507
 30
0.0
 10
-829.6068
 20
-25.8507
 30
0.0
 10
-831.4066
 20
-25.8507
 30
0.0
 10
-831.4066
 20
-25.8507
 30
0.0
 10
-831.4066
 20
-25.8507
 30
0.0
 10
-831.7367
 20
-25.8507
 30
0.0
 10
-832.0067
 20
-26.1207
 30
0.0
 10
-832.0067
 20
-26.4508
 30
0.0
 10
-832.0067
 20
-26.4508
 30
0.0
 10
-832.0067
 20
-26.4508
 30
0.0
 10
-832.0067
 20
-35.2506
 30
0.0
 10
-832.0067
 20
-35.2506
 30
0.0
 10
-832.0067
 20
-35.2506
 30
0.0
 10
-832.0067
 20
-35.5807
 30
0.0
 10
-831.7367
 20
-35.8507
 30
0.0
 10
-831.4066
 20
-35.8507
 30
0.0
 10
-831.4066
 20
-35.8507
 30
0.0
 10
-831.4066
 20
-35.8507
 30
0.0
 10
-829.6068
 20
-35.8507
 30
0.0
 10
-829.6068
 20
-35.8507
 30
0.0
 10
-829.6068
 20
-35.8507
 30
0.0
 10
-829.2767
 20
-35.8507
 30
0.0
 10
-829.0067
 20
-35.5807
 30
0.0
 10
-829.0067
 20
-35.2506
 30
0.0
 10
-829.0067
 20
-35.2506
 30
0.0
 10
-829.0067
 20
-35.2506
 30
0.0
 10
-829.0067
 20
-26.4508
 30
0.0
 10
-829.0067
 20
-26.4508
 30
0.0
 10
-829.0067
 20
-26.4508
 30
0.0
 10
-829.0067
 20
-26.1207
 30
0.0
 10
-829.2767
 20
-25.8507
 30
0.0
 10
-829.6068
 20
-25.8507
 30
0.0
  0
SPLINE
  5
82
330
1F
100
AcDbEntity
  8
Camada 1
 62
   240
370
    20
100
AcDbSpline
210
0.0
220
0.0
230
1.0
 70
    11
 71
     3
 72
    36
 73
    32
 74
     0
 42
0.000000001
 43
0.0000000001
 40
0.0
 40
0.0
 40
0.0
 40
0.0
 40
0.1111111111111111
 40
0.1111111111111111
 40
0.1111111111111111
 40
0.1111111111111111
 40
0.2222222222222222
 40
0.2222222222222222
 40
0.2222222222222222
 40
0.2222222222222222
 40
0.3333333333333333
 40
0.3333333333333333
 40
0.3333333333333333
 40
0.3333333333333333
 40
0.4444444444444444
 40
0.4444444444444444
 40
0.4444444444444444
 40
0.4444444444444444
 40
0.5555555555555556
 40
0.5555555555555556
 40
0.5555555555555556
 40
0.5555555555555556
 40
0.6666666666666666
 40
0.6666666666666666
 40
0.6666666666666666
 40
0.6666666666666666
 40
0.7777777777777778
 40
0.7777777777777778
 40
0.7777777777777778
 40
0.7777777777777778
 40
1.0
 40
1.0
 40
1.0
 40
1.0
 10
-764.2156
 20
-235.8507
 30
0.0
 10
-764.2156
 20
-235.8507
 30
0.0
 10
-766.0154
 20
-235.8507
 30
0.0
 10
-766.0154
 20
-235.8507
 30
0.0
 10
-766.0154
 20
-235.8507
 30
0.0
 10
-766.3455
 20
-235.8507
 30
0.0
 10
-766.6155
 20
-236.1207
 30
0.0
 10
-766.6155
 20
-236.4508
 30
0.0
 10
-766.6155
 20
-236.4508
 30
0.0
 10
-766.6155
 20
-236.4508
 30
0.0
 10
-766.6155
 20
-245.2506
 30
0.0
 10
-766.6155
 20
-245.2506
 30
0.0
 10
-766.6155
 20
-245.2506
 30
0.0
 10
-766.6155
 20
-245.5807
 30
0.0
 10
-766.3455
 20
-245.8507
 30
0.0
 10
-766.0154
 20
-245.8507
 30
0.0
 10
-766.0154
 20
-245.8507
 30
0.0
 10
-766.0154
 20
-245.8507
 30
0.0
 10
-764.2156
 20
-245.8507
 30
0.0
 10
-764.2156
 20
-245.8507
 30
0.0
 10
-764.2156
 20
-245.8507
 30
0.0
 10
-763.8855
 20
-245.8507
 30
0.0
 10
-763.6155
 20
-245.5807
 30
0.0
 10
-763.6155
 20
-245.2506
 30
0.0
 10
-763.6155
 20
-245.2506
 30
0.0
 10
-763.6155
 20
-245.2506
 30
0.0
 10
-763.6155
 20
-236.4508
 30
0.0
 10
-763.6155
 20
-236.4508
 30
0.0
 10
-763.6155
 20
-236.4508
 30
0.0
 10
-763.6155
 20
-236.1207
 30
0.0
 10
-763.8855
 20
-235.8507
 30
0.0
 10
-764.2156
 20
-235.8507
 30
0.0
  0
SPLINE
  5
83
330
1F
100
AcDbEntity
  8
Camada 1
 62
   240
370
    20
100
AcDbSpline
210
0.0
220
0.0
230
1.0
 70
    11
 71
     3
 72
    36
 73
    32
 74
     0
 42
0.000000001
 43
0.0000000001
 40
0.0
 40
0.0
 40
0.0
 40
0.0
 40
0.1111111111111111
 40
0.1111111111111111
 40
0.1111111111111111
 40
0.1111111111111111
 40
0.2222222222222222
 40
0.2222222222222222
 40
0.2222222222222222
 40
0.2222222222222222
 40
0.3333333333333333
 40
0.3333333333333333
 40
0.3333333333333333
 40
0.3333333333333333
 40
0.4444444444444444
 40
0.4444444444444444
 40
0.4444444444444444
 40
0.4444444444444444
 40
0.5555555555555556
 40
0.5555555555555556
 40
0.5555555555555556
 40
0.5555555555555556
 40
0.6666666666666666
 40
0.6666666666666666
 40
0.6666666666666666
 40
0.6666666666666666
 40
0.7777777777777778
 40
0.7777777777777778
 40
0.7777777777777778
 40
0.7777777777777778
 40
1.0
 40
1.0
 40
1.0
 40
1.0
 10
-787.2156
 20
-235.8507
 30
0.0
 10
-787.2156
 20
-235.8507
 30
0.0
 10
-789.0154
 20
-235.8507
 30
0.0
 10
-789.0154
 20
-235.8507
 30
0.0
 10
-789.0154
 20
-235.8507
 30
0.0
 10
-789.3455
 20
-235.8507
 30
0.0
 10
-789.6155
 20
-236.1207
 30
0.0
 10
-789.6155
 20
-236.4508
 30
0.0
 10
-789.6155
 20
-236.4508
 30
0.0
 10
-789.6155
 20
-236.4508
 30
0.0
 10
-789.6155
 20
-245.2506
 30
0.0
 10
-789.6155
 20
-245.2506
 30
0.0
 10
-789.6155
 20
-245.2506
 30
0.0
 10
-789.6155
 20
-245.5807
 30
0.0
 10
-789.3455
 20
-245.8507
 30
0.0
 10
-789.0154
 20
-245.8507
 30
0.0
 10
-789.0154
 20
-245.8507
 30
0.0
 10
-789.0154
 20
-245.8507
 30
0.0
 10
-787.2156
 20
-245.8507
 30
0.0
 10
-787.2156
 20
-245.8507
 30
0.0
 10
-787.2156
 20
-245.8507
 30
0.0
 10
-786.8855
 20
-245.8507
 30
0.0
 10
-786.6155
 20
-245.5807
 30
0.0
 10
-786.6155
 20
-245.2506
 30
0.0
 10
-786.6155
 20
-245.2506
 30
0.0
 10
-786.6155
 20
-245.2506
 30
0.0
 10
-786.6155
 20
-236.4508
 30
0.0
 10
-786.6155
 20
-236.4508
 30
0.0
 10
-786.6155
 20
-236.4508
 30
0.0
 10
-786.6155
 20
-236.1207
 30
0.0
 10
-786.8855
 20
-235.8507
 30
0.0
 10
-787.2156
 20
-235.8507
 30
0.0
  0
SPLINE
  5
84
330
1F
100
AcDbEntity
  8
Camada 1
 62
   240
370
    20
100
AcDbSpline
210
0.0
220
0.0
230
1.0
 70
    11
 71
     3
 72
    36
 73
    32
 74
     0
 42
0.000000001
 43
0.0000000001
 40
0.0
 40
0.0
 40
0.0
 40
0.0
 40
0.1111111111111111
 40
0.1111111111111111
 40
0.1111111111111111
 40
0.1111111111111111
 40
0.2222222222222222
 40
0.2222222222222222
 40
0.2222222222222222
 40
0.2222222222222222
 40
0.3333333333333333
 40
0.3333333333333333
 40
0.3333333333333333
 40
0.3333333333333333
 40
0.4444444444444444
 40
0.4444444444444444
 40
0.4444444444444444
 40
0.4444444444444444
 40
0.5555555555555556
 40
0.5555555555555556
 40
0.5555555555555556
 40
0.5555555555555556
 40
0.6666666666666666
 40
0.6666666666666666
 40
0.6666666666666666
 40
0.6666666666666666
 40
0.7777777777777778
 40
0.7777777777777778
 40
0.7777777777777778
 40
0.7777777777777778
 40
1.0
 40
1.0
 40
1.0
 40
1.0
 10
-612.6186
 20
-235.8507
 30
0.0
 10
-612.6186
 20
-235.8507
 30
0.0
 10
-614.4184
 20
-235.8507
 30
0.0
 10
-614.4184
 20
-235.8507
 30
0.0
 10
-614.4184
 20
-235.8507
 30
0.0
 10
-614.7485
 20
-235.8507
 30
0.0
 10
-615.0185
 20
-236.1207
 30
0.0
 10
-615.0185
 20
-236.4508
 30
0.0
 10
-615.0185
 20
-236.4508
 30
0.0
 10
-615.0185
 20
-236.4508
 30
0.0
 10
-615.0185
 20
-245.2506
 30
0.0
 10
-615.0185
 20
-245.2506
 30
0.0
 10
-615.0185
 20
-245.2506
 30
0.0
 10
-615.0185
 20
-245.5807
 30
0.0
 10
-614.7485
 20
-245.8507
 30
0.0
 10
-614.4184
 20
-245.8507
 30
0.0
 10
-614.4184
 20
-245.8507
 30
0.0
 10
-614.4184
 20
-245.8507
 30
0.0
 10
-612.6186
 20
-245.8507
 30
0.0
 10
-612.6186
 20
-245.8507
 30
0.0
 10
-612.6186
 20
-245.8507
 30
0.0
 10
-612.2885
 20
-245.8507
 30
0.0
 10
-612.0185
 20
-245.5807
 30
0.0
 10
-612.0185
 20
-245.2506
 30
0.0
 10
-612.0185
 20
-245.2506
 30
0.0
 10
-612.0185
 20
-245.2506
 30
0.0
 10
-612.0185
 20
-236.4508
 30
0.0
 10
-612.0185
 20
-236.4508
 30
0.0
 10
-612.0185
 20
-236.4508
 30
0.0
 10
-612.0185
 20
-236.1207
 30
0.0
 10
-612.2885
 20
-235.8507
 30
0.0
 10
-612.6186
 20
-235.8507
 30
0.0
  0
SPLINE
  5
85
330
1F
100
AcDbEntity
  8
Camada 1
 62
   240
370
    20
100
AcDbSpline
210
0.0
220
0.0
230
1.0
 70
    11
 71
     3
 72
    36
 73
    32
 74
     0
 42
0.000000001
 43
0.0000000001
 40
0.0
 40
0.0
 40
0.0
 40
0.0
 40
0.1111111111111111
 40
0.1111111111111111
 40
0.1111111111111111
 40
0.1111111111111111
 40
0.2222222222222222
 40
0.2222222222222222
 40
0.2222222222222222
 40
0.2222222222222222
 40
0.3333333333333333
 40
0.3333333333333333
 40
0.3333333333333333
 40
0.3333333333333333
 40
0.4444444444444444
 40
0.4444444444444444
 40
0.4444444444444444
 40
0.4444444444444444
 40
0.5555555555555556
 40
0.5555555555555556
 40
0.5555555555555556
 40
0.5555555555555556
 40
0.6666666666666666
 40
0.6666666666666666
 40
0.6666666666666666
 40
0.6666666666666666
 40
0.7777777777777778
 40
0.7777777777777778
 40
0.7777777777777778
 40
0.7777777777777778
 40
1.0
 40
1.0
 40
1.0
 40
1.0
 10
-635.6186
 20
-235.8507
 30
0.0
 10
-635.6186
 20
-235.8507
 30
0.0
 10
-637.4184
 20
-235.8507
 30
0.0
 10
-637.4184
 20
-235.8507
 30
0.0
 10
-637.4184
 20
-235.8507
 30
0.0
 10
-637.7485
 20
-235.8507
 30
0.0
 10
-638.0185
 20
-236.1207
 30
0.0
 10
-638.0185
 20
-236.4508
 30
0.0
 10
-638.0185
 20
-236.4508
 30
0.0
 10
-638.0185
 20
-236.4508
 30
0.0
 10
-638.0185
 20
-245.2506
 30
0.0
 10
-638.0185
 20
-245.2506
 30
0.0
 10
-638.0185
 20
-245.2506
 30
0.0
 10
-638.0185
 20
-245.5807
 30
0.0
 10
-637.7485
 20
-245.8507
 30
0.0
 10
-637.4184
 20
-245.8507
 30
0.0
 10
-637.4184
 20
-245.8507
 30
0.0
 10
-637.4184
 20
-245.8507
 30
0.0
 10
-635.6186
 20
-245.8507
 30
0.0
 10
-635.6186
 20
-245.8507
 30
0.0
 10
-635.6186
 20
-245.8507
 30
0.0
 10
-635.2885
 20
-245.8507
 30
0.0
 10
-635.0185
 20
-245.5807
 30
0.0
 10
-635.0185
 20
-245.2506
 30
0.0
 10
-635.0185
 20
-245.2506
 30
0.0
 10
-635.0185
 20
-245.2506
 30
0.0
 10
-635.0185
 20
-236.4508
 30
0.0
 10
-635.0185
 20
-236.4508
 30
0.0
 10
-635.0185
 20
-236.4508
 30
0.0
 10
-635.0185
 20
-236.1207
 30
0.0
 10
-635.2885
 20
-235.8507
 30
0.0
 10
-635.6186
 20
-235.8507
 30
0.0
  0
SPLINE
  5
86
330
1F
100
AcDbEntity
  8
Camada 1
 62
   240
370
    20
100
AcDbSpline
210
0.0
220
0.0
230
1.0
 70
    11
 71
     3
 72
    36
 73
    32
 74
     0
 42
0.000000001
 43
0.0000000001
 40
0.0
 40
0.0
 40
0.0
 40
0.0
 40
0.1111111111111111
 40
0.1111111111111111
 40
0.1111111111111111
 40
0.1111111111111111
 40
0.2222222222222222
 40
0.2222222222222222
 40
0.2222222222222222
 40
0.2222222222222222
 40
0.3333333333333333
 40
0.3333333333333333
 40
0.3333333333333333
 40
0.3333333333333333
 40
0.4444444444444444
 40
0.4444444444444444
 40
0.4444444444444444
 40
0.4444444444444444
 40
0.5555555555555556
 40
0.5555555555555556
 40
0.5555555555555556
 40
0.5555555555555556
 40
0.6666666666666666
 40
0.6666666666666666
 40
0.6666666666666666
 40
0.6666666666666666
 40
0.7777777777777778
 40
0.7777777777777778
 40
0.7777777777777778
 40
0.7777777777777778
 40
1.0
 40
1.0
 40
1.0
 40
1.0
 10
-705.4669
 20
-18.967
 30
0.0
 10
-705.4669
 20
-18.967
 30
0.0
 10
-705.0821
 20
-18.967
 30
0.0
 10
-705.0821
 20
-18.967
 30
0.0
 10
-705.0821
 20
-18.967
 30
0.0
 10
-704.9129
 20
-18.967
 30
0.0
 10
-704.7745
 20
-19.1054
 30
0.0
 10
-704.7745
 20
-19.2746
 30
0.0
 10
-704.7745
 20
-19.2746
 30
0.0
 10
-704.7745
 20
-19.2746
 30
0.0
 10
-704.7745
 20
-46.7527
 30
0.0
 10
-704.7745
 20
-46.7527
 30
0.0
 10
-704.7745
 20
-46.7527
 30
0.0
 10
-704.7745
 20
-46.9219
 30
0.0
 10
-704.9129
 20
-47.0603
 30
0.0
 10
-705.0821
 20
-47.0603
 30
0.0
 10
-705.0821
 20
-47.0603
 30
0.0
 10
-705.0821
 20
-47.0603
 30
0.0
 10
-705.4669
 20
-47.0603
 30
0.0
 10
-705.4669
 20
-47.0603
 30
0.0
 10
-705.4669
 20
-47.0603
 30
0.0
 10
-705.6361
 20
-47.0603
 30
0.0
 10
-705.7745
 20
-46.9219
 30
0.0
 10
-705.7745
 20
-46.7527
 30
0.0
 10
-705.7745
 20
-46.7527
 30
0.0
 10
-705.7745
 20
-46.7527
 30
0.0
 10
-705.7745
 20
-19.2746
 30
0.0
 10
-705.7745
 20
-19.2746
 30
0.0
 10
-705.7745
 20
-19.2746
 30
0.0
 10
-705.7745
 20
-19.1054
 30
0.0
 10
-705.6361
 20
-18.967
 30
0.0
 10
-705.4669
 20
-18.967
 30
0.0
  0
SPLINE
  5
87
330
1F
100
AcDbEntity
  8
Camada 1
 62
   240
370
    20
100
AcDbSpline
210
0.0
220
0.0
230
1.0
 70
    11
 71
     3
 72
    36
 73
    32
 74
     0
 42
0.000000001
 43
0.0000000001
 40
0.0
 40
0.0
 40
0.0
 40
0.0
 40
0.1111111111111111
 40
0.1111111111111111
 40
0.1111111111111111
 40
0.1111111111111111
 40
0.2222222222222222
 40
0.2222222222222222
 40
0.2222222222222222
 40
0.2222222222222222
 40
0.3333333333333333
 40
0.3333333333333333
 40
0.3333333333333333
 40
0.3333333333333333
 40
0.4444444444444444
 40
0.4444444444444444
 40
0.4444444444444444
 40
0.4444444444444444
 40
0.5555555555555556
 40
0.5555555555555556
 40
0.5555555555555556
 40
0.5555555555555556
 40
0.6666666666666666
 40
0.6666666666666666
 40
0.6666666666666666
 40
0.6666666666666666
 40
0.7777777777777778
 40
0.7777777777777778
 40
0.7777777777777778
 40
0.7777777777777778
 40
1.0
 40
1.0
 40
1.0
 40
1.0
 10
-696.9669
 20
-18.967
 30
0.0
 10
-696.9669
 20
-18.967
 30
0.0
 10
-696.5821
 20
-18.967
 30
0.0
 10
-696.5821
 20
-18.967
 30
0.0
 10
-696.5821
 20
-18.967
 30
0.0
 10
-696.4129
 20
-18.967
 30
0.0
 10
-696.2745
 20
-19.1054
 30
0.0
 10
-696.2745
 20
-19.2746
 30
0.0
 10
-696.2745
 20
-19.2746
 30
0.0
 10
-696.2745
 20
-19.2746
 30
0.0
 10
-696.2745
 20
-46.7527
 30
0.0
 10
-696.2745
 20
-46.7527
 30
0.0
 10
-696.2745
 20
-46.7527
 30
0.0
 10
-696.2745
 20
-46.9219
 30
0.0
 10
-696.4129
 20
-47.0603
 30
0.0
 10
-696.5821
 20
-47.0603
 30
0.0
 10
-696.5821
 20
-47.0603
 30
0.0
 10
-696.5821
 20
-47.0603
 30
0.0
 10
-696.9669
 20
-47.0603
 30
0.0
 10
-696.9669
 20
-47.0603
 30
0.0
 10
-696.9669
 20
-47.0603
 30
0.0
 10
-697.1361
 20
-47.0603
 30
0.0
 10
-697.2745
 20
-46.9219
 30
0.0
 10
-697.2745
 20
-46.7527
 30
0.0
 10
-697.2745
 20
-46.7527
 30
0.0
 10
-697.2745
 20
-46.7527
 30
0.0
 10
-697.2745
 20
-19.2746
 30
0.0
 10
-697.2745
 20
-19.2746
 30
0.0
 10
-697.2745
 20
-19.2746
 30
0.0
 10
-697.2745
 20
-19.1054
 30
0.0
 10
-697.1361
 20
-18.967
 30
0.0
 10
-696.9669
 20
-18.967
 30
0.0
  0
SPLINE
  5
88
330
1F
100
AcDbEntity
  8
Camada 1
 62
   240
370
    20
100
AcDbSpline
210
0.0
220
0.0
230
1.0
 70
    11
 71
     3
 72
    36
 73
    32
 74
     0
 42
0.000000001
 43
0.0000000001
 40
0.0
 40
0.0
 40
0.0
 40
0.0
 40
0.1111111111111111
 40
0.1111111111111111
 40
0.1111111111111111
 40
0.1111111111111111
 40
0.2222222222222222
 40
0.2222222222222222
 40
0.2222222222222222
 40
0.2222222222222222
 40
0.3333333333333333
 40
0.3333333333333333
 40
0.3333333333333333
 40
0.3333333333333333
 40
0.4444444444444444
 40
0.4444444444444444
 40
0.4444444444444444
 40
0.4444444444444444
 40
0.5555555555555556
 40
0.5555555555555556
 40
0.5555555555555556
 40
0.5555555555555556
 40
0.6666666666666666
 40
0.6666666666666666
 40
0.6666666666666666
 40
0.6666666666666666
 40
0.7777777777777778
 40
0.7777777777777778
 40
0.7777777777777778
 40
0.7777777777777778
 40
1.0
 40
1.0
 40
1.0
 40
1.0
 10
-714.1239
 20
20.0293
 30
0.0
 10
-714.1239
 20
20.0293
 30
0.0
 10
-714.1239
 20
19.4521
 30
0.0
 10
-714.1239
 20
19.4521
 30
0.0
 10
-714.1239
 20
19.4521
 30
0.0
 10
-714.1239
 20
19.1983
 30
0.0
 10
-714.3315
 20
18.9907
 30
0.0
 10
-714.5853
 20
18.9907
 30
0.0
 10
-714.5853
 20
18.9907
 30
0.0
 10
-714.5853
 20
18.9907
 30
0.0
 10
-737.9617
 20
18.9907
 30
0.0
 10
-737.9617
 20
18.9907
 30
0.0
 10
-737.9617
 20
18.9907
 30
0.0
 10
-738.2155
 20
18.9907
 30
0.0
 10
-738.4231
 20
19.1983
 30
0.0
 10
-738.4231
 20
19.4521
 30
0.0
 10
-738.4231
 20
19.4521
 30
0.0
 10
-738.4231
 20
19.4521
 30
0.0
 10
-738.4231
 20
20.0293
 30
0.0
 10
-738.4231
 20
20.0293
 30
0.0
 10
-738.4231
 20
20.0293
 30
0.0
 10
-738.4231
 20
20.2831
 30
0.0
 10
-738.2155
 20
20.4907
 30
0.0
 10
-737.9617
 20
20.4907
 30
0.0
 10
-737.9617
 20
20.4907
 30
0.0
 10
-737.9617
 20
20.4907
 30
0.0
 10
-714.5853
 20
20.4907
 30
0.0
 10
-714.5853
 20
20.4907
 30
0.0
 10
-714.5853
 20
20.4907
 30
0.0
 10
-714.3315
 20
20.4907
 30
0.0
 10
-714.1239
 20
20.2831
 30
0.0
 10
-714.1239
 20
20.0293
 30
0.0
  0
SPLINE
  5
89
330
1F
100
AcDbEntity
  8
Camada 1
 62
   240
370
    20
100
AcDbSpline
210
0.0
220
0.0
230
1.0
 70
    11
 71
     3
 72
    36
 73
    32
 74
     0
 42
0.000000001
 43
0.0000000001
 40
0.0
 40
0.0
 40
0.0
 40
0.0
 40
0.1111111111111111
 40
0.1111111111111111
 40
0.1111111111111111
 40
0.1111111111111111
 40
0.2222222222222222
 40
0.2222222222222222
 40
0.2222222222222222
 40
0.2222222222222222
 40
0.3333333333333333
 40
0.3333333333333333
 40
0.3333333333333333
 40
0.3333333333333333
 40
0.4444444444444444
 40
0.4444444444444444
 40
0.4444444444444444
 40
0.4444444444444444
 40
0.5555555555555556
 40
0.5555555555555556
 40
0.5555555555555556
 40
0.5555555555555556
 40
0.6666666666666666
 40
0.6666666666666666
 40
0.6666666666666666
 40
0.6666666666666666
 40
0.7777777777777778
 40
0.7777777777777778
 40
0.7777777777777778
 40
0.7777777777777778
 40
1.0
 40
1.0
 40
1.0
 40
1.0
 10
-714.1239
 20
7.3293
 30
0.0
 10
-714.1239
 20
7.3293
 30
0.0
 10
-714.1239
 20
6.7521
 30
0.0
 10
-714.1239
 20
6.7521
 30
0.0
 10
-714.1239
 20
6.7521
 30
0.0
 10
-714.1239
 20
6.4983
 30
0.0
 10
-714.3315
 20
6.2907
 30
0.0
 10
-714.5853
 20
6.2907
 30
0.0
 10
-714.5853
 20
6.2907
 30
0.0
 10
-714.5853
 20
6.2907
 30
0.0
 10
-737.9617
 20
6.2907
 30
0.0
 10
-737.9617
 20
6.2907
 30
0.0
 10
-737.9617
 20
6.2907
 30
0.0
 10
-738.2155
 20
6.2907
 30
0.0
 10
-738.4231
 20
6.4983
 30
0.0
 10
-738.4231
 20
6.7521
 30
0.0
 10
-738.4231
 20
6.7521
 30
0.0
 10
-738.4231
 20
6.7521
 30
0.0
 10
-738.4231
 20
7.3293
 30
0.0
 10
-738.4231
 20
7.3293
 30
0.0
 10
-738.4231
 20
7.3293
 30
0.0
 10
-738.4231
 20
7.5831
 30
0.0
 10
-738.2155
 20
7.7907
 30
0.0
 10
-737.9617
 20
7.7907
 30
0.0
 10
-737.9617
 20
7.7907
 30
0.0
 10
-737.9617
 20
7.7907
 30
0.0
 10
-714.5853
 20
7.7907
 30
0.0
 10
-714.5853
 20
7.7907
 30
0.0
 10
-714.5853
 20
7.7907
 30
0.0
 10
-714.3315
 20
7.7907
 30
0.0
 10
-714.1239
 20
7.5831
 30
0.0
 10
-714.1239
 20
7.3293
 30
0.0
  0
SPLINE
  5
8A
330
1F
100
AcDbEntity
  8
Camada 1
 62
   240
370
    20
100
AcDbSpline
210
0.0
220
0.0
230
1.0
 70
    11
 71
     3
 72
    36
 73
    32
 74
     0
 42
0.000000001
 43
0.0000000001
 40
0.0
 40
0.0
 40
0.0
 40
0.0
 40
0.1111111111111111
 40
0.1111111111111111
 40
0.1111111111111111
 40
0.1111111111111111
 40
0.2222222222222222
 40
0.2222222222222222
 40
0.2222222222222222
 40
0.2222222222222222
 40
0.3333333333333333
 40
0.3333333333333333
 40
0.3333333333333333
 40
0.3333333333333333
 40
0.4444444444444444
 40
0.4444444444444444
 40
0.4444444444444444
 40
0.4444444444444444
 40
0.5555555555555556
 40
0.5555555555555556
 40
0.5555555555555556
 40
0.5555555555555556
 40
0.6666666666666666
 40
0.6666666666666666
 40
0.6666666666666666
 40
0.6666666666666666
 40
0.7777777777777778
 40
0.7777777777777778
 40
0.7777777777777778
 40
0.7777777777777778
 40
1.0
 40
1.0
 40
1.0
 40
1.0
 10
-628.9367
 20
20.0293
 30
0.0
 10
-628.9367
 20
20.0293
 30
0.0
 10
-628.9367
 20
19.4521
 30
0.0
 10
-628.9367
 20
19.4521
 30
0.0
 10
-628.9367
 20
19.4521
 30
0.0
 10
-628.9367
 20
19.1983
 30
0.0
 10
-629.1443
 20
18.9907
 30
0.0
 10
-629.3981
 20
18.9907
 30
0.0
 10
-629.3981
 20
18.9907
 30
0.0
 10
-629.3981
 20
18.9907
 30
0.0
 10
-652.7745
 20
18.9907
 30
0.0
 10
-652.7745
 20
18.9907
 30
0.0
 10
-652.7745
 20
18.9907
 30
0.0
 10
-653.0283
 20
18.9907
 30
0.0
 10
-653.2359
 20
19.1983
 30
0.0
 10
-653.2359
 20
19.4521
 30
0.0
 10
-653.2359
 20
19.4521
 30
0.0
 10
-653.2359
 20
19.4521
 30
0.0
 10
-653.2359
 20
20.0293
 30
0.0
 10
-653.2359
 20
20.0293
 30
0.0
 10
-653.2359
 20
20.0293
 30
0.0
 10
-653.2359
 20
20.2831
 30
0.0
 10
-653.0283
 20
20.4907
 30
0.0
 10
-652.7745
 20
20.4907
 30
0.0
 10
-652.7745
 20
20.4907
 30
0.0
 10
-652.7745
 20
20.4907
 30
0.0
 10
-629.3981
 20
20.4907
 30
0.0
 10
-629.3981
 20
20.4907
 30
0.0
 10
-629.3981
 20
20.4907
 30
0.0
 10
-629.1443
 20
20.4907
 30
0.0
 10
-628.9367
 20
20.2831
 30
0.0
 10
-628.9367
 20
20.0293
 30
0.0
  0
SPLINE
  5
8B
330
1F
100
AcDbEntity
  8
Camada 1
 62
   240
370
    20
100
AcDbSpline
210
0.0
220
0.0
230
1.0
 70
    11
 71
     3
 72
    36
 73
    32
 74
     0
 42
0.000000001
 43
0.0000000001
 40
0.0
 40
0.0
 40
0.0
 40
0.0
 40
0.1111111111111111
 40
0.1111111111111111
 40
0.1111111111111111
 40
0.1111111111111111
 40
0.2222222222222222
 40
0.2222222222222222
 40
0.2222222222222222
 40
0.2222222222222222
 40
0.3333333333333333
 40
0.3333333333333333
 40
0.3333333333333333
 40
0.3333333333333333
 40
0.4444444444444444
 40
0.4444444444444444
 40
0.4444444444444444
 40
0.4444444444444444
 40
0.5555555555555556
 40
0.5555555555555556
 40
0.5555555555555556
 40
0.5555555555555556
 40
0.6666666666666666
 40
0.6666666666666666
 40
0.6666666666666666
 40
0.6666666666666666
 40
0.7777777777777778
 40
0.7777777777777778
 40
0.7777777777777778
 40
0.7777777777777778
 40
1.0
 40
1.0
 40
1.0
 40
1.0
 10
-628.3982
 20
7.3293
 30
0.0
 10
-628.3982
 20
7.3293
 30
0.0
 10
-628.3982
 20
6.7521
 30
0.0
 10
-628.3982
 20
6.7521
 30
0.0
 10
-628.3982
 20
6.7521
 30
0.0
 10
-628.3982
 20
6.4983
 30
0.0
 10
-628.6058
 20
6.2907
 30
0.0
 10
-628.8596
 20
6.2907
 30
0.0
 10
-628.8596
 20
6.2907
 30
0.0
 10
-628.8596
 20
6.2907
 30
0.0
 10
-652.236
 20
6.2907
 30
0.0
 10
-652.236
 20
6.2907
 30
0.0
 10
-652.236
 20
6.2907
 30
0.0
 10
-652.4898
 20
6.2907
 30
0.0
 10
-652.6974
 20
6.4983
 30
0.0
 10
-652.6974
 20
6.7521
 30
0.0
 10
-652.6974
 20
6.7521
 30
0.0
 10
-652.6974
 20
6.7521
 30
0.0
 10
-652.6974
 20
7.3293
 30
0.0
 10
-652.6974
 20
7.3293
 30
0.0
 10
-652.6974
 20
7.3293
 30
0.0
 10
-652.6974
 20
7.5831
 30
0.0
 10
-652.4898
 20
7.7907
 30
0.0
 10
-652.236
 20
7.7907
 30
0.0
 10
-652.236
 20
7.7907
 30
0.0
 10
-652.236
 20
7.7907
 30
0.0
 10
-628.8596
 20
7.7907
 30
0.0
 10
-628.8596
 20
7.7907
 30
0.0
 10
-628.8596
 20
7.7907
 30
0.0
 10
-628.6058
 20
7.7907
 30
0.0
 10
-628.3982
 20
7.5831
 30
0.0
 10
-628.3982
 20
7.3293
 30
0.0
  0
SPLINE
  5
8C
330
1F
100
AcDbEntity
  8
Camada 1
 62
   250
370
    20
100
AcDbSpline
210
0.0
220
0.0
230
1.0
 70
    11
 71
     3
 72
    36
 73
    32
 74
     0
 42
0.000000001
 43
0.0000000001
 40
0.0
 40
0.0
 40
0.0
 40
0.0
 40
0.1111111111111111
 40
0.1111111111111111
 40
0.1111111111111111
 40
0.1111111111111111
 40
0.2222222222222222
 40
0.2222222222222222
 40
0.2222222222222222
 40
0.2222222222222222
 40
0.3333333333333333
 40
0.3333333333333333
 40
0.3333333333333333
 40
0.3333333333333333
 40
0.4444444444444444
 40
0.4444444444444444
 40
0.4444444444444444
 40
0.4444444444444444
 40
0.5555555555555556
 40
0.5555555555555556
 40
0.5555555555555556
 40
0.5555555555555556
 40
0.6666666666666666
 40
0.6666666666666666
 40
0.6666666666666666
 40
0.6666666666666666
 40
0.7777777777777778
 40
0.7777777777777778
 40
0.7777777777777778
 40
0.7777777777777778
 40
1.0
 40
1.0
 40
1.0
 40
1.0
 10
-873.4773
 20
-69.7583
 30
0.0
 10
-873.4773
 20
-69.7583
 30
0.0
 10
-860.8877
 20
-69.7583
 30
0.0
 10
-860.8877
 20
-69.7583
 30
0.0
 10
-860.8877
 20
-69.7583
 30
0.0
 10
-858.8927
 20
-69.7583
 30
0.0
 10
-857.2606
 20
-71.3903
 30
0.0
 10
-857.2606
 20
-73.3854
 30
0.0
 10
-857.2606
 20
-73.3854
 30
0.0
 10
-857.2606
 20
-73.3854
 30
0.0
 10
-857.2606
 20
-128.4024
 30
0.0
 10
-857.2606
 20
-128.4024
 30
0.0
 10
-857.2606
 20
-128.4024
 30
0.0
 10
-857.2606
 20
-130.3975
 30
0.0
 10
-858.8927
 20
-132.0295
 30
0.0
 10
-860.8877
 20
-132.0295
 30
0.0
 10
-860.8877
 20
-132.0295
 30
0.0
 10
-860.8877
 20
-132.0295
 30
0.0
 10
-873.4773
 20
-132.0295
 30
0.0
 10
-873.4773
 20
-132.0295
 30
0.0
 10
-873.4773
 20
-132.0295
 30
0.0
 10
-875.4723
 20
-132.0295
 30
0.0
 10
-877.1044
 20
-130.3975
 30
0.0
 10
-877.1044
 20
-128.4024
 30
0.0
 10
-877.1044
 20
-128.4024
 30
0.0
 10
-877.1044
 20
-128.4024
 30
0.0
 10
-877.1044
 20
-73.3854
 30
0.0
 10
-877.1044
 20
-73.3854
 30
0.0
 10
-877.1044
 20
-73.3854
 30
0.0
 10
-877.1044
 20
-71.3903
 30
0.0
 10
-875.4723
 20
-69.7583
 30
0.0
 10
-873.4773
 20
-69.7583
 30
0.0
  0
SPLINE
  5
8D
330
1F
100
AcDbEntity
  8
Camada 1
 62
   240
370
    20
100
AcDbSpline
210
0.0
220
0.0
230
1.0
 70
     8
 71
     3
 72
    36
 73
    32
 74
     0
 42
0.000000001
 43
0.0000000001
 40
0.0
 40
0.0
 40
0.0
 40
0.0
 40
0.1111111111111111
 40
0.1111111111111111
 40
0.1111111111111111
 40
0.1111111111111111
 40
0.2222222222222222
 40
0.2222222222222222
 40
0.2222222222222222
 40
0.2222222222222222
 40
0.3333333333333333
 40
0.3333333333333333
 40
0.3333333333333333
 40
0.3333333333333333
 40
0.4444444444444444
 40
0.4444444444444444
 40
0.4444444444444444
 40
0.4444444444444444
 40
0.5555555555555556
 40
0.5555555555555556
 40
0.5555555555555556
 40
0.5555555555555556
 40
0.6666666666666666
 40
0.6666666666666666
 40
0.6666666666666666
 40
0.6666666666666666
 40
0.7777777777777778
 40
0.7777777777777778
 40
0.7777777777777778
 40
0.7777777777777778
 40
1.0
 40
1.0
 40
1.0
 40
1.0
 10
-528.4577
 20
-226.6366
 30
0.0
 10
-528.4577
 20
-226.6366
 30
0.0
 10
-528.5002
 20
-230.35
 30
0.0
 10
-528.5002
 20
-230.35
 30
0.0
 10
-528.5002
 20
-230.35
 30
0.0
 10
-528.5002
 20
-230.35
 30
0.0
 10
-526.5098
 20
-230.35
 30
0.0
 10
-526.5098
 20
-230.35
 30
0.0
 10
-526.5098
 20
-230.35
 30
0.0
 10
-526.3415
 20
-230.637
 30
0.0
 10
-526.251
 20
-230.9402
 30
0.0
 10
-526.251
 20
-231.2539
 30
0.0
 10
-526.251
 20
-231.2539
 30
0.0
 10
-526.251
 20
-233.044
 30
0.0
 10
-529.1874
 20
-234.4951
 30
0.0
 10
-532.8095
 20
-234.4951
 30
0.0
 10
-532.8095
 20
-234.4951
 30
0.0
 10
-536.4317
 20
-234.4951
 30
0.0
 10
-539.3681
 20
-233.044
 30
0.0
 10
-539.3681
 20
-231.2539
 30
0.0
 10
-539.3681
 20
-231.2539
 30
0.0
 10
-539.3681
 20
-230.9402
 30
0.0
 10
-539.2776
 20
-230.6369
 30
0.0
 10
-539.1093
 20
-230.35
 30
0.0
 10
-539.1093
 20
-230.35
 30
0.0
 10
-539.1093
 20
-230.35
 30
0.0
 10
-537.4426
 20
-230.35
 30
0.0
 10
-537.4426
 20
-230.35
 30
0.0
 10
-537.4426
 20
-230.35
 30
0.0
 10
-537.4426
 20
-230.35
 30
0.0
 10
-537.427
 20
-226.6366
 30
0.0
 10
-537.427
 20
-226.6366
 30
0.0
  0
SPLINE
  5
8E
330
1F
100
AcDbEntity
  8
Camada 1
 62
   240
370
    20
100
AcDbSpline
210
0.0
220
0.0
230
1.0
 70
     8
 71
     3
 72
    36
 73
    32
 74
     0
 42
0.000000001
 43
0.0000000001
 40
0.0
 40
0.0
 40
0.0
 40
0.0
 40
0.1111111111111111
 40
0.1111111111111111
 40
0.1111111111111111
 40
0.1111111111111111
 40
0.2222222222222222
 40
0.2222222222222222
 40
0.2222222222222222
 40
0.2222222222222222
 40
0.3333333333333333
 40
0.3333333333333333
 40
0.3333333333333333
 40
0.3333333333333333
 40
0.4444444444444444
 40
0.4444444444444444
 40
0.4444444444444444
 40
0.4444444444444444
 40
0.5555555555555556
 40
0.5555555555555556
 40
0.5555555555555556
 40
0.5555555555555556
 40
0.6666666666666666
 40
0.6666666666666666
 40
0.6666666666666666
 40
0.6666666666666666
 40
0.7777777777777778
 40
0.7777777777777778
 40
0.7777777777777778
 40
0.7777777777777778
 40
1.0
 40
1.0
 40
1.0
 40
1.0
 10
-528.4577
 20
-100.3731
 30
0.0
 10
-528.4577
 20
-100.3731
 30
0.0
 10
-528.5002
 20
-96.6597
 30
0.0
 10
-528.5002
 20
-96.6597
 30
0.0
 10
-528.5002
 20
-96.6597
 30
0.0
 10
-528.5002
 20
-96.6597
 30
0.0
 10
-526.5098
 20
-96.6597
 30
0.0
 10
-526.5098
 20
-96.6597
 30
0.0
 10
-526.5098
 20
-96.6597
 30
0.0
 10
-526.3415
 20
-96.3727
 30
0.0
 10
-526.251
 20
-96.0695
 30
0.0
 10
-526.251
 20
-95.7558
 30
0.0
 10
-526.251
 20
-95.7558
 30
0.0
 10
-526.251
 20
-93.9657
 30
0.0
 10
-529.1874
 20
-92.5146
 30
0.0
 10
-532.8095
 20
-92.5146
 30
0.0
 10
-532.8095
 20
-92.5146
 30
0.0
 10
-536.4317
 20
-92.5146
 30
0.0
 10
-539.3681
 20
-93.9657
 30
0.0
 10
-539.3681
 20
-95.7558
 30
0.0
 10
-539.3681
 20
-95.7558
 30
0.0
 10
-539.3681
 20
-96.0695
 30
0.0
 10
-539.2776
 20
-96.3728
 30
0.0
 10
-539.1093
 20
-96.6597
 30
0.0
 10
-539.1093
 20
-96.6597
 30
0.0
 10
-539.1093
 20
-96.6597
 30
0.0
 10
-537.4426
 20
-96.6597
 30
0.0
 10
-537.4426
 20
-96.6597
 30
0.0
 10
-537.4426
 20
-96.6597
 30
0.0
 10
-537.4426
 20
-96.6597
 30
0.0
 10
-537.427
 20
-100.3731
 30
0.0
 10
-537.427
 20
-100.3731
 30
0.0
  0
SPLINE
  5
8F
330
1F
100
AcDbEntity
  8
Camada 1
 62
   240
370
    20
100
AcDbSpline
210
0.0
220
0.0
230
1.0
 70
     8
 71
     3
 72
    36
 73
    32
 74
     0
 42
0.000000001
 43
0.0000000001
 40
0.0
 40
0.0
 40
0.0
 40
0.0
 40
0.1111111111111111
 40
0.1111111111111111
 40
0.1111111111111111
 40
0.1111111111111111
 40
0.2222222222222222
 40
0.2222222222222222
 40
0.2222222222222222
 40
0.2222222222222222
 40
0.3333333333333333
 40
0.3333333333333333
 40
0.3333333333333333
 40
0.3333333333333333
 40
0.4444444444444444
 40
0.4444444444444444
 40
0.4444444444444444
 40
0.4444444444444444
 40
0.5555555555555556
 40
0.5555555555555556
 40
0.5555555555555556
 40
0.5555555555555556
 40
0.6666666666666666
 40
0.6666666666666666
 40
0.6666666666666666
 40
0.6666666666666666
 40
0.7777777777777778
 40
0.7777777777777778
 40
0.7777777777777778
 40
0.7777777777777778
 40
1.0
 40
1.0
 40
1.0
 40
1.0
 10
-528.4577
 20
-77.3598
 30
0.0
 10
-528.4577
 20
-77.3598
 30
0.0
 10
-528.5002
 20
-73.6464
 30
0.0
 10
-528.5002
 20
-73.6464
 30
0.0
 10
-528.5002
 20
-73.6464
 30
0.0
 10
-528.5002
 20
-73.6464
 30
0.0
 10
-526.5098
 20
-73.6464
 30
0.0
 10
-526.5098
 20
-73.6464
 30
0.0
 10
-526.5098
 20
-73.6464
 30
0.0
 10
-526.3415
 20
-73.3594
 30
0.0
 10
-526.251
 20
-73.0562
 30
0.0
 10
-526.251
 20
-72.7425
 30
0.0
 10
-526.251
 20
-72.7425
 30
0.0
 10
-526.251
 20
-70.9524
 30
0.0
 10
-529.1874
 20
-69.5013
 30
0.0
 10
-532.8095
 20
-69.5013
 30
0.0
 10
-532.8095
 20
-69.5013
 30
0.0
 10
-536.4317
 20
-69.5013
 30
0.0
 10
-539.3681
 20
-70.9524
 30
0.0
 10
-539.3681
 20
-72.7425
 30
0.0
 10
-539.3681
 20
-72.7425
 30
0.0
 10
-539.3681
 20
-73.0562
 30
0.0
 10
-539.2776
 20
-73.3595
 30
0.0
 10
-539.1093
 20
-73.6464
 30
0.0
 10
-539.1093
 20
-73.6464
 30
0.0
 10
-539.1093
 20
-73.6464
 30
0.0
 10
-537.4426
 20
-73.6464
 30
0.0
 10
-537.4426
 20
-73.6464
 30
0.0
 10
-537.4426
 20
-73.6464
 30
0.0
 10
-537.4426
 20
-73.6464
 30
0.0
 10
-537.427
 20
-77.3598
 30
0.0
 10
-537.427
 20
-77.3598
 30
0.0
  0
SPLINE
  5
90
330
1F
100
AcDbEntity
  8
Camada 1
370
     9
100
AcDbSpline
210
0.0
220
0.0
230
1.0
 70
    11
 71
     3
 72
    52
 73
    48
 74
     0
 42
0.000000001
 43
0.0000000001
 40
0.0
 40
0.0
 40
0.0
 40
0.0
 40
0.0769230769230769
 40
0.0769230769230769
 40
0.0769230769230769
 40
0.0769230769230769
 40
0.1538461538461539
 40
0.1538461538461539
 40
0.1538461538461539
 40
0.1538461538461539
 40
0.2307692307692308
 40
0.2307692307692308
 40
0.2307692307692308
 40
0.2307692307692308
 40
0.3076923076923077
 40
0.3076923076923077
 40
0.3076923076923077
 40
0.3076923076923077
 40
0.3846153846153846
 40
0.3846153846153846
 40
0.3846153846153846
 40
0.3846153846153846
 40
0.4615384615384616
 40
0.4615384615384616
 40
0.4615384615384616
 40
0.4615384615384616
 40
0.5384615384615384
 40
0.5384615384615384
 40
0.5384615384615384
 40
0.5384615384615384
 40
0.6153846153846154
 40
0.6153846153846154
 40
0.6153846153846154
 40
0.6153846153846154
 40
0.6923076923076923
 40
0.6923076923076923
 40
0.6923076923076923
 40
0.6923076923076923
 40
0.7692307692307693
 40
0.7692307692307693
 40
0.7692307692307693
 40
0.7692307692307693
 40
0.8461538461538461
 40
0.8461538461538461
 40
0.8461538461538461
 40
0.8461538461538461
 40
1.0
 40
1.0
 40
1.0
 40
1.0
 10
-896.5753
 20
66.6264
 30
0.0
 10
-896.5753
 20
66.6264
 30
0.0
 10
-523.337
 20
66.6264
 30
0.0
 10
-523.337
 20
66.6264
 30
0.0
 10
-523.337
 20
66.6264
 30
0.0
 10
-519.0358
 20
66.6282
 30
0.0
 10
-514.9097
 20
65.5243
 30
0.0
 10
-511.8665
 20
63.5577
 30
0.0
 10
-511.8665
 20
63.5577
 30
0.0
 10
-508.8232
 20
61.591
 30
0.0
 10
-507.112
 20
58.9095
 30
0.0
 10
-507.1092
 20
56.1265
 30
0.0
 10
-507.1092
 20
56.1265
 30
0.0
 10
-507.1092
 20
56.1265
 30
0.0
 10
-507.1092
 20
45.6265
 30
0.0
 10
-507.1092
 20
45.6265
 30
0.0
 10
-507.1092
 20
45.6265
 30
0.0
 10
-507.1064
 20
42.8435
 30
0.0
 10
-508.8125
 20
40.1738
 30
0.0
 10
-511.8519
 20
38.2048
 30
0.0
 10
-511.8519
 20
38.2048
 30
0.0
 10
-514.8914
 20
36.2356
 30
0.0
 10
-519.0358
 20
35.1284
 30
0.0
 10
-523.337
 20
35.1266
 30
0.0
 10
-523.337
 20
35.1266
 30
0.0
 10
-523.337
 20
35.1266
 30
0.0
 10
-896.5753
 20
35.1266
 30
0.0
 10
-896.5753
 20
35.1266
 30
0.0
 10
-896.5753
 20
35.1266
 30
0.0
 10
-900.8765
 20
35.1248
 30
0.0
 10
-905.0026
 20
36.2287
 30
0.0
 10
-908.0458
 20
38.1953
 30
0.0
 10
-908.0458
 20
38.1953
 30
0.0
 10
-911.0891
 20
40.162
 30
0.0
 10
-912.8003
 20
42.8435
 30
0.0
 10
-912.8031
 20
45.6265
 30
0.0
 10
-912.8031
 20
45.6265
 30
0.0
 10
-912.8031
 20
45.6265
 30
0.0
 10
-912.8031
 20
56.1265
 30
0.0
 10
-912.8031
 20
56.1265
 30
0.0
 10
-912.8031
 20
56.1265
 30
0.0
 10
-912.8059
 20
58.9095
 30
0.0
 10
-911.0998
 20
61.5792
 30
0.0
 10
-908.0604
 20
63.5482
 30
0.0
 10
-908.0604
 20
63.5482
 30
0.0
 10
-905.0209
 20
65.5174
 30
0.0
 10
-900.8765
 20
66.6246
 30
0.0
 10
-896.5753
 20
66.6264
 30
0.0
  0
SPLINE
  5
91
330
1F
100
AcDbEntity
  8
Camada 1
 62
   240
370
    20
100
AcDbSpline
210
0.0
220
0.0
230
1.0
 70
     8
 71
     3
 72
    36
 73
    32
 74
     0
 42
0.000000001
 43
0.0000000001
 40
0.0
 40
0.0
 40
0.0
 40
0.0
 40
0.1111111111111111
 40
0.1111111111111111
 40
0.1111111111111111
 40
0.1111111111111111
 40
0.2222222222222222
 40
0.2222222222222222
 40
0.2222222222222222
 40
0.2222222222222222
 40
0.3333333333333333
 40
0.3333333333333333
 40
0.3333333333333333
 40
0.3333333333333333
 40
0.4444444444444444
 40
0.4444444444444444
 40
0.4444444444444444
 40
0.4444444444444444
 40
0.5555555555555556
 40
0.5555555555555556
 40
0.5555555555555556
 40
0.5555555555555556
 40
0.6666666666666666
 40
0.6666666666666666
 40
0.6666666666666666
 40
0.6666666666666666
 40
0.7777777777777778
 40
0.7777777777777778
 40
0.7777777777777778
 40
0.7777777777777778
 40
1.0
 40
1.0
 40
1.0
 40
1.0
 10
-899.7494
 20
55.2394
 30
0.0
 10
-899.7494
 20
55.2394
 30
0.0
 10
-895.0745
 20
55.1859
 30
0.0
 10
-895.0745
 20
55.1859
 30
0.0
 10
-895.0745
 20
55.1859
 30
0.0
 10
-895.0745
 20
55.1859
 30
0.0
 10
-895.0745
 20
57.1763
 30
0.0
 10
-895.0745
 20
57.1763
 30
0.0
 10
-895.0745
 20
57.1763
 30
0.0
 10
-894.7875
 20
57.3446
 30
0.0
 10
-894.4843
 20
57.4351
 30
0.0
 10
-894.1706
 20
57.4351
 30
0.0
 10
-894.1706
 20
57.4351
 30
0.0
 10
-892.3805
 20
57.4351
 30
0.0
 10
-890.9294
 20
54.4987
 30
0.0
 10
-890.9294
 20
50.8766
 30
0.0
 10
-890.9294
 20
50.8766
 30
0.0
 10
-890.9294
 20
47.2544
 30
0.0
 10
-892.3805
 20
44.318
 30
0.0
 10
-894.1706
 20
44.318
 30
0.0
 10
-894.1706
 20
44.318
 30
0.0
 10
-894.4843
 20
44.318
 30
0.0
 10
-894.7876
 20
44.4085
 30
0.0
 10
-895.0745
 20
44.5768
 30
0.0
 10
-895.0745
 20
44.5768
 30
0.0
 10
-895.0745
 20
44.5768
 30
0.0
 10
-895.0745
 20
46.2435
 30
0.0
 10
-895.0745
 20
46.2435
 30
0.0
 10
-895.0745
 20
46.2435
 30
0.0
 10
-895.0745
 20
46.2435
 30
0.0
 10
-899.7494
 20
46.2631
 30
0.0
 10
-899.7494
 20
46.2631
 30
0.0
  0
SPLINE
  5
92
330
1F
100
AcDbEntity
  8
Camada 1
 62
   240
370
    20
100
AcDbSpline
210
0.0
220
0.0
230
1.0
 70
     8
 71
     3
 72
    36
 73
    32
 74
     0
 42
0.000000001
 43
0.0000000001
 40
0.0
 40
0.0
 40
0.0
 40
0.0
 40
0.1111111111111111
 40
0.1111111111111111
 40
0.1111111111111111
 40
0.1111111111111111
 40
0.2222222222222222
 40
0.2222222222222222
 40
0.2222222222222222
 40
0.2222222222222222
 40
0.3333333333333333
 40
0.3333333333333333
 40
0.3333333333333333
 40
0.3333333333333333
 40
0.4444444444444444
 40
0.4444444444444444
 40
0.4444444444444444
 40
0.4444444444444444
 40
0.5555555555555556
 40
0.5555555555555556
 40
0.5555555555555556
 40
0.5555555555555556
 40
0.6666666666666666
 40
0.6666666666666666
 40
0.6666666666666666
 40
0.6666666666666666
 40
0.7777777777777778
 40
0.7777777777777778
 40
0.7777777777777778
 40
0.7777777777777778
 40
1.0
 40
1.0
 40
1.0
 40
1.0
 10
-876.7361
 20
55.2394
 30
0.0
 10
-876.7361
 20
55.2394
 30
0.0
 10
-872.0612
 20
55.1859
 30
0.0
 10
-872.0612
 20
55.1859
 30
0.0
 10
-872.0612
 20
55.1859
 30
0.0
 10
-872.0612
 20
55.1859
 30
0.0
 10
-872.0612
 20
57.1763
 30
0.0
 10
-872.0612
 20
57.1763
 30
0.0
 10
-872.0612
 20
57.1763
 30
0.0
 10
-871.7742
 20
57.3446
 30
0.0
 10
-871.471
 20
57.4351
 30
0.0
 10
-871.1573
 20
57.4351
 30
0.0
 10
-871.1573
 20
57.4351
 30
0.0
 10
-869.3672
 20
57.4351
 30
0.0
 10
-867.9161
 20
54.4987
 30
0.0
 10
-867.9161
 20
50.8766
 30
0.0
 10
-867.9161
 20
50.8766
 30
0.0
 10
-867.9161
 20
47.2544
 30
0.0
 10
-869.3672
 20
44.318
 30
0.0
 10
-871.1573
 20
44.318
 30
0.0
 10
-871.1573
 20
44.318
 30
0.0
 10
-871.471
 20
44.318
 30
0.0
 10
-871.7743
 20
44.4085
 30
0.0
 10
-872.0612
 20
44.5768
 30
0.0
 10
-872.0612
 20
44.5768
 30
0.0
 10
-872.0612
 20
44.5768
 30
0.0
 10
-872.0612
 20
46.2435
 30
0.0
 10
-872.0612
 20
46.2435
 30
0.0
 10
-872.0612
 20
46.2435
 30
0.0
 10
-872.0612
 20
46.2435
 30
0.0
 10
-876.7361
 20
46.2631
 30
0.0
 10
-876.7361
 20
46.2631
 30
0.0
  0
SPLINE
  5
93
330
1F
100
AcDbEntity
  8
Camada 1
 62
   240
370
    20
100
AcDbSpline
210
0.0
220
0.0
230
1.0
 70
     8
 71
     3
 72
    36
 73
    32
 74
     0
 42
0.000000001
 43
0.0000000001
 40
0.0
 40
0.0
 40
0.0
 40
0.0
 40
0.1111111111111111
 40
0.1111111111111111
 40
0.1111111111111111
 40
0.1111111111111111
 40
0.2222222222222222
 40
0.2222222222222222
 40
0.2222222222222222
 40
0.2222222222222222
 40
0.3333333333333333
 40
0.3333333333333333
 40
0.3333333333333333
 40
0.3333333333333333
 40
0.4444444444444444
 40
0.4444444444444444
 40
0.4444444444444444
 40
0.4444444444444444
 40
0.5555555555555556
 40
0.5555555555555556
 40
0.5555555555555556
 40
0.5555555555555556
 40
0.6666666666666666
 40
0.6666666666666666
 40
0.6666666666666666
 40
0.6666666666666666
 40
0.7777777777777778
 40
0.7777777777777778
 40
0.7777777777777778
 40
0.7777777777777778
 40
1.0
 40
1.0
 40
1.0
 40
1.0
 10
-853.7228
 20
55.2394
 30
0.0
 10
-853.7228
 20
55.2394
 30
0.0
 10
-849.0479
 20
55.1859
 30
0.0
 10
-849.0479
 20
55.1859
 30
0.0
 10
-849.0479
 20
55.1859
 30
0.0
 10
-849.0479
 20
55.1859
 30
0.0
 10
-849.0479
 20
57.1763
 30
0.0
 10
-849.0479
 20
57.1763
 30
0.0
 10
-849.0479
 20
57.1763
 30
0.0
 10
-848.7609
 20
57.3446
 30
0.0
 10
-848.4577
 20
57.4351
 30
0.0
 10
-848.144
 20
57.4351
 30
0.0
 10
-848.144
 20
57.4351
 30
0.0
 10
-846.3539
 20
57.4351
 30
0.0
 10
-844.9028
 20
54.4987
 30
0.0
 10
-844.9028
 20
50.8766
 30
0.0
 10
-844.9028
 20
50.8766
 30
0.0
 10
-844.9028
 20
47.2544
 30
0.0
 10
-846.3539
 20
44.318
 30
0.0
 10
-848.144
 20
44.318
 30
0.0
 10
-848.144
 20
44.318
 30
0.0
 10
-848.4577
 20
44.318
 30
0.0
 10
-848.761
 20
44.4085
 30
0.0
 10
-849.0479
 20
44.5768
 30
0.0
 10
-849.0479
 20
44.5768
 30
0.0
 10
-849.0479
 20
44.5768
 30
0.0
 10
-849.0479
 20
46.2435
 30
0.0
 10
-849.0479
 20
46.2435
 30
0.0
 10
-849.0479
 20
46.2435
 30
0.0
 10
-849.0479
 20
46.2435
 30
0.0
 10
-853.7228
 20
46.2631
 30
0.0
 10
-853.7228
 20
46.2631
 30
0.0
  0
SPLINE
  5
94
330
1F
100
AcDbEntity
  8
Camada 1
 62
   240
370
    20
100
AcDbSpline
210
0.0
220
0.0
230
1.0
 70
     8
 71
     3
 72
    36
 73
    32
 74
     0
 42
0.000000001
 43
0.0000000001
 40
0.0
 40
0.0
 40
0.0
 40
0.0
 40
0.1111111111111111
 40
0.1111111111111111
 40
0.1111111111111111
 40
0.1111111111111111
 40
0.2222222222222222
 40
0.2222222222222222
 40
0.2222222222222222
 40
0.2222222222222222
 40
0.3333333333333333
 40
0.3333333333333333
 40
0.3333333333333333
 40
0.3333333333333333
 40
0.4444444444444444
 40
0.4444444444444444
 40
0.4444444444444444
 40
0.4444444444444444
 40
0.5555555555555556
 40
0.5555555555555556
 40
0.5555555555555556
 40
0.5555555555555556
 40
0.6666666666666666
 40
0.6666666666666666
 40
0.6666666666666666
 40
0.6666666666666666
 40
0.7777777777777778
 40
0.7777777777777778
 40
0.7777777777777778
 40
0.7777777777777778
 40
1.0
 40
1.0
 40
1.0
 40
1.0
 10
-830.7095
 20
55.2394
 30
0.0
 10
-830.7095
 20
55.2394
 30
0.0
 10
-826.0346
 20
55.1859
 30
0.0
 10
-826.0346
 20
55.1859
 30
0.0
 10
-826.0346
 20
55.1859
 30
0.0
 10
-826.0346
 20
55.1859
 30
0.0
 10
-826.0346
 20
57.1763
 30
0.0
 10
-826.0346
 20
57.1763
 30
0.0
 10
-826.0346
 20
57.1763
 30
0.0
 10
-825.7476
 20
57.3446
 30
0.0
 10
-825.4444
 20
57.4351
 30
0.0
 10
-825.1307
 20
57.4351
 30
0.0
 10
-825.1307
 20
57.4351
 30
0.0
 10
-823.3406
 20
57.4351
 30
0.0
 10
-821.8895
 20
54.4987
 30
0.0
 10
-821.8895
 20
50.8766
 30
0.0
 10
-821.8895
 20
50.8766
 30
0.0
 10
-821.8895
 20
47.2544
 30
0.0
 10
-823.3406
 20
44.318
 30
0.0
 10
-825.1307
 20
44.318
 30
0.0
 10
-825.1307
 20
44.318
 30
0.0
 10
-825.4444
 20
44.318
 30
0.0
 10
-825.7477
 20
44.4085
 30
0.0
 10
-826.0346
 20
44.5768
 30
0.0
 10
-826.0346
 20
44.5768
 30
0.0
 10
-826.0346
 20
44.5768
 30
0.0
 10
-826.0346
 20
46.2435
 30
0.0
 10
-826.0346
 20
46.2435
 30
0.0
 10
-826.0346
 20
46.2435
 30
0.0
 10
-826.0346
 20
46.2435
 30
0.0
 10
-830.7095
 20
46.2631
 30
0.0
 10
-830.7095
 20
46.2631
 30
0.0
  0
SPLINE
  5
95
330
1F
100
AcDbEntity
  8
Camada 1
 62
   240
370
    20
100
AcDbSpline
210
0.0
220
0.0
230
1.0
 70
     8
 71
     3
 72
    36
 73
    32
 74
     0
 42
0.000000001
 43
0.0000000001
 40
0.0
 40
0.0
 40
0.0
 40
0.0
 40
0.1111111111111111
 40
0.1111111111111111
 40
0.1111111111111111
 40
0.1111111111111111
 40
0.2222222222222222
 40
0.2222222222222222
 40
0.2222222222222222
 40
0.2222222222222222
 40
0.3333333333333333
 40
0.3333333333333333
 40
0.3333333333333333
 40
0.3333333333333333
 40
0.4444444444444444
 40
0.4444444444444444
 40
0.4444444444444444
 40
0.4444444444444444
 40
0.5555555555555556
 40
0.5555555555555556
 40
0.5555555555555556
 40
0.5555555555555556
 40
0.6666666666666666
 40
0.6666666666666666
 40
0.6666666666666666
 40
0.6666666666666666
 40
0.7777777777777778
 40
0.7777777777777778
 40
0.7777777777777778
 40
0.7777777777777778
 40
1.0
 40
1.0
 40
1.0
 40
1.0
 10
-807.6962
 20
55.2394
 30
0.0
 10
-807.6962
 20
55.2394
 30
0.0
 10
-803.0213
 20
55.1859
 30
0.0
 10
-803.0213
 20
55.1859
 30
0.0
 10
-803.0213
 20
55.1859
 30
0.0
 10
-803.0213
 20
55.1859
 30
0.0
 10
-803.0213
 20
57.1763
 30
0.0
 10
-803.0213
 20
57.1763
 30
0.0
 10
-803.0213
 20
57.1763
 30
0.0
 10
-802.7343
 20
57.3446
 30
0.0
 10
-802.4311
 20
57.4351
 30
0.0
 10
-802.1174
 20
57.4351
 30
0.0
 10
-802.1174
 20
57.4351
 30
0.0
 10
-800.3273
 20
57.4351
 30
0.0
 10
-798.8762
 20
54.4987
 30
0.0
 10
-798.8762
 20
50.8766
 30
0.0
 10
-798.8762
 20
50.8766
 30
0.0
 10
-798.8762
 20
47.2544
 30
0.0
 10
-800.3273
 20
44.318
 30
0.0
 10
-802.1174
 20
44.318
 30
0.0
 10
-802.1174
 20
44.318
 30
0.0
 10
-802.4311
 20
44.318
 30
0.0
 10
-802.7344
 20
44.4085
 30
0.0
 10
-803.0213
 20
44.5768
 30
0.0
 10
-803.0213
 20
44.5768
 30
0.0
 10
-803.0213
 20
44.5768
 30
0.0
 10
-803.0213
 20
46.2435
 30
0.0
 10
-803.0213
 20
46.2435
 30
0.0
 10
-803.0213
 20
46.2435
 30
0.0
 10
-803.0213
 20
46.2435
 30
0.0
 10
-807.6962
 20
46.2631
 30
0.0
 10
-807.6962
 20
46.2631
 30
0.0
  0
SPLINE
  5
96
330
1F
100
AcDbEntity
  8
Camada 1
 62
   240
370
    20
100
AcDbSpline
210
0.0
220
0.0
230
1.0
 70
     8
 71
     3
 72
    36
 73
    32
 74
     0
 42
0.000000001
 43
0.0000000001
 40
0.0
 40
0.0
 40
0.0
 40
0.0
 40
0.1111111111111111
 40
0.1111111111111111
 40
0.1111111111111111
 40
0.1111111111111111
 40
0.2222222222222222
 40
0.2222222222222222
 40
0.2222222222222222
 40
0.2222222222222222
 40
0.3333333333333333
 40
0.3333333333333333
 40
0.3333333333333333
 40
0.3333333333333333
 40
0.4444444444444444
 40
0.4444444444444444
 40
0.4444444444444444
 40
0.4444444444444444
 40
0.5555555555555556
 40
0.5555555555555556
 40
0.5555555555555556
 40
0.5555555555555556
 40
0.6666666666666666
 40
0.6666666666666666
 40
0.6666666666666666
 40
0.6666666666666666
 40
0.7777777777777778
 40
0.7777777777777778
 40
0.7777777777777778
 40
0.7777777777777778
 40
1.0
 40
1.0
 40
1.0
 40
1.0
 10
-784.6829
 20
55.2394
 30
0.0
 10
-784.6829
 20
55.2394
 30
0.0
 10
-780.008
 20
55.1859
 30
0.0
 10
-780.008
 20
55.1859
 30
0.0
 10
-780.008
 20
55.1859
 30
0.0
 10
-780.008
 20
55.1859
 30
0.0
 10
-780.008
 20
57.1763
 30
0.0
 10
-780.008
 20
57.1763
 30
0.0
 10
-780.008
 20
57.1763
 30
0.0
 10
-779.721
 20
57.3446
 30
0.0
 10
-779.4178
 20
57.4351
 30
0.0
 10
-779.1041
 20
57.4351
 30
0.0
 10
-779.1041
 20
57.4351
 30
0.0
 10
-777.314
 20
57.4351
 30
0.0
 10
-775.8629
 20
54.4987
 30
0.0
 10
-775.8629
 20
50.8766
 30
0.0
 10
-775.8629
 20
50.8766
 30
0.0
 10
-775.8629
 20
47.2544
 30
0.0
 10
-777.314
 20
44.318
 30
0.0
 10
-779.1041
 20
44.318
 30
0.0
 10
-779.1041
 20
44.318
 30
0.0
 10
-779.4178
 20
44.318
 30
0.0
 10
-779.7211
 20
44.4085
 30
0.0
 10
-780.008
 20
44.5768
 30
0.0
 10
-780.008
 20
44.5768
 30
0.0
 10
-780.008
 20
44.5768
 30
0.0
 10
-780.008
 20
46.2435
 30
0.0
 10
-780.008
 20
46.2435
 30
0.0
 10
-780.008
 20
46.2435
 30
0.0
 10
-780.008
 20
46.2435
 30
0.0
 10
-784.6829
 20
46.2631
 30
0.0
 10
-784.6829
 20
46.2631
 30
0.0
  0
SPLINE
  5
97
330
1F
100
AcDbEntity
  8
Camada 1
 62
   240
370
    20
100
AcDbSpline
210
0.0
220
0.0
230
1.0
 70
     8
 71
     3
 72
    36
 73
    32
 74
     0
 42
0.000000001
 43
0.0000000001
 40
0.0
 40
0.0
 40
0.0
 40
0.0
 40
0.1111111111111111
 40
0.1111111111111111
 40
0.1111111111111111
 40
0.1111111111111111
 40
0.2222222222222222
 40
0.2222222222222222
 40
0.2222222222222222
 40
0.2222222222222222
 40
0.3333333333333333
 40
0.3333333333333333
 40
0.3333333333333333
 40
0.3333333333333333
 40
0.4444444444444444
 40
0.4444444444444444
 40
0.4444444444444444
 40
0.4444444444444444
 40
0.5555555555555556
 40
0.5555555555555556
 40
0.5555555555555556
 40
0.5555555555555556
 40
0.6666666666666666
 40
0.6666666666666666
 40
0.6666666666666666
 40
0.6666666666666666
 40
0.7777777777777778
 40
0.7777777777777778
 40
0.7777777777777778
 40
0.7777777777777778
 40
1.0
 40
1.0
 40
1.0
 40
1.0
 10
-761.6696
 20
55.2394
 30
0.0
 10
-761.6696
 20
55.2394
 30
0.0
 10
-756.9947
 20
55.1859
 30
0.0
 10
-756.9947
 20
55.1859
 30
0.0
 10
-756.9947
 20
55.1859
 30
0.0
 10
-756.9947
 20
55.1859
 30
0.0
 10
-756.9947
 20
57.1763
 30
0.0
 10
-756.9947
 20
57.1763
 30
0.0
 10
-756.9947
 20
57.1763
 30
0.0
 10
-756.7077
 20
57.3446
 30
0.0
 10
-756.4045
 20
57.4351
 30
0.0
 10
-756.0908
 20
57.4351
 30
0.0
 10
-756.0908
 20
57.4351
 30
0.0
 10
-754.3007
 20
57.4351
 30
0.0
 10
-752.8496
 20
54.4987
 30
0.0
 10
-752.8496
 20
50.8766
 30
0.0
 10
-752.8496
 20
50.8766
 30
0.0
 10
-752.8496
 20
47.2544
 30
0.0
 10
-754.3007
 20
44.318
 30
0.0
 10
-756.0908
 20
44.318
 30
0.0
 10
-756.0908
 20
44.318
 30
0.0
 10
-756.4045
 20
44.318
 30
0.0
 10
-756.7078
 20
44.4085
 30
0.0
 10
-756.9947
 20
44.5768
 30
0.0
 10
-756.9947
 20
44.5768
 30
0.0
 10
-756.9947
 20
44.5768
 30
0.0
 10
-756.9947
 20
46.2435
 30
0.0
 10
-756.9947
 20
46.2435
 30
0.0
 10
-756.9947
 20
46.2435
 30
0.0
 10
-756.9947
 20
46.2435
 30
0.0
 10
-761.6696
 20
46.2631
 30
0.0
 10
-761.6696
 20
46.2631
 30
0.0
  0
SPLINE
  5
98
330
1F
100
AcDbEntity
  8
Camada 1
 62
   240
370
    20
100
AcDbSpline
210
0.0
220
0.0
230
1.0
 70
     8
 71
     3
 72
    36
 73
    32
 74
     0
 42
0.000000001
 43
0.0000000001
 40
0.0
 40
0.0
 40
0.0
 40
0.0
 40
0.1111111111111111
 40
0.1111111111111111
 40
0.1111111111111111
 40
0.1111111111111111
 40
0.2222222222222222
 40
0.2222222222222222
 40
0.2222222222222222
 40
0.2222222222222222
 40
0.3333333333333333
 40
0.3333333333333333
 40
0.3333333333333333
 40
0.3333333333333333
 40
0.4444444444444444
 40
0.4444444444444444
 40
0.4444444444444444
 40
0.4444444444444444
 40
0.5555555555555556
 40
0.5555555555555556
 40
0.5555555555555556
 40
0.5555555555555556
 40
0.6666666666666666
 40
0.6666666666666666
 40
0.6666666666666666
 40
0.6666666666666666
 40
0.7777777777777778
 40
0.7777777777777778
 40
0.7777777777777778
 40
0.7777777777777778
 40
1.0
 40
1.0
 40
1.0
 40
1.0
 10
-738.6563
 20
55.2394
 30
0.0
 10
-738.6563
 20
55.2394
 30
0.0
 10
-733.9814
 20
55.1859
 30
0.0
 10
-733.9814
 20
55.1859
 30
0.0
 10
-733.9814
 20
55.1859
 30
0.0
 10
-733.9814
 20
55.1859
 30
0.0
 10
-733.9814
 20
57.1763
 30
0.0
 10
-733.9814
 20
57.1763
 30
0.0
 10
-733.9814
 20
57.1763
 30
0.0
 10
-733.6944
 20
57.3446
 30
0.0
 10
-733.3912
 20
57.4351
 30
0.0
 10
-733.0775
 20
57.4351
 30
0.0
 10
-733.0775
 20
57.4351
 30
0.0
 10
-731.2874
 20
57.4351
 30
0.0
 10
-729.8363
 20
54.4987
 30
0.0
 10
-729.8363
 20
50.8766
 30
0.0
 10
-729.8363
 20
50.8766
 30
0.0
 10
-729.8363
 20
47.2544
 30
0.0
 10
-731.2874
 20
44.318
 30
0.0
 10
-733.0775
 20
44.318
 30
0.0
 10
-733.0775
 20
44.318
 30
0.0
 10
-733.3912
 20
44.318
 30
0.0
 10
-733.6945
 20
44.4085
 30
0.0
 10
-733.9814
 20
44.5768
 30
0.0
 10
-733.9814
 20
44.5768
 30
0.0
 10
-733.9814
 20
44.5768
 30
0.0
 10
-733.9814
 20
46.2435
 30
0.0
 10
-733.9814
 20
46.2435
 30
0.0
 10
-733.9814
 20
46.2435
 30
0.0
 10
-733.9814
 20
46.2435
 30
0.0
 10
-738.6563
 20
46.2631
 30
0.0
 10
-738.6563
 20
46.2631
 30
0.0
  0
SPLINE
  5
99
330
1F
100
AcDbEntity
  8
Camada 1
 62
   240
370
    20
100
AcDbSpline
210
0.0
220
0.0
230
1.0
 70
     8
 71
     3
 72
    36
 73
    32
 74
     0
 42
0.000000001
 43
0.0000000001
 40
0.0
 40
0.0
 40
0.0
 40
0.0
 40
0.1111111111111111
 40
0.1111111111111111
 40
0.1111111111111111
 40
0.1111111111111111
 40
0.2222222222222222
 40
0.2222222222222222
 40
0.2222222222222222
 40
0.2222222222222222
 40
0.3333333333333333
 40
0.3333333333333333
 40
0.3333333333333333
 40
0.3333333333333333
 40
0.4444444444444444
 40
0.4444444444444444
 40
0.4444444444444444
 40
0.4444444444444444
 40
0.5555555555555556
 40
0.5555555555555556
 40
0.5555555555555556
 40
0.5555555555555556
 40
0.6666666666666666
 40
0.6666666666666666
 40
0.6666666666666666
 40
0.6666666666666666
 40
0.7777777777777778
 40
0.7777777777777778
 40
0.7777777777777778
 40
0.7777777777777778
 40
1.0
 40
1.0
 40
1.0
 40
1.0
 10
-715.643
 20
55.2394
 30
0.0
 10
-715.643
 20
55.2394
 30
0.0
 10
-710.9681
 20
55.1859
 30
0.0
 10
-710.9681
 20
55.1859
 30
0.0
 10
-710.9681
 20
55.1859
 30
0.0
 10
-710.9681
 20
55.1859
 30
0.0
 10
-710.9681
 20
57.1763
 30
0.0
 10
-710.9681
 20
57.1763
 30
0.0
 10
-710.9681
 20
57.1763
 30
0.0
 10
-710.6811
 20
57.3446
 30
0.0
 10
-710.3779
 20
57.4351
 30
0.0
 10
-710.0642
 20
57.4351
 30
0.0
 10
-710.0642
 20
57.4351
 30
0.0
 10
-708.2741
 20
57.4351
 30
0.0
 10
-706.823
 20
54.4987
 30
0.0
 10
-706.823
 20
50.8766
 30
0.0
 10
-706.823
 20
50.8766
 30
0.0
 10
-706.823
 20
47.2544
 30
0.0
 10
-708.2741
 20
44.318
 30
0.0
 10
-710.0642
 20
44.318
 30
0.0
 10
-710.0642
 20
44.318
 30
0.0
 10
-710.3779
 20
44.318
 30
0.0
 10
-710.6812
 20
44.4085
 30
0.0
 10
-710.9681
 20
44.5768
 30
0.0
 10
-710.9681
 20
44.5768
 30
0.0
 10
-710.9681
 20
44.5768
 30
0.0
 10
-710.9681
 20
46.2435
 30
0.0
 10
-710.9681
 20
46.2435
 30
0.0
 10
-710.9681
 20
46.2435
 30
0.0
 10
-710.9681
 20
46.2435
 30
0.0
 10
-715.643
 20
46.2631
 30
0.0
 10
-715.643
 20
46.2631
 30
0.0
  0
SPLINE
  5
9A
330
1F
100
AcDbEntity
  8
Camada 1
 62
   240
370
    20
100
AcDbSpline
210
0.0
220
0.0
230
1.0
 70
     8
 71
     3
 72
    36
 73
    32
 74
     0
 42
0.000000001
 43
0.0000000001
 40
0.0
 40
0.0
 40
0.0
 40
0.0
 40
0.1111111111111111
 40
0.1111111111111111
 40
0.1111111111111111
 40
0.1111111111111111
 40
0.2222222222222222
 40
0.2222222222222222
 40
0.2222222222222222
 40
0.2222222222222222
 40
0.3333333333333333
 40
0.3333333333333333
 40
0.3333333333333333
 40
0.3333333333333333
 40
0.4444444444444444
 40
0.4444444444444444
 40
0.4444444444444444
 40
0.4444444444444444
 40
0.5555555555555556
 40
0.5555555555555556
 40
0.5555555555555556
 40
0.5555555555555556
 40
0.6666666666666666
 40
0.6666666666666666
 40
0.6666666666666666
 40
0.6666666666666666
 40
0.7777777777777778
 40
0.7777777777777778
 40
0.7777777777777778
 40
0.7777777777777778
 40
1.0
 40
1.0
 40
1.0
 40
1.0
 10
-537.7783
 20
55.2394
 30
0.0
 10
-537.7783
 20
55.2394
 30
0.0
 10
-542.4532
 20
55.1859
 30
0.0
 10
-542.4532
 20
55.1859
 30
0.0
 10
-542.4532
 20
55.1859
 30
0.0
 10
-542.4532
 20
55.1859
 30
0.0
 10
-542.4532
 20
57.1763
 30
0.0
 10
-542.4532
 20
57.1763
 30
0.0
 10
-542.4532
 20
57.1763
 30
0.0
 10
-542.7402
 20
57.3446
 30
0.0
 10
-543.0434
 20
57.4351
 30
0.0
 10
-543.3571
 20
57.4351
 30
0.0
 10
-543.3571
 20
57.4351
 30
0.0
 10
-545.1472
 20
57.4351
 30
0.0
 10
-546.5983
 20
54.4987
 30
0.0
 10
-546.5983
 20
50.8766
 30
0.0
 10
-546.5983
 20
50.8766
 30
0.0
 10
-546.5983
 20
47.2544
 30
0.0
 10
-545.1472
 20
44.318
 30
0.0
 10
-543.3571
 20
44.318
 30
0.0
 10
-543.3571
 20
44.318
 30
0.0
 10
-543.0434
 20
44.318
 30
0.0
 10
-542.7401
 20
44.4085
 30
0.0
 10
-542.4532
 20
44.5768
 30
0.0
 10
-542.4532
 20
44.5768
 30
0.0
 10
-542.4532
 20
44.5768
 30
0.0
 10
-542.4532
 20
46.2435
 30
0.0
 10
-542.4532
 20
46.2435
 30
0.0
 10
-542.4532
 20
46.2435
 30
0.0
 10
-542.4532
 20
46.2435
 30
0.0
 10
-537.7783
 20
46.2631
 30
0.0
 10
-537.7783
 20
46.2631
 30
0.0
  0
SPLINE
  5
9B
330
1F
100
AcDbEntity
  8
Camada 1
 62
   240
370
    20
100
AcDbSpline
210
0.0
220
0.0
230
1.0
 70
     8
 71
     3
 72
    36
 73
    32
 74
     0
 42
0.000000001
 43
0.0000000001
 40
0.0
 40
0.0
 40
0.0
 40
0.0
 40
0.1111111111111111
 40
0.1111111111111111
 40
0.1111111111111111
 40
0.1111111111111111
 40
0.2222222222222222
 40
0.2222222222222222
 40
0.2222222222222222
 40
0.2222222222222222
 40
0.3333333333333333
 40
0.3333333333333333
 40
0.3333333333333333
 40
0.3333333333333333
 40
0.4444444444444444
 40
0.4444444444444444
 40
0.4444444444444444
 40
0.4444444444444444
 40
0.5555555555555556
 40
0.5555555555555556
 40
0.5555555555555556
 40
0.5555555555555556
 40
0.6666666666666666
 40
0.6666666666666666
 40
0.6666666666666666
 40
0.6666666666666666
 40
0.7777777777777778
 40
0.7777777777777778
 40
0.7777777777777778
 40
0.7777777777777778
 40
1.0
 40
1.0
 40
1.0
 40
1.0
 10
-560.7916
 20
55.2394
 30
0.0
 10
-560.7916
 20
55.2394
 30
0.0
 10
-565.4665
 20
55.1859
 30
0.0
 10
-565.4665
 20
55.1859
 30
0.0
 10
-565.4665
 20
55.1859
 30
0.0
 10
-565.4665
 20
55.1859
 30
0.0
 10
-565.4665
 20
57.1763
 30
0.0
 10
-565.4665
 20
57.1763
 30
0.0
 10
-565.4665
 20
57.1763
 30
0.0
 10
-565.7535
 20
57.3446
 30
0.0
 10
-566.0567
 20
57.4351
 30
0.0
 10
-566.3704
 20
57.4351
 30
0.0
 10
-566.3704
 20
57.4351
 30
0.0
 10
-568.1605
 20
57.4351
 30
0.0
 10
-569.6116
 20
54.4987
 30
0.0
 10
-569.6116
 20
50.8766
 30
0.0
 10
-569.6116
 20
50.8766
 30
0.0
 10
-569.6116
 20
47.2544
 30
0.0
 10
-568.1605
 20
44.318
 30
0.0
 10
-566.3704
 20
44.318
 30
0.0
 10
-566.3704
 20
44.318
 30
0.0
 10
-566.0567
 20
44.318
 30
0.0
 10
-565.7534
 20
44.4085
 30
0.0
 10
-565.4665
 20
44.5768
 30
0.0
 10
-565.4665
 20
44.5768
 30
0.0
 10
-565.4665
 20
44.5768
 30
0.0
 10
-565.4665
 20
46.2435
 30
0.0
 10
-565.4665
 20
46.2435
 30
0.0
 10
-565.4665
 20
46.2435
 30
0.0
 10
-565.4665
 20
46.2435
 30
0.0
 10
-560.7916
 20
46.2631
 30
0.0
 10
-560.7916
 20
46.2631
 30
0.0
  0
SPLINE
  5
9C
330
1F
100
AcDbEntity
  8
Camada 1
 62
   240
370
    20
100
AcDbSpline
210
0.0
220
0.0
230
1.0
 70
     8
 71
     3
 72
    36
 73
    32
 74
     0
 42
0.000000001
 43
0.0000000001
 40
0.0
 40
0.0
 40
0.0
 40
0.0
 40
0.1111111111111111
 40
0.1111111111111111
 40
0.1111111111111111
 40
0.1111111111111111
 40
0.2222222222222222
 40
0.2222222222222222
 40
0.2222222222222222
 40
0.2222222222222222
 40
0.3333333333333333
 40
0.3333333333333333
 40
0.3333333333333333
 40
0.3333333333333333
 40
0.4444444444444444
 40
0.4444444444444444
 40
0.4444444444444444
 40
0.4444444444444444
 40
0.5555555555555556
 40
0.5555555555555556
 40
0.5555555555555556
 40
0.5555555555555556
 40
0.6666666666666666
 40
0.6666666666666666
 40
0.6666666666666666
 40
0.6666666666666666
 40
0.7777777777777778
 40
0.7777777777777778
 40
0.7777777777777778
 40
0.7777777777777778
 40
1.0
 40
1.0
 40
1.0
 40
1.0
 10
-514.765
 20
55.2394
 30
0.0
 10
-514.765
 20
55.2394
 30
0.0
 10
-519.4399
 20
55.1859
 30
0.0
 10
-519.4399
 20
55.1859
 30
0.0
 10
-519.4399
 20
55.1859
 30
0.0
 10
-519.4399
 20
55.1859
 30
0.0
 10
-519.4399
 20
57.1763
 30
0.0
 10
-519.4399
 20
57.1763
 30
0.0
 10
-519.4399
 20
57.1763
 30
0.0
 10
-519.7269
 20
57.3446
 30
0.0
 10
-520.0301
 20
57.4351
 30
0.0
 10
-520.3438
 20
57.4351
 30
0.0
 10
-520.3438
 20
57.4351
 30
0.0
 10
-522.1339
 20
57.4351
 30
0.0
 10
-523.585
 20
54.4987
 30
0.0
 10
-523.585
 20
50.8766
 30
0.0
 10
-523.585
 20
50.8766
 30
0.0
 10
-523.585
 20
47.2544
 30
0.0
 10
-522.1339
 20
44.318
 30
0.0
 10
-520.3438
 20
44.318
 30
0.0
 10
-520.3438
 20
44.318
 30
0.0
 10
-520.0301
 20
44.318
 30
0.0
 10
-519.7268
 20
44.4085
 30
0.0
 10
-519.4399
 20
44.5768
 30
0.0
 10
-519.4399
 20
44.5768
 30
0.0
 10
-519.4399
 20
44.5768
 30
0.0
 10
-519.4399
 20
46.2435
 30
0.0
 10
-519.4399
 20
46.2435
 30
0.0
 10
-519.4399
 20
46.2435
 30
0.0
 10
-519.4399
 20
46.2435
 30
0.0
 10
-514.765
 20
46.2631
 30
0.0
 10
-514.765
 20
46.2631
 30
0.0
  0
SPLINE
  5
9D
330
1F
100
AcDbEntity
  8
Camada 1
 62
   240
370
    20
100
AcDbSpline
210
0.0
220
0.0
230
1.0
 70
    11
 71
     3
 72
    36
 73
    32
 74
     0
 42
0.000000001
 43
0.0000000001
 40
0.0
 40
0.0
 40
0.0
 40
0.0
 40
0.1111111111111111
 40
0.1111111111111111
 40
0.1111111111111111
 40
0.1111111111111111
 40
0.2222222222222222
 40
0.2222222222222222
 40
0.2222222222222222
 40
0.2222222222222222
 40
0.3333333333333333
 40
0.3333333333333333
 40
0.3333333333333333
 40
0.3333333333333333
 40
0.4444444444444444
 40
0.4444444444444444
 40
0.4444444444444444
 40
0.4444444444444444
 40
0.5555555555555556
 40
0.5555555555555556
 40
0.5555555555555556
 40
0.5555555555555556
 40
0.6666666666666666
 40
0.6666666666666666
 40
0.6666666666666666
 40
0.6666666666666666
 40
0.7777777777777778
 40
0.7777777777777778
 40
0.7777777777777778
 40
0.7777777777777778
 40
1.0
 40
1.0
 40
1.0
 40
1.0
 10
-910.5185
 20
-25.8507
 30
0.0
 10
-910.5185
 20
-25.8507
 30
0.0
 10
-912.3183
 20
-25.8507
 30
0.0
 10
-912.3183
 20
-25.8507
 30
0.0
 10
-912.3183
 20
-25.8507
 30
0.0
 10
-912.6484
 20
-25.8507
 30
0.0
 10
-912.9184
 20
-26.1207
 30
0.0
 10
-912.9184
 20
-26.4508
 30
0.0
 10
-912.9184
 20
-26.4508
 30
0.0
 10
-912.9184
 20
-26.4508
 30
0.0
 10
-912.9184
 20
-35.2506
 30
0.0
 10
-912.9184
 20
-35.2506
 30
0.0
 10
-912.9184
 20
-35.2506
 30
0.0
 10
-912.9184
 20
-35.5807
 30
0.0
 10
-912.6484
 20
-35.8507
 30
0.0
 10
-912.3183
 20
-35.8507
 30
0.0
 10
-912.3183
 20
-35.8507
 30
0.0
 10
-912.3183
 20
-35.8507
 30
0.0
 10
-910.5185
 20
-35.8507
 30
0.0
 10
-910.5185
 20
-35.8507
 30
0.0
 10
-910.5185
 20
-35.8507
 30
0.0
 10
-910.1884
 20
-35.8507
 30
0.0
 10
-909.9184
 20
-35.5807
 30
0.0
 10
-909.9184
 20
-35.2506
 30
0.0
 10
-909.9184
 20
-35.2506
 30
0.0
 10
-909.9184
 20
-35.2506
 30
0.0
 10
-909.9184
 20
-26.4508
 30
0.0
 10
-909.9184
 20
-26.4508
 30
0.0
 10
-909.9184
 20
-26.4508
 30
0.0
 10
-909.9184
 20
-26.1207
 30
0.0
 10
-910.1884
 20
-25.8507
 30
0.0
 10
-910.5185
 20
-25.8507
 30
0.0
  0
SPLINE
  5
9E
330
1F
100
AcDbEntity
  8
Camada 1
 62
   240
370
    20
100
AcDbSpline
210
0.0
220
0.0
230
1.0
 70
    11
 71
     3
 72
    36
 73
    32
 74
     0
 42
0.000000001
 43
0.0000000001
 40
0.0
 40
0.0
 40
0.0
 40
0.0
 40
0.1111111111111111
 40
0.1111111111111111
 40
0.1111111111111111
 40
0.1111111111111111
 40
0.2222222222222222
 40
0.2222222222222222
 40
0.2222222222222222
 40
0.2222222222222222
 40
0.3333333333333333
 40
0.3333333333333333
 40
0.3333333333333333
 40
0.3333333333333333
 40
0.4444444444444444
 40
0.4444444444444444
 40
0.4444444444444444
 40
0.4444444444444444
 40
0.5555555555555556
 40
0.5555555555555556
 40
0.5555555555555556
 40
0.5555555555555556
 40
0.6666666666666666
 40
0.6666666666666666
 40
0.6666666666666666
 40
0.6666666666666666
 40
0.7777777777777778
 40
0.7777777777777778
 40
0.7777777777777778
 40
0.7777777777777778
 40
1.0
 40
1.0
 40
1.0
 40
1.0
 10
-491.1184
 20
-25.8507
 30
0.0
 10
-491.1184
 20
-25.8507
 30
0.0
 10
-489.3186
 20
-25.8507
 30
0.0
 10
-489.3186
 20
-25.8507
 30
0.0
 10
-489.3186
 20
-25.8507
 30
0.0
 10
-488.9885
 20
-25.8507
 30
0.0
 10
-488.7185
 20
-26.1207
 30
0.0
 10
-488.7185
 20
-26.4508
 30
0.0
 10
-488.7185
 20
-26.4508
 30
0.0
 10
-488.7185
 20
-26.4508
 30
0.0
 10
-488.7185
 20
-35.2506
 30
0.0
 10
-488.7185
 20
-35.2506
 30
0.0
 10
-488.7185
 20
-35.2506
 30
0.0
 10
-488.7185
 20
-35.5807
 30
0.0
 10
-488.9885
 20
-35.8507
 30
0.0
 10
-489.3186
 20
-35.8507
 30
0.0
 10
-489.3186
 20
-35.8507
 30
0.0
 10
-489.3186
 20
-35.8507
 30
0.0
 10
-491.1184
 20
-35.8507
 30
0.0
 10
-491.1184
 20
-35.8507
 30
0.0
 10
-491.1184
 20
-35.8507
 30
0.0
 10
-491.4485
 20
-35.8507
 30
0.0
 10
-491.7185
 20
-35.5807
 30
0.0
 10
-491.7185
 20
-35.2506
 30
0.0
 10
-491.7185
 20
-35.2506
 30
0.0
 10
-491.7185
 20
-35.2506
 30
0.0
 10
-491.7185
 20
-26.4508
 30
0.0
 10
-491.7185
 20
-26.4508
 30
0.0
 10
-491.7185
 20
-26.4508
 30
0.0
 10
-491.7185
 20
-26.1207
 30
0.0
 10
-491.4485
 20
-25.8507
 30
0.0
 10
-491.1184
 20
-25.8507
 30
0.0
  0
SPLINE
  5
9F
330
1F
100
AcDbEntity
  8
Camada 1
 62
   250
100
AcDbSpline
210
0.0
220
0.0
230
1.0
 70
    11
 71
     3
 72
    44
 73
    40
 74
     0
 42
0.000000001
 43
0.0000000001
 40
0.0
 40
0.0
 40
0.0
 40
0.0
 40
0.0909090909090909
 40
0.0909090909090909
 40
0.0909090909090909
 40
0.0909090909090909
 40
0.1818181818181818
 40
0.1818181818181818
 40
0.1818181818181818
 40
0.1818181818181818
 40
0.2727272727272727
 40
0.2727272727272727
 40
0.2727272727272727
 40
0.2727272727272727
 40
0.3636363636363636
 40
0.3636363636363636
 40
0.3636363636363636
 40
0.3636363636363636
 40
0.4545454545454545
 40
0.4545454545454545
 40
0.4545454545454545
 40
0.4545454545454545
 40
0.5454545454545454
 40
0.5454545454545454
 40
0.5454545454545454
 40
0.5454545454545454
 40
0.6363636363636364
 40
0.6363636363636364
 40
0.6363636363636364
 40
0.6363636363636364
 40
0.7272727272727273
 40
0.7272727272727273
 40
0.7272727272727273
 40
0.7272727272727273
 40
0.8181818181818182
 40
0.8181818181818182
 40
0.8181818181818182
 40
0.8181818181818182
 40
1.0
 40
1.0
 40
1.0
 40
1.0
 10
-917.7531
 20
82.8118
 30
0.0
 10
-917.7531
 20
82.8118
 30
0.0
 10
-917.7531
 20
88.874
 30
0.0
 10
-917.7531
 20
88.874
 30
0.0
 10
-917.7531
 20
88.874
 30
0.0
 10
-917.7531
 20
88.874
 30
0.0
 10
-913.6637
 20
88.874
 30
0.0
 10
-913.6637
 20
88.874
 30
0.0
 10
-913.6637
 20
88.874
 30
0.0
 10
-913.6637
 20
88.874
 30
0.0
 10
-913.6637
 20
88.1543
 30
0.0
 10
-913.6637
 20
88.1543
 30
0.0
 10
-913.6637
 20
88.1543
 30
0.0
 10
-913.6637
 20
88.1543
 30
0.0
 10
-916.9488
 20
88.1543
 30
0.0
 10
-916.9488
 20
88.1543
 30
0.0
 10
-916.9488
 20
88.1543
 30
0.0
 10
-916.9488
 20
88.1543
 30
0.0
 10
-916.9488
 20
86.2831
 30
0.0
 10
-916.9488
 20
86.2831
 30
0.0
 10
-916.9488
 20
86.2831
 30
0.0
 10
-916.9488
 20
86.2831
 30
0.0
 10
-914.104
 20
86.2831
 30
0.0
 10
-914.104
 20
86.2831
 30
0.0
 10
-914.104
 20
86.2831
 30
0.0
 10
-914.104
 20
86.2831
 30
0.0
 10
-914.104
 20
85.5635
 30
0.0
 10
-914.104
 20
85.5635
 30
0.0
 10
-914.104
 20
85.5635
 30
0.0
 10
-914.104
 20
85.5635
 30
0.0
 10
-916.9488
 20
85.5635
 30
0.0
 10
-916.9488
 20
85.5635
 30
0.0
 10
-916.9488
 20
85.5635
 30
0.0
 10
-916.9488
 20
85.5635
 30
0.0
 10
-916.9488
 20
82.8118
 30
0.0
 10
-916.9488
 20
82.8118
 30
0.0
 10
-916.9488
 20
82.8118
 30
0.0
 10
-916.9488
 20
82.8118
 30
0.0
 10
-917.7531
 20
82.8118
 30
0.0
 10
-917.7531
 20
82.8118
 30
0.0
  0
SPLINE
  5
A0
330
1F
100
AcDbEntity
  8
Camada 1
 62
   250
100
AcDbSpline
210
0.0
220
0.0
230
1.0
 70
    11
 71
     3
 72
    36
 73
    32
 74
     0
 42
0.000000001
 43
0.0000000001
 40
0.0
 40
0.0
 40
0.0
 40
0.0
 40
0.1111111111111111
 40
0.1111111111111111
 40
0.1111111111111111
 40
0.1111111111111111
 40
0.2222222222222222
 40
0.2222222222222222
 40
0.2222222222222222
 40
0.2222222222222222
 40
0.3333333333333333
 40
0.3333333333333333
 40
0.3333333333333333
 40
0.3333333333333333
 40
0.4444444444444444
 40
0.4444444444444444
 40
0.4444444444444444
 40
0.4444444444444444
 40
0.5555555555555556
 40
0.5555555555555556
 40
0.5555555555555556
 40
0.5555555555555556
 40
0.6666666666666666
 40
0.6666666666666666
 40
0.6666666666666666
 40
0.6666666666666666
 40
0.7777777777777778
 40
0.7777777777777778
 40
0.7777777777777778
 40
0.7777777777777778
 40
1.0
 40
1.0
 40
1.0
 40
1.0
 10
-913.7526
 20
82.8118
 30
0.0
 10
-913.7526
 20
82.8118
 30
0.0
 10
-911.4327
 20
88.874
 30
0.0
 10
-911.4327
 20
88.874
 30
0.0
 10
-911.4327
 20
88.874
 30
0.0
 10
-911.4327
 20
88.874
 30
0.0
 10
-910.5691
 20
88.874
 30
0.0
 10
-910.5691
 20
88.874
 30
0.0
 10
-910.5691
 20
88.874
 30
0.0
 10
-910.5691
 20
88.874
 30
0.0
 10
-908.0883
 20
82.8118
 30
0.0
 10
-908.0883
 20
82.8118
 30
0.0
 10
-908.0883
 20
82.8118
 30
0.0
 10
-908.0883
 20
82.8118
 30
0.0
 10
-908.9943
 20
82.8118
 30
0.0
 10
-908.9943
 20
82.8118
 30
0.0
 10
-908.9943
 20
82.8118
 30
0.0
 10
-908.9943
 20
82.8118
 30
0.0
 10
-909.7055
 20
84.6491
 30
0.0
 10
-909.7055
 20
84.6491
 30
0.0
 10
-909.7055
 20
84.6491
 30
0.0
 10
-909.7055
 20
84.6491
 30
0.0
 10
-912.237
 20
84.6491
 30
0.0
 10
-912.237
 20
84.6491
 30
0.0
 10
-912.237
 20
84.6491
 30
0.0
 10
-912.237
 20
84.6491
 30
0.0
 10
-912.9059
 20
82.8118
 30
0.0
 10
-912.9059
 20
82.8118
 30
0.0
 10
-912.9059
 20
82.8118
 30
0.0
 10
-912.9059
 20
82.8118
 30
0.0
 10
-913.7526
 20
82.8118
 30
0.0
 10
-913.7526
 20
82.8118
 30
0.0
  0
SPLINE
  5
A1
330
1F
100
AcDbEntity
  8
Camada 1
 62
   250
100
AcDbSpline
210
0.0
220
0.0
230
1.0
 70
    11
 71
     3
 72
    24
 73
    20
 74
     0
 42
0.000000001
 43
0.0000000001
 40
0.0
 40
0.0
 40
0.0
 40
0.0
 40
0.1666666666666667
 40
0.1666666666666667
 40
0.1666666666666667
 40
0.1666666666666667
 40
0.3333333333333333
 40
0.3333333333333333
 40
0.3333333333333333
 40
0.3333333333333333
 40
0.5
 40
0.5
 40
0.5
 40
0.5
 40
0.6666666666666666
 40
0.6666666666666666
 40
0.6666666666666666
 40
0.6666666666666666
 40
1.0
 40
1.0
 40
1.0
 40
1.0
 10
-912.0084
 20
85.301
 30
0.0
 10
-912.0084
 20
85.301
 30
0.0
 10
-909.951
 20
85.301
 30
0.0
 10
-909.951
 20
85.301
 30
0.0
 10
-909.951
 20
85.301
 30
0.0
 10
-909.951
 20
85.301
 30
0.0
 10
-910.586
 20
86.9774
 30
0.0
 10
-910.586
 20
86.9774
 30
0.0
 10
-910.586
 20
86.9774
 30
0.0
 10
-910.7808
 20
87.4939
 30
0.0
 10
-910.9247
 20
87.9088
 30
0.0
 10
-911.0178
 20
88.239
 30
0.0
 10
-911.0178
 20
88.239
 30
0.0
 10
-911.094
 20
87.8495
 30
0.0
 10
-911.1956
 20
87.46
 30
0.0
 10
-911.3396
 20
87.079
 30
0.0
 10
-911.3396
 20
87.079
 30
0.0
 10
-911.3396
 20
87.079
 30
0.0
 10
-912.0084
 20
85.301
 30
0.0
 10
-912.0084
 20
85.301
 30
0.0
  0
SPLINE
  5
A2
330
1F
100
AcDbEntity
  8
Camada 1
 62
   250
100
AcDbSpline
210
0.0
220
0.0
230
1.0
 70
    11
 71
     3
 72
    92
 73
    88
 74
     0
 42
0.000000001
 43
0.0000000001
 40
0.0
 40
0.0
 40
0.0
 40
0.0
 40
0.0434782608695652
 40
0.0434782608695652
 40
0.0434782608695652
 40
0.0434782608695652
 40
0.0869565217391304
 40
0.0869565217391304
 40
0.0869565217391304
 40
0.0869565217391304
 40
0.1304347826086956
 40
0.1304347826086956
 40
0.1304347826086956
 40
0.1304347826086956
 40
0.1739130434782609
 40
0.1739130434782609
 40
0.1739130434782609
 40
0.1739130434782609
 40
0.2173913043478261
 40
0.2173913043478261
 40
0.2173913043478261
 40
0.2173913043478261
 40
0.2608695652173913
 40
0.2608695652173913
 40
0.2608695652173913
 40
0.2608695652173913
 40
0.3043478260869565
 40
0.3043478260869565
 40
0.3043478260869565
 40
0.3043478260869565
 40
0.3478260869565217
 40
0.3478260869565217
 40
0.3478260869565217
 40
0.3478260869565217
 40
0.391304347826087
 40
0.391304347826087
 40
0.391304347826087
 40
0.391304347826087
 40
0.4347826086956522
 40
0.4347826086956522
 40
0.4347826086956522
 40
0.4347826086956522
 40
0.4782608695652174
 40
0.4782608695652174
 40
0.4782608695652174
 40
0.4782608695652174
 40
0.5217391304347826
 40
0.5217391304347826
 40
0.5217391304347826
 40
0.5217391304347826
 40
0.5652173913043478
 40
0.5652173913043478
 40
0.5652173913043478
 40
0.5652173913043478
 40
0.6086956521739131
 40
0.6086956521739131
 40
0.6086956521739131
 40
0.6086956521739131
 40
0.6521739130434783
 40
0.6521739130434783
 40
0.6521739130434783
 40
0.6521739130434783
 40
0.6956521739130435
 40
0.6956521739130435
 40
0.6956521739130435
 40
0.6956521739130435
 40
0.7391304347826086
 40
0.7391304347826086
 40
0.7391304347826086
 40
0.7391304347826086
 40
0.782608695652174
 40
0.782608695652174
 40
0.782608695652174
 40
0.782608695652174
 40
0.8260869565217391
 40
0.8260869565217391
 40
0.8260869565217391
 40
0.8260869565217391
 40
0.8695652173913043
 40
0.8695652173913043
 40
0.8695652173913043
 40
0.8695652173913043
 40
0.9130434782608695
 40
0.9130434782608695
 40
0.9130434782608695
 40
0.9130434782608695
 40
1.0
 40
1.0
 40
1.0
 40
1.0
 10
-903.1198
 20
84.9369
 30
0.0
 10
-903.1198
 20
84.9369
 30
0.0
 10
-902.3154
 20
84.7337
 30
0.0
 10
-902.3154
 20
84.7337
 30
0.0
 10
-902.3154
 20
84.7337
 30
0.0
 10
-902.4848
 20
84.0733
 30
0.0
 10
-902.7896
 20
83.5738
 30
0.0
 10
-903.2298
 20
83.2267
 30
0.0
 10
-903.2298
 20
83.2267
 30
0.0
 10
-903.6616
 20
82.8795
 30
0.0
 10
-904.1951
 20
82.7102
 30
0.0
 10
-904.8301
 20
82.7102
 30
0.0
 10
-904.8301
 20
82.7102
 30
0.0
 10
-905.482
 20
82.7102
 30
0.0
 10
-906.0069
 20
82.8457
 30
0.0
 10
-906.4218
 20
83.1081
 30
0.0
 10
-906.4218
 20
83.1081
 30
0.0
 10
-906.8367
 20
83.3706
 30
0.0
 10
-907.1415
 20
83.7601
 30
0.0
 10
-907.3531
 20
84.2596
 30
0.0
 10
-907.3531
 20
84.2596
 30
0.0
 10
-907.5648
 20
84.7676
 30
0.0
 10
-907.6749
 20
85.3095
 30
0.0
 10
-907.6749
 20
85.8852
 30
0.0
 10
-907.6749
 20
85.8852
 30
0.0
 10
-907.6749
 20
86.5202
 30
0.0
 10
-907.5563
 20
87.0706
 30
0.0
 10
-907.3108
 20
87.5362
 30
0.0
 10
-907.3108
 20
87.5362
 30
0.0
 10
-907.0737
 20
88.0104
 30
0.0
 10
-906.7351
 20
88.366
 30
0.0
 10
-906.2863
 20
88.6115
 30
0.0
 10
-906.2863
 20
88.6115
 30
0.0
 10
-905.8376
 20
88.857
 30
0.0
 10
-905.3465
 20
88.9756
 30
0.0
 10
-904.8131
 20
88.9756
 30
0.0
 10
-904.8131
 20
88.9756
 30
0.0
 10
-904.212
 20
88.9756
 30
0.0
 10
-903.704
 20
88.8232
 30
0.0
 10
-903.2891
 20
88.5099
 30
0.0
 10
-903.2891
 20
88.5099
 30
0.0
 10
-902.8742
 20
88.2051
 30
0.0
 10
-902.5864
 20
87.7733
 30
0.0
 10
-902.4255
 20
87.2145
 30
0.0
 10
-902.4255
 20
87.2145
 30
0.0
 10
-902.4255
 20
87.2145
 30
0.0
 10
-903.2129
 20
87.0282
 30
0.0
 10
-903.2129
 20
87.0282
 30
0.0
 10
-903.2129
 20
87.0282
 30
0.0
 10
-903.3568
 20
87.4685
 30
0.0
 10
-903.56
 20
87.7902
 30
0.0
 10
-903.8225
 20
87.985
 30
0.0
 10
-903.8225
 20
87.985
 30
0.0
 10
-904.085
 20
88.1882
 30
0.0
 10
-904.4237
 20
88.2898
 30
0.0
 10
-904.8301
 20
88.2898
 30
0.0
 10
-904.8301
 20
88.2898
 30
0.0
 10
-905.2957
 20
88.2898
 30
0.0
 10
-905.6852
 20
88.1797
 30
0.0
 10
-905.9985
 20
87.9511
 30
0.0
 10
-905.9985
 20
87.9511
 30
0.0
 10
-906.3117
 20
87.731
 30
0.0
 10
-906.5319
 20
87.4346
 30
0.0
 10
-906.6589
 20
87.0536
 30
0.0
 10
-906.6589
 20
87.0536
 30
0.0
 10
-906.7859
 20
86.6811
 30
0.0
 10
-906.8536
 20
86.2916
 30
0.0
 10
-906.8536
 20
85.8937
 30
0.0
 10
-906.8536
 20
85.8937
 30
0.0
 10
-906.8536
 20
85.3772
 30
0.0
 10
-906.7774
 20
84.92
 30
0.0
 10
-906.625
 20
84.539
 30
0.0
 10
-906.625
 20
84.539
 30
0.0
 10
-906.4726
 20
84.158
 30
0.0
 10
-906.2355
 20
83.8701
 30
0.0
 10
-905.9223
 20
83.6839
 30
0.0
 10
-905.9223
 20
83.6839
 30
0.0
 10
-905.609
 20
83.4891
 30
0.0
 10
-905.2619
 20
83.396
 30
0.0
 10
-904.8978
 20
83.396
 30
0.0
 10
-904.8978
 20
83.396
 30
0.0
 10
-904.4491
 20
83.396
 30
0.0
 10
-904.0681
 20
83.523
 30
0.0
 10
-903.7548
 20
83.7855
 30
0.0
 10
-903.7548
 20
83.7855
 30
0.0
 10
-903.4415
 20
84.0479
 30
0.0
 10
-903.2298
 20
84.4289
 30
0.0
 10
-903.1198
 20
84.9369
 30
0.0
  0
SPLINE
  5
A3
330
1F
100
AcDbEntity
  8
Camada 1
 62
   250
100
AcDbSpline
210
0.0
220
0.0
230
1.0
 70
    11
 71
     3
 72
    52
 73
    48
 74
     0
 42
0.000000001
 43
0.0000000001
 40
0.0
 40
0.0
 40
0.0
 40
0.0
 40
0.0769230769230769
 40
0.0769230769230769
 40
0.0769230769230769
 40
0.0769230769230769
 40
0.1538461538461539
 40
0.1538461538461539
 40
0.1538461538461539
 40
0.1538461538461539
 40
0.2307692307692308
 40
0.2307692307692308
 40
0.2307692307692308
 40
0.2307692307692308
 40
0.3076923076923077
 40
0.3076923076923077
 40
0.3076923076923077
 40
0.3076923076923077
 40
0.3846153846153846
 40
0.3846153846153846
 40
0.3846153846153846
 40
0.3846153846153846
 40
0.4615384615384616
 40
0.4615384615384616
 40
0.4615384615384616
 40
0.4615384615384616
 40
0.5384615384615384
 40
0.5384615384615384
 40
0.5384615384615384
 40
0.5384615384615384
 40
0.6153846153846154
 40
0.6153846153846154
 40
0.6153846153846154
 40
0.6153846153846154
 40
0.6923076923076923
 40
0.6923076923076923
 40
0.6923076923076923
 40
0.6923076923076923
 40
0.7692307692307693
 40
0.7692307692307693
 40
0.7692307692307693
 40
0.7692307692307693
 40
0.8461538461538461
 40
0.8461538461538461
 40
0.8461538461538461
 40
0.8461538461538461
 40
1.0
 40
1.0
 40
1.0
 40
1.0
 10
-901.3149
 20
82.8118
 30
0.0
 10
-901.3149
 20
82.8118
 30
0.0
 10
-901.3149
 20
88.874
 30
0.0
 10
-901.3149
 20
88.874
 30
0.0
 10
-901.3149
 20
88.874
 30
0.0
 10
-901.3149
 20
88.874
 30
0.0
 10
-896.9292
 20
88.874
 30
0.0
 10
-896.9292
 20
88.874
 30
0.0
 10
-896.9292
 20
88.874
 30
0.0
 10
-896.9292
 20
88.874
 30
0.0
 10
-896.9292
 20
88.1543
 30
0.0
 10
-896.9292
 20
88.1543
 30
0.0
 10
-896.9292
 20
88.1543
 30
0.0
 10
-896.9292
 20
88.1543
 30
0.0
 10
-900.5106
 20
88.1543
 30
0.0
 10
-900.5106
 20
88.1543
 30
0.0
 10
-900.5106
 20
88.1543
 30
0.0
 10
-900.5106
 20
88.1543
 30
0.0
 10
-900.5106
 20
86.3001
 30
0.0
 10
-900.5106
 20
86.3001
 30
0.0
 10
-900.5106
 20
86.3001
 30
0.0
 10
-900.5106
 20
86.3001
 30
0.0
 10
-897.1578
 20
86.3001
 30
0.0
 10
-897.1578
 20
86.3001
 30
0.0
 10
-897.1578
 20
86.3001
 30
0.0
 10
-897.1578
 20
86.3001
 30
0.0
 10
-897.1578
 20
85.5889
 30
0.0
 10
-897.1578
 20
85.5889
 30
0.0
 10
-897.1578
 20
85.5889
 30
0.0
 10
-897.1578
 20
85.5889
 30
0.0
 10
-900.5106
 20
85.5889
 30
0.0
 10
-900.5106
 20
85.5889
 30
0.0
 10
-900.5106
 20
85.5889
 30
0.0
 10
-900.5106
 20
85.5889
 30
0.0
 10
-900.5106
 20
83.523
 30
0.0
 10
-900.5106
 20
83.523
 30
0.0
 10
-900.5106
 20
83.523
 30
0.0
 10
-900.5106
 20
83.523
 30
0.0
 10
-896.7937
 20
83.523
 30
0.0
 10
-896.7937
 20
83.523
 30
0.0
 10
-896.7937
 20
83.523
 30
0.0
 10
-896.7937
 20
83.523
 30
0.0
 10
-896.7937
 20
82.8118
 30
0.0
 10
-896.7937
 20
82.8118
 30
0.0
 10
-896.7937
 20
82.8118
 30
0.0
 10
-896.7937
 20
82.8118
 30
0.0
 10
-901.3149
 20
82.8118
 30
0.0
 10
-901.3149
 20
82.8118
 30
0.0
  0
SPLINE
  5
A4
330
1F
100
AcDbEntity
  8
Camada 1
 62
   250
100
AcDbSpline
210
0.0
220
0.0
230
1.0
 70
    11
 71
     3
 72
   144
 73
   140
 74
     0
 42
0.000000001
 43
0.0000000001
 40
0.0
 40
0.0
 40
0.0
 40
0.0
 40
0.0277777777777778
 40
0.0277777777777778
 40
0.0277777777777778
 40
0.0277777777777778
 40
0.0555555555555556
 40
0.0555555555555556
 40
0.0555555555555556
 40
0.0555555555555556
 40
0.0833333333333333
 40
0.0833333333333333
 40
0.0833333333333333
 40
0.0833333333333333
 40
0.1111111111111111
 40
0.1111111111111111
 40
0.1111111111111111
 40
0.1111111111111111
 40
0.1388888888888889
 40
0.1388888888888889
 40
0.1388888888888889
 40
0.1388888888888889
 40
0.1666666666666667
 40
0.1666666666666667
 40
0.1666666666666667
 40
0.1666666666666667
 40
0.1944444444444444
 40
0.1944444444444444
 40
0.1944444444444444
 40
0.1944444444444444
 40
0.2222222222222222
 40
0.2222222222222222
 40
0.2222222222222222
 40
0.2222222222222222
 40
0.25
 40
0.25
 40
0.25
 40
0.25
 40
0.2777777777777778
 40
0.2777777777777778
 40
0.2777777777777778
 40
0.2777777777777778
 40
0.3055555555555556
 40
0.3055555555555556
 40
0.3055555555555556
 40
0.3055555555555556
 40
0.3333333333333333
 40
0.3333333333333333
 40
0.3333333333333333
 40
0.3333333333333333
 40
0.3611111111111111
 40
0.3611111111111111
 40
0.3611111111111111
 40
0.3611111111111111
 40
0.3888888888888889
 40
0.3888888888888889
 40
0.3888888888888889
 40
0.3888888888888889
 40
0.4166666666666667
 40
0.4166666666666667
 40
0.4166666666666667
 40
0.4166666666666667
 40
0.4444444444444444
 40
0.4444444444444444
 40
0.4444444444444444
 40
0.4444444444444444
 40
0.4722222222222222
 40
0.4722222222222222
 40
0.4722222222222222
 40
0.4722222222222222
 40
0.5
 40
0.5
 40
0.5
 40
0.5
 40
0.5277777777777778
 40
0.5277777777777778
 40
0.5277777777777778
 40
0.5277777777777778
 40
0.5555555555555556
 40
0.5555555555555556
 40
0.5555555555555556
 40
0.5555555555555556
 40
0.5833333333333334
 40
0.5833333333333334
 40
0.5833333333333334
 40
0.5833333333333334
 40
0.6111111111111112
 40
0.6111111111111112
 40
0.6111111111111112
 40
0.6111111111111112
 40
0.6388888888888888
 40
0.6388888888888888
 40
0.6388888888888888
 40
0.6388888888888888
 40
0.6666666666666666
 40
0.6666666666666666
 40
0.6666666666666666
 40
0.6666666666666666
 40
0.6944444444444444
 40
0.6944444444444444
 40
0.6944444444444444
 40
0.6944444444444444
 40
0.7222222222222222
 40
0.7222222222222222
 40
0.7222222222222222
 40
0.7222222222222222
 40
0.75
 40
0.75
 40
0.75
 40
0.75
 40
0.7777777777777778
 40
0.7777777777777778
 40
0.7777777777777778
 40
0.7777777777777778
 40
0.8055555555555556
 40
0.8055555555555556
 40
0.8055555555555556
 40
0.8055555555555556
 40
0.8333333333333334
 40
0.8333333333333334
 40
0.8333333333333334
 40
0.8333333333333334
 40
0.8611111111111112
 40
0.8611111111111112
 40
0.8611111111111112
 40
0.8611111111111112
 40
0.8888888888888888
 40
0.8888888888888888
 40
0.8888888888888888
 40
0.8888888888888888
 40
0.9166666666666666
 40
0.9166666666666666
 40
0.9166666666666666
 40
0.9166666666666666
 40
0.9444444444444444
 40
0.9444444444444444
 40
0.9444444444444444
 40
0.9444444444444444
 40
1.0
 40
1.0
 40
1.0
 40
1.0
 10
-893.606
 20
84.7591
 30
0.0
 10
-893.606
 20
84.7591
 30
0.0
 10
-892.8525
 20
84.8269
 30
0.0
 10
-892.8525
 20
84.8269
 30
0.0
 10
-892.8525
 20
84.8269
 30
0.0
 10
-892.8101
 20
84.5221
 30
0.0
 10
-892.7255
 20
84.2765
 30
0.0
 10
-892.5985
 20
84.0818
 30
0.0
 10
-892.5985
 20
84.0818
 30
0.0
 10
-892.4715
 20
83.8871
 30
0.0
 10
-892.2683
 20
83.7262
 30
0.0
 10
-891.9889
 20
83.6077
 30
0.0
 10
-891.9889
 20
83.6077
 30
0.0
 10
-891.7095
 20
83.4891
 30
0.0
 10
-891.4047
 20
83.4299
 30
0.0
 10
-891.0575
 20
83.4299
 30
0.0
 10
-891.0575
 20
83.4299
 30
0.0
 10
-890.7527
 20
83.4299
 30
0.0
 10
-890.4818
 20
83.4722
 30
0.0
 10
-890.2532
 20
83.5653
 30
0.0
 10
-890.2532
 20
83.5653
 30
0.0
 10
-890.0161
 20
83.6585
 30
0.0
 10
-889.8383
 20
83.777
 30
0.0
 10
-889.7282
 20
83.9379
 30
0.0
 10
-889.7282
 20
83.9379
 30
0.0
 10
-889.6182
 20
84.0987
 30
0.0
 10
-889.5589
 20
84.2681
 30
0.0
 10
-889.5589
 20
84.4543
 30
0.0
 10
-889.5589
 20
84.4543
 30
0.0
 10
-889.5589
 20
84.6491
 30
0.0
 10
-889.6097
 20
84.8099
 30
0.0
 10
-889.7198
 20
84.9539
 30
0.0
 10
-889.7198
 20
84.9539
 30
0.0
 10
-889.8299
 20
85.0978
 30
0.0
 10
-890.0161
 20
85.2163
 30
0.0
 10
-890.2701
 20
85.3095
 30
0.0
 10
-890.2701
 20
85.3095
 30
0.0
 10
-890.431
 20
85.3772
 30
0.0
 10
-890.7866
 20
85.4788
 30
0.0
 10
-891.3454
 20
85.6058
 30
0.0
 10
-891.3454
 20
85.6058
 30
0.0
 10
-891.9042
 20
85.7413
 30
0.0
 10
-892.2937
 20
85.8683
 30
0.0
 10
-892.5138
 20
85.9868
 30
0.0
 10
-892.5138
 20
85.9868
 30
0.0
 10
-892.8017
 20
86.1392
 30
0.0
 10
-893.0218
 20
86.3255
 30
0.0
 10
-893.1657
 20
86.5541
 30
0.0
 10
-893.1657
 20
86.5541
 30
0.0
 10
-893.3097
 20
86.7742
 30
0.0
 10
-893.3774
 20
87.0282
 30
0.0
 10
-893.3774
 20
87.3076
 30
0.0
 10
-893.3774
 20
87.3076
 30
0.0
 10
-893.3774
 20
87.6124
 30
0.0
 10
-893.2927
 20
87.9003
 30
0.0
 10
-893.1149
 20
88.1628
 30
0.0
 10
-893.1149
 20
88.1628
 30
0.0
 10
-892.9371
 20
88.4252
 30
0.0
 10
-892.6831
 20
88.6284
 30
0.0
 10
-892.3529
 20
88.7724
 30
0.0
 10
-892.3529
 20
88.7724
 30
0.0
 10
-892.0227
 20
88.9078
 30
0.0
 10
-891.6502
 20
88.9756
 30
0.0
 10
-891.2438
 20
88.9756
 30
0.0
 10
-891.2438
 20
88.9756
 30
0.0
 10
-890.7951
 20
88.9756
 30
0.0
 10
-890.3971
 20
88.8994
 30
0.0
 10
-890.05
 20
88.7554
 30
0.0
 10
-890.05
 20
88.7554
 30
0.0
 10
-889.7113
 20
88.6115
 30
0.0
 10
-889.4488
 20
88.3998
 30
0.0
 10
-889.2626
 20
88.1204
 30
0.0
 10
-889.2626
 20
88.1204
 30
0.0
 10
-889.0763
 20
87.841
 30
0.0
 10
-888.9747
 20
87.5193
 30
0.0
 10
-888.9662
 20
87.1637
 30
0.0
 10
-888.9662
 20
87.1637
 30
0.0
 10
-888.9662
 20
87.1637
 30
0.0
 10
-889.7367
 20
87.1044
 30
0.0
 10
-889.7367
 20
87.1044
 30
0.0
 10
-889.7367
 20
87.1044
 30
0.0
 10
-889.7791
 20
87.4854
 30
0.0
 10
-889.9145
 20
87.7818
 30
0.0
 10
-890.1516
 20
87.9765
 30
0.0
 10
-890.1516
 20
87.9765
 30
0.0
 10
-890.3887
 20
88.1712
 30
0.0
 10
-890.7443
 20
88.2728
 30
0.0
 10
-891.2099
 20
88.2728
 30
0.0
 10
-891.2099
 20
88.2728
 30
0.0
 10
-891.6925
 20
88.2728
 30
0.0
 10
-892.0481
 20
88.1797
 30
0.0
 10
-892.2683
 20
88.0019
 30
0.0
 10
-892.2683
 20
88.0019
 30
0.0
 10
-892.4884
 20
87.8241
 30
0.0
 10
-892.5985
 20
87.6124
 30
0.0
 10
-892.5985
 20
87.3584
 30
0.0
 10
-892.5985
 20
87.3584
 30
0.0
 10
-892.5985
 20
87.1468
 30
0.0
 10
-892.5223
 20
86.9689
 30
0.0
 10
-892.3699
 20
86.825
 30
0.0
 10
-892.3699
 20
86.825
 30
0.0
 10
-892.209
 20
86.6811
 30
0.0
 10
-891.8111
 20
86.5371
 30
0.0
 10
-891.1591
 20
86.3932
 30
0.0
 10
-891.1591
 20
86.3932
 30
0.0
 10
-890.5072
 20
86.2408
 30
0.0
 10
-890.0585
 20
86.1138
 30
0.0
 10
-889.8129
 20
86.0037
 30
0.0
 10
-889.8129
 20
86.0037
 30
0.0
 10
-889.4658
 20
85.8429
 30
0.0
 10
-889.2033
 20
85.6312
 30
0.0
 10
-889.034
 20
85.3857
 30
0.0
 10
-889.034
 20
85.3857
 30
0.0
 10
-888.8646
 20
85.1401
 30
0.0
 10
-888.78
 20
84.8523
 30
0.0
 10
-888.78
 20
84.5221
 30
0.0
 10
-888.78
 20
84.5221
 30
0.0
 10
-888.78
 20
84.2003
 30
0.0
 10
-888.8731
 20
83.8955
 30
0.0
 10
-889.0594
 20
83.6077
 30
0.0
 10
-889.0594
 20
83.6077
 30
0.0
 10
-889.2456
 20
83.3283
 30
0.0
 10
-889.5081
 20
83.1081
 30
0.0
 10
-889.8553
 20
82.9473
 30
0.0
 10
-889.8553
 20
82.9473
 30
0.0
 10
-890.2024
 20
82.7864
 30
0.0
 10
-890.5919
 20
82.7102
 30
0.0
 10
-891.0237
 20
82.7102
 30
0.0
 10
-891.0237
 20
82.7102
 30
0.0
 10
-891.574
 20
82.7102
 30
0.0
 10
-892.0312
 20
82.7864
 30
0.0
 10
-892.4037
 20
82.9473
 30
0.0
 10
-892.4037
 20
82.9473
 30
0.0
 10
-892.7678
 20
83.1081
 30
0.0
 10
-893.0641
 20
83.3452
 30
0.0
 10
-893.2758
 20
83.6669
 30
0.0
 10
-893.2758
 20
83.6669
 30
0.0
 10
-893.4875
 20
83.9887
 30
0.0
 10
-893.5975
 20
84.3527
 30
0.0
 10
-893.606
 20
84.7591
 30
0.0
  0
SPLINE
  5
A5
330
1F
100
AcDbEntity
  8
Camada 1
 62
   250
100
AcDbSpline
210
0.0
220
0.0
230
1.0
 70
    11
 71
     3
 72
    52
 73
    48
 74
     0
 42
0.000000001
 43
0.0000000001
 40
0.0
 40
0.0
 40
0.0
 40
0.0
 40
0.0769230769230769
 40
0.0769230769230769
 40
0.0769230769230769
 40
0.0769230769230769
 40
0.1538461538461539
 40
0.1538461538461539
 40
0.1538461538461539
 40
0.1538461538461539
 40
0.2307692307692308
 40
0.2307692307692308
 40
0.2307692307692308
 40
0.2307692307692308
 40
0.3076923076923077
 40
0.3076923076923077
 40
0.3076923076923077
 40
0.3076923076923077
 40
0.3846153846153846
 40
0.3846153846153846
 40
0.3846153846153846
 40
0.3846153846153846
 40
0.4615384615384616
 40
0.4615384615384616
 40
0.4615384615384616
 40
0.4615384615384616
 40
0.5384615384615384
 40
0.5384615384615384
 40
0.5384615384615384
 40
0.5384615384615384
 40
0.6153846153846154
 40
0.6153846153846154
 40
0.6153846153846154
 40
0.6153846153846154
 40
0.6923076923076923
 40
0.6923076923076923
 40
0.6923076923076923
 40
0.6923076923076923
 40
0.7692307692307693
 40
0.7692307692307693
 40
0.7692307692307693
 40
0.7692307692307693
 40
0.8461538461538461
 40
0.8461538461538461
 40
0.8461538461538461
 40
0.8461538461538461
 40
1.0
 40
1.0
 40
1.0
 40
1.0
 10
-887.6638
 20
82.8118
 30
0.0
 10
-887.6638
 20
82.8118
 30
0.0
 10
-887.6638
 20
88.874
 30
0.0
 10
-887.6638
 20
88.874
 30
0.0
 10
-887.6638
 20
88.874
 30
0.0
 10
-887.6638
 20
88.874
 30
0.0
 10
-886.8594
 20
88.874
 30
0.0
 10
-886.8594
 20
88.874
 30
0.0
 10
-886.8594
 20
88.874
 30
0.0
 10
-886.8594
 20
88.874
 30
0.0
 10
-886.8594
 20
86.3847
 30
0.0
 10
-886.8594
 20
86.3847
 30
0.0
 10
-886.8594
 20
86.3847
 30
0.0
 10
-886.8594
 20
86.3847
 30
0.0
 10
-883.7098
 20
86.3847
 30
0.0
 10
-883.7098
 20
86.3847
 30
0.0
 10
-883.7098
 20
86.3847
 30
0.0
 10
-883.7098
 20
86.3847
 30
0.0
 10
-883.7098
 20
88.874
 30
0.0
 10
-883.7098
 20
88.874
 30
0.0
 10
-883.7098
 20
88.874
 30
0.0
 10
-883.7098
 20
88.874
 30
0.0
 10
-882.9055
 20
88.874
 30
0.0
 10
-882.9055
 20
88.874
 30
0.0
 10
-882.9055
 20
88.874
 30
0.0
 10
-882.9055
 20
88.874
 30
0.0
 10
-882.9055
 20
82.8118
 30
0.0
 10
-882.9055
 20
82.8118
 30
0.0
 10
-882.9055
 20
82.8118
 30
0.0
 10
-882.9055
 20
82.8118
 30
0.0
 10
-883.7098
 20
82.8118
 30
0.0
 10
-883.7098
 20
82.8118
 30
0.0
 10
-883.7098
 20
82.8118
 30
0.0
 10
-883.7098
 20
82.8118
 30
0.0
 10
-883.7098
 20
85.6651
 30
0.0
 10
-883.7098
 20
85.6651
 30
0.0
 10
-883.7098
 20
85.6651
 30
0.0
 10
-883.7098
 20
85.6651
 30
0.0
 10
-886.8594
 20
85.6651
 30
0.0
 10
-886.8594
 20
85.6651
 30
0.0
 10
-886.8594
 20
85.6651
 30
0.0
 10
-886.8594
 20
85.6651
 30
0.0
 10
-886.8594
 20
82.8118
 30
0.0
 10
-886.8594
 20
82.8118
 30
0.0
 10
-886.8594
 20
82.8118
 30
0.0
 10
-886.8594
 20
82.8118
 30
0.0
 10
-887.6638
 20
82.8118
 30
0.0
 10
-887.6638
 20
82.8118
 30
0.0
  0
SPLINE
  5
A6
330
1F
100
AcDbEntity
  8
Camada 1
 62
   250
100
AcDbSpline
210
0.0
220
0.0
230
1.0
 70
    11
 71
     3
 72
    20
 73
    16
 74
     0
 42
0.000000001
 43
0.0000000001
 40
0.0
 40
0.0
 40
0.0
 40
0.0
 40
0.2
 40
0.2
 40
0.2
 40
0.2
 40
0.4
 40
0.4
 40
0.4
 40
0.4
 40
0.6
 40
0.6
 40
0.6
 40
0.6
 40
1.0
 40
1.0
 40
1.0
 40
1.0
 10
-881.4393
 20
82.8118
 30
0.0
 10
-881.4393
 20
82.8118
 30
0.0
 10
-881.4393
 20
88.874
 30
0.0
 10
-881.4393
 20
88.874
 30
0.0
 10
-881.4393
 20
88.874
 30
0.0
 10
-881.4393
 20
88.874
 30
0.0
 10
-880.635
 20
88.874
 30
0.0
 10
-880.635
 20
88.874
 30
0.0
 10
-880.635
 20
88.874
 30
0.0
 10
-880.635
 20
88.874
 30
0.0
 10
-880.635
 20
82.8118
 30
0.0
 10
-880.635
 20
82.8118
 30
0.0
 10
-880.635
 20
82.8118
 30
0.0
 10
-880.635
 20
82.8118
 30
0.0
 10
-881.4393
 20
82.8118
 30
0.0
 10
-881.4393
 20
82.8118
 30
0.0
  0
SPLINE
  5
A7
330
1F
100
AcDbEntity
  8
Camada 1
 62
   250
100
AcDbSpline
210
0.0
220
0.0
230
1.0
 70
    11
 71
     3
 72
    52
 73
    48
 74
     0
 42
0.000000001
 43
0.0000000001
 40
0.0
 40
0.0
 40
0.0
 40
0.0
 40
0.0769230769230769
 40
0.0769230769230769
 40
0.0769230769230769
 40
0.0769230769230769
 40
0.1538461538461539
 40
0.1538461538461539
 40
0.1538461538461539
 40
0.1538461538461539
 40
0.2307692307692308
 40
0.2307692307692308
 40
0.2307692307692308
 40
0.2307692307692308
 40
0.3076923076923077
 40
0.3076923076923077
 40
0.3076923076923077
 40
0.3076923076923077
 40
0.3846153846153846
 40
0.3846153846153846
 40
0.3846153846153846
 40
0.3846153846153846
 40
0.4615384615384616
 40
0.4615384615384616
 40
0.4615384615384616
 40
0.4615384615384616
 40
0.5384615384615384
 40
0.5384615384615384
 40
0.5384615384615384
 40
0.5384615384615384
 40
0.6153846153846154
 40
0.6153846153846154
 40
0.6153846153846154
 40
0.6153846153846154
 40
0.6923076923076923
 40
0.6923076923076923
 40
0.6923076923076923
 40
0.6923076923076923
 40
0.7692307692307693
 40
0.7692307692307693
 40
0.7692307692307693
 40
0.7692307692307693
 40
0.8461538461538461
 40
0.8461538461538461
 40
0.8461538461538461
 40
0.8461538461538461
 40
1.0
 40
1.0
 40
1.0
 40
1.0
 10
-879.2069
 20
82.8118
 30
0.0
 10
-879.2069
 20
82.8118
 30
0.0
 10
-879.2069
 20
88.874
 30
0.0
 10
-879.2069
 20
88.874
 30
0.0
 10
-879.2069
 20
88.874
 30
0.0
 10
-879.2069
 20
88.874
 30
0.0
 10
-874.8212
 20
88.874
 30
0.0
 10
-874.8212
 20
88.874
 30
0.0
 10
-874.8212
 20
88.874
 30
0.0
 10
-874.8212
 20
88.874
 30
0.0
 10
-874.8212
 20
88.1543
 30
0.0
 10
-874.8212
 20
88.1543
 30
0.0
 10
-874.8212
 20
88.1543
 30
0.0
 10
-874.8212
 20
88.1543
 30
0.0
 10
-878.4026
 20
88.1543
 30
0.0
 10
-878.4026
 20
88.1543
 30
0.0
 10
-878.4026
 20
88.1543
 30
0.0
 10
-878.4026
 20
88.1543
 30
0.0
 10
-878.4026
 20
86.3001
 30
0.0
 10
-878.4026
 20
86.3001
 30
0.0
 10
-878.4026
 20
86.3001
 30
0.0
 10
-878.4026
 20
86.3001
 30
0.0
 10
-875.0498
 20
86.3001
 30
0.0
 10
-875.0498
 20
86.3001
 30
0.0
 10
-875.0498
 20
86.3001
 30
0.0
 10
-875.0498
 20
86.3001
 30
0.0
 10
-875.0498
 20
85.5889
 30
0.0
 10
-875.0498
 20
85.5889
 30
0.0
 10
-875.0498
 20
85.5889
 30
0.0
 10
-875.0498
 20
85.5889
 30
0.0
 10
-878.4026
 20
85.5889
 30
0.0
 10
-878.4026
 20
85.5889
 30
0.0
 10
-878.4026
 20
85.5889
 30
0.0
 10
-878.4026
 20
85.5889
 30
0.0
 10
-878.4026
 20
83.523
 30
0.0
 10
-878.4026
 20
83.523
 30
0.0
 10
-878.4026
 20
83.523
 30
0.0
 10
-878.4026
 20
83.523
 30
0.0
 10
-874.6857
 20
83.523
 30
0.0
 10
-874.6857
 20
83.523
 30
0.0
 10
-874.6857
 20
83.523
 30
0.0
 10
-874.6857
 20
83.523
 30
0.0
 10
-874.6857
 20
82.8118
 30
0.0
 10
-874.6857
 20
82.8118
 30
0.0
 10
-874.6857
 20
82.8118
 30
0.0
 10
-874.6857
 20
82.8118
 30
0.0
 10
-879.2069
 20
82.8118
 30
0.0
 10
-879.2069
 20
82.8118
 30
0.0
  0
SPLINE
  5
A8
330
1F
100
AcDbEntity
  8
Camada 1
 62
   250
100
AcDbSpline
210
0.0
220
0.0
230
1.0
 70
    11
 71
     3
 72
    28
 73
    24
 74
     0
 42
0.000000001
 43
0.0000000001
 40
0.0
 40
0.0
 40
0.0
 40
0.0
 40
0.1428571428571428
 40
0.1428571428571428
 40
0.1428571428571428
 40
0.1428571428571428
 40
0.2857142857142857
 40
0.2857142857142857
 40
0.2857142857142857
 40
0.2857142857142857
 40
0.4285714285714285
 40
0.4285714285714285
 40
0.4285714285714285
 40
0.4285714285714285
 40
0.5714285714285714
 40
0.5714285714285714
 40
0.5714285714285714
 40
0.5714285714285714
 40
0.7142857142857143
 40
0.7142857142857143
 40
0.7142857142857143
 40
0.7142857142857143
 40
1.0
 40
1.0
 40
1.0
 40
1.0
 10
-873.6118
 20
82.8118
 30
0.0
 10
-873.6118
 20
82.8118
 30
0.0
 10
-873.6118
 20
88.874
 30
0.0
 10
-873.6118
 20
88.874
 30
0.0
 10
-873.6118
 20
88.874
 30
0.0
 10
-873.6118
 20
88.874
 30
0.0
 10
-872.8075
 20
88.874
 30
0.0
 10
-872.8075
 20
88.874
 30
0.0
 10
-872.8075
 20
88.874
 30
0.0
 10
-872.8075
 20
88.874
 30
0.0
 10
-872.8075
 20
83.523
 30
0.0
 10
-872.8075
 20
83.523
 30
0.0
 10
-872.8075
 20
83.523
 30
0.0
 10
-872.8075
 20
83.523
 30
0.0
 10
-869.8187
 20
83.523
 30
0.0
 10
-869.8187
 20
83.523
 30
0.0
 10
-869.8187
 20
83.523
 30
0.0
 10
-869.8187
 20
83.523
 30
0.0
 10
-869.8187
 20
82.8118
 30
0.0
 10
-869.8187
 20
82.8118
 30
0.0
 10
-869.8187
 20
82.8118
 30
0.0
 10
-869.8187
 20
82.8118
 30
0.0
 10
-873.6118
 20
82.8118
 30
0.0
 10
-873.6118
 20
82.8118
 30
0.0
  0
SPLINE
  5
A9
330
1F
100
AcDbEntity
  8
Camada 1
 62
   250
100
AcDbSpline
210
0.0
220
0.0
230
1.0
 70
    11
 71
     3
 72
    52
 73
    48
 74
     0
 42
0.000000001
 43
0.0000000001
 40
0.0
 40
0.0
 40
0.0
 40
0.0
 40
0.0769230769230769
 40
0.0769230769230769
 40
0.0769230769230769
 40
0.0769230769230769
 40
0.1538461538461539
 40
0.1538461538461539
 40
0.1538461538461539
 40
0.1538461538461539
 40
0.2307692307692308
 40
0.2307692307692308
 40
0.2307692307692308
 40
0.2307692307692308
 40
0.3076923076923077
 40
0.3076923076923077
 40
0.3076923076923077
 40
0.3076923076923077
 40
0.3846153846153846
 40
0.3846153846153846
 40
0.3846153846153846
 40
0.3846153846153846
 40
0.4615384615384616
 40
0.4615384615384616
 40
0.4615384615384616
 40
0.4615384615384616
 40
0.5384615384615384
 40
0.5384615384615384
 40
0.5384615384615384
 40
0.5384615384615384
 40
0.6153846153846154
 40
0.6153846153846154
 40
0.6153846153846154
 40
0.6153846153846154
 40
0.6923076923076923
 40
0.6923076923076923
 40
0.6923076923076923
 40
0.6923076923076923
 40
0.7692307692307693
 40
0.7692307692307693
 40
0.7692307692307693
 40
0.7692307692307693
 40
0.8461538461538461
 40
0.8461538461538461
 40
0.8461538461538461
 40
0.8461538461538461
 40
1.0
 40
1.0
 40
1.0
 40
1.0
 10
-868.8705
 20
82.8118
 30
0.0
 10
-868.8705
 20
82.8118
 30
0.0
 10
-868.8705
 20
88.874
 30
0.0
 10
-868.8705
 20
88.874
 30
0.0
 10
-868.8705
 20
88.874
 30
0.0
 10
-868.8705
 20
88.874
 30
0.0
 10
-866.7792
 20
88.874
 30
0.0
 10
-866.7792
 20
88.874
 30
0.0
 10
-866.7792
 20
88.874
 30
0.0
 10
-866.3135
 20
88.874
 30
0.0
 10
-865.9495
 20
88.8486
 30
0.0
 10
-865.7039
 20
88.7893
 30
0.0
 10
-865.7039
 20
88.7893
 30
0.0
 10
-865.3568
 20
88.7046
 30
0.0
 10
-865.0604
 20
88.5607
 30
0.0
 10
-864.8149
 20
88.349
 30
0.0
 10
-864.8149
 20
88.349
 30
0.0
 10
-864.4932
 20
88.0781
 30
0.0
 10
-864.2561
 20
87.731
 30
0.0
 10
-864.0952
 20
87.3161
 30
0.0
 10
-864.0952
 20
87.3161
 30
0.0
 10
-863.9344
 20
86.9012
 30
0.0
 10
-863.8582
 20
86.4186
 30
0.0
 10
-863.8582
 20
85.8767
 30
0.0
 10
-863.8582
 20
85.8767
 30
0.0
 10
-863.8582
 20
85.4111
 30
0.0
 10
-863.909
 20
85.0047
 30
0.0
 10
-864.019
 20
84.6491
 30
0.0
 10
-864.019
 20
84.6491
 30
0.0
 10
-864.1291
 20
84.2935
 30
0.0
 10
-864.2646
 20
83.9971
 30
0.0
 10
-864.4339
 20
83.7685
 30
0.0
 10
-864.4339
 20
83.7685
 30
0.0
 10
-864.6032
 20
83.5399
 30
0.0
 10
-864.7895
 20
83.3537
 30
0.0
 10
-864.9842
 20
83.2182
 30
0.0
 10
-864.9842
 20
83.2182
 30
0.0
 10
-865.1874
 20
83.0827
 30
0.0
 10
-865.433
 20
82.9811
 30
0.0
 10
-865.7124
 20
82.9134
 30
0.0
 10
-865.7124
 20
82.9134
 30
0.0
 10
-865.9918
 20
82.8457
 30
0.0
 10
-866.322
 20
82.8118
 30
0.0
 10
-866.6861
 20
82.8118
 30
0.0
 10
-866.6861
 20
82.8118
 30
0.0
 10
-866.6861
 20
82.8118
 30
0.0
 10
-868.8705
 20
82.8118
 30
0.0
 10
-868.8705
 20
82.8118
 30
0.0
  0
SPLINE
  5
AA
330
1F
100
AcDbEntity
  8
Camada 1
 62
   250
100
AcDbSpline
210
0.0
220
0.0
230
1.0
 70
    11
 71
     3
 72
    44
 73
    40
 74
     0
 42
0.000000001
 43
0.0000000001
 40
0.0
 40
0.0
 40
0.0
 40
0.0
 40
0.0909090909090909
 40
0.0909090909090909
 40
0.0909090909090909
 40
0.0909090909090909
 40
0.1818181818181818
 40
0.1818181818181818
 40
0.1818181818181818
 40
0.1818181818181818
 40
0.2727272727272727
 40
0.2727272727272727
 40
0.2727272727272727
 40
0.2727272727272727
 40
0.3636363636363636
 40
0.3636363636363636
 40
0.3636363636363636
 40
0.3636363636363636
 40
0.4545454545454545
 40
0.4545454545454545
 40
0.4545454545454545
 40
0.4545454545454545
 40
0.5454545454545454
 40
0.5454545454545454
 40
0.5454545454545454
 40
0.5454545454545454
 40
0.6363636363636364
 40
0.6363636363636364
 40
0.6363636363636364
 40
0.6363636363636364
 40
0.7272727272727273
 40
0.7272727272727273
 40
0.7272727272727273
 40
0.7272727272727273
 40
0.8181818181818182
 40
0.8181818181818182
 40
0.8181818181818182
 40
0.8181818181818182
 40
1.0
 40
1.0
 40
1.0
 40
1.0
 10
-868.0661
 20
83.523
 30
0.0
 10
-868.0661
 20
83.523
 30
0.0
 10
-866.7707
 20
83.523
 30
0.0
 10
-866.7707
 20
83.523
 30
0.0
 10
-866.7707
 20
83.523
 30
0.0
 10
-866.3728
 20
83.523
 30
0.0
 10
-866.0595
 20
83.5653
 30
0.0
 10
-865.8309
 20
83.6415
 30
0.0
 10
-865.8309
 20
83.6415
 30
0.0
 10
-865.6023
 20
83.7177
 30
0.0
 10
-865.4245
 20
83.8193
 30
0.0
 10
-865.289
 20
83.9548
 30
0.0
 10
-865.289
 20
83.9548
 30
0.0
 10
-865.0943
 20
84.1411
 30
0.0
 10
-864.9504
 20
84.3951
 30
0.0
 10
-864.8488
 20
84.7168
 30
0.0
 10
-864.8488
 20
84.7168
 30
0.0
 10
-864.7387
 20
85.0385
 30
0.0
 10
-864.6879
 20
85.428
 30
0.0
 10
-864.6879
 20
85.8852
 30
0.0
 10
-864.6879
 20
85.8852
 30
0.0
 10
-864.6879
 20
86.5202
 30
0.0
 10
-864.7895
 20
87.0113
 30
0.0
 10
-865.0012
 20
87.35
 30
0.0
 10
-865.0012
 20
87.35
 30
0.0
 10
-865.2044
 20
87.6886
 30
0.0
 10
-865.4584
 20
87.9172
 30
0.0
 10
-865.7547
 20
88.0358
 30
0.0
 10
-865.7547
 20
88.0358
 30
0.0
 10
-865.9664
 20
88.112
 30
0.0
 10
-866.3135
 20
88.1543
 30
0.0
 10
-866.7961
 20
88.1543
 30
0.0
 10
-866.7961
 20
88.1543
 30
0.0
 10
-866.7961
 20
88.1543
 30
0.0
 10
-868.0661
 20
88.1543
 30
0.0
 10
-868.0661
 20
88.1543
 30
0.0
 10
-868.0661
 20
88.1543
 30
0.0
 10
-868.0661
 20
88.1543
 30
0.0
 10
-868.0661
 20
83.523
 30
0.0
 10
-868.0661
 20
83.523
 30
0.0
  0
SPLINE
  5
AB
330
1F
100
AcDbEntity
  8
Camada 1
 62
   250
100
AcDbSpline
210
0.0
220
0.0
230
1.0
 70
    11
 71
     3
 72
    28
 73
    24
 74
     0
 42
0.000000001
 43
0.0000000001
 40
0.0
 40
0.0
 40
0.0
 40
0.0
 40
0.1428571428571428
 40
0.1428571428571428
 40
0.1428571428571428
 40
0.1428571428571428
 40
0.2857142857142857
 40
0.2857142857142857
 40
0.2857142857142857
 40
0.2857142857142857
 40
0.4285714285714285
 40
0.4285714285714285
 40
0.4285714285714285
 40
0.4285714285714285
 40
0.5714285714285714
 40
0.5714285714285714
 40
0.5714285714285714
 40
0.5714285714285714
 40
0.7142857142857143
 40
0.7142857142857143
 40
0.7142857142857143
 40
0.7142857142857143
 40
1.0
 40
1.0
 40
1.0
 40
1.0
 10
-860.439
 20
82.8118
 30
0.0
 10
-860.439
 20
82.8118
 30
0.0
 10
-860.439
 20
88.874
 30
0.0
 10
-860.439
 20
88.874
 30
0.0
 10
-860.439
 20
88.874
 30
0.0
 10
-860.439
 20
88.874
 30
0.0
 10
-859.6347
 20
88.874
 30
0.0
 10
-859.6347
 20
88.874
 30
0.0
 10
-859.6347
 20
88.874
 30
0.0
 10
-859.6347
 20
88.874
 30
0.0
 10
-859.6347
 20
83.523
 30
0.0
 10
-859.6347
 20
83.523
 30
0.0
 10
-859.6347
 20
83.523
 30
0.0
 10
-859.6347
 20
83.523
 30
0.0
 10
-856.6459
 20
83.523
 30
0.0
 10
-856.6459
 20
83.523
 30
0.0
 10
-856.6459
 20
83.523
 30
0.0
 10
-856.6459
 20
83.523
 30
0.0
 10
-856.6459
 20
82.8118
 30
0.0
 10
-856.6459
 20
82.8118
 30
0.0
 10
-856.6459
 20
82.8118
 30
0.0
 10
-856.6459
 20
82.8118
 30
0.0
 10
-860.439
 20
82.8118
 30
0.0
 10
-860.439
 20
82.8118
 30
0.0
  0
SPLINE
  5
AC
330
1F
100
AcDbEntity
  8
Camada 1
 62
   250
100
AcDbSpline
210
0.0
220
0.0
230
1.0
 70
    11
 71
     3
 72
    36
 73
    32
 74
     0
 42
0.000000001
 43
0.0000000001
 40
0.0
 40
0.0
 40
0.0
 40
0.0
 40
0.1111111111111111
 40
0.1111111111111111
 40
0.1111111111111111
 40
0.1111111111111111
 40
0.2222222222222222
 40
0.2222222222222222
 40
0.2222222222222222
 40
0.2222222222222222
 40
0.3333333333333333
 40
0.3333333333333333
 40
0.3333333333333333
 40
0.3333333333333333
 40
0.4444444444444444
 40
0.4444444444444444
 40
0.4444444444444444
 40
0.4444444444444444
 40
0.5555555555555556
 40
0.5555555555555556
 40
0.5555555555555556
 40
0.5555555555555556
 40
0.6666666666666666
 40
0.6666666666666666
 40
0.6666666666666666
 40
0.6666666666666666
 40
0.7777777777777778
 40
0.7777777777777778
 40
0.7777777777777778
 40
0.7777777777777778
 40
1.0
 40
1.0
 40
1.0
 40
1.0
 10
-856.3581
 20
82.8118
 30
0.0
 10
-856.3581
 20
82.8118
 30
0.0
 10
-854.0382
 20
88.874
 30
0.0
 10
-854.0382
 20
88.874
 30
0.0
 10
-854.0382
 20
88.874
 30
0.0
 10
-854.0382
 20
88.874
 30
0.0
 10
-853.1746
 20
88.874
 30
0.0
 10
-853.1746
 20
88.874
 30
0.0
 10
-853.1746
 20
88.874
 30
0.0
 10
-853.1746
 20
88.874
 30
0.0
 10
-850.6938
 20
82.8118
 30
0.0
 10
-850.6938
 20
82.8118
 30
0.0
 10
-850.6938
 20
82.8118
 30
0.0
 10
-850.6938
 20
82.8118
 30
0.0
 10
-851.5998
 20
82.8118
 30
0.0
 10
-851.5998
 20
82.8118
 30
0.0
 10
-851.5998
 20
82.8118
 30
0.0
 10
-851.5998
 20
82.8118
 30
0.0
 10
-852.311
 20
84.6491
 30
0.0
 10
-852.311
 20
84.6491
 30
0.0
 10
-852.311
 20
84.6491
 30
0.0
 10
-852.311
 20
84.6491
 30
0.0
 10
-854.8425
 20
84.6491
 30
0.0
 10
-854.8425
 20
84.6491
 30
0.0
 10
-854.8425
 20
84.6491
 30
0.0
 10
-854.8425
 20
84.6491
 30
0.0
 10
-855.5114
 20
82.8118
 30
0.0
 10
-855.5114
 20
82.8118
 30
0.0
 10
-855.5114
 20
82.8118
 30
0.0
 10
-855.5114
 20
82.8118
 30
0.0
 10
-856.3581
 20
82.8118
 30
0.0
 10
-856.3581
 20
82.8118
 30
0.0
  0
SPLINE
  5
AD
330
1F
100
AcDbEntity
  8
Camada 1
 62
   250
100
AcDbSpline
210
0.0
220
0.0
230
1.0
 70
    11
 71
     3
 72
    24
 73
    20
 74
     0
 42
0.000000001
 43
0.0000000001
 40
0.0
 40
0.0
 40
0.0
 40
0.0
 40
0.1666666666666667
 40
0.1666666666666667
 40
0.1666666666666667
 40
0.1666666666666667
 40
0.3333333333333333
 40
0.3333333333333333
 40
0.3333333333333333
 40
0.3333333333333333
 40
0.5
 40
0.5
 40
0.5
 40
0.5
 40
0.6666666666666666
 40
0.6666666666666666
 40
0.6666666666666666
 40
0.6666666666666666
 40
1.0
 40
1.0
 40
1.0
 40
1.0
 10
-854.6139
 20
85.301
 30
0.0
 10
-854.6139
 20
85.301
 30
0.0
 10
-852.5565
 20
85.301
 30
0.0
 10
-852.5565
 20
85.301
 30
0.0
 10
-852.5565
 20
85.301
 30
0.0
 10
-852.5565
 20
85.301
 30
0.0
 10
-853.1915
 20
86.9774
 30
0.0
 10
-853.1915
 20
86.9774
 30
0.0
 10
-853.1915
 20
86.9774
 30
0.0
 10
-853.3863
 20
87.4939
 30
0.0
 10
-853.5302
 20
87.9088
 30
0.0
 10
-853.6233
 20
88.239
 30
0.0
 10
-853.6233
 20
88.239
 30
0.0
 10
-853.6995
 20
87.8495
 30
0.0
 10
-853.8011
 20
87.46
 30
0.0
 10
-853.9451
 20
87.079
 30
0.0
 10
-853.9451
 20
87.079
 30
0.0
 10
-853.9451
 20
87.079
 30
0.0
 10
-854.6139
 20
85.301
 30
0.0
 10
-854.6139
 20
85.301
 30
0.0
  0
SPLINE
  5
AE
330
1F
100
AcDbEntity
  8
Camada 1
 62
   250
100
AcDbSpline
210
0.0
220
0.0
230
1.0
 70
    11
 71
     3
 72
   144
 73
   140
 74
     0
 42
0.000000001
 43
0.0000000001
 40
0.0
 40
0.0
 40
0.0
 40
0.0
 40
0.0277777777777778
 40
0.0277777777777778
 40
0.0277777777777778
 40
0.0277777777777778
 40
0.0555555555555556
 40
0.0555555555555556
 40
0.0555555555555556
 40
0.0555555555555556
 40
0.0833333333333333
 40
0.0833333333333333
 40
0.0833333333333333
 40
0.0833333333333333
 40
0.1111111111111111
 40
0.1111111111111111
 40
0.1111111111111111
 40
0.1111111111111111
 40
0.1388888888888889
 40
0.1388888888888889
 40
0.1388888888888889
 40
0.1388888888888889
 40
0.1666666666666667
 40
0.1666666666666667
 40
0.1666666666666667
 40
0.1666666666666667
 40
0.1944444444444444
 40
0.1944444444444444
 40
0.1944444444444444
 40
0.1944444444444444
 40
0.2222222222222222
 40
0.2222222222222222
 40
0.2222222222222222
 40
0.2222222222222222
 40
0.25
 40
0.25
 40
0.25
 40
0.25
 40
0.2777777777777778
 40
0.2777777777777778
 40
0.2777777777777778
 40
0.2777777777777778
 40
0.3055555555555556
 40
0.3055555555555556
 40
0.3055555555555556
 40
0.3055555555555556
 40
0.3333333333333333
 40
0.3333333333333333
 40
0.3333333333333333
 40
0.3333333333333333
 40
0.3611111111111111
 40
0.3611111111111111
 40
0.3611111111111111
 40
0.3611111111111111
 40
0.3888888888888889
 40
0.3888888888888889
 40
0.3888888888888889
 40
0.3888888888888889
 40
0.4166666666666667
 40
0.4166666666666667
 40
0.4166666666666667
 40
0.4166666666666667
 40
0.4444444444444444
 40
0.4444444444444444
 40
0.4444444444444444
 40
0.4444444444444444
 40
0.4722222222222222
 40
0.4722222222222222
 40
0.4722222222222222
 40
0.4722222222222222
 40
0.5
 40
0.5
 40
0.5
 40
0.5
 40
0.5277777777777778
 40
0.5277777777777778
 40
0.5277777777777778
 40
0.5277777777777778
 40
0.5555555555555556
 40
0.5555555555555556
 40
0.5555555555555556
 40
0.5555555555555556
 40
0.5833333333333334
 40
0.5833333333333334
 40
0.5833333333333334
 40
0.5833333333333334
 40
0.6111111111111112
 40
0.6111111111111112
 40
0.6111111111111112
 40
0.6111111111111112
 40
0.6388888888888888
 40
0.6388888888888888
 40
0.6388888888888888
 40
0.6388888888888888
 40
0.6666666666666666
 40
0.6666666666666666
 40
0.6666666666666666
 40
0.6666666666666666
 40
0.6944444444444444
 40
0.6944444444444444
 40
0.6944444444444444
 40
0.6944444444444444
 40
0.7222222222222222
 40
0.7222222222222222
 40
0.7222222222222222
 40
0.7222222222222222
 40
0.75
 40
0.75
 40
0.75
 40
0.75
 40
0.7777777777777778
 40
0.7777777777777778
 40
0.7777777777777778
 40
0.7777777777777778
 40
0.8055555555555556
 40
0.8055555555555556
 40
0.8055555555555556
 40
0.8055555555555556
 40
0.8333333333333334
 40
0.8333333333333334
 40
0.8333333333333334
 40
0.8333333333333334
 40
0.8611111111111112
 40
0.8611111111111112
 40
0.8611111111111112
 40
0.8611111111111112
 40
0.8888888888888888
 40
0.8888888888888888
 40
0.8888888888888888
 40
0.8888888888888888
 40
0.9166666666666666
 40
0.9166666666666666
 40
0.9166666666666666
 40
0.9166666666666666
 40
0.9444444444444444
 40
0.9444444444444444
 40
0.9444444444444444
 40
0.9444444444444444
 40
1.0
 40
1.0
 40
1.0
 40
1.0
 10
-850.3227
 20
84.7591
 30
0.0
 10
-850.3227
 20
84.7591
 30
0.0
 10
-849.5692
 20
84.8269
 30
0.0
 10
-849.5692
 20
84.8269
 30
0.0
 10
-849.5692
 20
84.8269
 30
0.0
 10
-849.5268
 20
84.5221
 30
0.0
 10
-849.4422
 20
84.2765
 30
0.0
 10
-849.3152
 20
84.0818
 30
0.0
 10
-849.3152
 20
84.0818
 30
0.0
 10
-849.1882
 20
83.8871
 30
0.0
 10
-848.985
 20
83.7262
 30
0.0
 10
-848.7056
 20
83.6077
 30
0.0
 10
-848.7056
 20
83.6077
 30
0.0
 10
-848.4262
 20
83.4891
 30
0.0
 10
-848.1214
 20
83.4299
 30
0.0
 10
-847.7742
 20
83.4299
 30
0.0
 10
-847.7742
 20
83.4299
 30
0.0
 10
-847.4694
 20
83.4299
 30
0.0
 10
-847.1985
 20
83.4722
 30
0.0
 10
-846.9699
 20
83.5653
 30
0.0
 10
-846.9699
 20
83.5653
 30
0.0
 10
-846.7328
 20
83.6585
 30
0.0
 10
-846.555
 20
83.777
 30
0.0
 10
-846.4449
 20
83.9379
 30
0.0
 10
-846.4449
 20
83.9379
 30
0.0
 10
-846.3349
 20
84.0987
 30
0.0
 10
-846.2756
 20
84.2681
 30
0.0
 10
-846.2756
 20
84.4543
 30
0.0
 10
-846.2756
 20
84.4543
 30
0.0
 10
-846.2756
 20
84.6491
 30
0.0
 10
-846.3264
 20
84.8099
 30
0.0
 10
-846.4365
 20
84.9539
 30
0.0
 10
-846.4365
 20
84.9539
 30
0.0
 10
-846.5466
 20
85.0978
 30
0.0
 10
-846.7328
 20
85.2163
 30
0.0
 10
-846.9868
 20
85.3095
 30
0.0
 10
-846.9868
 20
85.3095
 30
0.0
 10
-847.1477
 20
85.3772
 30
0.0
 10
-847.5033
 20
85.4788
 30
0.0
 10
-848.0621
 20
85.6058
 30
0.0
 10
-848.0621
 20
85.6058
 30
0.0
 10
-848.6209
 20
85.7413
 30
0.0
 10
-849.0104
 20
85.8683
 30
0.0
 10
-849.2305
 20
85.9868
 30
0.0
 10
-849.2305
 20
85.9868
 30
0.0
 10
-849.5184
 20
86.1392
 30
0.0
 10
-849.7385
 20
86.3255
 30
0.0
 10
-849.8824
 20
86.5541
 30
0.0
 10
-849.8824
 20
86.5541
 30
0.0
 10
-850.0264
 20
86.7742
 30
0.0
 10
-850.0941
 20
87.0282
 30
0.0
 10
-850.0941
 20
87.3076
 30
0.0
 10
-850.0941
 20
87.3076
 30
0.0
 10
-850.0941
 20
87.6124
 30
0.0
 10
-850.0094
 20
87.9003
 30
0.0
 10
-849.8316
 20
88.1628
 30
0.0
 10
-849.8316
 20
88.1628
 30
0.0
 10
-849.6538
 20
88.4252
 30
0.0
 10
-849.3998
 20
88.6284
 30
0.0
 10
-849.0696
 20
88.7724
 30
0.0
 10
-849.0696
 20
88.7724
 30
0.0
 10
-848.7394
 20
88.9078
 30
0.0
 10
-848.3669
 20
88.9756
 30
0.0
 10
-847.9605
 20
88.9756
 30
0.0
 10
-847.9605
 20
88.9756
 30
0.0
 10
-847.5118
 20
88.9756
 30
0.0
 10
-847.1138
 20
88.8994
 30
0.0
 10
-846.7667
 20
88.7554
 30
0.0
 10
-846.7667
 20
88.7554
 30
0.0
 10
-846.428
 20
88.6115
 30
0.0
 10
-846.1655
 20
88.3998
 30
0.0
 10
-845.9793
 20
88.1204
 30
0.0
 10
-845.9793
 20
88.1204
 30
0.0
 10
-845.793
 20
87.841
 30
0.0
 10
-845.6914
 20
87.5193
 30
0.0
 10
-845.6829
 20
87.1637
 30
0.0
 10
-845.6829
 20
87.1637
 30
0.0
 10
-845.6829
 20
87.1637
 30
0.0
 10
-846.4534
 20
87.1044
 30
0.0
 10
-846.4534
 20
87.1044
 30
0.0
 10
-846.4534
 20
87.1044
 30
0.0
 10
-846.4958
 20
87.4854
 30
0.0
 10
-846.6312
 20
87.7818
 30
0.0
 10
-846.8683
 20
87.9765
 30
0.0
 10
-846.8683
 20
87.9765
 30
0.0
 10
-847.1054
 20
88.1712
 30
0.0
 10
-847.461
 20
88.2728
 30
0.0
 10
-847.9266
 20
88.2728
 30
0.0
 10
-847.9266
 20
88.2728
 30
0.0
 10
-848.4092
 20
88.2728
 30
0.0
 10
-848.7648
 20
88.1797
 30
0.0
 10
-848.985
 20
88.0019
 30
0.0
 10
-848.985
 20
88.0019
 30
0.0
 10
-849.2051
 20
87.8241
 30
0.0
 10
-849.3152
 20
87.6124
 30
0.0
 10
-849.3152
 20
87.3584
 30
0.0
 10
-849.3152
 20
87.3584
 30
0.0
 10
-849.3152
 20
87.1468
 30
0.0
 10
-849.239
 20
86.9689
 30
0.0
 10
-849.0866
 20
86.825
 30
0.0
 10
-849.0866
 20
86.825
 30
0.0
 10
-848.9257
 20
86.6811
 30
0.0
 10
-848.5278
 20
86.5371
 30
0.0
 10
-847.8758
 20
86.3932
 30
0.0
 10
-847.8758
 20
86.3932
 30
0.0
 10
-847.2239
 20
86.2408
 30
0.0
 10
-846.7752
 20
86.1138
 30
0.0
 10
-846.5296
 20
86.0037
 30
0.0
 10
-846.5296
 20
86.0037
 30
0.0
 10
-846.1825
 20
85.8429
 30
0.0
 10
-845.92
 20
85.6312
 30
0.0
 10
-845.7507
 20
85.3857
 30
0.0
 10
-845.7507
 20
85.3857
 30
0.0
 10
-845.5813
 20
85.1401
 30
0.0
 10
-845.4967
 20
84.8523
 30
0.0
 10
-845.4967
 20
84.5221
 30
0.0
 10
-845.4967
 20
84.5221
 30
0.0
 10
-845.4967
 20
84.2003
 30
0.0
 10
-845.5898
 20
83.8955
 30
0.0
 10
-845.7761
 20
83.6077
 30
0.0
 10
-845.7761
 20
83.6077
 30
0.0
 10
-845.9623
 20
83.3283
 30
0.0
 10
-846.2248
 20
83.1081
 30
0.0
 10
-846.572
 20
82.9473
 30
0.0
 10
-846.572
 20
82.9473
 30
0.0
 10
-846.9191
 20
82.7864
 30
0.0
 10
-847.3086
 20
82.7102
 30
0.0
 10
-847.7404
 20
82.7102
 30
0.0
 10
-847.7404
 20
82.7102
 30
0.0
 10
-848.2907
 20
82.7102
 30
0.0
 10
-848.7479
 20
82.7864
 30
0.0
 10
-849.1204
 20
82.9473
 30
0.0
 10
-849.1204
 20
82.9473
 30
0.0
 10
-849.4845
 20
83.1081
 30
0.0
 10
-849.7808
 20
83.3452
 30
0.0
 10
-849.9925
 20
83.6669
 30
0.0
 10
-849.9925
 20
83.6669
 30
0.0
 10
-850.2042
 20
83.9887
 30
0.0
 10
-850.3142
 20
84.3527
 30
0.0
 10
-850.3227
 20
84.7591
 30
0.0
  0
SPLINE
  5
AF
330
1F
100
AcDbEntity
  8
Camada 1
 62
   250
100
AcDbSpline
210
0.0
220
0.0
230
1.0
 70
    11
 71
     3
 72
    52
 73
    48
 74
     0
 42
0.000000001
 43
0.0000000001
 40
0.0
 40
0.0
 40
0.0
 40
0.0
 40
0.0769230769230769
 40
0.0769230769230769
 40
0.0769230769230769
 40
0.0769230769230769
 40
0.1538461538461539
 40
0.1538461538461539
 40
0.1538461538461539
 40
0.1538461538461539
 40
0.2307692307692308
 40
0.2307692307692308
 40
0.2307692307692308
 40
0.2307692307692308
 40
0.3076923076923077
 40
0.3076923076923077
 40
0.3076923076923077
 40
0.3076923076923077
 40
0.3846153846153846
 40
0.3846153846153846
 40
0.3846153846153846
 40
0.3846153846153846
 40
0.4615384615384616
 40
0.4615384615384616
 40
0.4615384615384616
 40
0.4615384615384616
 40
0.5384615384615384
 40
0.5384615384615384
 40
0.5384615384615384
 40
0.5384615384615384
 40
0.6153846153846154
 40
0.6153846153846154
 40
0.6153846153846154
 40
0.6153846153846154
 40
0.6923076923076923
 40
0.6923076923076923
 40
0.6923076923076923
 40
0.6923076923076923
 40
0.7692307692307693
 40
0.7692307692307693
 40
0.7692307692307693
 40
0.7692307692307693
 40
0.8461538461538461
 40
0.8461538461538461
 40
0.8461538461538461
 40
0.8461538461538461
 40
1.0
 40
1.0
 40
1.0
 40
1.0
 10
-844.3889
 20
82.8118
 30
0.0
 10
-844.3889
 20
82.8118
 30
0.0
 10
-844.3889
 20
88.874
 30
0.0
 10
-844.3889
 20
88.874
 30
0.0
 10
-844.3889
 20
88.874
 30
0.0
 10
-844.3889
 20
88.874
 30
0.0
 10
-840.0032
 20
88.874
 30
0.0
 10
-840.0032
 20
88.874
 30
0.0
 10
-840.0032
 20
88.874
 30
0.0
 10
-840.0032
 20
88.874
 30
0.0
 10
-840.0032
 20
88.1543
 30
0.0
 10
-840.0032
 20
88.1543
 30
0.0
 10
-840.0032
 20
88.1543
 30
0.0
 10
-840.0032
 20
88.1543
 30
0.0
 10
-843.5846
 20
88.1543
 30
0.0
 10
-843.5846
 20
88.1543
 30
0.0
 10
-843.5846
 20
88.1543
 30
0.0
 10
-843.5846
 20
88.1543
 30
0.0
 10
-843.5846
 20
86.3001
 30
0.0
 10
-843.5846
 20
86.3001
 30
0.0
 10
-843.5846
 20
86.3001
 30
0.0
 10
-843.5846
 20
86.3001
 30
0.0
 10
-840.2318
 20
86.3001
 30
0.0
 10
-840.2318
 20
86.3001
 30
0.0
 10
-840.2318
 20
86.3001
 30
0.0
 10
-840.2318
 20
86.3001
 30
0.0
 10
-840.2318
 20
85.5889
 30
0.0
 10
-840.2318
 20
85.5889
 30
0.0
 10
-840.2318
 20
85.5889
 30
0.0
 10
-840.2318
 20
85.5889
 30
0.0
 10
-843.5846
 20
85.5889
 30
0.0
 10
-843.5846
 20
85.5889
 30
0.0
 10
-843.5846
 20
85.5889
 30
0.0
 10
-843.5846
 20
85.5889
 30
0.0
 10
-843.5846
 20
83.523
 30
0.0
 10
-843.5846
 20
83.523
 30
0.0
 10
-843.5846
 20
83.523
 30
0.0
 10
-843.5846
 20
83.523
 30
0.0
 10
-839.8677
 20
83.523
 30
0.0
 10
-839.8677
 20
83.523
 30
0.0
 10
-839.8677
 20
83.523
 30
0.0
 10
-839.8677
 20
83.523
 30
0.0
 10
-839.8677
 20
82.8118
 30
0.0
 10
-839.8677
 20
82.8118
 30
0.0
 10
-839.8677
 20
82.8118
 30
0.0
 10
-839.8677
 20
82.8118
 30
0.0
 10
-844.3889
 20
82.8118
 30
0.0
 10
-844.3889
 20
82.8118
 30
0.0
  0
SPLINE
  5
B0
330
1F
100
AcDbEntity
  8
Camada 1
 62
   250
100
AcDbSpline
210
0.0
220
0.0
230
1.0
 70
    11
 71
     3
 72
    80
 73
    76
 74
     0
 42
0.000000001
 43
0.0000000001
 40
0.0
 40
0.0
 40
0.0
 40
0.0
 40
0.05
 40
0.05
 40
0.05
 40
0.05
 40
0.1
 40
0.1
 40
0.1
 40
0.1
 40
0.15
 40
0.15
 40
0.15
 40
0.15
 40
0.2
 40
0.2
 40
0.2
 40
0.2
 40
0.25
 40
0.25
 40
0.25
 40
0.25
 40
0.3
 40
0.3
 40
0.3
 40
0.3
 40
0.35
 40
0.35
 40
0.35
 40
0.35
 40
0.4
 40
0.4
 40
0.4
 40
0.4
 40
0.45
 40
0.45
 40
0.45
 40
0.45
 40
0.5
 40
0.5
 40
0.5
 40
0.5
 40
0.55
 40
0.55
 40
0.55
 40
0.55
 40
0.6
 40
0.6
 40
0.6
 40
0.6
 40
0.65
 40
0.65
 40
0.65
 40
0.65
 40
0.7
 40
0.7
 40
0.7
 40
0.7
 40
0.75
 40
0.75
 40
0.75
 40
0.75
 40
0.8
 40
0.8
 40
0.8
 40
0.8
 40
0.85
 40
0.85
 40
0.85
 40
0.85
 40
0.9
 40
0.9
 40
0.9
 40
0.9
 40
1.0
 40
1.0
 40
1.0
 40
1.0
 10
-838.743
 20
82.8118
 30
0.0
 10
-838.743
 20
82.8118
 30
0.0
 10
-838.743
 20
88.874
 30
0.0
 10
-838.743
 20
88.874
 30
0.0
 10
-838.743
 20
88.874
 30
0.0
 10
-838.743
 20
88.874
 30
0.0
 10
-836.0591
 20
88.874
 30
0.0
 10
-836.0591
 20
88.874
 30
0.0
 10
-836.0591
 20
88.874
 30
0.0
 10
-835.5172
 20
88.874
 30
0.0
 10
-835.1023
 20
88.8232
 30
0.0
 10
-834.8229
 20
88.7131
 30
0.0
 10
-834.8229
 20
88.7131
 30
0.0
 10
-834.5435
 20
88.603
 30
0.0
 10
-834.3234
 20
88.4083
 30
0.0
 10
-834.1541
 20
88.1289
 30
0.0
 10
-834.1541
 20
88.1289
 30
0.0
 10
-833.9847
 20
87.858
 30
0.0
 10
-833.9001
 20
87.5532
 30
0.0
 10
-833.9001
 20
87.223
 30
0.0
 10
-833.9001
 20
87.223
 30
0.0
 10
-833.9001
 20
86.7911
 30
0.0
 10
-834.0355
 20
86.4271
 30
0.0
 10
-834.3149
 20
86.1307
 30
0.0
 10
-834.3149
 20
86.1307
 30
0.0
 10
-834.5943
 20
85.8344
 30
0.0
 10
-835.0261
 20
85.6481
 30
0.0
 10
-835.6104
 20
85.5719
 30
0.0
 10
-835.6104
 20
85.5719
 30
0.0
 10
-835.3987
 20
85.4703
 30
0.0
 10
-835.2378
 20
85.3687
 30
0.0
 10
-835.1277
 20
85.2671
 30
0.0
 10
-835.1277
 20
85.2671
 30
0.0
 10
-834.8907
 20
85.0555
 30
0.0
 10
-834.6705
 20
84.7845
 30
0.0
 10
-834.4589
 20
84.4628
 30
0.0
 10
-834.4589
 20
84.4628
 30
0.0
 10
-834.4589
 20
84.4628
 30
0.0
 10
-833.409
 20
82.8118
 30
0.0
 10
-833.409
 20
82.8118
 30
0.0
 10
-833.409
 20
82.8118
 30
0.0
 10
-833.409
 20
82.8118
 30
0.0
 10
-834.4165
 20
82.8118
 30
0.0
 10
-834.4165
 20
82.8118
 30
0.0
 10
-834.4165
 20
82.8118
 30
0.0
 10
-834.4165
 20
82.8118
 30
0.0
 10
-835.2124
 20
84.0733
 30
0.0
 10
-835.2124
 20
84.0733
 30
0.0
 10
-835.2124
 20
84.0733
 30
0.0
 10
-835.4495
 20
84.4374
 30
0.0
 10
-835.6442
 20
84.7168
 30
0.0
 10
-835.7966
 20
84.9115
 30
0.0
 10
-835.7966
 20
84.9115
 30
0.0
 10
-835.949
 20
85.1063
 30
0.0
 10
-836.0845
 20
85.2333
 30
0.0
 10
-836.203
 20
85.3095
 30
0.0
 10
-836.203
 20
85.3095
 30
0.0
 10
-836.3216
 20
85.3857
 30
0.0
 10
-836.4401
 20
85.4449
 30
0.0
 10
-836.5671
 20
85.4703
 30
0.0
 10
-836.5671
 20
85.4703
 30
0.0
 10
-836.6602
 20
85.4957
 30
0.0
 10
-836.8042
 20
85.5042
 30
0.0
 10
-837.0158
 20
85.5042
 30
0.0
 10
-837.0158
 20
85.5042
 30
0.0
 10
-837.0158
 20
85.5042
 30
0.0
 10
-837.9472
 20
85.5042
 30
0.0
 10
-837.9472
 20
85.5042
 30
0.0
 10
-837.9472
 20
85.5042
 30
0.0
 10
-837.9472
 20
85.5042
 30
0.0
 10
-837.9472
 20
82.8118
 30
0.0
 10
-837.9472
 20
82.8118
 30
0.0
 10
-837.9472
 20
82.8118
 30
0.0
 10
-837.9472
 20
82.8118
 30
0.0
 10
-838.743
 20
82.8118
 30
0.0
 10
-838.743
 20
82.8118
 30
0.0
  0
SPLINE
  5
B1
330
1F
100
AcDbEntity
  8
Camada 1
 62
   250
100
AcDbSpline
210
0.0
220
0.0
230
1.0
 70
    11
 71
     3
 72
    36
 73
    32
 74
     0
 42
0.000000001
 43
0.0000000001
 40
0.0
 40
0.0
 40
0.0
 40
0.0
 40
0.1111111111111111
 40
0.1111111111111111
 40
0.1111111111111111
 40
0.1111111111111111
 40
0.2222222222222222
 40
0.2222222222222222
 40
0.2222222222222222
 40
0.2222222222222222
 40
0.3333333333333333
 40
0.3333333333333333
 40
0.3333333333333333
 40
0.3333333333333333
 40
0.4444444444444444
 40
0.4444444444444444
 40
0.4444444444444444
 40
0.4444444444444444
 40
0.5555555555555556
 40
0.5555555555555556
 40
0.5555555555555556
 40
0.5555555555555556
 40
0.6666666666666666
 40
0.6666666666666666
 40
0.6666666666666666
 40
0.6666666666666666
 40
0.7777777777777778
 40
0.7777777777777778
 40
0.7777777777777778
 40
0.7777777777777778
 40
1.0
 40
1.0
 40
1.0
 40
1.0
 10
-837.9472
 20
86.1985
 30
0.0
 10
-837.9472
 20
86.1985
 30
0.0
 10
-836.22
 20
86.1985
 30
0.0
 10
-836.22
 20
86.1985
 30
0.0
 10
-836.22
 20
86.1985
 30
0.0
 10
-835.8559
 20
86.1985
 30
0.0
 10
-835.568
 20
86.2323
 30
0.0
 10
-835.3564
 20
86.3085
 30
0.0
 10
-835.3564
 20
86.3085
 30
0.0
 10
-835.1531
 20
86.3847
 30
0.0
 10
-835.0007
 20
86.5117
 30
0.0
 10
-834.8907
 20
86.6726
 30
0.0
 10
-834.8907
 20
86.6726
 30
0.0
 10
-834.7806
 20
86.8419
 30
0.0
 10
-834.7298
 20
87.0282
 30
0.0
 10
-834.7298
 20
87.223
 30
0.0
 10
-834.7298
 20
87.223
 30
0.0
 10
-834.7298
 20
87.5024
 30
0.0
 10
-834.8314
 20
87.7394
 30
0.0
 10
-835.0431
 20
87.9257
 30
0.0
 10
-835.0431
 20
87.9257
 30
0.0
 10
-835.2548
 20
88.112
 30
0.0
 10
-835.5765
 20
88.2051
 30
0.0
 10
-836.0252
 20
88.2051
 30
0.0
 10
-836.0252
 20
88.2051
 30
0.0
 10
-836.0252
 20
88.2051
 30
0.0
 10
-837.9472
 20
88.2051
 30
0.0
 10
-837.9472
 20
88.2051
 30
0.0
 10
-837.9472
 20
88.2051
 30
0.0
 10
-837.9472
 20
88.2051
 30
0.0
 10
-837.9472
 20
86.1985
 30
0.0
 10
-837.9472
 20
86.1985
 30
0.0
  0
SPLINE
  5
B2
330
1F
100
AcDbEntity
  8
Camada 1
 62
   250
100
AcDbSpline
210
0.0
220
0.0
230
1.0
 70
    11
 71
     3
 72
    28
 73
    24
 74
     0
 42
0.000000001
 43
0.0000000001
 40
0.0
 40
0.0
 40
0.0
 40
0.0
 40
0.1428571428571428
 40
0.1428571428571428
 40
0.1428571428571428
 40
0.1428571428571428
 40
0.2857142857142857
 40
0.2857142857142857
 40
0.2857142857142857
 40
0.2857142857142857
 40
0.4285714285714285
 40
0.4285714285714285
 40
0.4285714285714285
 40
0.4285714285714285
 40
0.5714285714285714
 40
0.5714285714285714
 40
0.5714285714285714
 40
0.5714285714285714
 40
0.7142857142857143
 40
0.7142857142857143
 40
0.7142857142857143
 40
0.7142857142857143
 40
1.0
 40
1.0
 40
1.0
 40
1.0
 10
-830.3285
 20
82.8118
 30
0.0
 10
-830.3285
 20
82.8118
 30
0.0
 10
-830.3285
 20
88.874
 30
0.0
 10
-830.3285
 20
88.874
 30
0.0
 10
-830.3285
 20
88.874
 30
0.0
 10
-830.3285
 20
88.874
 30
0.0
 10
-829.5242
 20
88.874
 30
0.0
 10
-829.5242
 20
88.874
 30
0.0
 10
-829.5242
 20
88.874
 30
0.0
 10
-829.5242
 20
88.874
 30
0.0
 10
-829.5242
 20
83.523
 30
0.0
 10
-829.5242
 20
83.523
 30
0.0
 10
-829.5242
 20
83.523
 30
0.0
 10
-829.5242
 20
83.523
 30
0.0
 10
-826.5354
 20
83.523
 30
0.0
 10
-826.5354
 20
83.523
 30
0.0
 10
-826.5354
 20
83.523
 30
0.0
 10
-826.5354
 20
83.523
 30
0.0
 10
-826.5354
 20
82.8118
 30
0.0
 10
-826.5354
 20
82.8118
 30
0.0
 10
-826.5354
 20
82.8118
 30
0.0
 10
-826.5354
 20
82.8118
 30
0.0
 10
-830.3285
 20
82.8118
 30
0.0
 10
-830.3285
 20
82.8118
 30
0.0
  0
SPLINE
  5
B3
330
1F
100
AcDbEntity
  8
Camada 1
 62
   250
100
AcDbSpline
210
0.0
220
0.0
230
1.0
 70
    11
 71
     3
 72
    20
 73
    16
 74
     0
 42
0.000000001
 43
0.0000000001
 40
0.0
 40
0.0
 40
0.0
 40
0.0
 40
0.2
 40
0.2
 40
0.2
 40
0.2
 40
0.4
 40
0.4
 40
0.4
 40
0.4
 40
0.6
 40
0.6
 40
0.6
 40
0.6
 40
1.0
 40
1.0
 40
1.0
 40
1.0
 10
-825.4517
 20
82.8118
 30
0.0
 10
-825.4517
 20
82.8118
 30
0.0
 10
-825.4517
 20
88.874
 30
0.0
 10
-825.4517
 20
88.874
 30
0.0
 10
-825.4517
 20
88.874
 30
0.0
 10
-825.4517
 20
88.874
 30
0.0
 10
-824.6474
 20
88.874
 30
0.0
 10
-824.6474
 20
88.874
 30
0.0
 10
-824.6474
 20
88.874
 30
0.0
 10
-824.6474
 20
88.874
 30
0.0
 10
-824.6474
 20
82.8118
 30
0.0
 10
-824.6474
 20
82.8118
 30
0.0
 10
-824.6474
 20
82.8118
 30
0.0
 10
-824.6474
 20
82.8118
 30
0.0
 10
-825.4517
 20
82.8118
 30
0.0
 10
-825.4517
 20
82.8118
 30
0.0
  0
SPLINE
  5
B4
330
1F
100
AcDbEntity
  8
Camada 1
 62
   250
100
AcDbSpline
210
0.0
220
0.0
230
1.0
 70
    11
 71
     3
 72
   144
 73
   140
 74
     0
 42
0.000000001
 43
0.0000000001
 40
0.0
 40
0.0
 40
0.0
 40
0.0
 40
0.0277777777777778
 40
0.0277777777777778
 40
0.0277777777777778
 40
0.0277777777777778
 40
0.0555555555555556
 40
0.0555555555555556
 40
0.0555555555555556
 40
0.0555555555555556
 40
0.0833333333333333
 40
0.0833333333333333
 40
0.0833333333333333
 40
0.0833333333333333
 40
0.1111111111111111
 40
0.1111111111111111
 40
0.1111111111111111
 40
0.1111111111111111
 40
0.1388888888888889
 40
0.1388888888888889
 40
0.1388888888888889
 40
0.1388888888888889
 40
0.1666666666666667
 40
0.1666666666666667
 40
0.1666666666666667
 40
0.1666666666666667
 40
0.1944444444444444
 40
0.1944444444444444
 40
0.1944444444444444
 40
0.1944444444444444
 40
0.2222222222222222
 40
0.2222222222222222
 40
0.2222222222222222
 40
0.2222222222222222
 40
0.25
 40
0.25
 40
0.25
 40
0.25
 40
0.2777777777777778
 40
0.2777777777777778
 40
0.2777777777777778
 40
0.2777777777777778
 40
0.3055555555555556
 40
0.3055555555555556
 40
0.3055555555555556
 40
0.3055555555555556
 40
0.3333333333333333
 40
0.3333333333333333
 40
0.3333333333333333
 40
0.3333333333333333
 40
0.3611111111111111
 40
0.3611111111111111
 40
0.3611111111111111
 40
0.3611111111111111
 40
0.3888888888888889
 40
0.3888888888888889
 40
0.3888888888888889
 40
0.3888888888888889
 40
0.4166666666666667
 40
0.4166666666666667
 40
0.4166666666666667
 40
0.4166666666666667
 40
0.4444444444444444
 40
0.4444444444444444
 40
0.4444444444444444
 40
0.4444444444444444
 40
0.4722222222222222
 40
0.4722222222222222
 40
0.4722222222222222
 40
0.4722222222222222
 40
0.5
 40
0.5
 40
0.5
 40
0.5
 40
0.5277777777777778
 40
0.5277777777777778
 40
0.5277777777777778
 40
0.5277777777777778
 40
0.5555555555555556
 40
0.5555555555555556
 40
0.5555555555555556
 40
0.5555555555555556
 40
0.5833333333333334
 40
0.5833333333333334
 40
0.5833333333333334
 40
0.5833333333333334
 40
0.6111111111111112
 40
0.6111111111111112
 40
0.6111111111111112
 40
0.6111111111111112
 40
0.6388888888888888
 40
0.6388888888888888
 40
0.6388888888888888
 40
0.6388888888888888
 40
0.6666666666666666
 40
0.6666666666666666
 40
0.6666666666666666
 40
0.6666666666666666
 40
0.6944444444444444
 40
0.6944444444444444
 40
0.6944444444444444
 40
0.6944444444444444
 40
0.7222222222222222
 40
0.7222222222222222
 40
0.7222222222222222
 40
0.7222222222222222
 40
0.75
 40
0.75
 40
0.75
 40
0.75
 40
0.7777777777777778
 40
0.7777777777777778
 40
0.7777777777777778
 40
0.7777777777777778
 40
0.8055555555555556
 40
0.8055555555555556
 40
0.8055555555555556
 40
0.8055555555555556
 40
0.8333333333333334
 40
0.8333333333333334
 40
0.8333333333333334
 40
0.8333333333333334
 40
0.8611111111111112
 40
0.8611111111111112
 40
0.8611111111111112
 40
0.8611111111111112
 40
0.8888888888888888
 40
0.8888888888888888
 40
0.8888888888888888
 40
0.8888888888888888
 40
0.9166666666666666
 40
0.9166666666666666
 40
0.9166666666666666
 40
0.9166666666666666
 40
0.9444444444444444
 40
0.9444444444444444
 40
0.9444444444444444
 40
0.9444444444444444
 40
1.0
 40
1.0
 40
1.0
 40
1.0
 10
-823.5072
 20
84.7591
 30
0.0
 10
-823.5072
 20
84.7591
 30
0.0
 10
-822.7537
 20
84.8269
 30
0.0
 10
-822.7537
 20
84.8269
 30
0.0
 10
-822.7537
 20
84.8269
 30
0.0
 10
-822.7113
 20
84.5221
 30
0.0
 10
-822.6267
 20
84.2765
 30
0.0
 10
-822.4997
 20
84.0818
 30
0.0
 10
-822.4997
 20
84.0818
 30
0.0
 10
-822.3727
 20
83.8871
 30
0.0
 10
-822.1695
 20
83.7262
 30
0.0
 10
-821.8901
 20
83.6077
 30
0.0
 10
-821.8901
 20
83.6077
 30
0.0
 10
-821.6107
 20
83.4891
 30
0.0
 10
-821.3059
 20
83.4299
 30
0.0
 10
-820.9587
 20
83.4299
 30
0.0
 10
-820.9587
 20
83.4299
 30
0.0
 10
-820.6539
 20
83.4299
 30
0.0
 10
-820.383
 20
83.4722
 30
0.0
 10
-820.1544
 20
83.5653
 30
0.0
 10
-820.1544
 20
83.5653
 30
0.0
 10
-819.9173
 20
83.6585
 30
0.0
 10
-819.7395
 20
83.777
 30
0.0
 10
-819.6294
 20
83.9379
 30
0.0
 10
-819.6294
 20
83.9379
 30
0.0
 10
-819.5194
 20
84.0987
 30
0.0
 10
-819.4601
 20
84.2681
 30
0.0
 10
-819.4601
 20
84.4543
 30
0.0
 10
-819.4601
 20
84.4543
 30
0.0
 10
-819.4601
 20
84.6491
 30
0.0
 10
-819.5109
 20
84.8099
 30
0.0
 10
-819.621
 20
84.9539
 30
0.0
 10
-819.621
 20
84.9539
 30
0.0
 10
-819.7311
 20
85.0978
 30
0.0
 10
-819.9173
 20
85.2163
 30
0.0
 10
-820.1713
 20
85.3095
 30
0.0
 10
-820.1713
 20
85.3095
 30
0.0
 10
-820.3322
 20
85.3772
 30
0.0
 10
-820.6878
 20
85.4788
 30
0.0
 10
-821.2466
 20
85.6058
 30
0.0
 10
-821.2466
 20
85.6058
 30
0.0
 10
-821.8054
 20
85.7413
 30
0.0
 10
-822.1949
 20
85.8683
 30
0.0
 10
-822.415
 20
85.9868
 30
0.0
 10
-822.415
 20
85.9868
 30
0.0
 10
-822.7029
 20
86.1392
 30
0.0
 10
-822.923
 20
86.3255
 30
0.0
 10
-823.0669
 20
86.5541
 30
0.0
 10
-823.0669
 20
86.5541
 30
0.0
 10
-823.2109
 20
86.7742
 30
0.0
 10
-823.2786
 20
87.0282
 30
0.0
 10
-823.2786
 20
87.3076
 30
0.0
 10
-823.2786
 20
87.3076
 30
0.0
 10
-823.2786
 20
87.6124
 30
0.0
 10
-823.1939
 20
87.9003
 30
0.0
 10
-823.0161
 20
88.1628
 30
0.0
 10
-823.0161
 20
88.1628
 30
0.0
 10
-822.8383
 20
88.4252
 30
0.0
 10
-822.5843
 20
88.6284
 30
0.0
 10
-822.2541
 20
88.7724
 30
0.0
 10
-822.2541
 20
88.7724
 30
0.0
 10
-821.9239
 20
88.9078
 30
0.0
 10
-821.5514
 20
88.9756
 30
0.0
 10
-821.145
 20
88.9756
 30
0.0
 10
-821.145
 20
88.9756
 30
0.0
 10
-820.6963
 20
88.9756
 30
0.0
 10
-820.2983
 20
88.8994
 30
0.0
 10
-819.9512
 20
88.7554
 30
0.0
 10
-819.9512
 20
88.7554
 30
0.0
 10
-819.6125
 20
88.6115
 30
0.0
 10
-819.35
 20
88.3998
 30
0.0
 10
-819.1638
 20
88.1204
 30
0.0
 10
-819.1638
 20
88.1204
 30
0.0
 10
-818.9775
 20
87.841
 30
0.0
 10
-818.8759
 20
87.5193
 30
0.0
 10
-818.8674
 20
87.1637
 30
0.0
 10
-818.8674
 20
87.1637
 30
0.0
 10
-818.8674
 20
87.1637
 30
0.0
 10
-819.6379
 20
87.1044
 30
0.0
 10
-819.6379
 20
87.1044
 30
0.0
 10
-819.6379
 20
87.1044
 30
0.0
 10
-819.6803
 20
87.4854
 30
0.0
 10
-819.8157
 20
87.7818
 30
0.0
 10
-820.0528
 20
87.9765
 30
0.0
 10
-820.0528
 20
87.9765
 30
0.0
 10
-820.2899
 20
88.1712
 30
0.0
 10
-820.6455
 20
88.2728
 30
0.0
 10
-821.1111
 20
88.2728
 30
0.0
 10
-821.1111
 20
88.2728
 30
0.0
 10
-821.5937
 20
88.2728
 30
0.0
 10
-821.9493
 20
88.1797
 30
0.0
 10
-822.1695
 20
88.0019
 30
0.0
 10
-822.1695
 20
88.0019
 30
0.0
 10
-822.3896
 20
87.8241
 30
0.0
 10
-822.4997
 20
87.6124
 30
0.0
 10
-822.4997
 20
87.3584
 30
0.0
 10
-822.4997
 20
87.3584
 30
0.0
 10
-822.4997
 20
87.1468
 30
0.0
 10
-822.4235
 20
86.9689
 30
0.0
 10
-822.2711
 20
86.825
 30
0.0
 10
-822.2711
 20
86.825
 30
0.0
 10
-822.1102
 20
86.6811
 30
0.0
 10
-821.7123
 20
86.5371
 30
0.0
 10
-821.0603
 20
86.3932
 30
0.0
 10
-821.0603
 20
86.3932
 30
0.0
 10
-820.4084
 20
86.2408
 30
0.0
 10
-819.9597
 20
86.1138
 30
0.0
 10
-819.7141
 20
86.0037
 30
0.0
 10
-819.7141
 20
86.0037
 30
0.0
 10
-819.367
 20
85.8429
 30
0.0
 10
-819.1045
 20
85.6312
 30
0.0
 10
-818.9352
 20
85.3857
 30
0.0
 10
-818.9352
 20
85.3857
 30
0.0
 10
-818.7658
 20
85.1401
 30
0.0
 10
-818.6812
 20
84.8523
 30
0.0
 10
-818.6812
 20
84.5221
 30
0.0
 10
-818.6812
 20
84.5221
 30
0.0
 10
-818.6812
 20
84.2003
 30
0.0
 10
-818.7743
 20
83.8955
 30
0.0
 10
-818.9606
 20
83.6077
 30
0.0
 10
-818.9606
 20
83.6077
 30
0.0
 10
-819.1468
 20
83.3283
 30
0.0
 10
-819.4093
 20
83.1081
 30
0.0
 10
-819.7565
 20
82.9473
 30
0.0
 10
-819.7565
 20
82.9473
 30
0.0
 10
-820.1036
 20
82.7864
 30
0.0
 10
-820.4931
 20
82.7102
 30
0.0
 10
-820.9249
 20
82.7102
 30
0.0
 10
-820.9249
 20
82.7102
 30
0.0
 10
-821.4752
 20
82.7102
 30
0.0
 10
-821.9324
 20
82.7864
 30
0.0
 10
-822.3049
 20
82.9473
 30
0.0
 10
-822.3049
 20
82.9473
 30
0.0
 10
-822.669
 20
83.1081
 30
0.0
 10
-822.9653
 20
83.3452
 30
0.0
 10
-823.177
 20
83.6669
 30
0.0
 10
-823.177
 20
83.6669
 30
0.0
 10
-823.3887
 20
83.9887
 30
0.0
 10
-823.4987
 20
84.3527
 30
0.0
 10
-823.5072
 20
84.7591
 30
0.0
  0
SPLINE
  5
B5
330
1F
100
AcDbEntity
  8
Camada 1
 62
   250
100
AcDbSpline
210
0.0
220
0.0
230
1.0
 70
    11
 71
     3
 72
    92
 73
    88
 74
     0
 42
0.000000001
 43
0.0000000001
 40
0.0
 40
0.0
 40
0.0
 40
0.0
 40
0.0434782608695652
 40
0.0434782608695652
 40
0.0434782608695652
 40
0.0434782608695652
 40
0.0869565217391304
 40
0.0869565217391304
 40
0.0869565217391304
 40
0.0869565217391304
 40
0.1304347826086956
 40
0.1304347826086956
 40
0.1304347826086956
 40
0.1304347826086956
 40
0.1739130434782609
 40
0.1739130434782609
 40
0.1739130434782609
 40
0.1739130434782609
 40
0.2173913043478261
 40
0.2173913043478261
 40
0.2173913043478261
 40
0.2173913043478261
 40
0.2608695652173913
 40
0.2608695652173913
 40
0.2608695652173913
 40
0.2608695652173913
 40
0.3043478260869565
 40
0.3043478260869565
 40
0.3043478260869565
 40
0.3043478260869565
 40
0.3478260869565217
 40
0.3478260869565217
 40
0.3478260869565217
 40
0.3478260869565217
 40
0.391304347826087
 40
0.391304347826087
 40
0.391304347826087
 40
0.391304347826087
 40
0.4347826086956522
 40
0.4347826086956522
 40
0.4347826086956522
 40
0.4347826086956522
 40
0.4782608695652174
 40
0.4782608695652174
 40
0.4782608695652174
 40
0.4782608695652174
 40
0.5217391304347826
 40
0.5217391304347826
 40
0.5217391304347826
 40
0.5217391304347826
 40
0.5652173913043478
 40
0.5652173913043478
 40
0.5652173913043478
 40
0.5652173913043478
 40
0.6086956521739131
 40
0.6086956521739131
 40
0.6086956521739131
 40
0.6086956521739131
 40
0.6521739130434783
 40
0.6521739130434783
 40
0.6521739130434783
 40
0.6521739130434783
 40
0.6956521739130435
 40
0.6956521739130435
 40
0.6956521739130435
 40
0.6956521739130435
 40
0.7391304347826086
 40
0.7391304347826086
 40
0.7391304347826086
 40
0.7391304347826086
 40
0.782608695652174
 40
0.782608695652174
 40
0.782608695652174
 40
0.782608695652174
 40
0.8260869565217391
 40
0.8260869565217391
 40
0.8260869565217391
 40
0.8260869565217391
 40
0.8695652173913043
 40
0.8695652173913043
 40
0.8695652173913043
 40
0.8695652173913043
 40
0.9130434782608695
 40
0.9130434782608695
 40
0.9130434782608695
 40
0.9130434782608695
 40
1.0
 40
1.0
 40
1.0
 40
1.0
 10
-811.6326
 20
83.523
 30
0.0
 10
-811.6326
 20
83.523
 30
0.0
 10
-811.6326
 20
82.8118
 30
0.0
 10
-811.6326
 20
82.8118
 30
0.0
 10
-811.6326
 20
82.8118
 30
0.0
 10
-811.6326
 20
82.8118
 30
0.0
 10
-815.6374
 20
82.8118
 30
0.0
 10
-815.6374
 20
82.8118
 30
0.0
 10
-815.6374
 20
82.8118
 30
0.0
 10
-815.6459
 20
82.9896
 30
0.0
 10
-815.612
 20
83.1674
 30
0.0
 10
-815.5443
 20
83.3283
 30
0.0
 10
-815.5443
 20
83.3283
 30
0.0
 10
-815.4427
 20
83.5992
 30
0.0
 10
-815.2818
 20
83.8701
 30
0.0
 10
-815.0617
 20
84.1326
 30
0.0
 10
-815.0617
 20
84.1326
 30
0.0
 10
-814.8331
 20
84.3951
 30
0.0
 10
-814.5113
 20
84.7083
 30
0.0
 10
-814.088
 20
85.0555
 30
0.0
 10
-814.088
 20
85.0555
 30
0.0
 10
-813.4276
 20
85.5889
 30
0.0
 10
-812.9789
 20
86.0207
 30
0.0
 10
-812.7503
 20
86.3339
 30
0.0
 10
-812.7503
 20
86.3339
 30
0.0
 10
-812.5217
 20
86.6472
 30
0.0
 10
-812.4031
 20
86.952
 30
0.0
 10
-812.4031
 20
87.2314
 30
0.0
 10
-812.4031
 20
87.2314
 30
0.0
 10
-812.4031
 20
87.5278
 30
0.0
 10
-812.5047
 20
87.7733
 30
0.0
 10
-812.7164
 20
87.9765
 30
0.0
 10
-812.7164
 20
87.9765
 30
0.0
 10
-812.9281
 20
88.1797
 30
0.0
 10
-813.2075
 20
88.2813
 30
0.0
 10
-813.5461
 20
88.2813
 30
0.0
 10
-813.5461
 20
88.2813
 30
0.0
 10
-813.9017
 20
88.2813
 30
0.0
 10
-814.1896
 20
88.1712
 30
0.0
 10
-814.4013
 20
87.9596
 30
0.0
 10
-814.4013
 20
87.9596
 30
0.0
 10
-814.6129
 20
87.7479
 30
0.0
 10
-814.723
 20
87.4431
 30
0.0
 10
-814.7315
 20
87.0621
 30
0.0
 10
-814.7315
 20
87.0621
 30
0.0
 10
-814.7315
 20
87.0621
 30
0.0
 10
-815.4935
 20
87.1468
 30
0.0
 10
-815.4935
 20
87.1468
 30
0.0
 10
-815.4935
 20
87.1468
 30
0.0
 10
-815.4427
 20
87.714
 30
0.0
 10
-815.2479
 20
88.1543
 30
0.0
 10
-814.9008
 20
88.4506
 30
0.0
 10
-814.9008
 20
88.4506
 30
0.0
 10
-814.5621
 20
88.747
 30
0.0
 10
-814.1049
 20
88.8994
 30
0.0
 10
-813.5292
 20
88.8994
 30
0.0
 10
-813.5292
 20
88.8994
 30
0.0
 10
-812.945
 20
88.8994
 30
0.0
 10
-812.4878
 20
88.7385
 30
0.0
 10
-812.1491
 20
88.4168
 30
0.0
 10
-812.1491
 20
88.4168
 30
0.0
 10
-811.8105
 20
88.0866
 30
0.0
 10
-811.6411
 20
87.6886
 30
0.0
 10
-811.6411
 20
87.2145
 30
0.0
 10
-811.6411
 20
87.2145
 30
0.0
 10
-811.6411
 20
86.9689
 30
0.0
 10
-811.6919
 20
86.7319
 30
0.0
 10
-811.7851
 20
86.5033
 30
0.0
 10
-811.7851
 20
86.5033
 30
0.0
 10
-811.8867
 20
86.2662
 30
0.0
 10
-812.0475
 20
86.0207
 30
0.0
 10
-812.2761
 20
85.7582
 30
0.0
 10
-812.2761
 20
85.7582
 30
0.0
 10
-812.5047
 20
85.4957
 30
0.0
 10
-812.8942
 20
85.1401
 30
0.0
 10
-813.4276
 20
84.6914
 30
0.0
 10
-813.4276
 20
84.6914
 30
0.0
 10
-813.8763
 20
84.3189
 30
0.0
 10
-814.1642
 20
84.0649
 30
0.0
 10
-814.2912
 20
83.9294
 30
0.0
 10
-814.2912
 20
83.9294
 30
0.0
 10
-814.4182
 20
83.7939
 30
0.0
 10
-814.5198
 20
83.6585
 30
0.0
 10
-814.6045
 20
83.523
 30
0.0
 10
-814.6045
 20
83.523
 30
0.0
 10
-814.6045
 20
83.523
 30
0.0
 10
-811.6326
 20
83.523
 30
0.0
 10
-811.6326
 20
83.523
 30
0.0
  0
SPLINE
  5
B6
330
1F
100
AcDbEntity
  8
Camada 1
 62
   250
100
AcDbSpline
210
0.0
220
0.0
230
1.0
 70
    11
 71
     3
 72
    20
 73
    16
 74
     0
 42
0.000000001
 43
0.0000000001
 40
0.0
 40
0.0
 40
0.0
 40
0.0
 40
0.2
 40
0.2
 40
0.2
 40
0.2
 40
0.4
 40
0.4
 40
0.4
 40
0.4
 40
0.6
 40
0.6
 40
0.6
 40
0.6
 40
1.0
 40
1.0
 40
1.0
 40
1.0
 10
-810.4134
 20
82.8118
 30
0.0
 10
-810.4134
 20
82.8118
 30
0.0
 10
-810.4134
 20
83.6585
 30
0.0
 10
-810.4134
 20
83.6585
 30
0.0
 10
-810.4134
 20
83.6585
 30
0.0
 10
-810.4134
 20
83.6585
 30
0.0
 10
-809.5668
 20
83.6585
 30
0.0
 10
-809.5668
 20
83.6585
 30
0.0
 10
-809.5668
 20
83.6585
 30
0.0
 10
-809.5668
 20
83.6585
 30
0.0
 10
-809.5668
 20
82.8118
 30
0.0
 10
-809.5668
 20
82.8118
 30
0.0
 10
-809.5668
 20
82.8118
 30
0.0
 10
-809.5668
 20
82.8118
 30
0.0
 10
-810.4134
 20
82.8118
 30
0.0
 10
-810.4134
 20
82.8118
 30
0.0
  0
SPLINE
  5
B7
330
1F
100
AcDbEntity
  8
Camada 1
 62
   250
100
AcDbSpline
210
0.0
220
0.0
230
1.0
 70
    11
 71
     3
 72
    52
 73
    48
 74
     0
 42
0.000000001
 43
0.0000000001
 40
0.0
 40
0.0
 40
0.0
 40
0.0
 40
0.0769230769230769
 40
0.0769230769230769
 40
0.0769230769230769
 40
0.0769230769230769
 40
0.1538461538461539
 40
0.1538461538461539
 40
0.1538461538461539
 40
0.1538461538461539
 40
0.2307692307692308
 40
0.2307692307692308
 40
0.2307692307692308
 40
0.2307692307692308
 40
0.3076923076923077
 40
0.3076923076923077
 40
0.3076923076923077
 40
0.3076923076923077
 40
0.3846153846153846
 40
0.3846153846153846
 40
0.3846153846153846
 40
0.3846153846153846
 40
0.4615384615384616
 40
0.4615384615384616
 40
0.4615384615384616
 40
0.4615384615384616
 40
0.5384615384615384
 40
0.5384615384615384
 40
0.5384615384615384
 40
0.5384615384615384
 40
0.6153846153846154
 40
0.6153846153846154
 40
0.6153846153846154
 40
0.6153846153846154
 40
0.6923076923076923
 40
0.6923076923076923
 40
0.6923076923076923
 40
0.6923076923076923
 40
0.7692307692307693
 40
0.7692307692307693
 40
0.7692307692307693
 40
0.7692307692307693
 40
0.8461538461538461
 40
0.8461538461538461
 40
0.8461538461538461
 40
0.8461538461538461
 40
1.0
 40
1.0
 40
1.0
 40
1.0
 10
-808.4774
 20
85.8005
 30
0.0
 10
-808.4774
 20
86.5202
 30
0.0
 10
-808.4012
 20
87.096
 30
0.0
 10
-808.2573
 20
87.5278
 30
0.0
 10
-808.2573
 20
87.5278
 30
0.0
 10
-808.1133
 20
87.968
 30
0.0
 10
-807.8932
 20
88.3067
 30
0.0
 10
-807.6053
 20
88.5438
 30
0.0
 10
-807.6053
 20
88.5438
 30
0.0
 10
-807.309
 20
88.7808
 30
0.0
 10
-806.9449
 20
88.8994
 30
0.0
 10
-806.5047
 20
88.8994
 30
0.0
 10
-806.5047
 20
88.8994
 30
0.0
 10
-806.1745
 20
88.8994
 30
0.0
 10
-805.8951
 20
88.8316
 30
0.0
 10
-805.6495
 20
88.7046
 30
0.0
 10
-805.6495
 20
88.7046
 30
0.0
 10
-805.404
 20
88.5692
 30
0.0
 10
-805.2008
 20
88.3829
 30
0.0
 10
-805.0399
 20
88.1374
 30
0.0
 10
-805.0399
 20
88.1374
 30
0.0
 10
-804.8791
 20
87.8918
 30
0.0
 10
-804.7605
 20
87.587
 30
0.0
 10
-804.6674
 20
87.2314
 30
0.0
 10
-804.6674
 20
87.2314
 30
0.0
 10
-804.5742
 20
86.8758
 30
0.0
 10
-804.5319
 20
86.4017
 30
0.0
 10
-804.5319
 20
85.8005
 30
0.0
 10
-804.5319
 20
85.8005
 30
0.0
 10
-804.5319
 20
85.0893
 30
0.0
 10
-804.6081
 20
84.5136
 30
0.0
 10
-804.7521
 20
84.0818
 30
0.0
 10
-804.7521
 20
84.0818
 30
0.0
 10
-804.896
 20
83.6415
 30
0.0
 10
-805.1077
 20
83.3029
 30
0.0
 10
-805.404
 20
83.0658
 30
0.0
 10
-805.404
 20
83.0658
 30
0.0
 10
-805.6919
 20
82.8287
 30
0.0
 10
-806.0559
 20
82.7102
 30
0.0
 10
-806.5047
 20
82.7102
 30
0.0
 10
-806.5047
 20
82.7102
 30
0.0
 10
-807.0889
 20
82.7102
 30
0.0
 10
-807.5545
 20
82.9219
 30
0.0
 10
-807.8847
 20
83.3367
 30
0.0
 10
-807.8847
 20
83.3367
 30
0.0
 10
-808.2827
 20
83.8363
 30
0.0
 10
-808.4774
 20
84.6575
 30
0.0
 10
-808.4774
 20
85.8005
 30
0.0
  0
SPLINE
  5
B8
330
1F
100
AcDbEntity
  8
Camada 1
 62
   250
100
AcDbSpline
210
0.0
220
0.0
230
1.0
 70
    11
 71
     3
 72
    36
 73
    32
 74
     0
 42
0.000000001
 43
0.0000000001
 40
0.0
 40
0.0
 40
0.0
 40
0.0
 40
0.1111111111111111
 40
0.1111111111111111
 40
0.1111111111111111
 40
0.1111111111111111
 40
0.2222222222222222
 40
0.2222222222222222
 40
0.2222222222222222
 40
0.2222222222222222
 40
0.3333333333333333
 40
0.3333333333333333
 40
0.3333333333333333
 40
0.3333333333333333
 40
0.4444444444444444
 40
0.4444444444444444
 40
0.4444444444444444
 40
0.4444444444444444
 40
0.5555555555555556
 40
0.5555555555555556
 40
0.5555555555555556
 40
0.5555555555555556
 40
0.6666666666666666
 40
0.6666666666666666
 40
0.6666666666666666
 40
0.6666666666666666
 40
0.7777777777777778
 40
0.7777777777777778
 40
0.7777777777777778
 40
0.7777777777777778
 40
1.0
 40
1.0
 40
1.0
 40
1.0
 10
-807.7154
 20
85.8005
 30
0.0
 10
-807.7154
 20
84.8099
 30
0.0
 10
-807.5969
 20
84.1411
 30
0.0
 10
-807.3683
 20
83.8109
 30
0.0
 10
-807.3683
 20
83.8109
 30
0.0
 10
-807.1397
 20
83.4807
 30
0.0
 10
-806.8518
 20
83.3198
 30
0.0
 10
-806.5047
 20
83.3198
 30
0.0
 10
-806.5047
 20
83.3198
 30
0.0
 10
-806.166
 20
83.3198
 30
0.0
 10
-805.8781
 20
83.4891
 30
0.0
 10
-805.6411
 20
83.8193
 30
0.0
 10
-805.6411
 20
83.8193
 30
0.0
 10
-805.4125
 20
84.1495
 30
0.0
 10
-805.2939
 20
84.8099
 30
0.0
 10
-805.2939
 20
85.8005
 30
0.0
 10
-805.2939
 20
85.8005
 30
0.0
 10
-805.2939
 20
86.7996
 30
0.0
 10
-805.4125
 20
87.46
 30
0.0
 10
-805.6411
 20
87.7902
 30
0.0
 10
-805.6411
 20
87.7902
 30
0.0
 10
-805.8781
 20
88.1204
 30
0.0
 10
-806.166
 20
88.2813
 30
0.0
 10
-806.5131
 20
88.2813
 30
0.0
 10
-806.5131
 20
88.2813
 30
0.0
 10
-806.8603
 20
88.2813
 30
0.0
 10
-807.1312
 20
88.1374
 30
0.0
 10
-807.3344
 20
87.8495
 30
0.0
 10
-807.3344
 20
87.8495
 30
0.0
 10
-807.5884
 20
87.477
 30
0.0
 10
-807.7154
 20
86.7911
 30
0.0
 10
-807.7154
 20
85.8005
 30
0.0
  0
ENDSEC
  0
SECTION
  2
OBJECTS
  0
DICTIONARY
  5
C
330
0
100
AcDbDictionary
281
     1
  3
ACAD_DETAILVIEWSTYLE
350
F4
  3
ACAD_GROUP
350
D
  3
ACAD_LAYOUT
350
1A
  3
ACAD_MATERIAL
350
43
  3
ACAD_MLEADERSTYLE
350
6B
  3
ACAD_MLINESTYLE
350
17
  3
ACAD_PLOTSETTINGS
350
19
  3
ACAD_PLOTSTYLENAME
350
E
  3
ACAD_SCALELIST
350
47
  3
ACAD_SECTIONVIEWSTYLE
350
F5
  3
ACAD_TABLESTYLE
350
69
  3
ACAD_VISUALSTYLE
350
2A
  3
AcDbVariableDictionary
350
B9
  3
ACDB_RECOMPOSE_DATA
350
F1
  0
SUN
  5
6D
330
29
100
AcDbSun
 90
        1
290
     0
 63
     7
421
 16777215
 40
1.0
291
     1
 91
  2455826
 92
 54000000
292
     0
 70
     2
 71
   256
280
     1
  0
DICTIONARY
  5
F4
102
{ACAD_REACTORS
330
C
102
}
330
C
100
AcDbDictionary
281
     1
  0
DICTIONARY
  5
D
102
{ACAD_REACTORS
330
C
102
}
330
C
100
AcDbDictionary
281
     1
  0
DICTIONARY
  5
1A
102
{ACAD_REACTORS
330
C
102
}
330
C
100
AcDbDictionary
281
     1
  3
Layout1
350
1E
  3
Layout2
350
26
  3
Model
350
22
  0
DICTIONARY
  5
43
102
{ACAD_REACTORS
330
C
102
}
330
C
100
AcDbDictionary
281
     1
  3
ByBlock
350
45
  3
ByLayer
350
44
  3
Global
350
46
  0
DICTIONARY
  5
6B
102
{ACAD_REACTORS
330
C
102
}
330
C
100
AcDbDictionary
281
     1
  3
Standard
350
6C
  0
DICTIONARY
  5
17
102
{ACAD_REACTORS
330
C
102
}
330
C
100
AcDbDictionary
281
     1
  3
Standard
350
18
  0
DICTIONARY
  5
19
102
{ACAD_REACTORS
330
C
102
}
330
C
100
AcDbDictionary
281
     1
  0
ACDBDICTIONARYWDFLT
  5
E
102
{ACAD_REACTORS
330
C
102
}
330
C
100
AcDbDictionary
281
     1
  3
Normal
350
F
100
AcDbDictionaryWithDefault
340
F
  0
DICTIONARY
  5
47
102
{ACAD_REACTORS
330
C
102
}
330
C
100
AcDbDictionary
281
     1
  3
A0
350
48
  3
A1
350
49
  3
A2
350
4A
  3
A3
350
4B
  3
A4
350
4C
  3
A5
350
4D
  3
A6
350
4E
  3
A7
350
4F
  3
A8
350
50
  3
A9
350
51
  3
B0
350
52
  3
B1
350
53
  3
B2
350
54
  3
B3
350
55
  3
B4
350
56
  3
B5
350
57
  3
B6
350
58
  3
B7
350
59
  3
B8
350
5A
  3
B9
350
5B
  3
C0
350
5C
  3
C1
350
5D
  3
C2
350
5E
  3
C3
350
5F
  3
C4
350
60
  3
C5
350
61
  3
C6
350
62
  3
C7
350
63
  3
C8
350
64
  3
C9
350
65
  3
D0
350
66
  3
D1
350
67
  3
D2
350
68
  0
DICTIONARY
  5
F5
102
{ACAD_REACTORS
330
C
102
}
330
C
100
AcDbDictionary
281
     1
  0
DICTIONARY
  5
69
102
{ACAD_REACTORS
330
C
102
}
330
C
100
AcDbDictionary
281
     1
  3
Standard
350
6A
  0
DICTIONARY
  5
2A
102
{ACAD_REACTORS
330
C
102
}
330
C
100
AcDbDictionary
281
     1
  3
2dWireframe
350
2F
  3
Basic
350
32
  3
Brighten
350
36
  3
ColorChange
350
3A
  3
Conceptual
350
34
  3
Dim
350
35
  3
EdgeColorOff
350
3D
  3
Facepattern
350
39
  3
Flat
350
2B
  3
FlatWithEdges
350
2C
  3
Gouraud
350
2D
  3
GouraudWithEdges
350
2E
  3
Hidden
350
31
  3
JitterOff
350
3B
  3
Linepattern
350
38
  3
OverhangOff
350
3C
  3
Realistic
350
33
  3
Shaded
350
42
  3
Shaded with edges
350
41
  3
Shades of Gray
350
3E
  3
Sketchy
350
3F
  3
Thicken
350
37
  3
Wireframe
350
30
  3
X-Ray
350
40
  0
DICTIONARY
  5
B9
102
{ACAD_REACTORS
330
C
102
}
330
C
100
AcDbDictionary
281
     1
  3
CANNOSCALE
350
BA
  3
CMLEADERSTYLE
350
F3
  3
CTABLESTYLE
350
F2
  3
XCLIPFRAME
350
BB
  0
XRECORD
  5
F1
102
{ACAD_REACTORS
330
C
102
}
330
C
100
AcDbXrecord
280
     1
 90
        1
330
6A
  0
LAYOUT
  5
1E
102
{ACAD_REACTORS
330
1A
102
}
330
1A
100
AcDbPlotSettings
  1

  2
none_device
  4

  6

 40
0.0
 41
0.0
 42
0.0
 43
0.0
 44
0.0
 45
0.0
 46
0.0
 47
0.0
 48
0.0
 49
0.0
140
0.0
141
0.0
142
1.0
143
1.0
 70
   688
 72
     0
 73
     0
 74
     5
  7

 75
    16
 76
     0
 77
     2
 78
   300
147
1.0
148
0.0
149
0.0
100
AcDbLayout
  1
Layout1
 70
     1
 71
     1
 10
0.0
 20
0.0
 11
12.0
 21
9.0
 12
0.0
 22
0.0
 32
0.0
 14
1.000000000000000E+20
 24
1.000000000000000E+20
 34
1.000000000000000E+20
 15
-1.000000000000000E+20
 25
-1.000000000000000E+20
 35
-1.000000000000000E+20
146
0.0
 13
0.0
 23
0.0
 33
0.0
 16
1.0
 26
0.0
 36
0.0
 17
0.0
 27
1.0
 37
0.0
 76
     0
330
1B
  0
LAYOUT
  5
26
102
{ACAD_REACTORS
330
1A
102
}
330
1A
100
AcDbPlotSettings
  1

  2
none_device
  4

  6

 40
0.0
 41
0.0
 42
0.0
 43
0.0
 44
0.0
 45
0.0
 46
0.0
 47
0.0
 48
0.0
 49
0.0
140
0.0
141
0.0
142
1.0
143
1.0
 70
   688
 72
     0
 73
     0
 74
     5
  7

 75
    16
 76
     0
 77
     2
 78
   300
147
1.0
148
0.0
149
0.0
100
AcDbLayout
  1
Layout2
 70
     1
 71
     2
 10
0.0
 20
0.0
 11
0.0
 21
0.0
 12
0.0
 22
0.0
 32
0.0
 14
0.0
 24
0.0
 34
0.0
 15
0.0
 25
0.0
 35
0.0
146
0.0
 13
0.0
 23
0.0
 33
0.0
 16
1.0
 26
0.0
 36
0.0
 17
0.0
 27
1.0
 37
0.0
 76
     0
330
23
  0
LAYOUT
  5
22
102
{ACAD_REACTORS
330
1A
102
}
330
1A
100
AcDbPlotSettings
  1

  2
none_device
  4
Letter_(8.50_x_11.00_Inches)
  6

 40
6.35
 41
6.35
 42
6.35000508
 43
6.35000508
 44
215.9
 45
279.4
 46
0.0
 47
0.0
 48
0.0
 49
0.0
140
0.0
141
0.0
142
1.0
143
1.0
 70
  1712
 72
     0
 73
     0
 74
     0
  7

 75
     0
 76
     0
 77
     2
 78
   300
147
1.0
148
0.0
149
0.0
100
AcDbLayout
  1
Model
 70
     1
 71
     0
 10
0.0
 20
0.0
 11
12.0
 21
9.0
 12
0.0
 22
0.0
 32
0.0
 14
-927.3566
 24
-255.8888
 34
0.0
 15
-430.2392
 25
88.9756
 35
0.0
146
0.0
 13
0.0
 23
0.0
 33
0.0
 16
1.0
 26
0.0
 36
0.0
 17
0.0
 27
1.0
 37
0.0
 76
     0
330
1F
331
29
  0
MATERIAL
  5
45
102
{ACAD_REACTORS
330
43
102
}
330
43
100
AcDbMaterial
  1
ByBlock
 72
     1
 94
      127
  0
MATERIAL
  5
44
102
{ACAD_REACTORS
330
43
102
}
330
43
100
AcDbMaterial
  1
ByLayer
 72
     1
 94
      127
  0
MATERIAL
  5
46
102
{ACAD_REACTORS
330
43
102
}
330
43
100
AcDbMaterial
  1
Global
 72
     1
 94
      127
  0
MLEADERSTYLE
  5
6C
102
{ACAD_REACTORS
330
6B
102
}
102
{ACAD_XDICTIONARY
360
EF
102
}
330
6B
100
AcDbMLeaderStyle
170
     2
171
     1
172
     0
 90
        2
 40
0.0
 41
0.0
173
     1
 91
-1056964608
340
14
 92
       -2
290
     1
 42
0.09
291
     1
 43
0.36
  3
Standard
341
0
 44
0.18
300

342
11
174
     1
178
     6
175
     1
176
     0
 93
-1056964608
 45
0.18
292
     0
297
     0
 46
0.18
343
0
 94
-1056964608
 47
1.0
 49
1.0
140
1.0
293
     1
141
0.0
294
     1
177
     0
142
1.0
295
     0
296
     0
143
0.125
1001
ACAD_MLEADERVER
1070
     2
  0
MLINESTYLE
  5
18
102
{ACAD_REACTORS
330
17
102
}
330
17
100
AcDbMlineStyle
  2
Standard
 70
     0
  3

 62
   256
 51
90.0
 52
90.0
 71
     2
 49
0.5
 62
   256
  6
BYLAYER
 49
-0.5
 62
   256
  6
BYLAYER
  0
ACDBPLACEHOLDER
  5
F
102
{ACAD_REACTORS
330
E
102
}
330
E
  0
SCALE
  5
48
102
{ACAD_REACTORS
330
47
102
}
330
47
100
AcDbScale
 70
     0
300
1:1
140
1.0
141
1.0
290
     1
  0
SCALE
  5
49
102
{ACAD_REACTORS
330
47
102
}
330
47
100
AcDbScale
 70
     0
300
1:2
140
1.0
141
2.0
290
     0
  0
SCALE
  5
4A
102
{ACAD_REACTORS
330
47
102
}
330
47
100
AcDbScale
 70
     0
300
1:4
140
1.0
141
4.0
290
     0
  0
SCALE
  5
4B
102
{ACAD_REACTORS
330
47
102
}
330
47
100
AcDbScale
 70
     0
300
1:5
140
1.0
141
5.0
290
     0
  0
SCALE
  5
4C
102
{ACAD_REACTORS
330
47
102
}
330
47
100
AcDbScale
 70
     0
300
1:8
140
1.0
141
8.0
290
     0
  0
SCALE
  5
4D
102
{ACAD_REACTORS
330
47
102
}
330
47
100
AcDbScale
 70
     0
300
1:10
140
1.0
141
10.0
290
     0
  0
SCALE
  5
4E
102
{ACAD_REACTORS
330
47
102
}
330
47
100
AcDbScale
 70
     0
300
1:16
140
1.0
141
16.0
290
     0
  0
SCALE
  5
4F
102
{ACAD_REACTORS
330
47
102
}
330
47
100
AcDbScale
 70
     0
300
1:20
140
1.0
141
20.0
290
     0
  0
SCALE
  5
50
102
{ACAD_REACTORS
330
47
102
}
330
47
100
AcDbScale
 70
     0
300
1:30
140
1.0
141
30.0
290
     0
  0
SCALE
  5
51
102
{ACAD_REACTORS
330
47
102
}
330
47
100
AcDbScale
 70
     0
300
1:40
140
1.0
141
40.0
290
     0
  0
SCALE
  5
52
102
{ACAD_REACTORS
330
47
102
}
330
47
100
AcDbScale
 70
     0
300
1:50
140
1.0
141
50.0
290
     0
  0
SCALE
  5
53
102
{ACAD_REACTORS
330
47
102
}
330
47
100
AcDbScale
 70
     0
300
1:100
140
1.0
141
100.0
290
     0
  0
SCALE
  5
54
102
{ACAD_REACTORS
330
47
102
}
330
47
100
AcDbScale
 70
     0
300
2:1
140
2.0
141
1.0
290
     0
  0
SCALE
  5
55
102
{ACAD_REACTORS
330
47
102
}
330
47
100
AcDbScale
 70
     0
300
4:1
140
4.0
141
1.0
290
     0
  0
SCALE
  5
56
102
{ACAD_REACTORS
330
47
102
}
330
47
100
AcDbScale
 70
     0
300
8:1
140
8.0
141
1.0
290
     0
  0
SCALE
  5
57
102
{ACAD_REACTORS
330
47
102
}
330
47
100
AcDbScale
 70
     0
300
10:1
140
10.0
141
1.0
290
     0
  0
SCALE
  5
58
102
{ACAD_REACTORS
330
47
102
}
330
47
100
AcDbScale
 70
     0
300
100:1
140
100.0
141
1.0
290
     0
  0
SCALE
  5
59
102
{ACAD_REACTORS
330
47
102
}
330
47
100
AcDbScale
 70
     0
300
1/128" = 1'-0"
140
0.0078125
141
12.0
290
     0
  0
SCALE
  5
5A
102
{ACAD_REACTORS
330
47
102
}
330
47
100
AcDbScale
 70
     0
300
1/64" = 1'-0"
140
0.015625
141
12.0
290
     0
  0
SCALE
  5
5B
102
{ACAD_REACTORS
330
47
102
}
330
47
100
AcDbScale
 70
     0
300
1/32" = 1'-0"
140
0.03125
141
12.0
290
     0
  0
SCALE
  5
5C
102
{ACAD_REACTORS
330
47
102
}
330
47
100
AcDbScale
 70
     0
300
1/16" = 1'-0"
140
0.0625
141
12.0
290
     0
  0
SCALE
  5
5D
102
{ACAD_REACTORS
330
47
102
}
330
47
100
AcDbScale
 70
     0
300
3/32" = 1'-0"
140
0.09375
141
12.0
290
     0
  0
SCALE
  5
5E
102
{ACAD_REACTORS
330
47
102
}
330
47
100
AcDbScale
 70
     0
300
1/8" = 1'-0"
140
0.125
141
12.0
290
     0
  0
SCALE
  5
5F
102
{ACAD_REACTORS
330
47
102
}
330
47
100
AcDbScale
 70
     0
300
3/16" = 1'-0"
140
0.1875
141
12.0
290
     0
  0
SCALE
  5
60
102
{ACAD_REACTORS
330
47
102
}
330
47
100
AcDbScale
 70
     0
300
1/4" = 1'-0"
140
0.25
141
12.0
290
     0
  0
SCALE
  5
61
102
{ACAD_REACTORS
330
47
102
}
330
47
100
AcDbScale
 70
     0
300
3/8" = 1'-0"
140
0.375
141
12.0
290
     0
  0
SCALE
  5
62
102
{ACAD_REACTORS
330
47
102
}
330
47
100
AcDbScale
 70
     0
300
1/2" = 1'-0"
140
0.5
141
12.0
290
     0
  0
SCALE
  5
63
102
{ACAD_REACTORS
330
47
102
}
330
47
100
AcDbScale
 70
     0
300
3/4" = 1'-0"
140
0.75
141
12.0
290
     0
  0
SCALE
  5
64
102
{ACAD_REACTORS
330
47
102
}
330
47
100
AcDbScale
 70
     0
300
1" = 1'-0"
140
1.0
141
12.0
290
     0
  0
SCALE
  5
65
102
{ACAD_REACTORS
330
47
102
}
330
47
100
AcDbScale
 70
     0
300
1-1/2" = 1'-0"
140
1.5
141
12.0
290
     0
  0
SCALE
  5
66
102
{ACAD_REACTORS
330
47
102
}
330
47
100
AcDbScale
 70
     0
300
3" = 1'-0"
140
3.0
141
12.0
290
     0
  0
SCALE
  5
67
102
{ACAD_REACTORS
330
47
102
}
330
47
100
AcDbScale
 70
     0
300
6" = 1'-0"
140
6.0
141
12.0
290
     0
  0
SCALE
  5
68
102
{ACAD_REACTORS
330
47
102
}
330
47
100
AcDbScale
 70
     0
300
1'-0" = 1'-0"
140
12.0
141
12.0
290
     0
  0
TABLESTYLE
  5
6A
102
{ACAD_REACTORS
330
69
102
}
102
{ACAD_XDICTIONARY
360
EC
102
}
330
69
100
AcDbTableStyle
  3
Standard
 70
     0
 71
     0
 40
0.06
 41
0.06
280
     0
281
     0
  7
Standard
140
0.18
170
     2
 62
     0
 63
   257
283
     0
 90
        4
 91
        0
  1

274
    -2
284
     1
 64
     0
275
    -2
285
     1
 65
     0
276
    -2
286
     1
 66
     0
277
    -2
287
     1
 67
     0
278
    -2
288
     1
 68
     0
279
    -2
289
     1
 69
     0
  7
Standard
140
0.25
170
     5
 62
     0
 63
   257
283
     0
 90
        4
 91
        0
  1

274
    -2
284
     1
 64
     0
275
    -2
285
     1
 65
     0
276
    -2
286
     1
 66
     0
277
    -2
287
     1
 67
     0
278
    -2
288
     1
 68
     0
279
    -2
289
     1
 69
     0
  7
Standard
140
0.18
170
     5
 62
     0
 63
   257
283
     0
 90
        4
 91
        0
  1

274
    -2
284
     1
 64
     0
275
    -2
285
     1
 65
     0
276
    -2
286
     1
 66
     0
277
    -2
287
     1
 67
     0
278
    -2
288
     1
 68
     0
279
    -2
289
     1
 69
     0
  0
VISUALSTYLE
  5
2F
102
{ACAD_REACTORS
330
2A
102
}
102
{ACAD_XDICTIONARY
360
C4
102
}
330
2A
100
AcDbVisualStyle
  2
2dWireframe
 70
     4
 71
     0
 72
     2
 73
     0
 90
        0
 40
0.6
 41
30.0
 62
     5
 63
     7
421
 16777215
 74
     1
 91
        4
 64
     7
 65
   257
 75
     1
175
     1
 42
1.0
 92
        0
 66
   257
 43
1.0
 76
     1
 77
     6
 78
     2
 67
     7
 79
     5
170
     0
171
     0
290
     0
174
     0
 93
        1
 44
0.0
173
     0
291
     0
 45
0.0
  0
VISUALSTYLE
  5
32
102
{ACAD_REACTORS
330
2A
102
}
102
{ACAD_XDICTIONARY
360
CA
102
}
330
2A
100
AcDbVisualStyle
  2
Basic
 70
     7
 71
     1
 72
     0
 73
     1
 90
        0
 40
0.6
 41
30.0
 62
     5
 63
     7
421
 16777215
 74
     0
 91
        4
 64
     7
 65
   257
 75
     1
175
     1
 42
1.0
 92
        8
 66
     7
 43
1.0
 76
     1
 77
     6
 78
     2
 67
     7
 79
     5
170
     0
171
     0
290
     0
174
     0
 93
        1
 44
0.0
173
     0
291
     1
 45
0.0
  0
VISUALSTYLE
  5
36
102
{ACAD_REACTORS
330
2A
102
}
102
{ACAD_XDICTIONARY
360
D2
102
}
330
2A
100
AcDbVisualStyle
  2
Brighten
 70
    12
 71
     2
 72
     2
 73
     0
 90
        0
 40
0.6
 41
30.0
 62
     5
 63
     7
421
 16777215
 74
     1
 91
        4
 64
     7
 65
   257
 75
     1
175
     1
 42
1.0
 92
        8
 66
     7
 43
1.0
 76
     1
 77
     6
 78
     2
 67
     7
 79
     5
170
     0
171
     0
290
     0
174
     0
 93
        1
 44
50.0
173
     0
291
     1
 45
0.0
  0
VISUALSTYLE
  5
3A
102
{ACAD_REACTORS
330
2A
102
}
102
{ACAD_XDICTIONARY
360
DA
102
}
330
2A
100
AcDbVisualStyle
  2
ColorChange
 70
    16
 71
     2
 72
     2
 73
     3
 90
        0
 40
0.6
 41
30.0
 62
     5
 63
     8
421
  8421504
 74
     1
 91
        4
 64
     7
 65
   257
 75
     1
175
     1
 42
1.0
 92
        8
 66
     8
424
  8421504
 43
1.0
 76
     1
 77
     6
 78
     2
 67
     7
 79
     5
170
     0
171
     0
290
     0
174
     0
 93
        1
 44
0.0
173
     0
291
     1
 45
0.0
  0
VISUALSTYLE
  5
34
102
{ACAD_REACTORS
330
2A
102
}
102
{ACAD_XDICTIONARY
360
CE
102
}
330
2A
100
AcDbVisualStyle
  2
Conceptual
 70
     9
 71
     3
 72
     2
 73
     0
 90
        0
 40
0.6
 41
30.0
 62
     5
 63
     7
421
 16777215
 74
     2
 91
        2
 64
     7
 65
   257
 75
     1
175
     1
 42
179.0
 92
        8
 66
     7
 43
1.0
 76
     1
 77
     6
 78
     2
 67
     7
 79
     3
170
     0
171
     0
290
     0
174
     0
 93
        1
 44
0.0
173
     0
291
     0
 45
0.0
  0
VISUALSTYLE
  5
35
102
{ACAD_REACTORS
330
2A
102
}
102
{ACAD_XDICTIONARY
360
D0
102
}
330
2A
100
AcDbVisualStyle
  2
Dim
 70
    11
 71
     2
 72
     2
 73
     0
 90
        0
 40
0.6
 41
30.0
 62
     5
 63
     7
421
 16777215
 74
     1
 91
        4
 64
     7
 65
   257
 75
     1
175
     1
 42
1.0
 92
        8
 66
     7
 43
1.0
 76
     1
 77
     6
 78
     2
 67
     7
 79
     5
170
     0
171
     0
290
     0
174
     0
 93
        1
 44
-50.0
173
     0
291
     1
 45
0.0
  0
VISUALSTYLE
  5
3D
102
{ACAD_REACTORS
330
2A
102
}
102
{ACAD_XDICTIONARY
360
E0
102
}
330
2A
100
AcDbVisualStyle
  2
EdgeColorOff
 70
    22
 71
     2
 72
     2
 73
     0
 90
        0
 40
0.6
 41
30.0
 62
     5
 63
     7
421
 16777215
 74
     1
 91
        4
 64
     7
 65
   257
 75
     1
175
     1
 42
1.0
 92
        8
 66
     7
 43
1.0
 76
     1
 77
     6
 78
     2
 67
     7
 79
     5
170
     0
171
     0
290
     0
174
     0
 93
        1
 44
0.0
173
     0
291
     1
 45
0.0
  0
VISUALSTYLE
  5
39
102
{ACAD_REACTORS
330
2A
102
}
102
{ACAD_XDICTIONARY
360
D8
102
}
330
2A
100
AcDbVisualStyle
  2
Facepattern
 70
    15
 71
     2
 72
     2
 73
     0
 90
        0
 40
0.6
 41
30.0
 62
     5
 63
     7
421
 16777215
 74
     1
 91
        4
 64
     7
 65
   257
 75
     1
175
     1
 42
1.0
 92
        8
 66
     7
 43
1.0
 76
     1
 77
     6
 78
     2
 67
     7
 79
     5
170
     0
171
     0
290
     0
174
     0
 93
        1
 44
0.0
173
     0
291
     1
 45
0.0
  0
VISUALSTYLE
  5
2B
102
{ACAD_REACTORS
330
2A
102
}
102
{ACAD_XDICTIONARY
360
BC
102
}
330
2A
100
AcDbVisualStyle
  2
Flat
 70
     0
 71
     2
 72
     1
 73
     1
 90
        2
 40
0.6
 41
30.0
 62
     5
 63
     7
421
 16777215
 74
     0
 91
        0
 64
     7
 65
   257
 75
     1
175
     1
 42
1.0
 92
        8
 66
     7
 43
1.0
 76
     1
 77
     6
 78
     2
 67
     7
 79
     5
170
     0
171
     0
290
     0
174
     0
 93
       13
 44
0.0
173
     0
291
     1
 45
0.0
  0
VISUALSTYLE
  5
2C
102
{ACAD_REACTORS
330
2A
102
}
102
{ACAD_XDICTIONARY
360
BE
102
}
330
2A
100
AcDbVisualStyle
  2
FlatWithEdges
 70
     1
 71
     2
 72
     1
 73
     1
 90
        2
 40
0.6
 41
30.0
 62
     5
 63
     7
421
 16777215
 74
     1
 91
        0
 64
     7
 65
   257
 75
     1
175
     1
 42
1.0
 92
        0
 66
   257
 43
1.0
 76
     1
 77
     6
 78
     2
 67
     7
 79
     5
170
     0
171
     0
290
     0
174
     0
 93
       13
 44
0.0
173
     0
291
     1
 45
0.0
  0
VISUALSTYLE
  5
2D
102
{ACAD_REACTORS
330
2A
102
}
102
{ACAD_XDICTIONARY
360
C0
102
}
330
2A
100
AcDbVisualStyle
  2
Gouraud
 70
     2
 71
     2
 72
     2
 73
     1
 90
        2
 40
0.6
 41
30.0
 62
     5
 63
     7
421
 16777215
 74
     0
 91
        0
 64
     7
 65
   257
 75
     1
175
     1
 42
1.0
 92
        0
 66
     7
 43
1.0
 76
     1
 77
     6
 78
     2
 67
     7
 79
     5
170
     0
171
     0
290
     0
174
     0
 93
       13
 44
0.0
173
     0
291
     1
 45
0.0
  0
VISUALSTYLE
  5
2E
102
{ACAD_REACTORS
330
2A
102
}
102
{ACAD_XDICTIONARY
360
C2
102
}
330
2A
100
AcDbVisualStyle
  2
GouraudWithEdges
 70
     3
 71
     2
 72
     2
 73
     1
 90
        2
 40
0.6
 41
30.0
 62
     5
 63
     7
421
 16777215
 74
     1
 91
        0
 64
     7
 65
   257
 75
     1
175
     1
 42
1.0
 92
        0
 66
   257
 43
1.0
 76
     1
 77
     6
 78
     2
 67
     7
 79
     5
170
     0
171
     0
290
     0
174
     0
 93
       13
 44
0.0
173
     0
291
     1
 45
0.0
  0
VISUALSTYLE
  5
31
102
{ACAD_REACTORS
330
2A
102
}
102
{ACAD_XDICTIONARY
360
C8
102
}
330
2A
100
AcDbVisualStyle
  2
Hidden
 70
     6
 71
     1
 72
     2
 73
     2
 90
        0
 40
0.6
 41
30.0
 62
     5
 63
     7
421
 16777215
 74
     2
 91
        2
 64
     7
 65
   257
 75
     2
175
     1
 42
40.0
 92
        0
 66
   257
 43
1.0
 76
     1
 77
     6
 78
     2
 67
     7
 79
     3
170
     0
171
     0
290
     0
174
     0
 93
        1
 44
0.0
173
     0
291
     0
 45
0.0
  0
VISUALSTYLE
  5
3B
102
{ACAD_REACTORS
330
2A
102
}
102
{ACAD_XDICTIONARY
360
DC
102
}
330
2A
100
AcDbVisualStyle
  2
JitterOff
 70
    20
 71
     2
 72
     2
 73
     0
 90
        0
 40
0.6
 41
30.0
 62
     5
 63
     7
421
 16777215
 74
     1
 91
        4
 64
     7
 65
   257
 75
     1
175
     1
 42
1.0
 92
       10
 66
     7
 43
1.0
 76
     1
 77
     6
 78
     2
 67
     7
 79
     5
170
     0
171
     0
290
     0
174
     0
 93
        1
 44
0.0
173
     0
291
     1
 45
0.0
  0
VISUALSTYLE
  5
38
102
{ACAD_REACTORS
330
2A
102
}
102
{ACAD_XDICTIONARY
360
D6
102
}
330
2A
100
AcDbVisualStyle
  2
Linepattern
 70
    14
 71
     2
 72
     2
 73
     0
 90
        0
 40
0.6
 41
30.0
 62
     5
 63
     7
421
 16777215
 74
     1
 91
        4
 64
     7
 65
   257
 75
     7
175
     7
 42
1.0
 92
        8
 66
     7
 43
1.0
 76
     1
 77
     6
 78
     2
 67
     7
 79
     5
170
     0
171
     0
290
     0
174
     0
 93
        1
 44
0.0
173
     0
291
     1
 45
0.0
  0
VISUALSTYLE
  5
3C
102
{ACAD_REACTORS
330
2A
102
}
102
{ACAD_XDICTIONARY
360
DE
102
}
330
2A
100
AcDbVisualStyle
  2
OverhangOff
 70
    21
 71
     2
 72
     2
 73
     0
 90
        0
 40
0.6
 41
30.0
 62
     5
 63
     7
421
 16777215
 74
     1
 91
        4
 64
     7
 65
   257
 75
     1
175
     1
 42
1.0
 92
        9
 66
     7
 43
1.0
 76
     1
 77
     6
 78
     2
 67
     7
 79
     5
170
     0
171
     0
290
     0
174
     0
 93
        1
 44
0.0
173
     0
291
     1
 45
0.0
  0
VISUALSTYLE
  5
33
102
{ACAD_REACTORS
330
2A
102
}
102
{ACAD_XDICTIONARY
360
CC
102
}
330
2A
100
AcDbVisualStyle
  2
Realistic
 70
     8
 71
     2
 72
     3
 73
     0
 90
        2
 40
0.6
 41
30.0
 62
     5
 63
     7
421
 16777215
 74
     0
 91
        0
 64
     7
 65
   257
 75
     1
175
     1
 42
1.0
 92
        8
 66
   257
 43
1.0
 76
     1
 77
     6
 78
     2
 67
     7
 79
     3
170
     0
171
     0
290
     0
174
     0
 93
       13
 44
0.0
173
     0
291
     0
 45
0.0
  0
VISUALSTYLE
  5
42
102
{ACAD_REACTORS
330
2A
102
}
102
{ACAD_XDICTIONARY
360
EA
102
}
330
2A
100
AcDbVisualStyle
  2
Shaded
 70
    27
 71
     2
 72
     2
 73
     1
 90
        2
 40
0.6
 41
30.0
 62
     5
 63
     7
421
 16777215
 74
     0
 91
        4
 64
     7
 65
   257
 75
     1
175
     1
 42
1.0
 92
        8
 66
   257
 43
1.0
 76
     1
 77
     6
 78
     2
 67
     8
425
  7895160
 79
     3
170
     0
171
     0
290
     0
174
     0
 93
        5
 44
0.0
173
     0
291
     0
 45
0.0
  0
VISUALSTYLE
  5
41
102
{ACAD_REACTORS
330
2A
102
}
102
{ACAD_XDICTIONARY
360
E8
102
}
330
2A
100
AcDbVisualStyle
  2
Shaded with edges
 70
    26
 71
     2
 72
     2
 73
     1
 90
        2
 40
0.6
 41
30.0
 62
     5
 63
     7
421
 16777215
 74
     1
 91
       10
 64
     7
 65
   257
 75
     2
175
     1
 42
1.0
 92
        8
 66
   257
 43
1.0
 76
     1
 77
     6
 78
     2
 67
     7
 79
     3
170
     0
171
     0
290
     0
174
     0
 93
        5
 44
0.0
173
     0
291
     0
 45
0.0
  0
VISUALSTYLE
  5
3E
102
{ACAD_REACTORS
330
2A
102
}
102
{ACAD_XDICTIONARY
360
E2
102
}
330
2A
100
AcDbVisualStyle
  2
Shades of Gray
 70
    23
 71
     2
 72
     2
 73
     3
 90
        0
 40
0.6
 41
30.0
 62
     5
 63
     7
421
 16777215
 74
     2
 91
        2
 64
     7
 65
     7
 75
     1
175
     1
 42
40.0
 92
        8
 66
     7
 43
1.0
 76
     1
 77
     6
 78
     2
 67
     7
 79
     3
170
     0
171
     0
290
     0
174
     0
 93
        1
 44
0.0
173
     0
291
     0
 45
0.0
  0
VISUALSTYLE
  5
3F
102
{ACAD_REACTORS
330
2A
102
}
102
{ACAD_XDICTIONARY
360
E4
102
}
330
2A
100
AcDbVisualStyle
  2
Sketchy
 70
    24
 71
     1
 72
     2
 73
     2
 90
        0
 40
0.6
 41
30.0
 62
     5
 63
     7
421
 16777215
 74
     2
 91
        2
 64
     7
 65
     7
 75
     1
175
     1
 42
40.0
 92
       11
 66
     7
 43
1.0
 76
     1
 77
     6
 78
     2
 67
     7
 79
     6
170
     0
171
     0
290
     0
174
     0
 93
        1
 44
0.0
173
     0
291
     0
 45
0.0
  0
VISUALSTYLE
  5
37
102
{ACAD_REACTORS
330
2A
102
}
102
{ACAD_XDICTIONARY
360
D4
102
}
330
2A
100
AcDbVisualStyle
  2
Thicken
 70
    13
 71
     2
 72
     2
 73
     0
 90
        0
 40
0.6
 41
30.0
 62
     5
 63
     7
421
 16777215
 74
     1
 91
        4
 64
     7
 65
   257
 75
     1
175
     1
 42
1.0
 92
       12
 66
     7
 43
1.0
 76
     1
 77
     6
 78
     2
 67
     7
 79
     5
170
     0
171
     0
290
     0
174
     0
 93
        1
 44
0.0
173
     0
291
     1
 45
0.0
  0
VISUALSTYLE
  5
30
102
{ACAD_REACTORS
330
2A
102
}
102
{ACAD_XDICTIONARY
360
C6
102
}
330
2A
100
AcDbVisualStyle
  2
Wireframe
 70
     5
 71
     0
 72
     2
 73
     0
 90
        0
 40
0.6
 41
30.0
 62
     5
 63
     7
421
 16777215
 74
     1
 91
        4
 64
     7
 65
   257
 75
     1
175
     1
 42
1.0
 92
        0
 66
   257
 43
1.0
 76
     1
 77
     6
 78
     2
 67
     7
 79
     3
170
     0
171
     0
290
     0
174
     0
 93
        1
 44
0.0
173
     0
291
     0
 45
0.0
  0
VISUALSTYLE
  5
40
102
{ACAD_REACTORS
330
2A
102
}
102
{ACAD_XDICTIONARY
360
E6
102
}
330
2A
100
AcDbVisualStyle
  2
X-Ray
 70
    25
 71
     2
 72
     2
 73
     1
 90
        1
 40
0.5
 41
30.0
 62
     5
 63
     7
421
 16777215
 74
     1
 91
        0
 64
     7
 65
   257
 75
     1
175
     1
 42
1.0
 92
        8
 66
     7
 43
1.0
 76
     1
 77
     6
 78
     2
 67
     7
 79
     3
170
     0
171
     0
290
     0
174
     0
 93
       13
 44
0.0
173
     0
291
     0
 45
0.0
  0
DICTIONARYVAR
  5
BA
102
{ACAD_REACTORS
330
B9
102
}
330
B9
100
DictionaryVariables
280
     0
  1
1:1
  0
DICTIONARYVAR
  5
F3
102
{ACAD_REACTORS
330
B9
102
}
330
B9
100
DictionaryVariables
280
     0
  1
Standard
  0
DICTIONARYVAR
  5
F2
102
{ACAD_REACTORS
330
B9
102
}
330
B9
100
DictionaryVariables
280
     0
  1
Standard
  0
DICTIONARYVAR
  5
BB
102
{ACAD_REACTORS
330
B9
102
}
330
B9
100
DictionaryVariables
280
     0
  1
2
  0
DICTIONARY
  5
EF
330
6C
100
AcDbDictionary
280
     1
281
     1
  3
ACAD_XREC_ROUNDTRIP
360
F0
  0
DICTIONARY
  5
EC
330
6A
100
AcDbDictionary
280
     1
281
     1
  3
ACAD_ROUNDTRIP_2008_TABLESTYLE_CELLSTYLEMAP
360
ED
  0
DICTIONARY
  5
C4
330
2F
100
AcDbDictionary
280
     1
281
     1
  3
ACAD_XREC_ROUNDTRIP
360
C5
  0
DICTIONARY
  5
CA
330
32
100
AcDbDictionary
280
     1
281
     1
  3
ACAD_XREC_ROUNDTRIP
360
CB
  0
DICTIONARY
  5
D2
330
36
100
AcDbDictionary
280
     1
281
     1
  3
ACAD_XREC_ROUNDTRIP
360
D3
  0
DICTIONARY
  5
DA
330
3A
100
AcDbDictionary
280
     1
281
     1
  3
ACAD_XREC_ROUNDTRIP
360
DB
  0
DICTIONARY
  5
CE
330
34
100
AcDbDictionary
280
     1
281
     1
  3
ACAD_XREC_ROUNDTRIP
360
CF
  0
DICTIONARY
  5
D0
330
35
100
AcDbDictionary
280
     1
281
     1
  3
ACAD_XREC_ROUNDTRIP
360
D1
  0
DICTIONARY
  5
E0
330
3D
100
AcDbDictionary
280
     1
281
     1
  3
ACAD_XREC_ROUNDTRIP
360
E1
  0
DICTIONARY
  5
D8
330
39
100
AcDbDictionary
280
     1
281
     1
  3
ACAD_XREC_ROUNDTRIP
360
D9
  0
DICTIONARY
  5
BC
330
2B
100
AcDbDictionary
280
     1
281
     1
  3
ACAD_XREC_ROUNDTRIP
360
BD
  0
DICTIONARY
  5
BE
330
2C
100
AcDbDictionary
280
     1
281
     1
  3
ACAD_XREC_ROUNDTRIP
360
BF
  0
DICTIONARY
  5
C0
330
2D
100
AcDbDictionary
280
     1
281
     1
  3
ACAD_XREC_ROUNDTRIP
360
C1
  0
DICTIONARY
  5
C2
330
2E
100
AcDbDictionary
280
     1
281
     1
  3
ACAD_XREC_ROUNDTRIP
360
C3
  0
DICTIONARY
  5
C8
330
31
100
AcDbDictionary
280
     1
281
     1
  3
ACAD_XREC_ROUNDTRIP
360
C9
  0
DICTIONARY
  5
DC
330
3B
100
AcDbDictionary
280
     1
281
     1
  3
ACAD_XREC_ROUNDTRIP
360
DD
  0
DICTIONARY
  5
D6
330
38
100
AcDbDictionary
280
     1
281
     1
  3
ACAD_XREC_ROUNDTRIP
360
D7
  0
DICTIONARY
  5
DE
330
3C
100
AcDbDictionary
280
     1
281
     1
  3
ACAD_XREC_ROUNDTRIP
360
DF
  0
DICTIONARY
  5
CC
330
33
100
AcDbDictionary
280
     1
281
     1
  3
ACAD_XREC_ROUNDTRIP
360
CD
  0
DICTIONARY
  5
EA
330
42
100
AcDbDictionary
280
     1
281
     1
  3
ACAD_XREC_ROUNDTRIP
360
EB
  0
DICTIONARY
  5
E8
330
41
100
AcDbDictionary
280
     1
281
     1
  3
ACAD_XREC_ROUNDTRIP
360
E9
  0
DICTIONARY
  5
E2
330
3E
100
AcDbDictionary
280
     1
281
     1
  3
ACAD_XREC_ROUNDTRIP
360
E3
  0
DICTIONARY
  5
E4
330
3F
100
AcDbDictionary
280
     1
281
     1
  3
ACAD_XREC_ROUNDTRIP
360
E5
  0
DICTIONARY
  5
D4
330
37
100
AcDbDictionary
280
     1
281
     1
  3
ACAD_XREC_ROUNDTRIP
360
D5
  0
DICTIONARY
  5
C6
330
30
100
AcDbDictionary
280
     1
281
     1
  3
ACAD_XREC_ROUNDTRIP
360
C7
  0
DICTIONARY
  5
E6
330
40
100
AcDbDictionary
280
     1
281
     1
  3
ACAD_XREC_ROUNDTRIP
360
E7
  0
XRECORD
  5
F0
102
{ACAD_REACTORS
330
EF
102
}
330
EF
100
AcDbXrecord
280
     1
102
ACAD_ROUNDTRIP_2010_MLEADER_STYLE
  0
CELLSTYLEMAP
  5
ED
102
{ACAD_REACTORS
330
EC
102
}
330
EC
100
AcDbCellStyleMap
 90
        3
300
CELLSTYLE
  1
TABLEFORMAT_BEGIN
 90
        5
170
     1
 91
        0
 92
    32768
 62
   257
 93
        1
300
CONTENTFORMAT
  1
CONTENTFORMAT_BEGIN
 90
        0
 91
        0
 92
        4
 93
        0
300

 40
0.0
140
1.0
 94
        5
 62
     0
340
11
144
0.25
309
CONTENTFORMAT_END
171
     1
301
MARGIN
  1
CELLMARGIN_BEGIN
 40
0.06
 40
0.06
 40
0.06
 40
0.06
 40
0.06
 40
0.06
309
CELLMARGIN_END
 94
        6
 95
        1
302
GRIDFORMAT
  1
GRIDFORMAT_BEGIN
 90
        0
 91
        1
 62
     0
 92
       -2
340
14
 93
        0
 40
0.045
309
GRIDFORMAT_END
 95
        2
302
GRIDFORMAT
  1
GRIDFORMAT_BEGIN
 90
        0
 91
        1
 62
     0
 92
       -2
340
14
 93
        0
 40
0.045
309
GRIDFORMAT_END
 95
        4
302
GRIDFORMAT
  1
GRIDFORMAT_BEGIN
 90
        0
 91
        1
 62
     0
 92
       -2
340
14
 93
        0
 40
0.045
309
GRIDFORMAT_END
 95
        8
302
GRIDFORMAT
  1
GRIDFORMAT_BEGIN
 90
        0
 91
        1
 62
     0
 92
       -2
340
14
 93
        0
 40
0.045
309
GRIDFORMAT_END
 95
       16
302
GRIDFORMAT
  1
GRIDFORMAT_BEGIN
 90
        0
 91
        1
 62
     0
 92
       -2
340
14
 93
        0
 40
0.045
309
GRIDFORMAT_END
 95
       32
302
GRIDFORMAT
  1
GRIDFORMAT_BEGIN
 90
        0
 91
        1
 62
     0
 92
       -2
340
14
 93
        0
 40
0.045
309
GRIDFORMAT_END
309
TABLEFORMAT_END
  1
CELLSTYLE_BEGIN
 90
        1
 91
        1
300
_TITLE
309
CELLSTYLE_END
300
CELLSTYLE
  1
TABLEFORMAT_BEGIN
 90
        5
170
     1
 91
        0
 92
        0
 62
   257
 93
        1
300
CONTENTFORMAT
  1
CONTENTFORMAT_BEGIN
 90
        0
 91
        0
 92
        4
 93
        0
300

 40
0.0
140
1.0
 94
        5
 62
     0
340
11
144
0.18
309
CONTENTFORMAT_END
171
     1
301
MARGIN
  1
CELLMARGIN_BEGIN
 40
0.06
 40
0.06
 40
0.06
 40
0.06
 40
0.06
 40
0.06
309
CELLMARGIN_END
 94
        6
 95
        1
302
GRIDFORMAT
  1
GRIDFORMAT_BEGIN
 90
        0
 91
        1
 62
     0
 92
       -2
340
14
 93
        0
 40
0.045
309
GRIDFORMAT_END
 95
        2
302
GRIDFORMAT
  1
GRIDFORMAT_BEGIN
 90
        0
 91
        1
 62
     0
 92
       -2
340
14
 93
        0
 40
0.045
309
GRIDFORMAT_END
 95
        4
302
GRIDFORMAT
  1
GRIDFORMAT_BEGIN
 90
        0
 91
        1
 62
     0
 92
       -2
340
14
 93
        0
 40
0.045
309
GRIDFORMAT_END
 95
        8
302
GRIDFORMAT
  1
GRIDFORMAT_BEGIN
 90
        0
 91
        1
 62
     0
 92
       -2
340
14
 93
        0
 40
0.045
309
GRIDFORMAT_END
 95
       16
302
GRIDFORMAT
  1
GRIDFORMAT_BEGIN
 90
        0
 91
        1
 62
     0
 92
       -2
340
14
 93
        0
 40
0.045
309
GRIDFORMAT_END
 95
       32
302
GRIDFORMAT
  1
GRIDFORMAT_BEGIN
 90
        0
 91
        1
 62
     0
 92
       -2
340
14
 93
        0
 40
0.045
309
GRIDFORMAT_END
309
TABLEFORMAT_END
  1
CELLSTYLE_BEGIN
 90
        2
 91
        1
300
_HEADER
309
CELLSTYLE_END
300
CELLSTYLE
  1
TABLEFORMAT_BEGIN
 90
        5
170
     1
 91
        0
 92
        0
 62
   257
 93
        1
300
CONTENTFORMAT
  1
CONTENTFORMAT_BEGIN
 90
        0
 91
        0
 92
        4
 93
        0
300

 40
0.0
140
1.0
 94
        2
 62
     0
340
11
144
0.18
309
CONTENTFORMAT_END
171
     1
301
MARGIN
  1
CELLMARGIN_BEGIN
 40
0.06
 40
0.06
 40
0.06
 40
0.06
 40
0.06
 40
0.06
309
CELLMARGIN_END
 94
        6
 95
        1
302
GRIDFORMAT
  1
GRIDFORMAT_BEGIN
 90
        0
 91
        1
 62
     0
 92
       -2
340
14
 93
        0
 40
0.045
309
GRIDFORMAT_END
 95
        2
302
GRIDFORMAT
  1
GRIDFORMAT_BEGIN
 90
        0
 91
        1
 62
     0
 92
       -2
340
14
 93
        0
 40
0.045
309
GRIDFORMAT_END
 95
        4
302
GRIDFORMAT
  1
GRIDFORMAT_BEGIN
 90
        0
 91
        1
 62
     0
 92
       -2
340
14
 93
        0
 40
0.045
309
GRIDFORMAT_END
 95
        8
302
GRIDFORMAT
  1
GRIDFORMAT_BEGIN
 90
        0
 91
        1
 62
     0
 92
       -2
340
14
 93
        0
 40
0.045
309
GRIDFORMAT_END
 95
       16
302
GRIDFORMAT
  1
GRIDFORMAT_BEGIN
 90
        0
 91
        1
 62
     0
 92
       -2
340
14
 93
        0
 40
0.045
309
GRIDFORMAT_END
 95
       32
302
GRIDFORMAT
  1
GRIDFORMAT_BEGIN
 90
        0
 91
        1
 62
     0
 92
       -2
340
14
 93
        0
 40
0.045
309
GRIDFORMAT_END
309
TABLEFORMAT_END
  1
CELLSTYLE_BEGIN
 90
        3
 91
        2
300
_DATA
309
CELLSTYLE_END
  0
XRECORD
  5
C5
102
{ACAD_REACTORS
330
C4
102
}
330
C4
100
AcDbXrecord
280
     1
102
RTVSPropertyOp0
 70
     1
102
RTVSPropertyOp1
 70
     1
102
RTVSPropertyOp2
 70
     1
102
RTVSPropertyOp3
 70
     1
102
RTVSPropertyOp4
 70
     1
102
RTVSPropertyOp5
 70
     1
102
RTVSPropertyOp6
 70
     1
102
RTVSPropertyOp7
 70
     1
102
RTVSPropertyOp8
 70
     1
102
RTVSPropertyOp9
 70
     1
102
RTVSPropertyOp10
 70
     1
102
RTVSPropertyOp11
 70
     1
102
RTVSPropertyOp12
 70
     1
102
RTVSPropertyOp13
 70
     1
102
RTVSPropertyOp14
 70
     1
102
RTVSPropertyOp15
 70
     1
102
RTVSPropertyOp16
 70
     1
102
RTVSPropertyOp17
 70
     1
102
RTVSPropertyOp18
 70
     1
102
RTVSPropertyOp19
 70
     1
102
RTVSPropertyOp20
 70
     1
102
RTVSPropertyOp21
 70
     1
102
RTVSPropertyOp22
 70
     1
102
RTVSPropertyOp23
 70
     1
102
RTVSPropertyOp24
 70
     1
102
RTVSPropertyOp25
 70
     1
102
RTVSPropertyOp26
 70
     1
102
RTVSPropertyOp27
 70
     1
102
RTVSPropertyOp28
 70
     1
102
RTVSPropertyOp29
 70
     1
102
RTVSPropertyOp30
 70
     1
102
RTVSPropertyOp31
 70
     1
102
RTVSPropertyOp32
 70
     1
102
RTVSPropertyOp33
 70
     1
102
RTVSPropertyOp34
 70
     1
102
RTVSPropertyOp35
 70
     1
102
RTVSPropertyOp36
 70
     1
102
RTVSPropertyOp37
 70
     1
102
RTVSPropertyOp38
 70
     1
102
RTVSPropertyOp39
 70
     1
102
RTVSPropertyOp40
 70
     1
102
RTVSPropertyOp41
 70
     1
102
RTVSPropertyOp42
 70
     1
102
RTVSPropertyOp43
 70
     1
102
RTVSPropertyOp44
 70
     1
102
RTVSPropertyOp45
 70
     1
102
RTVSPropertyOp46
 70
     1
102
RTVSPropertyOp47
 70
     1
102
RTVSPropertyOp48
 70
     1
102
RTVSPropertyOp49
 70
     1
102
RTVSPropertyOp50
 70
     1
102
RTVSPropertyOp51
 70
     0
102
RTVSPropertyOp52
 70
     0
102
RTVSPropertyOp53
 70
     1
102
RTVSPropertyOp54
 70
     1
102
RTVSPropertyOp55
 70
     1
102
RTVSPropertyOp56
 70
     1
102
RTVSPropertyOp57
 70
     1
102
RTVSPost2010Prop28
280
     1
102
RTVSPost2010PropOp28
 70
     1
102
RTVSPost2010Prop29
280
     1
102
RTVSPost2010PropOp29
 70
     1
102
RTVSPost2010Prop30
280
     0
102
RTVSPost2010PropOp30
 70
     1
102
RTVSPost2010Prop31
280
     0
102
RTVSPost2010PropOp31
 70
     1
102
RTVSPost2010Prop32
280
     0
102
RTVSPost2010PropOp32
 70
     1
102
RTVSPost2010Prop33
280
     0
102
RTVSPost2010PropOp33
 70
     1
102
RTVSPost2010Prop34
280
     0
102
RTVSPost2010PropOp34
 70
     1
102
RTVSPost2010Prop35
280
     0
102
RTVSPost2010PropOp35
 70
     1
102
RTVSPost2010Prop36
280
     0
102
RTVSPost2010PropOp36
 70
     1
102
RTVSPost2010Prop37
 90
       50
102
RTVSPost2010PropOp37
 70
     1
102
RTVSPost2010Prop38
140
0.0
102
RTVSPost2010PropOp38
 70
     1
102
RTVSPost2010Prop39
140
1.0
102
RTVSPost2010PropOp39
 70
     1
102
RTVSPost2010Prop40
 90
        0
102
RTVSPost2010PropOp40
 70
     1
102
RTVSPost2010Prop41ColorIndex
 90
      178
102
RTVSPost2010Prop41ColorRGB
 90
        0
102
RTVSPost2010PropOp41
 70
     1
102
RTVSPost2010Prop42
 90
       50
102
RTVSPost2010PropOp42
 70
     1
102
RTVSPost2010Prop43
 90
        3
102
RTVSPost2010PropOp43
 70
     1
102
RTVSPost2010Prop44ColorIndex
 90
        5
102
RTVSPost2010Prop44ColorRGB
 90
      255
102
RTVSPost2010PropOp44
 70
     1
102
RTVSPost2010Prop45
280
     0
102
RTVSPost2010PropOp45
 70
     1
102
RTVSPost2010Prop46
 90
       50
102
RTVSPost2010PropOp46
 70
     1
102
RTVSPost2010Prop47
 90
       50
102
RTVSPost2010PropOp47
 70
     1
102
RTVSPost2010Prop48
 90
       50
102
RTVSPost2010PropOp48
 70
     1
102
RTVSPost2010Prop49
280
     0
102
RTVSPost2010PropOp49
 70
     1
102
RTVSPost2010Prop50
 90
       50
102
RTVSPost2010PropOp50
 70
     1
102
RTVSPost2010Prop51ColorIndex
 90
      256
102
RTVSPost2010Prop51ColorRGB
 90
-16777216
102
RTVSPost2010PropOp51
 70
     0
102
RTVSPost2010Prop52
140
1.0
102
RTVSPost2010PropOp52
 70
     0
102
RTVSPost2010Prop53
 90
        2
102
RTVSPost2010PropOp53
 70
     1
102
RTVSPost2010Prop54
  1
strokes_ogs.tif
102
RTVSPost2010PropOp54
 70
     1
102
RTVSPost2010Prop55
280
     0
102
RTVSPost2010PropOp55
 70
     1
102
RTVSPost2010Prop56
140
1.0
102
RTVSPost2010PropOp56
 70
     1
102
RTVSPost2010Prop57
140
1.0
102
RTVSPost2010PropOp57
 70
     1
  0
XRECORD
  5
CB
102
{ACAD_REACTORS
330
CA
102
}
330
CA
100
AcDbXrecord
280
     1
102
RTVSPropertyOp0
 70
     1
102
RTVSPropertyOp1
 70
     1
102
RTVSPropertyOp2
 70
     1
102
RTVSPropertyOp3
 70
     1
102
RTVSPropertyOp4
 70
     1
102
RTVSPropertyOp5
 70
     1
102
RTVSPropertyOp6
 70
     1
102
RTVSPropertyOp7
 70
     1
102
RTVSPropertyOp8
 70
     1
102
RTVSPropertyOp9
 70
     1
102
RTVSPropertyOp10
 70
     1
102
RTVSPropertyOp11
 70
     1
102
RTVSPropertyOp12
 70
     1
102
RTVSPropertyOp13
 70
     1
102
RTVSPropertyOp14
 70
     1
102
RTVSPropertyOp15
 70
     1
102
RTVSPropertyOp16
 70
     1
102
RTVSPropertyOp17
 70
     1
102
RTVSPropertyOp18
 70
     1
102
RTVSPropertyOp19
 70
     1
102
RTVSPropertyOp20
 70
     1
102
RTVSPropertyOp21
 70
     1
102
RTVSPropertyOp22
 70
     1
102
RTVSPropertyOp23
 70
     1
102
RTVSPropertyOp24
 70
     1
102
RTVSPropertyOp25
 70
     1
102
RTVSPropertyOp26
 70
     1
102
RTVSPropertyOp27
 70
     1
102
RTVSPropertyOp28
 70
     1
102
RTVSPropertyOp29
 70
     1
102
RTVSPropertyOp30
 70
     1
102
RTVSPropertyOp31
 70
     1
102
RTVSPropertyOp32
 70
     1
102
RTVSPropertyOp33
 70
     1
102
RTVSPropertyOp34
 70
     1
102
RTVSPropertyOp35
 70
     1
102
RTVSPropertyOp36
 70
     1
102
RTVSPropertyOp37
 70
     1
102
RTVSPropertyOp38
 70
     1
102
RTVSPropertyOp39
 70
     1
102
RTVSPropertyOp40
 70
     1
102
RTVSPropertyOp41
 70
     1
102
RTVSPropertyOp42
 70
     1
102
RTVSPropertyOp43
 70
     1
102
RTVSPropertyOp44
 70
     1
102
RTVSPropertyOp45
 70
     1
102
RTVSPropertyOp46
 70
     1
102
RTVSPropertyOp47
 70
     1
102
RTVSPropertyOp48
 70
     1
102
RTVSPropertyOp49
 70
     1
102
RTVSPropertyOp50
 70
     1
102
RTVSPropertyOp51
 70
     0
102
RTVSPropertyOp52
 70
     0
102
RTVSPropertyOp53
 70
     1
102
RTVSPropertyOp54
 70
     1
102
RTVSPropertyOp55
 70
     1
102
RTVSPropertyOp56
 70
     1
102
RTVSPropertyOp57
 70
     1
102
RTVSPost2010Prop28
280
     0
102
RTVSPost2010PropOp28
 70
     1
102
RTVSPost2010Prop29
280
     1
102
RTVSPost2010PropOp29
 70
     1
102
RTVSPost2010Prop30
280
     1
102
RTVSPost2010PropOp30
 70
     1
102
RTVSPost2010Prop31
280
     0
102
RTVSPost2010PropOp31
 70
     1
102
RTVSPost2010Prop32
280
     0
102
RTVSPost2010PropOp32
 70
     1
102
RTVSPost2010Prop33
280
     0
102
RTVSPost2010PropOp33
 70
     1
102
RTVSPost2010Prop34
280
     0
102
RTVSPost2010PropOp34
 70
     1
102
RTVSPost2010Prop35
280
     0
102
RTVSPost2010PropOp35
 70
     1
102
RTVSPost2010Prop36
280
     0
102
RTVSPost2010PropOp36
 70
     1
102
RTVSPost2010Prop37
 90
       50
102
RTVSPost2010PropOp37
 70
     1
102
RTVSPost2010Prop38
140
0.0
102
RTVSPost2010PropOp38
 70
     1
102
RTVSPost2010Prop39
140
1.0
102
RTVSPost2010PropOp39
 70
     1
102
RTVSPost2010Prop40
 90
        0
102
RTVSPost2010PropOp40
 70
     1
102
RTVSPost2010Prop41ColorIndex
 90
      178
102
RTVSPost2010Prop41ColorRGB
 90
        0
102
RTVSPost2010PropOp41
 70
     1
102
RTVSPost2010Prop42
 90
       50
102
RTVSPost2010PropOp42
 70
     1
102
RTVSPost2010Prop43
 90
        3
102
RTVSPost2010PropOp43
 70
     1
102
RTVSPost2010Prop44ColorIndex
 90
        5
102
RTVSPost2010Prop44ColorRGB
 90
      255
102
RTVSPost2010PropOp44
 70
     1
102
RTVSPost2010Prop45
280
     0
102
RTVSPost2010PropOp45
 70
     1
102
RTVSPost2010Prop46
 90
       50
102
RTVSPost2010PropOp46
 70
     1
102
RTVSPost2010Prop47
 90
       50
102
RTVSPost2010PropOp47
 70
     1
102
RTVSPost2010Prop48
 90
       50
102
RTVSPost2010PropOp48
 70
     1
102
RTVSPost2010Prop49
280
     0
102
RTVSPost2010PropOp49
 70
     1
102
RTVSPost2010Prop50
 90
       50
102
RTVSPost2010PropOp50
 70
     1
102
RTVSPost2010Prop51ColorIndex
 90
      256
102
RTVSPost2010Prop51ColorRGB
 90
-16777216
102
RTVSPost2010PropOp51
 70
     0
102
RTVSPost2010Prop52
140
1.0
102
RTVSPost2010PropOp52
 70
     0
102
RTVSPost2010Prop53
 90
        2
102
RTVSPost2010PropOp53
 70
     1
102
RTVSPost2010Prop54
  1
strokes_ogs.tif
102
RTVSPost2010PropOp54
 70
     1
102
RTVSPost2010Prop55
280
     0
102
RTVSPost2010PropOp55
 70
     1
102
RTVSPost2010Prop56
140
1.0
102
RTVSPost2010PropOp56
 70
     1
102
RTVSPost2010Prop57
140
1.0
102
RTVSPost2010PropOp57
 70
     1
  0
XRECORD
  5
D3
102
{ACAD_REACTORS
330
D2
102
}
330
D2
100
AcDbXrecord
280
     1
102
RTVSPropertyOp0
 70
     1
102
RTVSPropertyOp1
 70
     1
102
RTVSPropertyOp2
 70
     1
102
RTVSPropertyOp3
 70
     1
102
RTVSPropertyOp4
 70
     1
102
RTVSPropertyOp5
 70
     1
102
RTVSPropertyOp6
 70
     1
102
RTVSPropertyOp7
 70
     1
102
RTVSPropertyOp8
 70
     1
102
RTVSPropertyOp9
 70
     1
102
RTVSPropertyOp10
 70
     1
102
RTVSPropertyOp11
 70
     1
102
RTVSPropertyOp12
 70
     1
102
RTVSPropertyOp13
 70
     1
102
RTVSPropertyOp14
 70
     1
102
RTVSPropertyOp15
 70
     1
102
RTVSPropertyOp16
 70
     1
102
RTVSPropertyOp17
 70
     1
102
RTVSPropertyOp18
 70
     1
102
RTVSPropertyOp19
 70
     1
102
RTVSPropertyOp20
 70
     1
102
RTVSPropertyOp21
 70
     1
102
RTVSPropertyOp22
 70
     1
102
RTVSPropertyOp23
 70
     1
102
RTVSPropertyOp24
 70
     1
102
RTVSPropertyOp25
 70
     1
102
RTVSPropertyOp26
 70
     1
102
RTVSPropertyOp27
 70
     1
102
RTVSPropertyOp28
 70
     1
102
RTVSPropertyOp29
 70
     1
102
RTVSPropertyOp30
 70
     1
102
RTVSPropertyOp31
 70
     1
102
RTVSPropertyOp32
 70
     1
102
RTVSPropertyOp33
 70
     1
102
RTVSPropertyOp34
 70
     1
102
RTVSPropertyOp35
 70
     1
102
RTVSPropertyOp36
 70
     1
102
RTVSPropertyOp37
 70
     1
102
RTVSPropertyOp38
 70
     1
102
RTVSPropertyOp39
 70
     1
102
RTVSPropertyOp40
 70
     1
102
RTVSPropertyOp41
 70
     1
102
RTVSPropertyOp42
 70
     1
102
RTVSPropertyOp43
 70
     1
102
RTVSPropertyOp44
 70
     1
102
RTVSPropertyOp45
 70
     1
102
RTVSPropertyOp46
 70
     1
102
RTVSPropertyOp47
 70
     1
102
RTVSPropertyOp48
 70
     1
102
RTVSPropertyOp49
 70
     1
102
RTVSPropertyOp50
 70
     1
102
RTVSPropertyOp51
 70
     0
102
RTVSPropertyOp52
 70
     0
102
RTVSPropertyOp53
 70
     1
102
RTVSPropertyOp54
 70
     1
102
RTVSPropertyOp55
 70
     1
102
RTVSPropertyOp56
 70
     1
102
RTVSPropertyOp57
 70
     1
102
RTVSPost2010Prop28
280
     0
102
RTVSPost2010PropOp28
 70
     1
102
RTVSPost2010Prop29
280
     1
102
RTVSPost2010PropOp29
 70
     1
102
RTVSPost2010Prop30
280
     1
102
RTVSPost2010PropOp30
 70
     1
102
RTVSPost2010Prop31
280
     0
102
RTVSPost2010PropOp31
 70
     1
102
RTVSPost2010Prop32
280
     0
102
RTVSPost2010PropOp32
 70
     1
102
RTVSPost2010Prop33
280
     0
102
RTVSPost2010PropOp33
 70
     1
102
RTVSPost2010Prop34
280
     0
102
RTVSPost2010PropOp34
 70
     1
102
RTVSPost2010Prop35
280
     0
102
RTVSPost2010PropOp35
 70
     1
102
RTVSPost2010Prop36
280
     0
102
RTVSPost2010PropOp36
 70
     1
102
RTVSPost2010Prop37
 90
       50
102
RTVSPost2010PropOp37
 70
     1
102
RTVSPost2010Prop38
140
0.0
102
RTVSPost2010PropOp38
 70
     1
102
RTVSPost2010Prop39
140
1.0
102
RTVSPost2010PropOp39
 70
     1
102
RTVSPost2010Prop40
 90
        0
102
RTVSPost2010PropOp40
 70
     1
102
RTVSPost2010Prop41ColorIndex
 90
      178
102
RTVSPost2010Prop41ColorRGB
 90
        0
102
RTVSPost2010PropOp41
 70
     1
102
RTVSPost2010Prop42
 90
       50
102
RTVSPost2010PropOp42
 70
     1
102
RTVSPost2010Prop43
 90
        3
102
RTVSPost2010PropOp43
 70
     1
102
RTVSPost2010Prop44ColorIndex
 90
        5
102
RTVSPost2010Prop44ColorRGB
 90
      255
102
RTVSPost2010PropOp44
 70
     1
102
RTVSPost2010Prop45
280
     0
102
RTVSPost2010PropOp45
 70
     1
102
RTVSPost2010Prop46
 90
       50
102
RTVSPost2010PropOp46
 70
     1
102
RTVSPost2010Prop47
 90
       50
102
RTVSPost2010PropOp47
 70
     1
102
RTVSPost2010Prop48
 90
       50
102
RTVSPost2010PropOp48
 70
     1
102
RTVSPost2010Prop49
280
     0
102
RTVSPost2010PropOp49
 70
     1
102
RTVSPost2010Prop50
 90
       50
102
RTVSPost2010PropOp50
 70
     1
102
RTVSPost2010Prop51ColorIndex
 90
      256
102
RTVSPost2010Prop51ColorRGB
 90
-16777216
102
RTVSPost2010PropOp51
 70
     0
102
RTVSPost2010Prop52
140
1.0
102
RTVSPost2010PropOp52
 70
     0
102
RTVSPost2010Prop53
 90
        2
102
RTVSPost2010PropOp53
 70
     1
102
RTVSPost2010Prop54
  1
strokes_ogs.tif
102
RTVSPost2010PropOp54
 70
     1
102
RTVSPost2010Prop55
280
     0
102
RTVSPost2010PropOp55
 70
     1
102
RTVSPost2010Prop56
140
1.0
102
RTVSPost2010PropOp56
 70
     1
102
RTVSPost2010Prop57
140
1.0
102
RTVSPost2010PropOp57
 70
     1
  0
XRECORD
  5
DB
102
{ACAD_REACTORS
330
DA
102
}
330
DA
100
AcDbXrecord
280
     1
102
RTVSPropertyOp0
 70
     1
102
RTVSPropertyOp1
 70
     1
102
RTVSPropertyOp2
 70
     1
102
RTVSPropertyOp3
 70
     1
102
RTVSPropertyOp4
 70
     1
102
RTVSPropertyOp5
 70
     1
102
RTVSPropertyOp6
 70
     1
102
RTVSPropertyOp7
 70
     1
102
RTVSPropertyOp8
 70
     1
102
RTVSPropertyOp9
 70
     1
102
RTVSPropertyOp10
 70
     1
102
RTVSPropertyOp11
 70
     1
102
RTVSPropertyOp12
 70
     1
102
RTVSPropertyOp13
 70
     1
102
RTVSPropertyOp14
 70
     1
102
RTVSPropertyOp15
 70
     1
102
RTVSPropertyOp16
 70
     1
102
RTVSPropertyOp17
 70
     1
102
RTVSPropertyOp18
 70
     1
102
RTVSPropertyOp19
 70
     1
102
RTVSPropertyOp20
 70
     1
102
RTVSPropertyOp21
 70
     1
102
RTVSPropertyOp22
 70
     1
102
RTVSPropertyOp23
 70
     1
102
RTVSPropertyOp24
 70
     1
102
RTVSPropertyOp25
 70
     1
102
RTVSPropertyOp26
 70
     1
102
RTVSPropertyOp27
 70
     1
102
RTVSPropertyOp28
 70
     1
102
RTVSPropertyOp29
 70
     1
102
RTVSPropertyOp30
 70
     1
102
RTVSPropertyOp31
 70
     1
102
RTVSPropertyOp32
 70
     1
102
RTVSPropertyOp33
 70
     1
102
RTVSPropertyOp34
 70
     1
102
RTVSPropertyOp35
 70
     1
102
RTVSPropertyOp36
 70
     1
102
RTVSPropertyOp37
 70
     1
102
RTVSPropertyOp38
 70
     1
102
RTVSPropertyOp39
 70
     1
102
RTVSPropertyOp40
 70
     1
102
RTVSPropertyOp41
 70
     1
102
RTVSPropertyOp42
 70
     1
102
RTVSPropertyOp43
 70
     1
102
RTVSPropertyOp44
 70
     1
102
RTVSPropertyOp45
 70
     1
102
RTVSPropertyOp46
 70
     1
102
RTVSPropertyOp47
 70
     1
102
RTVSPropertyOp48
 70
     1
102
RTVSPropertyOp49
 70
     1
102
RTVSPropertyOp50
 70
     1
102
RTVSPropertyOp51
 70
     0
102
RTVSPropertyOp52
 70
     0
102
RTVSPropertyOp53
 70
     1
102
RTVSPropertyOp54
 70
     1
102
RTVSPropertyOp55
 70
     1
102
RTVSPropertyOp56
 70
     1
102
RTVSPropertyOp57
 70
     1
102
RTVSPost2010Prop28
280
     0
102
RTVSPost2010PropOp28
 70
     1
102
RTVSPost2010Prop29
280
     1
102
RTVSPost2010PropOp29
 70
     1
102
RTVSPost2010Prop30
280
     1
102
RTVSPost2010PropOp30
 70
     1
102
RTVSPost2010Prop31
280
     0
102
RTVSPost2010PropOp31
 70
     1
102
RTVSPost2010Prop32
280
     0
102
RTVSPost2010PropOp32
 70
     1
102
RTVSPost2010Prop33
280
     0
102
RTVSPost2010PropOp33
 70
     1
102
RTVSPost2010Prop34
280
     0
102
RTVSPost2010PropOp34
 70
     1
102
RTVSPost2010Prop35
280
     0
102
RTVSPost2010PropOp35
 70
     1
102
RTVSPost2010Prop36
280
     0
102
RTVSPost2010PropOp36
 70
     1
102
RTVSPost2010Prop37
 90
       50
102
RTVSPost2010PropOp37
 70
     1
102
RTVSPost2010Prop38
140
0.0
102
RTVSPost2010PropOp38
 70
     1
102
RTVSPost2010Prop39
140
1.0
102
RTVSPost2010PropOp39
 70
     1
102
RTVSPost2010Prop40
 90
        0
102
RTVSPost2010PropOp40
 70
     1
102
RTVSPost2010Prop41ColorIndex
 90
      178
102
RTVSPost2010Prop41ColorRGB
 90
        0
102
RTVSPost2010PropOp41
 70
     1
102
RTVSPost2010Prop42
 90
       50
102
RTVSPost2010PropOp42
 70
     1
102
RTVSPost2010Prop43
 90
        3
102
RTVSPost2010PropOp43
 70
     1
102
RTVSPost2010Prop44ColorIndex
 90
        5
102
RTVSPost2010Prop44ColorRGB
 90
      255
102
RTVSPost2010PropOp44
 70
     1
102
RTVSPost2010Prop45
280
     0
102
RTVSPost2010PropOp45
 70
     1
102
RTVSPost2010Prop46
 90
       50
102
RTVSPost2010PropOp46
 70
     1
102
RTVSPost2010Prop47
 90
       50
102
RTVSPost2010PropOp47
 70
     1
102
RTVSPost2010Prop48
 90
       50
102
RTVSPost2010PropOp48
 70
     1
102
RTVSPost2010Prop49
280
     0
102
RTVSPost2010PropOp49
 70
     1
102
RTVSPost2010Prop50
 90
       50
102
RTVSPost2010PropOp50
 70
     1
102
RTVSPost2010Prop51ColorIndex
 90
      256
102
RTVSPost2010Prop51ColorRGB
 90
-16777216
102
RTVSPost2010PropOp51
 70
     0
102
RTVSPost2010Prop52
140
1.0
102
RTVSPost2010PropOp52
 70
     0
102
RTVSPost2010Prop53
 90
        2
102
RTVSPost2010PropOp53
 70
     1
102
RTVSPost2010Prop54
  1
strokes_ogs.tif
102
RTVSPost2010PropOp54
 70
     1
102
RTVSPost2010Prop55
280
     0
102
RTVSPost2010PropOp55
 70
     1
102
RTVSPost2010Prop56
140
1.0
102
RTVSPost2010PropOp56
 70
     1
102
RTVSPost2010Prop57
140
1.0
102
RTVSPost2010PropOp57
 70
     1
  0
XRECORD
  5
CF
102
{ACAD_REACTORS
330
CE
102
}
330
CE
100
AcDbXrecord
280
     1
102
RTVSPropertyOp0
 70
     1
102
RTVSPropertyOp1
 70
     1
102
RTVSPropertyOp2
 70
     1
102
RTVSPropertyOp3
 70
     1
102
RTVSPropertyOp4
 70
     1
102
RTVSPropertyOp5
 70
     1
102
RTVSPropertyOp6
 70
     1
102
RTVSPropertyOp7
 70
     1
102
RTVSPropertyOp8
 70
     1
102
RTVSPropertyOp9
 70
     1
102
RTVSPropertyOp10
 70
     1
102
RTVSPropertyOp11
 70
     1
102
RTVSPropertyOp12
 70
     1
102
RTVSPropertyOp13
 70
     1
102
RTVSPropertyOp14
 70
     1
102
RTVSPropertyOp15
 70
     1
102
RTVSPropertyOp16
 70
     1
102
RTVSPropertyOp17
 70
     1
102
RTVSPropertyOp18
 70
     1
102
RTVSPropertyOp19
 70
     1
102
RTVSPropertyOp20
 70
     1
102
RTVSPropertyOp21
 70
     1
102
RTVSPropertyOp22
 70
     1
102
RTVSPropertyOp23
 70
     1
102
RTVSPropertyOp24
 70
     1
102
RTVSPropertyOp25
 70
     1
102
RTVSPropertyOp26
 70
     1
102
RTVSPropertyOp27
 70
     1
102
RTVSPropertyOp28
 70
     1
102
RTVSPropertyOp29
 70
     1
102
RTVSPropertyOp30
 70
     1
102
RTVSPropertyOp31
 70
     1
102
RTVSPropertyOp32
 70
     1
102
RTVSPropertyOp33
 70
     1
102
RTVSPropertyOp34
 70
     1
102
RTVSPropertyOp35
 70
     1
102
RTVSPropertyOp36
 70
     1
102
RTVSPropertyOp37
 70
     1
102
RTVSPropertyOp38
 70
     1
102
RTVSPropertyOp39
 70
     1
102
RTVSPropertyOp40
 70
     1
102
RTVSPropertyOp41
 70
     1
102
RTVSPropertyOp42
 70
     1
102
RTVSPropertyOp43
 70
     1
102
RTVSPropertyOp44
 70
     1
102
RTVSPropertyOp45
 70
     1
102
RTVSPropertyOp46
 70
     1
102
RTVSPropertyOp47
 70
     1
102
RTVSPropertyOp48
 70
     1
102
RTVSPropertyOp49
 70
     1
102
RTVSPropertyOp50
 70
     1
102
RTVSPropertyOp51
 70
     0
102
RTVSPropertyOp52
 70
     0
102
RTVSPropertyOp53
 70
     1
102
RTVSPropertyOp54
 70
     1
102
RTVSPropertyOp55
 70
     1
102
RTVSPropertyOp56
 70
     1
102
RTVSPropertyOp57
 70
     1
102
RTVSPost2010Prop28
280
     0
102
RTVSPost2010PropOp28
 70
     1
102
RTVSPost2010Prop29
280
     1
102
RTVSPost2010PropOp29
 70
     1
102
RTVSPost2010Prop30
280
     1
102
RTVSPost2010PropOp30
 70
     1
102
RTVSPost2010Prop31
280
     0
102
RTVSPost2010PropOp31
 70
     1
102
RTVSPost2010Prop32
280
     0
102
RTVSPost2010PropOp32
 70
     1
102
RTVSPost2010Prop33
280
     0
102
RTVSPost2010PropOp33
 70
     1
102
RTVSPost2010Prop34
280
     0
102
RTVSPost2010PropOp34
 70
     1
102
RTVSPost2010Prop35
280
     0
102
RTVSPost2010PropOp35
 70
     1
102
RTVSPost2010Prop36
280
     0
102
RTVSPost2010PropOp36
 70
     1
102
RTVSPost2010Prop37
 90
       50
102
RTVSPost2010PropOp37
 70
     1
102
RTVSPost2010Prop38
140
0.0
102
RTVSPost2010PropOp38
 70
     1
102
RTVSPost2010Prop39
140
1.0
102
RTVSPost2010PropOp39
 70
     1
102
RTVSPost2010Prop40
 90
        0
102
RTVSPost2010PropOp40
 70
     1
102
RTVSPost2010Prop41ColorIndex
 90
      178
102
RTVSPost2010Prop41ColorRGB
 90
        0
102
RTVSPost2010PropOp41
 70
     1
102
RTVSPost2010Prop42
 90
       50
102
RTVSPost2010PropOp42
 70
     1
102
RTVSPost2010Prop43
 90
        3
102
RTVSPost2010PropOp43
 70
     1
102
RTVSPost2010Prop44ColorIndex
 90
        5
102
RTVSPost2010Prop44ColorRGB
 90
      255
102
RTVSPost2010PropOp44
 70
     1
102
RTVSPost2010Prop45
280
     0
102
RTVSPost2010PropOp45
 70
     1
102
RTVSPost2010Prop46
 90
       50
102
RTVSPost2010PropOp46
 70
     1
102
RTVSPost2010Prop47
 90
       50
102
RTVSPost2010PropOp47
 70
     1
102
RTVSPost2010Prop48
 90
       50
102
RTVSPost2010PropOp48
 70
     1
102
RTVSPost2010Prop49
280
     0
102
RTVSPost2010PropOp49
 70
     1
102
RTVSPost2010Prop50
 90
       50
102
RTVSPost2010PropOp50
 70
     1
102
RTVSPost2010Prop51ColorIndex
 90
      256
102
RTVSPost2010Prop51ColorRGB
 90
-16777216
102
RTVSPost2010PropOp51
 70
     0
102
RTVSPost2010Prop52
140
1.0
102
RTVSPost2010PropOp52
 70
     0
102
RTVSPost2010Prop53
 90
        2
102
RTVSPost2010PropOp53
 70
     1
102
RTVSPost2010Prop54
  1
strokes_ogs.tif
102
RTVSPost2010PropOp54
 70
     1
102
RTVSPost2010Prop55
280
     0
102
RTVSPost2010PropOp55
 70
     1
102
RTVSPost2010Prop56
140
1.0
102
RTVSPost2010PropOp56
 70
     1
102
RTVSPost2010Prop57
140
1.0
102
RTVSPost2010PropOp57
 70
     1
  0
XRECORD
  5
D1
102
{ACAD_REACTORS
330
D0
102
}
330
D0
100
AcDbXrecord
280
     1
102
RTVSPropertyOp0
 70
     1
102
RTVSPropertyOp1
 70
     1
102
RTVSPropertyOp2
 70
     1
102
RTVSPropertyOp3
 70
     1
102
RTVSPropertyOp4
 70
     1
102
RTVSPropertyOp5
 70
     1
102
RTVSPropertyOp6
 70
     1
102
RTVSPropertyOp7
 70
     1
102
RTVSPropertyOp8
 70
     1
102
RTVSPropertyOp9
 70
     1
102
RTVSPropertyOp10
 70
     1
102
RTVSPropertyOp11
 70
     1
102
RTVSPropertyOp12
 70
     1
102
RTVSPropertyOp13
 70
     1
102
RTVSPropertyOp14
 70
     1
102
RTVSPropertyOp15
 70
     1
102
RTVSPropertyOp16
 70
     1
102
RTVSPropertyOp17
 70
     1
102
RTVSPropertyOp18
 70
     1
102
RTVSPropertyOp19
 70
     1
102
RTVSPropertyOp20
 70
     1
102
RTVSPropertyOp21
 70
     1
102
RTVSPropertyOp22
 70
     1
102
RTVSPropertyOp23
 70
     1
102
RTVSPropertyOp24
 70
     1
102
RTVSPropertyOp25
 70
     1
102
RTVSPropertyOp26
 70
     1
102
RTVSPropertyOp27
 70
     1
102
RTVSPropertyOp28
 70
     1
102
RTVSPropertyOp29
 70
     1
102
RTVSPropertyOp30
 70
     1
102
RTVSPropertyOp31
 70
     1
102
RTVSPropertyOp32
 70
     1
102
RTVSPropertyOp33
 70
     1
102
RTVSPropertyOp34
 70
     1
102
RTVSPropertyOp35
 70
     1
102
RTVSPropertyOp36
 70
     1
102
RTVSPropertyOp37
 70
     1
102
RTVSPropertyOp38
 70
     1
102
RTVSPropertyOp39
 70
     1
102
RTVSPropertyOp40
 70
     1
102
RTVSPropertyOp41
 70
     1
102
RTVSPropertyOp42
 70
     1
102
RTVSPropertyOp43
 70
     1
102
RTVSPropertyOp44
 70
     1
102
RTVSPropertyOp45
 70
     1
102
RTVSPropertyOp46
 70
     1
102
RTVSPropertyOp47
 70
     1
102
RTVSPropertyOp48
 70
     1
102
RTVSPropertyOp49
 70
     1
102
RTVSPropertyOp50
 70
     1
102
RTVSPropertyOp51
 70
     0
102
RTVSPropertyOp52
 70
     0
102
RTVSPropertyOp53
 70
     1
102
RTVSPropertyOp54
 70
     1
102
RTVSPropertyOp55
 70
     1
102
RTVSPropertyOp56
 70
     1
102
RTVSPropertyOp57
 70
     1
102
RTVSPost2010Prop28
280
     0
102
RTVSPost2010PropOp28
 70
     1
102
RTVSPost2010Prop29
280
     1
102
RTVSPost2010PropOp29
 70
     1
102
RTVSPost2010Prop30
280
     1
102
RTVSPost2010PropOp30
 70
     1
102
RTVSPost2010Prop31
280
     0
102
RTVSPost2010PropOp31
 70
     1
102
RTVSPost2010Prop32
280
     0
102
RTVSPost2010PropOp32
 70
     1
102
RTVSPost2010Prop33
280
     0
102
RTVSPost2010PropOp33
 70
     1
102
RTVSPost2010Prop34
280
     0
102
RTVSPost2010PropOp34
 70
     1
102
RTVSPost2010Prop35
280
     0
102
RTVSPost2010PropOp35
 70
     1
102
RTVSPost2010Prop36
280
     0
102
RTVSPost2010PropOp36
 70
     1
102
RTVSPost2010Prop37
 90
       50
102
RTVSPost2010PropOp37
 70
     1
102
RTVSPost2010Prop38
140
0.0
102
RTVSPost2010PropOp38
 70
     1
102
RTVSPost2010Prop39
140
1.0
102
RTVSPost2010PropOp39
 70
     1
102
RTVSPost2010Prop40
 90
        0
102
RTVSPost2010PropOp40
 70
     1
102
RTVSPost2010Prop41ColorIndex
 90
      178
102
RTVSPost2010Prop41ColorRGB
 90
        0
102
RTVSPost2010PropOp41
 70
     1
102
RTVSPost2010Prop42
 90
       50
102
RTVSPost2010PropOp42
 70
     1
102
RTVSPost2010Prop43
 90
        3
102
RTVSPost2010PropOp43
 70
     1
102
RTVSPost2010Prop44ColorIndex
 90
        5
102
RTVSPost2010Prop44ColorRGB
 90
      255
102
RTVSPost2010PropOp44
 70
     1
102
RTVSPost2010Prop45
280
     0
102
RTVSPost2010PropOp45
 70
     1
102
RTVSPost2010Prop46
 90
       50
102
RTVSPost2010PropOp46
 70
     1
102
RTVSPost2010Prop47
 90
       50
102
RTVSPost2010PropOp47
 70
     1
102
RTVSPost2010Prop48
 90
       50
102
RTVSPost2010PropOp48
 70
     1
102
RTVSPost2010Prop49
280
     0
102
RTVSPost2010PropOp49
 70
     1
102
RTVSPost2010Prop50
 90
       50
102
RTVSPost2010PropOp50
 70
     1
102
RTVSPost2010Prop51ColorIndex
 90
      256
102
RTVSPost2010Prop51ColorRGB
 90
-16777216
102
RTVSPost2010PropOp51
 70
     0
102
RTVSPost2010Prop52
140
1.0
102
RTVSPost2010PropOp52
 70
     0
102
RTVSPost2010Prop53
 90
        2
102
RTVSPost2010PropOp53
 70
     1
102
RTVSPost2010Prop54
  1
strokes_ogs.tif
102
RTVSPost2010PropOp54
 70
     1
102
RTVSPost2010Prop55
280
     0
102
RTVSPost2010PropOp55
 70
     1
102
RTVSPost2010Prop56
140
1.0
102
RTVSPost2010PropOp56
 70
     1
102
RTVSPost2010Prop57
140
1.0
102
RTVSPost2010PropOp57
 70
     1
  0
XRECORD
  5
E1
102
{ACAD_REACTORS
330
E0
102
}
330
E0
100
AcDbXrecord
280
     1
102
RTVSPropertyOp0
 70
     0
102
RTVSPropertyOp1
 70
     0
102
RTVSPropertyOp2
 70
     0
102
RTVSPropertyOp3
 70
     0
102
RTVSPropertyOp4
 70
     0
102
RTVSPropertyOp5
 70
     0
102
RTVSPropertyOp6
 70
     0
102
RTVSPropertyOp7
 70
     0
102
RTVSPropertyOp8
 70
     0
102
RTVSPropertyOp9
 70
     0
102
RTVSPropertyOp10
 70
     0
102
RTVSPropertyOp11
 70
     0
102
RTVSPropertyOp12
 70
     0
102
RTVSPropertyOp13
 70
     0
102
RTVSPropertyOp14
 70
     2
102
RTVSPropertyOp15
 70
     0
102
RTVSPropertyOp16
 70
     0
102
RTVSPropertyOp17
 70
     0
102
RTVSPropertyOp18
 70
     0
102
RTVSPropertyOp19
 70
     0
102
RTVSPropertyOp20
 70
     0
102
RTVSPropertyOp21
 70
     0
102
RTVSPropertyOp22
 70
     0
102
RTVSPropertyOp23
 70
     0
102
RTVSPropertyOp24
 70
     0
102
RTVSPropertyOp25
 70
     0
102
RTVSPropertyOp26
 70
     0
102
RTVSPropertyOp27
 70
     0
102
RTVSPropertyOp28
 70
     0
102
RTVSPropertyOp29
 70
     0
102
RTVSPropertyOp30
 70
     0
102
RTVSPropertyOp31
 70
     0
102
RTVSPropertyOp32
 70
     0
102
RTVSPropertyOp33
 70
     0
102
RTVSPropertyOp34
 70
     0
102
RTVSPropertyOp35
 70
     0
102
RTVSPropertyOp36
 70
     0
102
RTVSPropertyOp37
 70
     0
102
RTVSPropertyOp38
 70
     0
102
RTVSPropertyOp39
 70
     0
102
RTVSPropertyOp40
 70
     0
102
RTVSPropertyOp41
 70
     0
102
RTVSPropertyOp42
 70
     0
102
RTVSPropertyOp43
 70
     0
102
RTVSPropertyOp44
 70
     0
102
RTVSPropertyOp45
 70
     0
102
RTVSPropertyOp46
 70
     0
102
RTVSPropertyOp47
 70
     0
102
RTVSPropertyOp48
 70
     0
102
RTVSPropertyOp49
 70
     0
102
RTVSPropertyOp50
 70
     0
102
RTVSPropertyOp51
 70
     0
102
RTVSPropertyOp52
 70
     0
102
RTVSPropertyOp53
 70
     0
102
RTVSPropertyOp54
 70
     0
102
RTVSPropertyOp55
 70
     0
102
RTVSPropertyOp56
 70
     0
102
RTVSPropertyOp57
 70
     0
102
RTVSPost2010Prop28
280
     0
102
RTVSPost2010PropOp28
 70
     0
102
RTVSPost2010Prop29
280
     1
102
RTVSPost2010PropOp29
 70
     0
102
RTVSPost2010Prop30
280
     1
102
RTVSPost2010PropOp30
 70
     0
102
RTVSPost2010Prop31
280
     0
102
RTVSPost2010PropOp31
 70
     0
102
RTVSPost2010Prop32
280
     0
102
RTVSPost2010PropOp32
 70
     0
102
RTVSPost2010Prop33
280
     0
102
RTVSPost2010PropOp33
 70
     0
102
RTVSPost2010Prop34
280
     0
102
RTVSPost2010PropOp34
 70
     0
102
RTVSPost2010Prop35
280
     0
102
RTVSPost2010PropOp35
 70
     0
102
RTVSPost2010Prop36
280
     0
102
RTVSPost2010PropOp36
 70
     0
102
RTVSPost2010Prop37
 90
       50
102
RTVSPost2010PropOp37
 70
     0
102
RTVSPost2010Prop38
140
0.0
102
RTVSPost2010PropOp38
 70
     0
102
RTVSPost2010Prop39
140
1.0
102
RTVSPost2010PropOp39
 70
     0
102
RTVSPost2010Prop40
 90
        0
102
RTVSPost2010PropOp40
 70
     0
102
RTVSPost2010Prop41ColorIndex
 90
      178
102
RTVSPost2010Prop41ColorRGB
 90
        0
102
RTVSPost2010PropOp41
 70
     0
102
RTVSPost2010Prop42
 90
       50
102
RTVSPost2010PropOp42
 70
     0
102
RTVSPost2010Prop43
 90
        3
102
RTVSPost2010PropOp43
 70
     0
102
RTVSPost2010Prop44ColorIndex
 90
        5
102
RTVSPost2010Prop44ColorRGB
 90
      255
102
RTVSPost2010PropOp44
 70
     0
102
RTVSPost2010Prop45
280
     0
102
RTVSPost2010PropOp45
 70
     0
102
RTVSPost2010Prop46
 90
       50
102
RTVSPost2010PropOp46
 70
     0
102
RTVSPost2010Prop47
 90
       50
102
RTVSPost2010PropOp47
 70
     0
102
RTVSPost2010Prop48
 90
       50
102
RTVSPost2010PropOp48
 70
     0
102
RTVSPost2010Prop49
280
     0
102
RTVSPost2010PropOp49
 70
     0
102
RTVSPost2010Prop50
 90
       50
102
RTVSPost2010PropOp50
 70
     0
102
RTVSPost2010Prop51ColorIndex
 90
      256
102
RTVSPost2010Prop51ColorRGB
 90
-16777216
102
RTVSPost2010PropOp51
 70
     0
102
RTVSPost2010Prop52
140
1.0
102
RTVSPost2010PropOp52
 70
     0
102
RTVSPost2010Prop53
 90
        2
102
RTVSPost2010PropOp53
 70
     0
102
RTVSPost2010Prop54
  1
strokes_ogs.tif
102
RTVSPost2010PropOp54
 70
     0
102
RTVSPost2010Prop55
280
     0
102
RTVSPost2010PropOp55
 70
     0
102
RTVSPost2010Prop56
140
1.0
102
RTVSPost2010PropOp56
 70
     0
102
RTVSPost2010Prop57
140
1.0
102
RTVSPost2010PropOp57
 70
     0
  0
XRECORD
  5
D9
102
{ACAD_REACTORS
330
D8
102
}
330
D8
100
AcDbXrecord
280
     1
102
RTVSPropertyOp0
 70
     1
102
RTVSPropertyOp1
 70
     1
102
RTVSPropertyOp2
 70
     1
102
RTVSPropertyOp3
 70
     1
102
RTVSPropertyOp4
 70
     1
102
RTVSPropertyOp5
 70
     1
102
RTVSPropertyOp6
 70
     1
102
RTVSPropertyOp7
 70
     1
102
RTVSPropertyOp8
 70
     1
102
RTVSPropertyOp9
 70
     1
102
RTVSPropertyOp10
 70
     1
102
RTVSPropertyOp11
 70
     1
102
RTVSPropertyOp12
 70
     1
102
RTVSPropertyOp13
 70
     1
102
RTVSPropertyOp14
 70
     1
102
RTVSPropertyOp15
 70
     1
102
RTVSPropertyOp16
 70
     1
102
RTVSPropertyOp17
 70
     1
102
RTVSPropertyOp18
 70
     1
102
RTVSPropertyOp19
 70
     1
102
RTVSPropertyOp20
 70
     1
102
RTVSPropertyOp21
 70
     1
102
RTVSPropertyOp22
 70
     1
102
RTVSPropertyOp23
 70
     1
102
RTVSPropertyOp24
 70
     1
102
RTVSPropertyOp25
 70
     1
102
RTVSPropertyOp26
 70
     1
102
RTVSPropertyOp27
 70
     1
102
RTVSPropertyOp28
 70
     1
102
RTVSPropertyOp29
 70
     1
102
RTVSPropertyOp30
 70
     1
102
RTVSPropertyOp31
 70
     1
102
RTVSPropertyOp32
 70
     1
102
RTVSPropertyOp33
 70
     1
102
RTVSPropertyOp34
 70
     1
102
RTVSPropertyOp35
 70
     1
102
RTVSPropertyOp36
 70
     1
102
RTVSPropertyOp37
 70
     1
102
RTVSPropertyOp38
 70
     1
102
RTVSPropertyOp39
 70
     1
102
RTVSPropertyOp40
 70
     1
102
RTVSPropertyOp41
 70
     1
102
RTVSPropertyOp42
 70
     1
102
RTVSPropertyOp43
 70
     1
102
RTVSPropertyOp44
 70
     1
102
RTVSPropertyOp45
 70
     1
102
RTVSPropertyOp46
 70
     1
102
RTVSPropertyOp47
 70
     1
102
RTVSPropertyOp48
 70
     1
102
RTVSPropertyOp49
 70
     1
102
RTVSPropertyOp50
 70
     1
102
RTVSPropertyOp51
 70
     0
102
RTVSPropertyOp52
 70
     0
102
RTVSPropertyOp53
 70
     1
102
RTVSPropertyOp54
 70
     1
102
RTVSPropertyOp55
 70
     1
102
RTVSPropertyOp56
 70
     1
102
RTVSPropertyOp57
 70
     1
102
RTVSPost2010Prop28
280
     0
102
RTVSPost2010PropOp28
 70
     1
102
RTVSPost2010Prop29
280
     1
102
RTVSPost2010PropOp29
 70
     1
102
RTVSPost2010Prop30
280
     1
102
RTVSPost2010PropOp30
 70
     1
102
RTVSPost2010Prop31
280
     0
102
RTVSPost2010PropOp31
 70
     1
102
RTVSPost2010Prop32
280
     0
102
RTVSPost2010PropOp32
 70
     1
102
RTVSPost2010Prop33
280
     0
102
RTVSPost2010PropOp33
 70
     1
102
RTVSPost2010Prop34
280
     0
102
RTVSPost2010PropOp34
 70
     1
102
RTVSPost2010Prop35
280
     0
102
RTVSPost2010PropOp35
 70
     1
102
RTVSPost2010Prop36
280
     0
102
RTVSPost2010PropOp36
 70
     1
102
RTVSPost2010Prop37
 90
       50
102
RTVSPost2010PropOp37
 70
     1
102
RTVSPost2010Prop38
140
0.0
102
RTVSPost2010PropOp38
 70
     1
102
RTVSPost2010Prop39
140
1.0
102
RTVSPost2010PropOp39
 70
     1
102
RTVSPost2010Prop40
 90
        0
102
RTVSPost2010PropOp40
 70
     1
102
RTVSPost2010Prop41ColorIndex
 90
      178
102
RTVSPost2010Prop41ColorRGB
 90
        0
102
RTVSPost2010PropOp41
 70
     1
102
RTVSPost2010Prop42
 90
       50
102
RTVSPost2010PropOp42
 70
     1
102
RTVSPost2010Prop43
 90
        3
102
RTVSPost2010PropOp43
 70
     1
102
RTVSPost2010Prop44ColorIndex
 90
        5
102
RTVSPost2010Prop44ColorRGB
 90
      255
102
RTVSPost2010PropOp44
 70
     1
102
RTVSPost2010Prop45
280
     0
102
RTVSPost2010PropOp45
 70
     1
102
RTVSPost2010Prop46
 90
       50
102
RTVSPost2010PropOp46
 70
     1
102
RTVSPost2010Prop47
 90
       50
102
RTVSPost2010PropOp47
 70
     1
102
RTVSPost2010Prop48
 90
       50
102
RTVSPost2010PropOp48
 70
     1
102
RTVSPost2010Prop49
280
     0
102
RTVSPost2010PropOp49
 70
     1
102
RTVSPost2010Prop50
 90
       50
102
RTVSPost2010PropOp50
 70
     1
102
RTVSPost2010Prop51ColorIndex
 90
      256
102
RTVSPost2010Prop51ColorRGB
 90
-16777216
102
RTVSPost2010PropOp51
 70
     0
102
RTVSPost2010Prop52
140
1.0
102
RTVSPost2010PropOp52
 70
     0
102
RTVSPost2010Prop53
 90
        2
102
RTVSPost2010PropOp53
 70
     1
102
RTVSPost2010Prop54
  1
strokes_ogs.tif
102
RTVSPost2010PropOp54
 70
     1
102
RTVSPost2010Prop55
280
     0
102
RTVSPost2010PropOp55
 70
     1
102
RTVSPost2010Prop56
140
1.0
102
RTVSPost2010PropOp56
 70
     1
102
RTVSPost2010Prop57
140
1.0
102
RTVSPost2010PropOp57
 70
     1
  0
XRECORD
  5
BD
102
{ACAD_REACTORS
330
BC
102
}
330
BC
100
AcDbXrecord
280
     1
102
RTVSPropertyOp0
 70
     1
102
RTVSPropertyOp1
 70
     1
102
RTVSPropertyOp2
 70
     1
102
RTVSPropertyOp3
 70
     1
102
RTVSPropertyOp4
 70
     1
102
RTVSPropertyOp5
 70
     1
102
RTVSPropertyOp6
 70
     1
102
RTVSPropertyOp7
 70
     1
102
RTVSPropertyOp8
 70
     1
102
RTVSPropertyOp9
 70
     1
102
RTVSPropertyOp10
 70
     1
102
RTVSPropertyOp11
 70
     1
102
RTVSPropertyOp12
 70
     1
102
RTVSPropertyOp13
 70
     1
102
RTVSPropertyOp14
 70
     1
102
RTVSPropertyOp15
 70
     1
102
RTVSPropertyOp16
 70
     1
102
RTVSPropertyOp17
 70
     1
102
RTVSPropertyOp18
 70
     1
102
RTVSPropertyOp19
 70
     1
102
RTVSPropertyOp20
 70
     1
102
RTVSPropertyOp21
 70
     1
102
RTVSPropertyOp22
 70
     1
102
RTVSPropertyOp23
 70
     1
102
RTVSPropertyOp24
 70
     1
102
RTVSPropertyOp25
 70
     1
102
RTVSPropertyOp26
 70
     1
102
RTVSPropertyOp27
 70
     1
102
RTVSPropertyOp28
 70
     1
102
RTVSPropertyOp29
 70
     1
102
RTVSPropertyOp30
 70
     1
102
RTVSPropertyOp31
 70
     1
102
RTVSPropertyOp32
 70
     1
102
RTVSPropertyOp33
 70
     1
102
RTVSPropertyOp34
 70
     1
102
RTVSPropertyOp35
 70
     1
102
RTVSPropertyOp36
 70
     1
102
RTVSPropertyOp37
 70
     1
102
RTVSPropertyOp38
 70
     1
102
RTVSPropertyOp39
 70
     1
102
RTVSPropertyOp40
 70
     1
102
RTVSPropertyOp41
 70
     1
102
RTVSPropertyOp42
 70
     1
102
RTVSPropertyOp43
 70
     1
102
RTVSPropertyOp44
 70
     1
102
RTVSPropertyOp45
 70
     1
102
RTVSPropertyOp46
 70
     1
102
RTVSPropertyOp47
 70
     1
102
RTVSPropertyOp48
 70
     1
102
RTVSPropertyOp49
 70
     1
102
RTVSPropertyOp50
 70
     1
102
RTVSPropertyOp51
 70
     0
102
RTVSPropertyOp52
 70
     0
102
RTVSPropertyOp53
 70
     1
102
RTVSPropertyOp54
 70
     1
102
RTVSPropertyOp55
 70
     1
102
RTVSPropertyOp56
 70
     1
102
RTVSPropertyOp57
 70
     1
102
RTVSPost2010Prop28
280
     0
102
RTVSPost2010PropOp28
 70
     1
102
RTVSPost2010Prop29
280
     1
102
RTVSPost2010PropOp29
 70
     1
102
RTVSPost2010Prop30
280
     1
102
RTVSPost2010PropOp30
 70
     1
102
RTVSPost2010Prop31
280
     0
102
RTVSPost2010PropOp31
 70
     1
102
RTVSPost2010Prop32
280
     0
102
RTVSPost2010PropOp32
 70
     1
102
RTVSPost2010Prop33
280
     0
102
RTVSPost2010PropOp33
 70
     1
102
RTVSPost2010Prop34
280
     0
102
RTVSPost2010PropOp34
 70
     1
102
RTVSPost2010Prop35
280
     0
102
RTVSPost2010PropOp35
 70
     1
102
RTVSPost2010Prop36
280
     0
102
RTVSPost2010PropOp36
 70
     1
102
RTVSPost2010Prop37
 90
       50
102
RTVSPost2010PropOp37
 70
     1
102
RTVSPost2010Prop38
140
0.0
102
RTVSPost2010PropOp38
 70
     1
102
RTVSPost2010Prop39
140
1.0
102
RTVSPost2010PropOp39
 70
     1
102
RTVSPost2010Prop40
 90
        0
102
RTVSPost2010PropOp40
 70
     1
102
RTVSPost2010Prop41ColorIndex
 90
      178
102
RTVSPost2010Prop41ColorRGB
 90
        0
102
RTVSPost2010PropOp41
 70
     1
102
RTVSPost2010Prop42
 90
       50
102
RTVSPost2010PropOp42
 70
     1
102
RTVSPost2010Prop43
 90
        3
102
RTVSPost2010PropOp43
 70
     1
102
RTVSPost2010Prop44ColorIndex
 90
        5
102
RTVSPost2010Prop44ColorRGB
 90
      255
102
RTVSPost2010PropOp44
 70
     1
102
RTVSPost2010Prop45
280
     0
102
RTVSPost2010PropOp45
 70
     1
102
RTVSPost2010Prop46
 90
       50
102
RTVSPost2010PropOp46
 70
     1
102
RTVSPost2010Prop47
 90
       50
102
RTVSPost2010PropOp47
 70
     1
102
RTVSPost2010Prop48
 90
       50
102
RTVSPost2010PropOp48
 70
     1
102
RTVSPost2010Prop49
280
     0
102
RTVSPost2010PropOp49
 70
     1
102
RTVSPost2010Prop50
 90
       50
102
RTVSPost2010PropOp50
 70
     1
102
RTVSPost2010Prop51ColorIndex
 90
      256
102
RTVSPost2010Prop51ColorRGB
 90
-16777216
102
RTVSPost2010PropOp51
 70
     0
102
RTVSPost2010Prop52
140
1.0
102
RTVSPost2010PropOp52
 70
     0
102
RTVSPost2010Prop53
 90
        2
102
RTVSPost2010PropOp53
 70
     1
102
RTVSPost2010Prop54
  1
strokes_ogs.tif
102
RTVSPost2010PropOp54
 70
     1
102
RTVSPost2010Prop55
280
     0
102
RTVSPost2010PropOp55
 70
     1
102
RTVSPost2010Prop56
140
1.0
102
RTVSPost2010PropOp56
 70
     1
102
RTVSPost2010Prop57
140
1.0
102
RTVSPost2010PropOp57
 70
     1
  0
XRECORD
  5
BF
102
{ACAD_REACTORS
330
BE
102
}
330
BE
100
AcDbXrecord
280
     1
102
RTVSPropertyOp0
 70
     1
102
RTVSPropertyOp1
 70
     1
102
RTVSPropertyOp2
 70
     1
102
RTVSPropertyOp3
 70
     1
102
RTVSPropertyOp4
 70
     1
102
RTVSPropertyOp5
 70
     1
102
RTVSPropertyOp6
 70
     1
102
RTVSPropertyOp7
 70
     1
102
RTVSPropertyOp8
 70
     1
102
RTVSPropertyOp9
 70
     1
102
RTVSPropertyOp10
 70
     1
102
RTVSPropertyOp11
 70
     1
102
RTVSPropertyOp12
 70
     1
102
RTVSPropertyOp13
 70
     1
102
RTVSPropertyOp14
 70
     1
102
RTVSPropertyOp15
 70
     1
102
RTVSPropertyOp16
 70
     1
102
RTVSPropertyOp17
 70
     1
102
RTVSPropertyOp18
 70
     1
102
RTVSPropertyOp19
 70
     1
102
RTVSPropertyOp20
 70
     1
102
RTVSPropertyOp21
 70
     1
102
RTVSPropertyOp22
 70
     1
102
RTVSPropertyOp23
 70
     1
102
RTVSPropertyOp24
 70
     1
102
RTVSPropertyOp25
 70
     1
102
RTVSPropertyOp26
 70
     1
102
RTVSPropertyOp27
 70
     1
102
RTVSPropertyOp28
 70
     1
102
RTVSPropertyOp29
 70
     1
102
RTVSPropertyOp30
 70
     1
102
RTVSPropertyOp31
 70
     1
102
RTVSPropertyOp32
 70
     1
102
RTVSPropertyOp33
 70
     1
102
RTVSPropertyOp34
 70
     1
102
RTVSPropertyOp35
 70
     1
102
RTVSPropertyOp36
 70
     1
102
RTVSPropertyOp37
 70
     1
102
RTVSPropertyOp38
 70
     1
102
RTVSPropertyOp39
 70
     1
102
RTVSPropertyOp40
 70
     1
102
RTVSPropertyOp41
 70
     1
102
RTVSPropertyOp42
 70
     1
102
RTVSPropertyOp43
 70
     1
102
RTVSPropertyOp44
 70
     1
102
RTVSPropertyOp45
 70
     1
102
RTVSPropertyOp46
 70
     1
102
RTVSPropertyOp47
 70
     1
102
RTVSPropertyOp48
 70
     1
102
RTVSPropertyOp49
 70
     1
102
RTVSPropertyOp50
 70
     1
102
RTVSPropertyOp51
 70
     0
102
RTVSPropertyOp52
 70
     0
102
RTVSPropertyOp53
 70
     1
102
RTVSPropertyOp54
 70
     1
102
RTVSPropertyOp55
 70
     1
102
RTVSPropertyOp56
 70
     1
102
RTVSPropertyOp57
 70
     1
102
RTVSPost2010Prop28
280
     0
102
RTVSPost2010PropOp28
 70
     1
102
RTVSPost2010Prop29
280
     1
102
RTVSPost2010PropOp29
 70
     1
102
RTVSPost2010Prop30
280
     1
102
RTVSPost2010PropOp30
 70
     1
102
RTVSPost2010Prop31
280
     0
102
RTVSPost2010PropOp31
 70
     1
102
RTVSPost2010Prop32
280
     0
102
RTVSPost2010PropOp32
 70
     1
102
RTVSPost2010Prop33
280
     0
102
RTVSPost2010PropOp33
 70
     1
102
RTVSPost2010Prop34
280
     0
102
RTVSPost2010PropOp34
 70
     1
102
RTVSPost2010Prop35
280
     0
102
RTVSPost2010PropOp35
 70
     1
102
RTVSPost2010Prop36
280
     0
102
RTVSPost2010PropOp36
 70
     1
102
RTVSPost2010Prop37
 90
       50
102
RTVSPost2010PropOp37
 70
     1
102
RTVSPost2010Prop38
140
0.0
102
RTVSPost2010PropOp38
 70
     1
102
RTVSPost2010Prop39
140
1.0
102
RTVSPost2010PropOp39
 70
     1
102
RTVSPost2010Prop40
 90
        0
102
RTVSPost2010PropOp40
 70
     1
102
RTVSPost2010Prop41ColorIndex
 90
      178
102
RTVSPost2010Prop41ColorRGB
 90
        0
102
RTVSPost2010PropOp41
 70
     1
102
RTVSPost2010Prop42
 90
       50
102
RTVSPost2010PropOp42
 70
     1
102
RTVSPost2010Prop43
 90
        3
102
RTVSPost2010PropOp43
 70
     1
102
RTVSPost2010Prop44ColorIndex
 90
        5
102
RTVSPost2010Prop44ColorRGB
 90
      255
102
RTVSPost2010PropOp44
 70
     1
102
RTVSPost2010Prop45
280
     0
102
RTVSPost2010PropOp45
 70
     1
102
RTVSPost2010Prop46
 90
       50
102
RTVSPost2010PropOp46
 70
     1
102
RTVSPost2010Prop47
 90
       50
102
RTVSPost2010PropOp47
 70
     1
102
RTVSPost2010Prop48
 90
       50
102
RTVSPost2010PropOp48
 70
     1
102
RTVSPost2010Prop49
280
     0
102
RTVSPost2010PropOp49
 70
     1
102
RTVSPost2010Prop50
 90
       50
102
RTVSPost2010PropOp50
 70
     1
102
RTVSPost2010Prop51ColorIndex
 90
      256
102
RTVSPost2010Prop51ColorRGB
 90
-16777216
102
RTVSPost2010PropOp51
 70
     0
102
RTVSPost2010Prop52
140
1.0
102
RTVSPost2010PropOp52
 70
     0
102
RTVSPost2010Prop53
 90
        2
102
RTVSPost2010PropOp53
 70
     1
102
RTVSPost2010Prop54
  1
strokes_ogs.tif
102
RTVSPost2010PropOp54
 70
     1
102
RTVSPost2010Prop55
280
     0
102
RTVSPost2010PropOp55
 70
     1
102
RTVSPost2010Prop56
140
1.0
102
RTVSPost2010PropOp56
 70
     1
102
RTVSPost2010Prop57
140
1.0
102
RTVSPost2010PropOp57
 70
     1
  0
XRECORD
  5
C1
102
{ACAD_REACTORS
330
C0
102
}
330
C0
100
AcDbXrecord
280
     1
102
RTVSPropertyOp0
 70
     1
102
RTVSPropertyOp1
 70
     1
102
RTVSPropertyOp2
 70
     1
102
RTVSPropertyOp3
 70
     1
102
RTVSPropertyOp4
 70
     1
102
RTVSPropertyOp5
 70
     1
102
RTVSPropertyOp6
 70
     1
102
RTVSPropertyOp7
 70
     1
102
RTVSPropertyOp8
 70
     1
102
RTVSPropertyOp9
 70
     1
102
RTVSPropertyOp10
 70
     1
102
RTVSPropertyOp11
 70
     1
102
RTVSPropertyOp12
 70
     1
102
RTVSPropertyOp13
 70
     1
102
RTVSPropertyOp14
 70
     1
102
RTVSPropertyOp15
 70
     1
102
RTVSPropertyOp16
 70
     1
102
RTVSPropertyOp17
 70
     1
102
RTVSPropertyOp18
 70
     1
102
RTVSPropertyOp19
 70
     1
102
RTVSPropertyOp20
 70
     1
102
RTVSPropertyOp21
 70
     1
102
RTVSPropertyOp22
 70
     1
102
RTVSPropertyOp23
 70
     1
102
RTVSPropertyOp24
 70
     1
102
RTVSPropertyOp25
 70
     1
102
RTVSPropertyOp26
 70
     1
102
RTVSPropertyOp27
 70
     1
102
RTVSPropertyOp28
 70
     1
102
RTVSPropertyOp29
 70
     1
102
RTVSPropertyOp30
 70
     1
102
RTVSPropertyOp31
 70
     1
102
RTVSPropertyOp32
 70
     1
102
RTVSPropertyOp33
 70
     1
102
RTVSPropertyOp34
 70
     1
102
RTVSPropertyOp35
 70
     1
102
RTVSPropertyOp36
 70
     1
102
RTVSPropertyOp37
 70
     1
102
RTVSPropertyOp38
 70
     1
102
RTVSPropertyOp39
 70
     1
102
RTVSPropertyOp40
 70
     1
102
RTVSPropertyOp41
 70
     1
102
RTVSPropertyOp42
 70
     1
102
RTVSPropertyOp43
 70
     1
102
RTVSPropertyOp44
 70
     1
102
RTVSPropertyOp45
 70
     1
102
RTVSPropertyOp46
 70
     1
102
RTVSPropertyOp47
 70
     1
102
RTVSPropertyOp48
 70
     1
102
RTVSPropertyOp49
 70
     1
102
RTVSPropertyOp50
 70
     1
102
RTVSPropertyOp51
 70
     0
102
RTVSPropertyOp52
 70
     0
102
RTVSPropertyOp53
 70
     1
102
RTVSPropertyOp54
 70
     1
102
RTVSPropertyOp55
 70
     1
102
RTVSPropertyOp56
 70
     1
102
RTVSPropertyOp57
 70
     1
102
RTVSPost2010Prop28
280
     0
102
RTVSPost2010PropOp28
 70
     1
102
RTVSPost2010Prop29
280
     1
102
RTVSPost2010PropOp29
 70
     1
102
RTVSPost2010Prop30
280
     1
102
RTVSPost2010PropOp30
 70
     1
102
RTVSPost2010Prop31
280
     0
102
RTVSPost2010PropOp31
 70
     1
102
RTVSPost2010Prop32
280
     0
102
RTVSPost2010PropOp32
 70
     1
102
RTVSPost2010Prop33
280
     0
102
RTVSPost2010PropOp33
 70
     1
102
RTVSPost2010Prop34
280
     0
102
RTVSPost2010PropOp34
 70
     1
102
RTVSPost2010Prop35
280
     0
102
RTVSPost2010PropOp35
 70
     1
102
RTVSPost2010Prop36
280
     0
102
RTVSPost2010PropOp36
 70
     1
102
RTVSPost2010Prop37
 90
       50
102
RTVSPost2010PropOp37
 70
     1
102
RTVSPost2010Prop38
140
0.0
102
RTVSPost2010PropOp38
 70
     1
102
RTVSPost2010Prop39
140
1.0
102
RTVSPost2010PropOp39
 70
     1
102
RTVSPost2010Prop40
 90
        0
102
RTVSPost2010PropOp40
 70
     1
102
RTVSPost2010Prop41ColorIndex
 90
      178
102
RTVSPost2010Prop41ColorRGB
 90
        0
102
RTVSPost2010PropOp41
 70
     1
102
RTVSPost2010Prop42
 90
       50
102
RTVSPost2010PropOp42
 70
     1
102
RTVSPost2010Prop43
 90
        3
102
RTVSPost2010PropOp43
 70
     1
102
RTVSPost2010Prop44ColorIndex
 90
        5
102
RTVSPost2010Prop44ColorRGB
 90
      255
102
RTVSPost2010PropOp44
 70
     1
102
RTVSPost2010Prop45
280
     0
102
RTVSPost2010PropOp45
 70
     1
102
RTVSPost2010Prop46
 90
       50
102
RTVSPost2010PropOp46
 70
     1
102
RTVSPost2010Prop47
 90
       50
102
RTVSPost2010PropOp47
 70
     1
102
RTVSPost2010Prop48
 90
       50
102
RTVSPost2010PropOp48
 70
     1
102
RTVSPost2010Prop49
280
     0
102
RTVSPost2010PropOp49
 70
     1
102
RTVSPost2010Prop50
 90
       50
102
RTVSPost2010PropOp50
 70
     1
102
RTVSPost2010Prop51ColorIndex
 90
      256
102
RTVSPost2010Prop51ColorRGB
 90
-16777216
102
RTVSPost2010PropOp51
 70
     0
102
RTVSPost2010Prop52
140
1.0
102
RTVSPost2010PropOp52
 70
     0
102
RTVSPost2010Prop53
 90
        2
102
RTVSPost2010PropOp53
 70
     1
102
RTVSPost2010Prop54
  1
strokes_ogs.tif
102
RTVSPost2010PropOp54
 70
     1
102
RTVSPost2010Prop55
280
     0
102
RTVSPost2010PropOp55
 70
     1
102
RTVSPost2010Prop56
140
1.0
102
RTVSPost2010PropOp56
 70
     1
102
RTVSPost2010Prop57
140
1.0
102
RTVSPost2010PropOp57
 70
     1
  0
XRECORD
  5
C3
102
{ACAD_REACTORS
330
C2
102
}
330
C2
100
AcDbXrecord
280
     1
102
RTVSPropertyOp0
 70
     1
102
RTVSPropertyOp1
 70
     1
102
RTVSPropertyOp2
 70
     1
102
RTVSPropertyOp3
 70
     1
102
RTVSPropertyOp4
 70
     1
102
RTVSPropertyOp5
 70
     1
102
RTVSPropertyOp6
 70
     1
102
RTVSPropertyOp7
 70
     1
102
RTVSPropertyOp8
 70
     1
102
RTVSPropertyOp9
 70
     1
102
RTVSPropertyOp10
 70
     1
102
RTVSPropertyOp11
 70
     1
102
RTVSPropertyOp12
 70
     1
102
RTVSPropertyOp13
 70
     1
102
RTVSPropertyOp14
 70
     1
102
RTVSPropertyOp15
 70
     1
102
RTVSPropertyOp16
 70
     1
102
RTVSPropertyOp17
 70
     1
102
RTVSPropertyOp18
 70
     1
102
RTVSPropertyOp19
 70
     1
102
RTVSPropertyOp20
 70
     1
102
RTVSPropertyOp21
 70
     1
102
RTVSPropertyOp22
 70
     1
102
RTVSPropertyOp23
 70
     1
102
RTVSPropertyOp24
 70
     1
102
RTVSPropertyOp25
 70
     1
102
RTVSPropertyOp26
 70
     1
102
RTVSPropertyOp27
 70
     1
102
RTVSPropertyOp28
 70
     1
102
RTVSPropertyOp29
 70
     1
102
RTVSPropertyOp30
 70
     1
102
RTVSPropertyOp31
 70
     1
102
RTVSPropertyOp32
 70
     1
102
RTVSPropertyOp33
 70
     1
102
RTVSPropertyOp34
 70
     1
102
RTVSPropertyOp35
 70
     1
102
RTVSPropertyOp36
 70
     1
102
RTVSPropertyOp37
 70
     1
102
RTVSPropertyOp38
 70
     1
102
RTVSPropertyOp39
 70
     1
102
RTVSPropertyOp40
 70
     1
102
RTVSPropertyOp41
 70
     1
102
RTVSPropertyOp42
 70
     1
102
RTVSPropertyOp43
 70
     1
102
RTVSPropertyOp44
 70
     1
102
RTVSPropertyOp45
 70
     1
102
RTVSPropertyOp46
 70
     1
102
RTVSPropertyOp47
 70
     1
102
RTVSPropertyOp48
 70
     1
102
RTVSPropertyOp49
 70
     1
102
RTVSPropertyOp50
 70
     1
102
RTVSPropertyOp51
 70
     0
102
RTVSPropertyOp52
 70
     0
102
RTVSPropertyOp53
 70
     1
102
RTVSPropertyOp54
 70
     1
102
RTVSPropertyOp55
 70
     1
102
RTVSPropertyOp56
 70
     1
102
RTVSPropertyOp57
 70
     1
102
RTVSPost2010Prop28
280
     0
102
RTVSPost2010PropOp28
 70
     1
102
RTVSPost2010Prop29
280
     1
102
RTVSPost2010PropOp29
 70
     1
102
RTVSPost2010Prop30
280
     1
102
RTVSPost2010PropOp30
 70
     1
102
RTVSPost2010Prop31
280
     0
102
RTVSPost2010PropOp31
 70
     1
102
RTVSPost2010Prop32
280
     0
102
RTVSPost2010PropOp32
 70
     1
102
RTVSPost2010Prop33
280
     0
102
RTVSPost2010PropOp33
 70
     1
102
RTVSPost2010Prop34
280
     0
102
RTVSPost2010PropOp34
 70
     1
102
RTVSPost2010Prop35
280
     0
102
RTVSPost2010PropOp35
 70
     1
102
RTVSPost2010Prop36
280
     0
102
RTVSPost2010PropOp36
 70
     1
102
RTVSPost2010Prop37
 90
       50
102
RTVSPost2010PropOp37
 70
     1
102
RTVSPost2010Prop38
140
0.0
102
RTVSPost2010PropOp38
 70
     1
102
RTVSPost2010Prop39
140
1.0
102
RTVSPost2010PropOp39
 70
     1
102
RTVSPost2010Prop40
 90
        0
102
RTVSPost2010PropOp40
 70
     1
102
RTVSPost2010Prop41ColorIndex
 90
      178
102
RTVSPost2010Prop41ColorRGB
 90
        0
102
RTVSPost2010PropOp41
 70
     1
102
RTVSPost2010Prop42
 90
       50
102
RTVSPost2010PropOp42
 70
     1
102
RTVSPost2010Prop43
 90
        3
102
RTVSPost2010PropOp43
 70
     1
102
RTVSPost2010Prop44ColorIndex
 90
        5
102
RTVSPost2010Prop44ColorRGB
 90
      255
102
RTVSPost2010PropOp44
 70
     1
102
RTVSPost2010Prop45
280
     0
102
RTVSPost2010PropOp45
 70
     1
102
RTVSPost2010Prop46
 90
       50
102
RTVSPost2010PropOp46
 70
     1
102
RTVSPost2010Prop47
 90
       50
102
RTVSPost2010PropOp47
 70
     1
102
RTVSPost2010Prop48
 90
       50
102
RTVSPost2010PropOp48
 70
     1
102
RTVSPost2010Prop49
280
     0
102
RTVSPost2010PropOp49
 70
     1
102
RTVSPost2010Prop50
 90
       50
102
RTVSPost2010PropOp50
 70
     1
102
RTVSPost2010Prop51ColorIndex
 90
      256
102
RTVSPost2010Prop51ColorRGB
 90
-16777216
102
RTVSPost2010PropOp51
 70
     0
102
RTVSPost2010Prop52
140
1.0
102
RTVSPost2010PropOp52
 70
     0
102
RTVSPost2010Prop53
 90
        2
102
RTVSPost2010PropOp53
 70
     1
102
RTVSPost2010Prop54
  1
strokes_ogs.tif
102
RTVSPost2010PropOp54
 70
     1
102
RTVSPost2010Prop55
280
     0
102
RTVSPost2010PropOp55
 70
     1
102
RTVSPost2010Prop56
140
1.0
102
RTVSPost2010PropOp56
 70
     1
102
RTVSPost2010Prop57
140
1.0
102
RTVSPost2010PropOp57
 70
     1
  0
XRECORD
  5
C9
102
{ACAD_REACTORS
330
C8
102
}
330
C8
100
AcDbXrecord
280
     1
102
RTVSPropertyOp0
 70
     1
102
RTVSPropertyOp1
 70
     1
102
RTVSPropertyOp2
 70
     1
102
RTVSPropertyOp3
 70
     1
102
RTVSPropertyOp4
 70
     1
102
RTVSPropertyOp5
 70
     1
102
RTVSPropertyOp6
 70
     1
102
RTVSPropertyOp7
 70
     1
102
RTVSPropertyOp8
 70
     1
102
RTVSPropertyOp9
 70
     1
102
RTVSPropertyOp10
 70
     1
102
RTVSPropertyOp11
 70
     1
102
RTVSPropertyOp12
 70
     1
102
RTVSPropertyOp13
 70
     1
102
RTVSPropertyOp14
 70
     1
102
RTVSPropertyOp15
 70
     1
102
RTVSPropertyOp16
 70
     1
102
RTVSPropertyOp17
 70
     1
102
RTVSPropertyOp18
 70
     1
102
RTVSPropertyOp19
 70
     1
102
RTVSPropertyOp20
 70
     1
102
RTVSPropertyOp21
 70
     1
102
RTVSPropertyOp22
 70
     1
102
RTVSPropertyOp23
 70
     1
102
RTVSPropertyOp24
 70
     1
102
RTVSPropertyOp25
 70
     1
102
RTVSPropertyOp26
 70
     1
102
RTVSPropertyOp27
 70
     1
102
RTVSPropertyOp28
 70
     1
102
RTVSPropertyOp29
 70
     1
102
RTVSPropertyOp30
 70
     1
102
RTVSPropertyOp31
 70
     1
102
RTVSPropertyOp32
 70
     1
102
RTVSPropertyOp33
 70
     1
102
RTVSPropertyOp34
 70
     1
102
RTVSPropertyOp35
 70
     1
102
RTVSPropertyOp36
 70
     1
102
RTVSPropertyOp37
 70
     1
102
RTVSPropertyOp38
 70
     1
102
RTVSPropertyOp39
 70
     1
102
RTVSPropertyOp40
 70
     1
102
RTVSPropertyOp41
 70
     1
102
RTVSPropertyOp42
 70
     1
102
RTVSPropertyOp43
 70
     1
102
RTVSPropertyOp44
 70
     1
102
RTVSPropertyOp45
 70
     1
102
RTVSPropertyOp46
 70
     1
102
RTVSPropertyOp47
 70
     1
102
RTVSPropertyOp48
 70
     1
102
RTVSPropertyOp49
 70
     1
102
RTVSPropertyOp50
 70
     1
102
RTVSPropertyOp51
 70
     0
102
RTVSPropertyOp52
 70
     0
102
RTVSPropertyOp53
 70
     1
102
RTVSPropertyOp54
 70
     1
102
RTVSPropertyOp55
 70
     1
102
RTVSPropertyOp56
 70
     1
102
RTVSPropertyOp57
 70
     1
102
RTVSPost2010Prop28
280
     0
102
RTVSPost2010PropOp28
 70
     1
102
RTVSPost2010Prop29
280
     1
102
RTVSPost2010PropOp29
 70
     1
102
RTVSPost2010Prop30
280
     1
102
RTVSPost2010PropOp30
 70
     1
102
RTVSPost2010Prop31
280
     0
102
RTVSPost2010PropOp31
 70
     1
102
RTVSPost2010Prop32
280
     0
102
RTVSPost2010PropOp32
 70
     1
102
RTVSPost2010Prop33
280
     0
102
RTVSPost2010PropOp33
 70
     1
102
RTVSPost2010Prop34
280
     0
102
RTVSPost2010PropOp34
 70
     1
102
RTVSPost2010Prop35
280
     0
102
RTVSPost2010PropOp35
 70
     1
102
RTVSPost2010Prop36
280
     0
102
RTVSPost2010PropOp36
 70
     1
102
RTVSPost2010Prop37
 90
       50
102
RTVSPost2010PropOp37
 70
     1
102
RTVSPost2010Prop38
140
0.0
102
RTVSPost2010PropOp38
 70
     1
102
RTVSPost2010Prop39
140
1.0
102
RTVSPost2010PropOp39
 70
     1
102
RTVSPost2010Prop40
 90
        0
102
RTVSPost2010PropOp40
 70
     1
102
RTVSPost2010Prop41ColorIndex
 90
      178
102
RTVSPost2010Prop41ColorRGB
 90
        0
102
RTVSPost2010PropOp41
 70
     1
102
RTVSPost2010Prop42
 90
       50
102
RTVSPost2010PropOp42
 70
     1
102
RTVSPost2010Prop43
 90
        3
102
RTVSPost2010PropOp43
 70
     1
102
RTVSPost2010Prop44ColorIndex
 90
        5
102
RTVSPost2010Prop44ColorRGB
 90
      255
102
RTVSPost2010PropOp44
 70
     1
102
RTVSPost2010Prop45
280
     0
102
RTVSPost2010PropOp45
 70
     1
102
RTVSPost2010Prop46
 90
       50
102
RTVSPost2010PropOp46
 70
     1
102
RTVSPost2010Prop47
 90
       50
102
RTVSPost2010PropOp47
 70
     1
102
RTVSPost2010Prop48
 90
       50
102
RTVSPost2010PropOp48
 70
     1
102
RTVSPost2010Prop49
280
     0
102
RTVSPost2010PropOp49
 70
     1
102
RTVSPost2010Prop50
 90
       50
102
RTVSPost2010PropOp50
 70
     1
102
RTVSPost2010Prop51ColorIndex
 90
      256
102
RTVSPost2010Prop51ColorRGB
 90
-16777216
102
RTVSPost2010PropOp51
 70
     0
102
RTVSPost2010Prop52
140
1.0
102
RTVSPost2010PropOp52
 70
     0
102
RTVSPost2010Prop53
 90
        2
102
RTVSPost2010PropOp53
 70
     1
102
RTVSPost2010Prop54
  1
strokes_ogs.tif
102
RTVSPost2010PropOp54
 70
     1
102
RTVSPost2010Prop55
280
     0
102
RTVSPost2010PropOp55
 70
     1
102
RTVSPost2010Prop56
140
1.0
102
RTVSPost2010PropOp56
 70
     1
102
RTVSPost2010Prop57
140
1.0
102
RTVSPost2010PropOp57
 70
     1
  0
XRECORD
  5
DD
102
{ACAD_REACTORS
330
DC
102
}
330
DC
100
AcDbXrecord
280
     1
102
RTVSPropertyOp0
 70
     0
102
RTVSPropertyOp1
 70
     0
102
RTVSPropertyOp2
 70
     0
102
RTVSPropertyOp3
 70
     0
102
RTVSPropertyOp4
 70
     0
102
RTVSPropertyOp5
 70
     0
102
RTVSPropertyOp6
 70
     0
102
RTVSPropertyOp7
 70
     0
102
RTVSPropertyOp8
 70
     0
102
RTVSPropertyOp9
 70
     0
102
RTVSPropertyOp10
 70
     0
102
RTVSPropertyOp11
 70
     0
102
RTVSPropertyOp12
 70
     0
102
RTVSPropertyOp13
 70
     0
102
RTVSPropertyOp14
 70
     2
102
RTVSPropertyOp15
 70
     0
102
RTVSPropertyOp16
 70
     0
102
RTVSPropertyOp17
 70
     0
102
RTVSPropertyOp18
 70
     0
102
RTVSPropertyOp19
 70
     0
102
RTVSPropertyOp20
 70
     0
102
RTVSPropertyOp21
 70
     0
102
RTVSPropertyOp22
 70
     0
102
RTVSPropertyOp23
 70
     0
102
RTVSPropertyOp24
 70
     0
102
RTVSPropertyOp25
 70
     0
102
RTVSPropertyOp26
 70
     0
102
RTVSPropertyOp27
 70
     0
102
RTVSPropertyOp28
 70
     0
102
RTVSPropertyOp29
 70
     0
102
RTVSPropertyOp30
 70
     0
102
RTVSPropertyOp31
 70
     0
102
RTVSPropertyOp32
 70
     0
102
RTVSPropertyOp33
 70
     0
102
RTVSPropertyOp34
 70
     0
102
RTVSPropertyOp35
 70
     0
102
RTVSPropertyOp36
 70
     0
102
RTVSPropertyOp37
 70
     0
102
RTVSPropertyOp38
 70
     0
102
RTVSPropertyOp39
 70
     0
102
RTVSPropertyOp40
 70
     0
102
RTVSPropertyOp41
 70
     0
102
RTVSPropertyOp42
 70
     0
102
RTVSPropertyOp43
 70
     0
102
RTVSPropertyOp44
 70
     0
102
RTVSPropertyOp45
 70
     0
102
RTVSPropertyOp46
 70
     0
102
RTVSPropertyOp47
 70
     0
102
RTVSPropertyOp48
 70
     0
102
RTVSPropertyOp49
 70
     0
102
RTVSPropertyOp50
 70
     0
102
RTVSPropertyOp51
 70
     0
102
RTVSPropertyOp52
 70
     0
102
RTVSPropertyOp53
 70
     0
102
RTVSPropertyOp54
 70
     0
102
RTVSPropertyOp55
 70
     0
102
RTVSPropertyOp56
 70
     0
102
RTVSPropertyOp57
 70
     0
102
RTVSPost2010Prop28
280
     0
102
RTVSPost2010PropOp28
 70
     0
102
RTVSPost2010Prop29
280
     1
102
RTVSPost2010PropOp29
 70
     0
102
RTVSPost2010Prop30
280
     1
102
RTVSPost2010PropOp30
 70
     0
102
RTVSPost2010Prop31
280
     0
102
RTVSPost2010PropOp31
 70
     0
102
RTVSPost2010Prop32
280
     0
102
RTVSPost2010PropOp32
 70
     0
102
RTVSPost2010Prop33
280
     0
102
RTVSPost2010PropOp33
 70
     0
102
RTVSPost2010Prop34
280
     0
102
RTVSPost2010PropOp34
 70
     0
102
RTVSPost2010Prop35
280
     0
102
RTVSPost2010PropOp35
 70
     0
102
RTVSPost2010Prop36
280
     0
102
RTVSPost2010PropOp36
 70
     0
102
RTVSPost2010Prop37
 90
       50
102
RTVSPost2010PropOp37
 70
     0
102
RTVSPost2010Prop38
140
0.0
102
RTVSPost2010PropOp38
 70
     0
102
RTVSPost2010Prop39
140
1.0
102
RTVSPost2010PropOp39
 70
     0
102
RTVSPost2010Prop40
 90
        0
102
RTVSPost2010PropOp40
 70
     0
102
RTVSPost2010Prop41ColorIndex
 90
      178
102
RTVSPost2010Prop41ColorRGB
 90
        0
102
RTVSPost2010PropOp41
 70
     0
102
RTVSPost2010Prop42
 90
       50
102
RTVSPost2010PropOp42
 70
     0
102
RTVSPost2010Prop43
 90
        3
102
RTVSPost2010PropOp43
 70
     0
102
RTVSPost2010Prop44ColorIndex
 90
        5
102
RTVSPost2010Prop44ColorRGB
 90
      255
102
RTVSPost2010PropOp44
 70
     0
102
RTVSPost2010Prop45
280
     0
102
RTVSPost2010PropOp45
 70
     0
102
RTVSPost2010Prop46
 90
       50
102
RTVSPost2010PropOp46
 70
     0
102
RTVSPost2010Prop47
 90
       50
102
RTVSPost2010PropOp47
 70
     0
102
RTVSPost2010Prop48
 90
       50
102
RTVSPost2010PropOp48
 70
     0
102
RTVSPost2010Prop49
280
     0
102
RTVSPost2010PropOp49
 70
     0
102
RTVSPost2010Prop50
 90
       50
102
RTVSPost2010PropOp50
 70
     0
102
RTVSPost2010Prop51ColorIndex
 90
      256
102
RTVSPost2010Prop51ColorRGB
 90
-16777216
102
RTVSPost2010PropOp51
 70
     0
102
RTVSPost2010Prop52
140
1.0
102
RTVSPost2010PropOp52
 70
     0
102
RTVSPost2010Prop53
 90
        2
102
RTVSPost2010PropOp53
 70
     0
102
RTVSPost2010Prop54
  1
strokes_ogs.tif
102
RTVSPost2010PropOp54
 70
     0
102
RTVSPost2010Prop55
280
     0
102
RTVSPost2010PropOp55
 70
     0
102
RTVSPost2010Prop56
140
1.0
102
RTVSPost2010PropOp56
 70
     0
102
RTVSPost2010Prop57
140
1.0
102
RTVSPost2010PropOp57
 70
     0
  0
XRECORD
  5
D7
102
{ACAD_REACTORS
330
D6
102
}
330
D6
100
AcDbXrecord
280
     1
102
RTVSPropertyOp0
 70
     1
102
RTVSPropertyOp1
 70
     1
102
RTVSPropertyOp2
 70
     1
102
RTVSPropertyOp3
 70
     1
102
RTVSPropertyOp4
 70
     1
102
RTVSPropertyOp5
 70
     1
102
RTVSPropertyOp6
 70
     1
102
RTVSPropertyOp7
 70
     1
102
RTVSPropertyOp8
 70
     1
102
RTVSPropertyOp9
 70
     1
102
RTVSPropertyOp10
 70
     1
102
RTVSPropertyOp11
 70
     1
102
RTVSPropertyOp12
 70
     1
102
RTVSPropertyOp13
 70
     1
102
RTVSPropertyOp14
 70
     1
102
RTVSPropertyOp15
 70
     1
102
RTVSPropertyOp16
 70
     1
102
RTVSPropertyOp17
 70
     1
102
RTVSPropertyOp18
 70
     1
102
RTVSPropertyOp19
 70
     1
102
RTVSPropertyOp20
 70
     1
102
RTVSPropertyOp21
 70
     1
102
RTVSPropertyOp22
 70
     1
102
RTVSPropertyOp23
 70
     1
102
RTVSPropertyOp24
 70
     1
102
RTVSPropertyOp25
 70
     1
102
RTVSPropertyOp26
 70
     1
102
RTVSPropertyOp27
 70
     1
102
RTVSPropertyOp28
 70
     1
102
RTVSPropertyOp29
 70
     1
102
RTVSPropertyOp30
 70
     1
102
RTVSPropertyOp31
 70
     1
102
RTVSPropertyOp32
 70
     1
102
RTVSPropertyOp33
 70
     1
102
RTVSPropertyOp34
 70
     1
102
RTVSPropertyOp35
 70
     1
102
RTVSPropertyOp36
 70
     1
102
RTVSPropertyOp37
 70
     1
102
RTVSPropertyOp38
 70
     1
102
RTVSPropertyOp39
 70
     1
102
RTVSPropertyOp40
 70
     1
102
RTVSPropertyOp41
 70
     1
102
RTVSPropertyOp42
 70
     1
102
RTVSPropertyOp43
 70
     1
102
RTVSPropertyOp44
 70
     1
102
RTVSPropertyOp45
 70
     1
102
RTVSPropertyOp46
 70
     1
102
RTVSPropertyOp47
 70
     1
102
RTVSPropertyOp48
 70
     1
102
RTVSPropertyOp49
 70
     1
102
RTVSPropertyOp50
 70
     1
102
RTVSPropertyOp51
 70
     0
102
RTVSPropertyOp52
 70
     0
102
RTVSPropertyOp53
 70
     1
102
RTVSPropertyOp54
 70
     1
102
RTVSPropertyOp55
 70
     1
102
RTVSPropertyOp56
 70
     1
102
RTVSPropertyOp57
 70
     1
102
RTVSPost2010Prop28
280
     0
102
RTVSPost2010PropOp28
 70
     1
102
RTVSPost2010Prop29
280
     1
102
RTVSPost2010PropOp29
 70
     1
102
RTVSPost2010Prop30
280
     1
102
RTVSPost2010PropOp30
 70
     1
102
RTVSPost2010Prop31
280
     0
102
RTVSPost2010PropOp31
 70
     1
102
RTVSPost2010Prop32
280
     0
102
RTVSPost2010PropOp32
 70
     1
102
RTVSPost2010Prop33
280
     0
102
RTVSPost2010PropOp33
 70
     1
102
RTVSPost2010Prop34
280
     0
102
RTVSPost2010PropOp34
 70
     1
102
RTVSPost2010Prop35
280
     0
102
RTVSPost2010PropOp35
 70
     1
102
RTVSPost2010Prop36
280
     0
102
RTVSPost2010PropOp36
 70
     1
102
RTVSPost2010Prop37
 90
       50
102
RTVSPost2010PropOp37
 70
     1
102
RTVSPost2010Prop38
140
0.0
102
RTVSPost2010PropOp38
 70
     1
102
RTVSPost2010Prop39
140
1.0
102
RTVSPost2010PropOp39
 70
     1
102
RTVSPost2010Prop40
 90
        0
102
RTVSPost2010PropOp40
 70
     1
102
RTVSPost2010Prop41ColorIndex
 90
      178
102
RTVSPost2010Prop41ColorRGB
 90
        0
102
RTVSPost2010PropOp41
 70
     1
102
RTVSPost2010Prop42
 90
       50
102
RTVSPost2010PropOp42
 70
     1
102
RTVSPost2010Prop43
 90
        3
102
RTVSPost2010PropOp43
 70
     1
102
RTVSPost2010Prop44ColorIndex
 90
        5
102
RTVSPost2010Prop44ColorRGB
 90
      255
102
RTVSPost2010PropOp44
 70
     1
102
RTVSPost2010Prop45
280
     0
102
RTVSPost2010PropOp45
 70
     1
102
RTVSPost2010Prop46
 90
       50
102
RTVSPost2010PropOp46
 70
     1
102
RTVSPost2010Prop47
 90
       50
102
RTVSPost2010PropOp47
 70
     1
102
RTVSPost2010Prop48
 90
       50
102
RTVSPost2010PropOp48
 70
     1
102
RTVSPost2010Prop49
280
     0
102
RTVSPost2010PropOp49
 70
     1
102
RTVSPost2010Prop50
 90
       50
102
RTVSPost2010PropOp50
 70
     1
102
RTVSPost2010Prop51ColorIndex
 90
      256
102
RTVSPost2010Prop51ColorRGB
 90
-16777216
102
RTVSPost2010PropOp51
 70
     0
102
RTVSPost2010Prop52
140
1.0
102
RTVSPost2010PropOp52
 70
     0
102
RTVSPost2010Prop53
 90
        2
102
RTVSPost2010PropOp53
 70
     1
102
RTVSPost2010Prop54
  1
strokes_ogs.tif
102
RTVSPost2010PropOp54
 70
     1
102
RTVSPost2010Prop55
280
     0
102
RTVSPost2010PropOp55
 70
     1
102
RTVSPost2010Prop56
140
1.0
102
RTVSPost2010PropOp56
 70
     1
102
RTVSPost2010Prop57
140
1.0
102
RTVSPost2010PropOp57
 70
     1
  0
XRECORD
  5
DF
102
{ACAD_REACTORS
330
DE
102
}
330
DE
100
AcDbXrecord
280
     1
102
RTVSPropertyOp0
 70
     0
102
RTVSPropertyOp1
 70
     0
102
RTVSPropertyOp2
 70
     0
102
RTVSPropertyOp3
 70
     0
102
RTVSPropertyOp4
 70
     0
102
RTVSPropertyOp5
 70
     0
102
RTVSPropertyOp6
 70
     0
102
RTVSPropertyOp7
 70
     0
102
RTVSPropertyOp8
 70
     0
102
RTVSPropertyOp9
 70
     0
102
RTVSPropertyOp10
 70
     0
102
RTVSPropertyOp11
 70
     0
102
RTVSPropertyOp12
 70
     0
102
RTVSPropertyOp13
 70
     0
102
RTVSPropertyOp14
 70
     2
102
RTVSPropertyOp15
 70
     0
102
RTVSPropertyOp16
 70
     0
102
RTVSPropertyOp17
 70
     0
102
RTVSPropertyOp18
 70
     0
102
RTVSPropertyOp19
 70
     0
102
RTVSPropertyOp20
 70
     0
102
RTVSPropertyOp21
 70
     0
102
RTVSPropertyOp22
 70
     0
102
RTVSPropertyOp23
 70
     0
102
RTVSPropertyOp24
 70
     0
102
RTVSPropertyOp25
 70
     0
102
RTVSPropertyOp26
 70
     0
102
RTVSPropertyOp27
 70
     0
102
RTVSPropertyOp28
 70
     0
102
RTVSPropertyOp29
 70
     0
102
RTVSPropertyOp30
 70
     0
102
RTVSPropertyOp31
 70
     0
102
RTVSPropertyOp32
 70
     0
102
RTVSPropertyOp33
 70
     0
102
RTVSPropertyOp34
 70
     0
102
RTVSPropertyOp35
 70
     0
102
RTVSPropertyOp36
 70
     0
102
RTVSPropertyOp37
 70
     0
102
RTVSPropertyOp38
 70
     0
102
RTVSPropertyOp39
 70
     0
102
RTVSPropertyOp40
 70
     0
102
RTVSPropertyOp41
 70
     0
102
RTVSPropertyOp42
 70
     0
102
RTVSPropertyOp43
 70
     0
102
RTVSPropertyOp44
 70
     0
102
RTVSPropertyOp45
 70
     0
102
RTVSPropertyOp46
 70
     0
102
RTVSPropertyOp47
 70
     0
102
RTVSPropertyOp48
 70
     0
102
RTVSPropertyOp49
 70
     0
102
RTVSPropertyOp50
 70
     0
102
RTVSPropertyOp51
 70
     0
102
RTVSPropertyOp52
 70
     0
102
RTVSPropertyOp53
 70
     0
102
RTVSPropertyOp54
 70
     0
102
RTVSPropertyOp55
 70
     0
102
RTVSPropertyOp56
 70
     0
102
RTVSPropertyOp57
 70
     0
102
RTVSPost2010Prop28
280
     0
102
RTVSPost2010PropOp28
 70
     0
102
RTVSPost2010Prop29
280
     1
102
RTVSPost2010PropOp29
 70
     0
102
RTVSPost2010Prop30
280
     1
102
RTVSPost2010PropOp30
 70
     0
102
RTVSPost2010Prop31
280
     0
102
RTVSPost2010PropOp31
 70
     0
102
RTVSPost2010Prop32
280
     0
102
RTVSPost2010PropOp32
 70
     0
102
RTVSPost2010Prop33
280
     0
102
RTVSPost2010PropOp33
 70
     0
102
RTVSPost2010Prop34
280
     0
102
RTVSPost2010PropOp34
 70
     0
102
RTVSPost2010Prop35
280
     0
102
RTVSPost2010PropOp35
 70
     0
102
RTVSPost2010Prop36
280
     0
102
RTVSPost2010PropOp36
 70
     0
102
RTVSPost2010Prop37
 90
       50
102
RTVSPost2010PropOp37
 70
     0
102
RTVSPost2010Prop38
140
0.0
102
RTVSPost2010PropOp38
 70
     0
102
RTVSPost2010Prop39
140
1.0
102
RTVSPost2010PropOp39
 70
     0
102
RTVSPost2010Prop40
 90
        0
102
RTVSPost2010PropOp40
 70
     0
102
RTVSPost2010Prop41ColorIndex
 90
      178
102
RTVSPost2010Prop41ColorRGB
 90
        0
102
RTVSPost2010PropOp41
 70
     0
102
RTVSPost2010Prop42
 90
       50
102
RTVSPost2010PropOp42
 70
     0
102
RTVSPost2010Prop43
 90
        3
102
RTVSPost2010PropOp43
 70
     0
102
RTVSPost2010Prop44ColorIndex
 90
        5
102
RTVSPost2010Prop44ColorRGB
 90
      255
102
RTVSPost2010PropOp44
 70
     0
102
RTVSPost2010Prop45
280
     0
102
RTVSPost2010PropOp45
 70
     0
102
RTVSPost2010Prop46
 90
       50
102
RTVSPost2010PropOp46
 70
     0
102
RTVSPost2010Prop47
 90
       50
102
RTVSPost2010PropOp47
 70
     0
102
RTVSPost2010Prop48
 90
       50
102
RTVSPost2010PropOp48
 70
     0
102
RTVSPost2010Prop49
280
     0
102
RTVSPost2010PropOp49
 70
     0
102
RTVSPost2010Prop50
 90
       50
102
RTVSPost2010PropOp50
 70
     0
102
RTVSPost2010Prop51ColorIndex
 90
      256
102
RTVSPost2010Prop51ColorRGB
 90
-16777216
102
RTVSPost2010PropOp51
 70
     0
102
RTVSPost2010Prop52
140
1.0
102
RTVSPost2010PropOp52
 70
     0
102
RTVSPost2010Prop53
 90
        2
102
RTVSPost2010PropOp53
 70
     0
102
RTVSPost2010Prop54
  1
strokes_ogs.tif
102
RTVSPost2010PropOp54
 70
     0
102
RTVSPost2010Prop55
280
     0
102
RTVSPost2010PropOp55
 70
     0
102
RTVSPost2010Prop56
140
1.0
102
RTVSPost2010PropOp56
 70
     0
102
RTVSPost2010Prop57
140
1.0
102
RTVSPost2010PropOp57
 70
     0
  0
XRECORD
  5
CD
102
{ACAD_REACTORS
330
CC
102
}
330
CC
100
AcDbXrecord
280
     1
102
RTVSPropertyOp0
 70
     1
102
RTVSPropertyOp1
 70
     1
102
RTVSPropertyOp2
 70
     1
102
RTVSPropertyOp3
 70
     1
102
RTVSPropertyOp4
 70
     1
102
RTVSPropertyOp5
 70
     1
102
RTVSPropertyOp6
 70
     1
102
RTVSPropertyOp7
 70
     1
102
RTVSPropertyOp8
 70
     1
102
RTVSPropertyOp9
 70
     1
102
RTVSPropertyOp10
 70
     1
102
RTVSPropertyOp11
 70
     1
102
RTVSPropertyOp12
 70
     1
102
RTVSPropertyOp13
 70
     1
102
RTVSPropertyOp14
 70
     1
102
RTVSPropertyOp15
 70
     1
102
RTVSPropertyOp16
 70
     1
102
RTVSPropertyOp17
 70
     1
102
RTVSPropertyOp18
 70
     1
102
RTVSPropertyOp19
 70
     1
102
RTVSPropertyOp20
 70
     1
102
RTVSPropertyOp21
 70
     1
102
RTVSPropertyOp22
 70
     1
102
RTVSPropertyOp23
 70
     1
102
RTVSPropertyOp24
 70
     1
102
RTVSPropertyOp25
 70
     1
102
RTVSPropertyOp26
 70
     1
102
RTVSPropertyOp27
 70
     1
102
RTVSPropertyOp28
 70
     1
102
RTVSPropertyOp29
 70
     1
102
RTVSPropertyOp30
 70
     1
102
RTVSPropertyOp31
 70
     1
102
RTVSPropertyOp32
 70
     1
102
RTVSPropertyOp33
 70
     1
102
RTVSPropertyOp34
 70
     1
102
RTVSPropertyOp35
 70
     1
102
RTVSPropertyOp36
 70
     1
102
RTVSPropertyOp37
 70
     1
102
RTVSPropertyOp38
 70
     1
102
RTVSPropertyOp39
 70
     1
102
RTVSPropertyOp40
 70
     1
102
RTVSPropertyOp41
 70
     1
102
RTVSPropertyOp42
 70
     1
102
RTVSPropertyOp43
 70
     1
102
RTVSPropertyOp44
 70
     1
102
RTVSPropertyOp45
 70
     1
102
RTVSPropertyOp46
 70
     1
102
RTVSPropertyOp47
 70
     1
102
RTVSPropertyOp48
 70
     1
102
RTVSPropertyOp49
 70
     1
102
RTVSPropertyOp50
 70
     1
102
RTVSPropertyOp51
 70
     0
102
RTVSPropertyOp52
 70
     0
102
RTVSPropertyOp53
 70
     1
102
RTVSPropertyOp54
 70
     1
102
RTVSPropertyOp55
 70
     1
102
RTVSPropertyOp56
 70
     1
102
RTVSPropertyOp57
 70
     1
102
RTVSPost2010Prop28
280
     0
102
RTVSPost2010PropOp28
 70
     1
102
RTVSPost2010Prop29
280
     1
102
RTVSPost2010PropOp29
 70
     1
102
RTVSPost2010Prop30
280
     1
102
RTVSPost2010PropOp30
 70
     1
102
RTVSPost2010Prop31
280
     0
102
RTVSPost2010PropOp31
 70
     1
102
RTVSPost2010Prop32
280
     0
102
RTVSPost2010PropOp32
 70
     1
102
RTVSPost2010Prop33
280
     0
102
RTVSPost2010PropOp33
 70
     1
102
RTVSPost2010Prop34
280
     0
102
RTVSPost2010PropOp34
 70
     1
102
RTVSPost2010Prop35
280
     0
102
RTVSPost2010PropOp35
 70
     1
102
RTVSPost2010Prop36
280
     0
102
RTVSPost2010PropOp36
 70
     1
102
RTVSPost2010Prop37
 90
       50
102
RTVSPost2010PropOp37
 70
     1
102
RTVSPost2010Prop38
140
0.0
102
RTVSPost2010PropOp38
 70
     1
102
RTVSPost2010Prop39
140
1.0
102
RTVSPost2010PropOp39
 70
     1
102
RTVSPost2010Prop40
 90
        0
102
RTVSPost2010PropOp40
 70
     1
102
RTVSPost2010Prop41ColorIndex
 90
      178
102
RTVSPost2010Prop41ColorRGB
 90
        0
102
RTVSPost2010PropOp41
 70
     1
102
RTVSPost2010Prop42
 90
       50
102
RTVSPost2010PropOp42
 70
     1
102
RTVSPost2010Prop43
 90
        3
102
RTVSPost2010PropOp43
 70
     1
102
RTVSPost2010Prop44ColorIndex
 90
        5
102
RTVSPost2010Prop44ColorRGB
 90
      255
102
RTVSPost2010PropOp44
 70
     1
102
RTVSPost2010Prop45
280
     0
102
RTVSPost2010PropOp45
 70
     1
102
RTVSPost2010Prop46
 90
       50
102
RTVSPost2010PropOp46
 70
     1
102
RTVSPost2010Prop47
 90
       50
102
RTVSPost2010PropOp47
 70
     1
102
RTVSPost2010Prop48
 90
       50
102
RTVSPost2010PropOp48
 70
     1
102
RTVSPost2010Prop49
280
     0
102
RTVSPost2010PropOp49
 70
     1
102
RTVSPost2010Prop50
 90
       50
102
RTVSPost2010PropOp50
 70
     1
102
RTVSPost2010Prop51ColorIndex
 90
      256
102
RTVSPost2010Prop51ColorRGB
 90
-16777216
102
RTVSPost2010PropOp51
 70
     0
102
RTVSPost2010Prop52
140
1.0
102
RTVSPost2010PropOp52
 70
     0
102
RTVSPost2010Prop53
 90
        2
102
RTVSPost2010PropOp53
 70
     1
102
RTVSPost2010Prop54
  1
strokes_ogs.tif
102
RTVSPost2010PropOp54
 70
     1
102
RTVSPost2010Prop55
280
     0
102
RTVSPost2010PropOp55
 70
     1
102
RTVSPost2010Prop56
140
1.0
102
RTVSPost2010PropOp56
 70
     1
102
RTVSPost2010Prop57
140
1.0
102
RTVSPost2010PropOp57
 70
     1
  0
XRECORD
  5
EB
102
{ACAD_REACTORS
330
EA
102
}
330
EA
100
AcDbXrecord
280
     1
102
RTVSPropertyOp0
 70
     1
102
RTVSPropertyOp1
 70
     1
102
RTVSPropertyOp2
 70
     1
102
RTVSPropertyOp3
 70
     1
102
RTVSPropertyOp4
 70
     1
102
RTVSPropertyOp5
 70
     1
102
RTVSPropertyOp6
 70
     1
102
RTVSPropertyOp7
 70
     1
102
RTVSPropertyOp8
 70
     1
102
RTVSPropertyOp9
 70
     1
102
RTVSPropertyOp10
 70
     1
102
RTVSPropertyOp11
 70
     1
102
RTVSPropertyOp12
 70
     1
102
RTVSPropertyOp13
 70
     1
102
RTVSPropertyOp14
 70
     1
102
RTVSPropertyOp15
 70
     1
102
RTVSPropertyOp16
 70
     1
102
RTVSPropertyOp17
 70
     1
102
RTVSPropertyOp18
 70
     1
102
RTVSPropertyOp19
 70
     1
102
RTVSPropertyOp20
 70
     1
102
RTVSPropertyOp21
 70
     1
102
RTVSPropertyOp22
 70
     1
102
RTVSPropertyOp23
 70
     1
102
RTVSPropertyOp24
 70
     1
102
RTVSPropertyOp25
 70
     1
102
RTVSPropertyOp26
 70
     1
102
RTVSPropertyOp27
 70
     1
102
RTVSPropertyOp28
 70
     1
102
RTVSPropertyOp29
 70
     1
102
RTVSPropertyOp30
 70
     1
102
RTVSPropertyOp31
 70
     1
102
RTVSPropertyOp32
 70
     1
102
RTVSPropertyOp33
 70
     1
102
RTVSPropertyOp34
 70
     1
102
RTVSPropertyOp35
 70
     1
102
RTVSPropertyOp36
 70
     1
102
RTVSPropertyOp37
 70
     1
102
RTVSPropertyOp38
 70
     1
102
RTVSPropertyOp39
 70
     1
102
RTVSPropertyOp40
 70
     1
102
RTVSPropertyOp41
 70
     1
102
RTVSPropertyOp42
 70
     1
102
RTVSPropertyOp43
 70
     1
102
RTVSPropertyOp44
 70
     1
102
RTVSPropertyOp45
 70
     1
102
RTVSPropertyOp46
 70
     1
102
RTVSPropertyOp47
 70
     1
102
RTVSPropertyOp48
 70
     1
102
RTVSPropertyOp49
 70
     1
102
RTVSPropertyOp50
 70
     1
102
RTVSPropertyOp51
 70
     0
102
RTVSPropertyOp52
 70
     0
102
RTVSPropertyOp53
 70
     1
102
RTVSPropertyOp54
 70
     1
102
RTVSPropertyOp55
 70
     1
102
RTVSPropertyOp56
 70
     1
102
RTVSPropertyOp57
 70
     1
102
RTVSPost2010Prop28
280
     0
102
RTVSPost2010PropOp28
 70
     1
102
RTVSPost2010Prop29
280
     1
102
RTVSPost2010PropOp29
 70
     1
102
RTVSPost2010Prop30
280
     1
102
RTVSPost2010PropOp30
 70
     1
102
RTVSPost2010Prop31
280
     0
102
RTVSPost2010PropOp31
 70
     1
102
RTVSPost2010Prop32
280
     0
102
RTVSPost2010PropOp32
 70
     1
102
RTVSPost2010Prop33
280
     0
102
RTVSPost2010PropOp33
 70
     1
102
RTVSPost2010Prop34
280
     0
102
RTVSPost2010PropOp34
 70
     1
102
RTVSPost2010Prop35
280
     0
102
RTVSPost2010PropOp35
 70
     1
102
RTVSPost2010Prop36
280
     0
102
RTVSPost2010PropOp36
 70
     1
102
RTVSPost2010Prop37
 90
       50
102
RTVSPost2010PropOp37
 70
     1
102
RTVSPost2010Prop38
140
0.0
102
RTVSPost2010PropOp38
 70
     1
102
RTVSPost2010Prop39
140
1.0
102
RTVSPost2010PropOp39
 70
     1
102
RTVSPost2010Prop40
 90
        0
102
RTVSPost2010PropOp40
 70
     1
102
RTVSPost2010Prop41ColorIndex
 90
      178
102
RTVSPost2010Prop41ColorRGB
 90
        0
102
RTVSPost2010PropOp41
 70
     1
102
RTVSPost2010Prop42
 90
       50
102
RTVSPost2010PropOp42
 70
     1
102
RTVSPost2010Prop43
 90
        3
102
RTVSPost2010PropOp43
 70
     1
102
RTVSPost2010Prop44ColorIndex
 90
        5
102
RTVSPost2010Prop44ColorRGB
 90
      255
102
RTVSPost2010PropOp44
 70
     1
102
RTVSPost2010Prop45
280
     0
102
RTVSPost2010PropOp45
 70
     1
102
RTVSPost2010Prop46
 90
       50
102
RTVSPost2010PropOp46
 70
     1
102
RTVSPost2010Prop47
 90
       50
102
RTVSPost2010PropOp47
 70
     1
102
RTVSPost2010Prop48
 90
       50
102
RTVSPost2010PropOp48
 70
     1
102
RTVSPost2010Prop49
280
     0
102
RTVSPost2010PropOp49
 70
     1
102
RTVSPost2010Prop50
 90
       50
102
RTVSPost2010PropOp50
 70
     1
102
RTVSPost2010Prop51ColorIndex
 90
      256
102
RTVSPost2010Prop51ColorRGB
 90
-16777216
102
RTVSPost2010PropOp51
 70
     0
102
RTVSPost2010Prop52
140
1.0
102
RTVSPost2010PropOp52
 70
     0
102
RTVSPost2010Prop53
 90
        2
102
RTVSPost2010PropOp53
 70
     1
102
RTVSPost2010Prop54
  1
strokes_ogs.tif
102
RTVSPost2010PropOp54
 70
     1
102
RTVSPost2010Prop55
280
     0
102
RTVSPost2010PropOp55
 70
     1
102
RTVSPost2010Prop56
140
1.0
102
RTVSPost2010PropOp56
 70
     1
102
RTVSPost2010Prop57
140
1.0
102
RTVSPost2010PropOp57
 70
     1
  0
XRECORD
  5
E9
102
{ACAD_REACTORS
330
E8
102
}
330
E8
100
AcDbXrecord
280
     1
102
RTVSPropertyOp0
 70
     1
102
RTVSPropertyOp1
 70
     1
102
RTVSPropertyOp2
 70
     1
102
RTVSPropertyOp3
 70
     1
102
RTVSPropertyOp4
 70
     1
102
RTVSPropertyOp5
 70
     1
102
RTVSPropertyOp6
 70
     1
102
RTVSPropertyOp7
 70
     1
102
RTVSPropertyOp8
 70
     1
102
RTVSPropertyOp9
 70
     1
102
RTVSPropertyOp10
 70
     1
102
RTVSPropertyOp11
 70
     1
102
RTVSPropertyOp12
 70
     1
102
RTVSPropertyOp13
 70
     1
102
RTVSPropertyOp14
 70
     1
102
RTVSPropertyOp15
 70
     1
102
RTVSPropertyOp16
 70
     1
102
RTVSPropertyOp17
 70
     1
102
RTVSPropertyOp18
 70
     1
102
RTVSPropertyOp19
 70
     1
102
RTVSPropertyOp20
 70
     1
102
RTVSPropertyOp21
 70
     1
102
RTVSPropertyOp22
 70
     1
102
RTVSPropertyOp23
 70
     1
102
RTVSPropertyOp24
 70
     1
102
RTVSPropertyOp25
 70
     1
102
RTVSPropertyOp26
 70
     1
102
RTVSPropertyOp27
 70
     1
102
RTVSPropertyOp28
 70
     1
102
RTVSPropertyOp29
 70
     1
102
RTVSPropertyOp30
 70
     1
102
RTVSPropertyOp31
 70
     1
102
RTVSPropertyOp32
 70
     1
102
RTVSPropertyOp33
 70
     1
102
RTVSPropertyOp34
 70
     1
102
RTVSPropertyOp35
 70
     1
102
RTVSPropertyOp36
 70
     1
102
RTVSPropertyOp37
 70
     1
102
RTVSPropertyOp38
 70
     1
102
RTVSPropertyOp39
 70
     1
102
RTVSPropertyOp40
 70
     1
102
RTVSPropertyOp41
 70
     1
102
RTVSPropertyOp42
 70
     1
102
RTVSPropertyOp43
 70
     1
102
RTVSPropertyOp44
 70
     1
102
RTVSPropertyOp45
 70
     1
102
RTVSPropertyOp46
 70
     1
102
RTVSPropertyOp47
 70
     1
102
RTVSPropertyOp48
 70
     1
102
RTVSPropertyOp49
 70
     1
102
RTVSPropertyOp50
 70
     1
102
RTVSPropertyOp51
 70
     0
102
RTVSPropertyOp52
 70
     0
102
RTVSPropertyOp53
 70
     1
102
RTVSPropertyOp54
 70
     1
102
RTVSPropertyOp55
 70
     1
102
RTVSPropertyOp56
 70
     1
102
RTVSPropertyOp57
 70
     1
102
RTVSPost2010Prop28
280
     0
102
RTVSPost2010PropOp28
 70
     1
102
RTVSPost2010Prop29
280
     1
102
RTVSPost2010PropOp29
 70
     1
102
RTVSPost2010Prop30
280
     1
102
RTVSPost2010PropOp30
 70
     1
102
RTVSPost2010Prop31
280
     0
102
RTVSPost2010PropOp31
 70
     1
102
RTVSPost2010Prop32
280
     0
102
RTVSPost2010PropOp32
 70
     1
102
RTVSPost2010Prop33
280
     0
102
RTVSPost2010PropOp33
 70
     1
102
RTVSPost2010Prop34
280
     0
102
RTVSPost2010PropOp34
 70
     1
102
RTVSPost2010Prop35
280
     0
102
RTVSPost2010PropOp35
 70
     1
102
RTVSPost2010Prop36
280
     0
102
RTVSPost2010PropOp36
 70
     1
102
RTVSPost2010Prop37
 90
       50
102
RTVSPost2010PropOp37
 70
     1
102
RTVSPost2010Prop38
140
0.0
102
RTVSPost2010PropOp38
 70
     1
102
RTVSPost2010Prop39
140
1.0
102
RTVSPost2010PropOp39
 70
     1
102
RTVSPost2010Prop40
 90
        0
102
RTVSPost2010PropOp40
 70
     1
102
RTVSPost2010Prop41ColorIndex
 90
      178
102
RTVSPost2010Prop41ColorRGB
 90
        0
102
RTVSPost2010PropOp41
 70
     1
102
RTVSPost2010Prop42
 90
       50
102
RTVSPost2010PropOp42
 70
     1
102
RTVSPost2010Prop43
 90
        3
102
RTVSPost2010PropOp43
 70
     1
102
RTVSPost2010Prop44ColorIndex
 90
        5
102
RTVSPost2010Prop44ColorRGB
 90
      255
102
RTVSPost2010PropOp44
 70
     1
102
RTVSPost2010Prop45
280
     0
102
RTVSPost2010PropOp45
 70
     1
102
RTVSPost2010Prop46
 90
       50
102
RTVSPost2010PropOp46
 70
     1
102
RTVSPost2010Prop47
 90
       50
102
RTVSPost2010PropOp47
 70
     1
102
RTVSPost2010Prop48
 90
       50
102
RTVSPost2010PropOp48
 70
     1
102
RTVSPost2010Prop49
280
     0
102
RTVSPost2010PropOp49
 70
     1
102
RTVSPost2010Prop50
 90
       50
102
RTVSPost2010PropOp50
 70
     1
102
RTVSPost2010Prop51ColorIndex
 90
      256
102
RTVSPost2010Prop51ColorRGB
 90
-16777216
102
RTVSPost2010PropOp51
 70
     0
102
RTVSPost2010Prop52
140
1.0
102
RTVSPost2010PropOp52
 70
     0
102
RTVSPost2010Prop53
 90
        2
102
RTVSPost2010PropOp53
 70
     1
102
RTVSPost2010Prop54
  1
strokes_ogs.tif
102
RTVSPost2010PropOp54
 70
     1
102
RTVSPost2010Prop55
280
     0
102
RTVSPost2010PropOp55
 70
     1
102
RTVSPost2010Prop56
140
1.0
102
RTVSPost2010PropOp56
 70
     1
102
RTVSPost2010Prop57
140
1.0
102
RTVSPost2010PropOp57
 70
     1
  0
XRECORD
  5
E3
102
{ACAD_REACTORS
330
E2
102
}
330
E2
100
AcDbXrecord
280
     1
102
RTVSPropertyOp0
 70
     1
102
RTVSPropertyOp1
 70
     1
102
RTVSPropertyOp2
 70
     1
102
RTVSPropertyOp3
 70
     1
102
RTVSPropertyOp4
 70
     1
102
RTVSPropertyOp5
 70
     1
102
RTVSPropertyOp6
 70
     1
102
RTVSPropertyOp7
 70
     1
102
RTVSPropertyOp8
 70
     1
102
RTVSPropertyOp9
 70
     1
102
RTVSPropertyOp10
 70
     1
102
RTVSPropertyOp11
 70
     1
102
RTVSPropertyOp12
 70
     1
102
RTVSPropertyOp13
 70
     1
102
RTVSPropertyOp14
 70
     1
102
RTVSPropertyOp15
 70
     1
102
RTVSPropertyOp16
 70
     1
102
RTVSPropertyOp17
 70
     1
102
RTVSPropertyOp18
 70
     1
102
RTVSPropertyOp19
 70
     1
102
RTVSPropertyOp20
 70
     1
102
RTVSPropertyOp21
 70
     1
102
RTVSPropertyOp22
 70
     1
102
RTVSPropertyOp23
 70
     1
102
RTVSPropertyOp24
 70
     1
102
RTVSPropertyOp25
 70
     1
102
RTVSPropertyOp26
 70
     1
102
RTVSPropertyOp27
 70
     1
102
RTVSPropertyOp28
 70
     1
102
RTVSPropertyOp29
 70
     1
102
RTVSPropertyOp30
 70
     1
102
RTVSPropertyOp31
 70
     1
102
RTVSPropertyOp32
 70
     1
102
RTVSPropertyOp33
 70
     1
102
RTVSPropertyOp34
 70
     1
102
RTVSPropertyOp35
 70
     1
102
RTVSPropertyOp36
 70
     1
102
RTVSPropertyOp37
 70
     1
102
RTVSPropertyOp38
 70
     1
102
RTVSPropertyOp39
 70
     1
102
RTVSPropertyOp40
 70
     1
102
RTVSPropertyOp41
 70
     1
102
RTVSPropertyOp42
 70
     1
102
RTVSPropertyOp43
 70
     1
102
RTVSPropertyOp44
 70
     1
102
RTVSPropertyOp45
 70
     1
102
RTVSPropertyOp46
 70
     1
102
RTVSPropertyOp47
 70
     1
102
RTVSPropertyOp48
 70
     1
102
RTVSPropertyOp49
 70
     1
102
RTVSPropertyOp50
 70
     1
102
RTVSPropertyOp51
 70
     0
102
RTVSPropertyOp52
 70
     0
102
RTVSPropertyOp53
 70
     1
102
RTVSPropertyOp54
 70
     1
102
RTVSPropertyOp55
 70
     1
102
RTVSPropertyOp56
 70
     1
102
RTVSPropertyOp57
 70
     1
102
RTVSPost2010Prop28
280
     0
102
RTVSPost2010PropOp28
 70
     1
102
RTVSPost2010Prop29
280
     1
102
RTVSPost2010PropOp29
 70
     1
102
RTVSPost2010Prop30
280
     1
102
RTVSPost2010PropOp30
 70
     1
102
RTVSPost2010Prop31
280
     0
102
RTVSPost2010PropOp31
 70
     1
102
RTVSPost2010Prop32
280
     0
102
RTVSPost2010PropOp32
 70
     1
102
RTVSPost2010Prop33
280
     0
102
RTVSPost2010PropOp33
 70
     1
102
RTVSPost2010Prop34
280
     0
102
RTVSPost2010PropOp34
 70
     1
102
RTVSPost2010Prop35
280
     0
102
RTVSPost2010PropOp35
 70
     1
102
RTVSPost2010Prop36
280
     0
102
RTVSPost2010PropOp36
 70
     1
102
RTVSPost2010Prop37
 90
       50
102
RTVSPost2010PropOp37
 70
     1
102
RTVSPost2010Prop38
140
0.0
102
RTVSPost2010PropOp38
 70
     1
102
RTVSPost2010Prop39
140
1.0
102
RTVSPost2010PropOp39
 70
     1
102
RTVSPost2010Prop40
 90
        0
102
RTVSPost2010PropOp40
 70
     1
102
RTVSPost2010Prop41ColorIndex
 90
      178
102
RTVSPost2010Prop41ColorRGB
 90
        0
102
RTVSPost2010PropOp41
 70
     1
102
RTVSPost2010Prop42
 90
       50
102
RTVSPost2010PropOp42
 70
     1
102
RTVSPost2010Prop43
 90
        3
102
RTVSPost2010PropOp43
 70
     1
102
RTVSPost2010Prop44ColorIndex
 90
        5
102
RTVSPost2010Prop44ColorRGB
 90
      255
102
RTVSPost2010PropOp44
 70
     1
102
RTVSPost2010Prop45
280
     0
102
RTVSPost2010PropOp45
 70
     1
102
RTVSPost2010Prop46
 90
       50
102
RTVSPost2010PropOp46
 70
     1
102
RTVSPost2010Prop47
 90
       50
102
RTVSPost2010PropOp47
 70
     1
102
RTVSPost2010Prop48
 90
       50
102
RTVSPost2010PropOp48
 70
     1
102
RTVSPost2010Prop49
280
     0
102
RTVSPost2010PropOp49
 70
     1
102
RTVSPost2010Prop50
 90
       50
102
RTVSPost2010PropOp50
 70
     1
102
RTVSPost2010Prop51ColorIndex
 90
      256
102
RTVSPost2010Prop51ColorRGB
 90
-16777216
102
RTVSPost2010PropOp51
 70
     0
102
RTVSPost2010Prop52
140
1.0
102
RTVSPost2010PropOp52
 70
     0
102
RTVSPost2010Prop53
 90
        2
102
RTVSPost2010PropOp53
 70
     1
102
RTVSPost2010Prop54
  1
strokes_ogs.tif
102
RTVSPost2010PropOp54
 70
     1
102
RTVSPost2010Prop55
280
     0
102
RTVSPost2010PropOp55
 70
     1
102
RTVSPost2010Prop56
140
1.0
102
RTVSPost2010PropOp56
 70
     1
102
RTVSPost2010Prop57
140
1.0
102
RTVSPost2010PropOp57
 70
     1
  0
XRECORD
  5
E5
102
{ACAD_REACTORS
330
E4
102
}
330
E4
100
AcDbXrecord
280
     1
102
RTVSPropertyOp0
 70
     1
102
RTVSPropertyOp1
 70
     1
102
RTVSPropertyOp2
 70
     1
102
RTVSPropertyOp3
 70
     1
102
RTVSPropertyOp4
 70
     1
102
RTVSPropertyOp5
 70
     1
102
RTVSPropertyOp6
 70
     1
102
RTVSPropertyOp7
 70
     1
102
RTVSPropertyOp8
 70
     1
102
RTVSPropertyOp9
 70
     1
102
RTVSPropertyOp10
 70
     1
102
RTVSPropertyOp11
 70
     1
102
RTVSPropertyOp12
 70
     1
102
RTVSPropertyOp13
 70
     1
102
RTVSPropertyOp14
 70
     1
102
RTVSPropertyOp15
 70
     1
102
RTVSPropertyOp16
 70
     1
102
RTVSPropertyOp17
 70
     1
102
RTVSPropertyOp18
 70
     1
102
RTVSPropertyOp19
 70
     1
102
RTVSPropertyOp20
 70
     1
102
RTVSPropertyOp21
 70
     1
102
RTVSPropertyOp22
 70
     1
102
RTVSPropertyOp23
 70
     1
102
RTVSPropertyOp24
 70
     1
102
RTVSPropertyOp25
 70
     1
102
RTVSPropertyOp26
 70
     1
102
RTVSPropertyOp27
 70
     1
102
RTVSPropertyOp28
 70
     1
102
RTVSPropertyOp29
 70
     1
102
RTVSPropertyOp30
 70
     1
102
RTVSPropertyOp31
 70
     1
102
RTVSPropertyOp32
 70
     1
102
RTVSPropertyOp33
 70
     1
102
RTVSPropertyOp34
 70
     1
102
RTVSPropertyOp35
 70
     1
102
RTVSPropertyOp36
 70
     1
102
RTVSPropertyOp37
 70
     1
102
RTVSPropertyOp38
 70
     1
102
RTVSPropertyOp39
 70
     1
102
RTVSPropertyOp40
 70
     1
102
RTVSPropertyOp41
 70
     1
102
RTVSPropertyOp42
 70
     1
102
RTVSPropertyOp43
 70
     1
102
RTVSPropertyOp44
 70
     1
102
RTVSPropertyOp45
 70
     1
102
RTVSPropertyOp46
 70
     1
102
RTVSPropertyOp47
 70
     1
102
RTVSPropertyOp48
 70
     1
102
RTVSPropertyOp49
 70
     1
102
RTVSPropertyOp50
 70
     1
102
RTVSPropertyOp51
 70
     0
102
RTVSPropertyOp52
 70
     0
102
RTVSPropertyOp53
 70
     1
102
RTVSPropertyOp54
 70
     1
102
RTVSPropertyOp55
 70
     1
102
RTVSPropertyOp56
 70
     1
102
RTVSPropertyOp57
 70
     1
102
RTVSPost2010Prop28
280
     0
102
RTVSPost2010PropOp28
 70
     1
102
RTVSPost2010Prop29
280
     1
102
RTVSPost2010PropOp29
 70
     1
102
RTVSPost2010Prop30
280
     1
102
RTVSPost2010PropOp30
 70
     1
102
RTVSPost2010Prop31
280
     0
102
RTVSPost2010PropOp31
 70
     1
102
RTVSPost2010Prop32
280
     0
102
RTVSPost2010PropOp32
 70
     1
102
RTVSPost2010Prop33
280
     0
102
RTVSPost2010PropOp33
 70
     1
102
RTVSPost2010Prop34
280
     0
102
RTVSPost2010PropOp34
 70
     1
102
RTVSPost2010Prop35
280
     0
102
RTVSPost2010PropOp35
 70
     1
102
RTVSPost2010Prop36
280
     0
102
RTVSPost2010PropOp36
 70
     1
102
RTVSPost2010Prop37
 90
       50
102
RTVSPost2010PropOp37
 70
     1
102
RTVSPost2010Prop38
140
0.0
102
RTVSPost2010PropOp38
 70
     1
102
RTVSPost2010Prop39
140
1.0
102
RTVSPost2010PropOp39
 70
     1
102
RTVSPost2010Prop40
 90
        0
102
RTVSPost2010PropOp40
 70
     1
102
RTVSPost2010Prop41ColorIndex
 90
      178
102
RTVSPost2010Prop41ColorRGB
 90
        0
102
RTVSPost2010PropOp41
 70
     1
102
RTVSPost2010Prop42
 90
       50
102
RTVSPost2010PropOp42
 70
     1
102
RTVSPost2010Prop43
 90
        3
102
RTVSPost2010PropOp43
 70
     1
102
RTVSPost2010Prop44ColorIndex
 90
        5
102
RTVSPost2010Prop44ColorRGB
 90
      255
102
RTVSPost2010PropOp44
 70
     1
102
RTVSPost2010Prop45
280
     0
102
RTVSPost2010PropOp45
 70
     1
102
RTVSPost2010Prop46
 90
       50
102
RTVSPost2010PropOp46
 70
     1
102
RTVSPost2010Prop47
 90
       50
102
RTVSPost2010PropOp47
 70
     1
102
RTVSPost2010Prop48
 90
       50
102
RTVSPost2010PropOp48
 70
     1
102
RTVSPost2010Prop49
280
     0
102
RTVSPost2010PropOp49
 70
     1
102
RTVSPost2010Prop50
 90
       50
102
RTVSPost2010PropOp50
 70
     1
102
RTVSPost2010Prop51ColorIndex
 90
      256
102
RTVSPost2010Prop51ColorRGB
 90
-16777216
102
RTVSPost2010PropOp51
 70
     0
102
RTVSPost2010Prop52
140
1.0
102
RTVSPost2010PropOp52
 70
     0
102
RTVSPost2010Prop53
 90
        2
102
RTVSPost2010PropOp53
 70
     1
102
RTVSPost2010Prop54
  1
strokes_ogs.tif
102
RTVSPost2010PropOp54
 70
     1
102
RTVSPost2010Prop55
280
     0
102
RTVSPost2010PropOp55
 70
     1
102
RTVSPost2010Prop56
140
1.0
102
RTVSPost2010PropOp56
 70
     1
102
RTVSPost2010Prop57
140
1.0
102
RTVSPost2010PropOp57
 70
     1
  0
XRECORD
  5
D5
102
{ACAD_REACTORS
330
D4
102
}
330
D4
100
AcDbXrecord
280
     1
102
RTVSPropertyOp0
 70
     1
102
RTVSPropertyOp1
 70
     1
102
RTVSPropertyOp2
 70
     1
102
RTVSPropertyOp3
 70
     1
102
RTVSPropertyOp4
 70
     1
102
RTVSPropertyOp5
 70
     1
102
RTVSPropertyOp6
 70
     1
102
RTVSPropertyOp7
 70
     1
102
RTVSPropertyOp8
 70
     1
102
RTVSPropertyOp9
 70
     1
102
RTVSPropertyOp10
 70
     1
102
RTVSPropertyOp11
 70
     1
102
RTVSPropertyOp12
 70
     1
102
RTVSPropertyOp13
 70
     1
102
RTVSPropertyOp14
 70
     1
102
RTVSPropertyOp15
 70
     1
102
RTVSPropertyOp16
 70
     1
102
RTVSPropertyOp17
 70
     1
102
RTVSPropertyOp18
 70
     1
102
RTVSPropertyOp19
 70
     1
102
RTVSPropertyOp20
 70
     1
102
RTVSPropertyOp21
 70
     1
102
RTVSPropertyOp22
 70
     1
102
RTVSPropertyOp23
 70
     1
102
RTVSPropertyOp24
 70
     1
102
RTVSPropertyOp25
 70
     1
102
RTVSPropertyOp26
 70
     1
102
RTVSPropertyOp27
 70
     1
102
RTVSPropertyOp28
 70
     1
102
RTVSPropertyOp29
 70
     1
102
RTVSPropertyOp30
 70
     1
102
RTVSPropertyOp31
 70
     1
102
RTVSPropertyOp32
 70
     1
102
RTVSPropertyOp33
 70
     1
102
RTVSPropertyOp34
 70
     1
102
RTVSPropertyOp35
 70
     1
102
RTVSPropertyOp36
 70
     1
102
RTVSPropertyOp37
 70
     1
102
RTVSPropertyOp38
 70
     1
102
RTVSPropertyOp39
 70
     1
102
RTVSPropertyOp40
 70
     1
102
RTVSPropertyOp41
 70
     1
102
RTVSPropertyOp42
 70
     1
102
RTVSPropertyOp43
 70
     1
102
RTVSPropertyOp44
 70
     1
102
RTVSPropertyOp45
 70
     1
102
RTVSPropertyOp46
 70
     1
102
RTVSPropertyOp47
 70
     1
102
RTVSPropertyOp48
 70
     1
102
RTVSPropertyOp49
 70
     1
102
RTVSPropertyOp50
 70
     1
102
RTVSPropertyOp51
 70
     0
102
RTVSPropertyOp52
 70
     0
102
RTVSPropertyOp53
 70
     1
102
RTVSPropertyOp54
 70
     1
102
RTVSPropertyOp55
 70
     1
102
RTVSPropertyOp56
 70
     1
102
RTVSPropertyOp57
 70
     1
102
RTVSPost2010Prop28
280
     0
102
RTVSPost2010PropOp28
 70
     1
102
RTVSPost2010Prop29
280
     1
102
RTVSPost2010PropOp29
 70
     1
102
RTVSPost2010Prop30
280
     1
102
RTVSPost2010PropOp30
 70
     1
102
RTVSPost2010Prop31
280
     0
102
RTVSPost2010PropOp31
 70
     1
102
RTVSPost2010Prop32
280
     0
102
RTVSPost2010PropOp32
 70
     1
102
RTVSPost2010Prop33
280
     0
102
RTVSPost2010PropOp33
 70
     1
102
RTVSPost2010Prop34
280
     0
102
RTVSPost2010PropOp34
 70
     1
102
RTVSPost2010Prop35
280
     0
102
RTVSPost2010PropOp35
 70
     1
102
RTVSPost2010Prop36
280
     0
102
RTVSPost2010PropOp36
 70
     1
102
RTVSPost2010Prop37
 90
       50
102
RTVSPost2010PropOp37
 70
     1
102
RTVSPost2010Prop38
140
0.0
102
RTVSPost2010PropOp38
 70
     1
102
RTVSPost2010Prop39
140
1.0
102
RTVSPost2010PropOp39
 70
     1
102
RTVSPost2010Prop40
 90
        0
102
RTVSPost2010PropOp40
 70
     1
102
RTVSPost2010Prop41ColorIndex
 90
      178
102
RTVSPost2010Prop41ColorRGB
 90
        0
102
RTVSPost2010PropOp41
 70
     1
102
RTVSPost2010Prop42
 90
       50
102
RTVSPost2010PropOp42
 70
     1
102
RTVSPost2010Prop43
 90
        3
102
RTVSPost2010PropOp43
 70
     1
102
RTVSPost2010Prop44ColorIndex
 90
        5
102
RTVSPost2010Prop44ColorRGB
 90
      255
102
RTVSPost2010PropOp44
 70
     1
102
RTVSPost2010Prop45
280
     0
102
RTVSPost2010PropOp45
 70
     1
102
RTVSPost2010Prop46
 90
       50
102
RTVSPost2010PropOp46
 70
     1
102
RTVSPost2010Prop47
 90
       50
102
RTVSPost2010PropOp47
 70
     1
102
RTVSPost2010Prop48
 90
       50
102
RTVSPost2010PropOp48
 70
     1
102
RTVSPost2010Prop49
280
     0
102
RTVSPost2010PropOp49
 70
     1
102
RTVSPost2010Prop50
 90
       50
102
RTVSPost2010PropOp50
 70
     1
102
RTVSPost2010Prop51ColorIndex
 90
      256
102
RTVSPost2010Prop51ColorRGB
 90
-16777216
102
RTVSPost2010PropOp51
 70
     0
102
RTVSPost2010Prop52
140
1.0
102
RTVSPost2010PropOp52
 70
     0
102
RTVSPost2010Prop53
 90
        2
102
RTVSPost2010PropOp53
 70
     1
102
RTVSPost2010Prop54
  1
strokes_ogs.tif
102
RTVSPost2010PropOp54
 70
     1
102
RTVSPost2010Prop55
280
     0
102
RTVSPost2010PropOp55
 70
     1
102
RTVSPost2010Prop56
140
1.0
102
RTVSPost2010PropOp56
 70
     1
102
RTVSPost2010Prop57
140
1.0
102
RTVSPost2010PropOp57
 70
     1
  0
XRECORD
  5
C7
102
{ACAD_REACTORS
330
C6
102
}
330
C6
100
AcDbXrecord
280
     1
102
RTVSPropertyOp0
 70
     1
102
RTVSPropertyOp1
 70
     1
102
RTVSPropertyOp2
 70
     1
102
RTVSPropertyOp3
 70
     1
102
RTVSPropertyOp4
 70
     1
102
RTVSPropertyOp5
 70
     1
102
RTVSPropertyOp6
 70
     1
102
RTVSPropertyOp7
 70
     1
102
RTVSPropertyOp8
 70
     1
102
RTVSPropertyOp9
 70
     1
102
RTVSPropertyOp10
 70
     1
102
RTVSPropertyOp11
 70
     1
102
RTVSPropertyOp12
 70
     1
102
RTVSPropertyOp13
 70
     1
102
RTVSPropertyOp14
 70
     1
102
RTVSPropertyOp15
 70
     1
102
RTVSPropertyOp16
 70
     1
102
RTVSPropertyOp17
 70
     1
102
RTVSPropertyOp18
 70
     1
102
RTVSPropertyOp19
 70
     1
102
RTVSPropertyOp20
 70
     1
102
RTVSPropertyOp21
 70
     1
102
RTVSPropertyOp22
 70
     1
102
RTVSPropertyOp23
 70
     1
102
RTVSPropertyOp24
 70
     1
102
RTVSPropertyOp25
 70
     1
102
RTVSPropertyOp26
 70
     1
102
RTVSPropertyOp27
 70
     1
102
RTVSPropertyOp28
 70
     1
102
RTVSPropertyOp29
 70
     1
102
RTVSPropertyOp30
 70
     1
102
RTVSPropertyOp31
 70
     1
102
RTVSPropertyOp32
 70
     1
102
RTVSPropertyOp33
 70
     1
102
RTVSPropertyOp34
 70
     1
102
RTVSPropertyOp35
 70
     1
102
RTVSPropertyOp36
 70
     1
102
RTVSPropertyOp37
 70
     1
102
RTVSPropertyOp38
 70
     1
102
RTVSPropertyOp39
 70
     1
102
RTVSPropertyOp40
 70
     1
102
RTVSPropertyOp41
 70
     1
102
RTVSPropertyOp42
 70
     1
102
RTVSPropertyOp43
 70
     1
102
RTVSPropertyOp44
 70
     1
102
RTVSPropertyOp45
 70
     1
102
RTVSPropertyOp46
 70
     1
102
RTVSPropertyOp47
 70
     1
102
RTVSPropertyOp48
 70
     1
102
RTVSPropertyOp49
 70
     1
102
RTVSPropertyOp50
 70
     1
102
RTVSPropertyOp51
 70
     0
102
RTVSPropertyOp52
 70
     0
102
RTVSPropertyOp53
 70
     1
102
RTVSPropertyOp54
 70
     1
102
RTVSPropertyOp55
 70
     1
102
RTVSPropertyOp56
 70
     1
102
RTVSPropertyOp57
 70
     1
102
RTVSPost2010Prop28
280
     0
102
RTVSPost2010PropOp28
 70
     1
102
RTVSPost2010Prop29
280
     1
102
RTVSPost2010PropOp29
 70
     1
102
RTVSPost2010Prop30
280
     1
102
RTVSPost2010PropOp30
 70
     1
102
RTVSPost2010Prop31
280
     0
102
RTVSPost2010PropOp31
 70
     1
102
RTVSPost2010Prop32
280
     0
102
RTVSPost2010PropOp32
 70
     1
102
RTVSPost2010Prop33
280
     0
102
RTVSPost2010PropOp33
 70
     1
102
RTVSPost2010Prop34
280
     0
102
RTVSPost2010PropOp34
 70
     1
102
RTVSPost2010Prop35
280
     0
102
RTVSPost2010PropOp35
 70
     1
102
RTVSPost2010Prop36
280
     0
102
RTVSPost2010PropOp36
 70
     1
102
RTVSPost2010Prop37
 90
       50
102
RTVSPost2010PropOp37
 70
     1
102
RTVSPost2010Prop38
140
0.0
102
RTVSPost2010PropOp38
 70
     1
102
RTVSPost2010Prop39
140
1.0
102
RTVSPost2010PropOp39
 70
     1
102
RTVSPost2010Prop40
 90
        0
102
RTVSPost2010PropOp40
 70
     1
102
RTVSPost2010Prop41ColorIndex
 90
      178
102
RTVSPost2010Prop41ColorRGB
 90
        0
102
RTVSPost2010PropOp41
 70
     1
102
RTVSPost2010Prop42
 90
       50
102
RTVSPost2010PropOp42
 70
     1
102
RTVSPost2010Prop43
 90
        3
102
RTVSPost2010PropOp43
 70
     1
102
RTVSPost2010Prop44ColorIndex
 90
        5
102
RTVSPost2010Prop44ColorRGB
 90
      255
102
RTVSPost2010PropOp44
 70
     1
102
RTVSPost2010Prop45
280
     0
102
RTVSPost2010PropOp45
 70
     1
102
RTVSPost2010Prop46
 90
       50
102
RTVSPost2010PropOp46
 70
     1
102
RTVSPost2010Prop47
 90
       50
102
RTVSPost2010PropOp47
 70
     1
102
RTVSPost2010Prop48
 90
       50
102
RTVSPost2010PropOp48
 70
     1
102
RTVSPost2010Prop49
280
     0
102
RTVSPost2010PropOp49
 70
     1
102
RTVSPost2010Prop50
 90
       50
102
RTVSPost2010PropOp50
 70
     1
102
RTVSPost2010Prop51ColorIndex
 90
      256
102
RTVSPost2010Prop51ColorRGB
 90
-16777216
102
RTVSPost2010PropOp51
 70
     0
102
RTVSPost2010Prop52
140
1.0
102
RTVSPost2010PropOp52
 70
     0
102
RTVSPost2010Prop53
 90
        2
102
RTVSPost2010PropOp53
 70
     1
102
RTVSPost2010Prop54
  1
strokes_ogs.tif
102
RTVSPost2010PropOp54
 70
     1
102
RTVSPost2010Prop55
280
     0
102
RTVSPost2010PropOp55
 70
     1
102
RTVSPost2010Prop56
140
1.0
102
RTVSPost2010PropOp56
 70
     1
102
RTVSPost2010Prop57
140
1.0
102
RTVSPost2010PropOp57
 70
     1
  0
XRECORD
  5
E7
102
{ACAD_REACTORS
330
E6
102
}
330
E6
100
AcDbXrecord
280
     1
102
RTVSPropertyOp0
 70
     1
102
RTVSPropertyOp1
 70
     1
102
RTVSPropertyOp2
 70
     1
102
RTVSPropertyOp3
 70
     1
102
RTVSPropertyOp4
 70
     1
102
RTVSPropertyOp5
 70
     1
102
RTVSPropertyOp6
 70
     1
102
RTVSPropertyOp7
 70
     1
102
RTVSPropertyOp8
 70
     1
102
RTVSPropertyOp9
 70
     1
102
RTVSPropertyOp10
 70
     1
102
RTVSPropertyOp11
 70
     1
102
RTVSPropertyOp12
 70
     1
102
RTVSPropertyOp13
 70
     1
102
RTVSPropertyOp14
 70
     1
102
RTVSPropertyOp15
 70
     1
102
RTVSPropertyOp16
 70
     1
102
RTVSPropertyOp17
 70
     1
102
RTVSPropertyOp18
 70
     1
102
RTVSPropertyOp19
 70
     1
102
RTVSPropertyOp20
 70
     1
102
RTVSPropertyOp21
 70
     1
102
RTVSPropertyOp22
 70
     1
102
RTVSPropertyOp23
 70
     1
102
RTVSPropertyOp24
 70
     1
102
RTVSPropertyOp25
 70
     1
102
RTVSPropertyOp26
 70
     1
102
RTVSPropertyOp27
 70
     1
102
RTVSPropertyOp28
 70
     1
102
RTVSPropertyOp29
 70
     1
102
RTVSPropertyOp30
 70
     1
102
RTVSPropertyOp31
 70
     1
102
RTVSPropertyOp32
 70
     1
102
RTVSPropertyOp33
 70
     1
102
RTVSPropertyOp34
 70
     1
102
RTVSPropertyOp35
 70
     1
102
RTVSPropertyOp36
 70
     1
102
RTVSPropertyOp37
 70
     1
102
RTVSPropertyOp38
 70
     1
102
RTVSPropertyOp39
 70
     1
102
RTVSPropertyOp40
 70
     1
102
RTVSPropertyOp41
 70
     1
102
RTVSPropertyOp42
 70
     1
102
RTVSPropertyOp43
 70
     1
102
RTVSPropertyOp44
 70
     1
102
RTVSPropertyOp45
 70
     1
102
RTVSPropertyOp46
 70
     1
102
RTVSPropertyOp47
 70
     1
102
RTVSPropertyOp48
 70
     1
102
RTVSPropertyOp49
 70
     1
102
RTVSPropertyOp50
 70
     1
102
RTVSPropertyOp51
 70
     0
102
RTVSPropertyOp52
 70
     0
102
RTVSPropertyOp53
 70
     1
102
RTVSPropertyOp54
 70
     1
102
RTVSPropertyOp55
 70
     1
102
RTVSPropertyOp56
 70
     1
102
RTVSPropertyOp57
 70
     1
102
RTVSPost2010Prop28
280
     0
102
RTVSPost2010PropOp28
 70
     1
102
RTVSPost2010Prop29
280
     1
102
RTVSPost2010PropOp29
 70
     1
102
RTVSPost2010Prop30
280
     1
102
RTVSPost2010PropOp30
 70
     1
102
RTVSPost2010Prop31
280
     0
102
RTVSPost2010PropOp31
 70
     1
102
RTVSPost2010Prop32
280
     0
102
RTVSPost2010PropOp32
 70
     1
102
RTVSPost2010Prop33
280
     0
102
RTVSPost2010PropOp33
 70
     1
102
RTVSPost2010Prop34
280
     0
102
RTVSPost2010PropOp34
 70
     1
102
RTVSPost2010Prop35
280
     0
102
RTVSPost2010PropOp35
 70
     1
102
RTVSPost2010Prop36
280
     0
102
RTVSPost2010PropOp36
 70
     1
102
RTVSPost2010Prop37
 90
       50
102
RTVSPost2010PropOp37
 70
     1
102
RTVSPost2010Prop38
140
0.0
102
RTVSPost2010PropOp38
 70
     1
102
RTVSPost2010Prop39
140
1.0
102
RTVSPost2010PropOp39
 70
     1
102
RTVSPost2010Prop40
 90
        0
102
RTVSPost2010PropOp40
 70
     1
102
RTVSPost2010Prop41ColorIndex
 90
      178
102
RTVSPost2010Prop41ColorRGB
 90
        0
102
RTVSPost2010PropOp41
 70
     1
102
RTVSPost2010Prop42
 90
       50
102
RTVSPost2010PropOp42
 70
     1
102
RTVSPost2010Prop43
 90
        3
102
RTVSPost2010PropOp43
 70
     1
102
RTVSPost2010Prop44ColorIndex
 90
        5
102
RTVSPost2010Prop44ColorRGB
 90
      255
102
RTVSPost2010PropOp44
 70
     1
102
RTVSPost2010Prop45
280
     0
102
RTVSPost2010PropOp45
 70
     1
102
RTVSPost2010Prop46
 90
       50
102
RTVSPost2010PropOp46
 70
     1
102
RTVSPost2010Prop47
 90
       50
102
RTVSPost2010PropOp47
 70
     1
102
RTVSPost2010Prop48
 90
       50
102
RTVSPost2010PropOp48
 70
     1
102
RTVSPost2010Prop49
280
     0
102
RTVSPost2010PropOp49
 70
     1
102
RTVSPost2010Prop50
 90
       50
102
RTVSPost2010PropOp50
 70
     1
102
RTVSPost2010Prop51ColorIndex
 90
      256
102
RTVSPost2010Prop51ColorRGB
 90
-16777216
102
RTVSPost2010PropOp51
 70
     0
102
RTVSPost2010Prop52
140
1.0
102
RTVSPost2010PropOp52
 70
     0
102
RTVSPost2010Prop53
 90
        2
102
RTVSPost2010PropOp53
 70
     1
102
RTVSPost2010Prop54
  1
strokes_ogs.tif
102
RTVSPost2010PropOp54
 70
     1
102
RTVSPost2010Prop55
280
     0
102
RTVSPost2010PropOp55
 70
     1
102
RTVSPost2010Prop56
140
1.0
102
RTVSPost2010PropOp56
 70
     1
102
RTVSPost2010Prop57
140
1.0
102
RTVSPost2010PropOp57
 70
     1
  0
ENDSEC
  0
EOF
