999
dxfrw 0.6.3
  0
SECTION
  2
HEADER
  9
$ACADVER
  1
AC1021
  9
$DWGCODEPAGE
  3
ANSI_1252
  9
$INSBASE
 10
0
 20
0
 30
0
  9
$EXTMIN
 10
70.78104625554813
 20
-596.2826497424912
 30
0
  9
$EXTMAX
 10
1356.745883069543
 20
1100.539977635159
 30
0
  9
$LIMMIN
 10
0
 20
0
  9
$LIMMAX
 10
420
 20
297
  9
$ORTHOMODE
 70
    0
  9
$REGENMODE
 70
    1
  9
$FILLMODE
 70
    1
  9
$QTEXTMODE
 70
    0
  9
$MIRRTEXT
 70
    0
  9
$LTSCALE
 40
1
  9
$ATTMODE
 70
    0
  9
$TEXTSIZE
 40
2.5
  9
$TRACEWID
 40
15.68
  9
$TEXTSTYLE
  7
STANDARD
  9
$CLAYER
  8
0
  9
$CELTYPE
  6
BYLAYER
  9
$CECOLOR
 62
  256
  9
$CELTSCALE
 40
1
  9
$DISPSILH
 70
    0
  9
$DIMSCALE
 40
1
  9
$DIMASZ
 40
2.5
  9
$DIMEXO
 40
0.625
  9
$DIMDLI
 40
3.75
  9
$DIMRND
 40
0
  9
$DIMDLE
 40
0
  9
$DIMEXE
 40
1.25
  9
$DIMTP
 40
0
  9
$DIMTM
 40
0
  9
$DIMTXT
 40
15
  9
$DIMCEN
 40
2.5
  9
$DIMTSZ
 40
0
  9
$DIMTOL
 70
    0
  9
$DIMLIM
 70
    0
  9
$DIMTIH
 70
    0
  9
$DIMTOH
 70
    0
  9
$DIMSE1
 70
    0
  9
$DIMSE2
 70
    0
  9
$DIMTAD
 70
    1
  9
$DIMZIN
 70
    1
  9
$DIMBLK
  1

  9
$DIMASO
 70
    1
  9
$DIMSHO
 70
    1
  9
$DIMPOST
  1

  9
$DIMAPOST
  1

  9
$DIMALT
 70
    0
  9
$DIMALTD
 70
    3
  9
$DIMALTF
 40
0.03937
  9
$DIMLFAC
 40
1
  9
$DIMTOFL
 70
    1
  9
$DIMTVP
 40
0
  9
$DIMTIX
 70
    0
  9
$DIMSOXD
 70
    0
  9
$DIMSAH
 70
    0
  9
$DIMBLK1
  1

  9
$DIMBLK2
  1

  9
$DIMSTYLE
  2
STANDARD
  9
$DIMCLRD
 70
    0
  9
$DIMCLRE
 70
    0
  9
$DIMCLRT
 70
    0
  9
$DIMTFAC
 40
1
  9
$DIMGAP
 40
0.625
  9
$DIMJUST
 70
    0
  9
$DIMSD1
 70
    0
  9
$DIMSD2
 70
    0
  9
$DIMTOLJ
 70
    0
  9
$DIMTZIN
 70
    8
  9
$DIMALTZ
 70
    0
  9
$DIMALTTZ
 70
    0
  9
$DIMUPT
 70
    0
  9
$DIMDEC
 70
    2
  9
$DIMTDEC
 70
    2
  9
$DIMALTU
 70
    2
  9
$DIMALTTD
 70
    3
  9
$DIMTXSTY
  7
standard
  9
$DIMAUNIT
 70
    0
  9
$DIMADEC
 70
    0
  9
$DIMALTRND
 40
0
  9
$DIMAZIN
 70
    0
  9
$DIMDSEP
 70
   44
  9
$DIMATFIT
 70
    3
  9
$DIMFRAC
 70
    0
  9
$DIMLDRBLK
  1
STANDARD
  9
$DIMLUNIT
 70
    2
  9
$DIMLWD
 70
   -2
  9
$DIMLWE
 70
   -2
  9
$DIMTMOVE
 70
    0
  9
$DIMFXL
 40
1
  9
$DIMFXLON
 70
    0
  9
$DIMJOGANG
 40
0.7854
  9
$DIMTFILL
 70
    0
  9
$DIMTFILLCLR
 70
    0
  9
$DIMARCSYM
 70
    0
  9
$DIMLTYPE
  6

  9
$DIMLTEX1
  6

  9
$DIMLTEX2
  6

  9
$LUNITS
 70
    2
  9
$LUPREC
 70
    2
  9
$SKETCHINC
 40
1
  9
$FILLETRAD
 40
0
  9
$AUNITS
 70
    0
  9
$AUPREC
 70
    2
  9
$MENU
  1
.
  9
$ELEVATION
 40
0
  9
$PELEVATION
 40
0
  9
$THICKNESS
 40
0
  9
$LIMCHECK
 70
    0
  9
$CHAMFERA
 40
0
  9
$CHAMFERB
 40
0
  9
$CHAMFERC
 40
0
  9
$CHAMFERD
 40
0
  9
$SKPOLY
 70
    0
  9
$USRTIMER
 70
    1
  9
$ANGBASE
 50
0
  9
$ANGDIR
 70
    0
  9
$PDMODE
 70
   34
  9
$PDSIZE
 40
0
  9
$PLINEWID
 40
0
  9
$SPLFRAME
 70
    0
  9
$SPLINETYPE
 70
    2
  9
$SPLINESEGS
 70
    8
  9
$HANDSEED
  5
20000
  9
$SURFTAB1
 70
    6
  9
$SURFTAB2
 70
    6
  9
$SURFTYPE
 70
    6
  9
$SURFU
 70
    6
  9
$SURFV
 70
    6
  9
$UCSBASE
  2

  9
$UCSNAME
  2

  9
$UCSORG
 10
0
 20
0
 30
0
  9
$UCSXDIR
 10
1
 20
0
 30
0
  9
$UCSYDIR
 10
0
 20
1
 30
0
  9
$UCSORTHOREF
  2

  9
$UCSORTHOVIEW
 70
    0
  9
$UCSORGTOP
 10
0
 20
0
 30
0
  9
$UCSORGBOTTOM
 10
0
 20
0
 30
0
  9
$UCSORGLEFT
 10
0
 20
0
 30
0
  9
$UCSORGRIGHT
 10
0
 20
0
 30
0
  9
$UCSORGFRONT
 10
0
 20
0
 30
0
  9
$UCSORGBACK
 10
0
 20
0
 30
0
  9
$PUCSBASE
  2

  9
$PUCSNAME
  2

  9
$PUCSORG
 10
0
 20
0
 30
0
  9
$PUCSXDIR
 10
1
 20
0
 30
0
  9
$PUCSYDIR
 10
0
 20
1
 30
0
  9
$PUCSORTHOREF
  2

  9
$PUCSORTHOVIEW
 70
    0
  9
$PUCSORGTOP
 10
0
 20
0
 30
0
  9
$PUCSORGBOTTOM
 10
0
 20
0
 30
0
  9
$PUCSORGLEFT
 10
0
 20
0
 30
0
  9
$PUCSORGRIGHT
 10
0
 20
0
 30
0
  9
$PUCSORGFRONT
 10
0
 20
0
 30
0
  9
$PUCSORGBACK
 10
0
 20
0
 30
0
  9
$USERI1
 70
    0
  9
$USERI2
 70
    0
  9
$USERI3
 70
    0
  9
$USERI4
 70
    0
  9
$USERI5
 70
    0
  9
$USERR1
 40
0
  9
$USERR2
 40
0
  9
$USERR3
 40
0
  9
$USERR4
 40
0
  9
$USERR5
 40
0
  9
$WORLDVIEW
 70
    1
  9
$SHADEDGE
 70
    3
  9
$SHADEDIF
 70
   70
  9
$TILEMODE
 70
    1
  9
$MAXACTVP
 70
   64
  9
$PINSBASE
 10
2.317378218740187
 20
112.2285550158333
 30
0
  9
$PLIMCHECK
 70
    0
  9
$PEXTMIN
 10
0
 20
0
 30
0
  9
$PEXTMAX
 10
0
 20
0
 30
0
  9
$SNAPSTYLE
 70
    0
  9
$GRIDUNIT
 10
0
 20
0
  9
$PLIMMIN
 10
0
 20
0
  9
$PLIMMAX
 10
297
 20
210
  9
$UNITMODE
 70
    0
  9
$VISRETAIN
 70
    1
  9
$PLINEGEN
 70
    0
  9
$PSLTSCALE
 70
    1
  9
$TREEDEPTH
 70
 3020
  9
$CMLSTYLE
  2
Standard
  9
$CMLJUST
 70
    0
  9
$CMLSCALE
 40
20
  9
$PROXYGRAPHICS
 70
    1
  9
$MEASUREMENT
 70
    1
  9
$CELWEIGHT
370
   -1
  9
$ENDCAPS
280
    0
  9
$JOINSTYLE
280
    0
  9
$LWDISPLAY
290
    0
  9
$INSUNITS
 70
    0
  9
$HYPERLINKBASE
  1

  9
$STYLESHEET
  1

  9
$XEDIT
290
    1
  9
$CEPSNTYPE
380
    0
  9
$PSTYLEMODE
290
    1
  9
$EXTNAMES
290
    1
  9
$PSVPSCALE
 40
0
  9
$OLESTARTUP
290
    0
  9
$SORTENTS
280
  127
  9
$INDEXCTL
280
    0
  9
$HIDETEXT
280
    1
  9
$XCLIPFRAME
290
    0
  9
$HALOGAP
280
    0
  9
$OBSCOLOR
 70
  257
  9
$OBSLTYPE
280
    0
  9
$INTERSECTIONDISPLAY
280
    0
  9
$INTERSECTIONCOLOR
 70
  257
  9
$DIMASSOC
280
    1
  9
$PROJECTNAME
  1

  9
$CAMERADISPLAY
290
    0
  9
$LENSLENGTH
 40
50
  9
$CAMERAHEIGHT
 40
0
  9
$STEPSPERSEC
 40
2
  9
$STEPSIZE
 40
50
  9
$3DDWFPREC
 40
2
  9
$PSOLWIDTH
 40
5
  9
$PSOLHEIGHT
 40
80
  9
$LOFTANG1
 40
1.570796326794897
  9
$LOFTANG2
 40
1.570796326794897
  9
$LOFTMAG1
 40
0
  9
$LOFTMAG2
 40
0
  9
$LOFTPARAM
 70
    7
  9
$LOFTNORMALS
280
    1
  9
$LATITUDE
 40
1
  9
$LONGITUDE
 40
1
  9
$NORTHDIRECTION
 40
0
  9
$TIMEZONE
 70
-8000
  9
$LIGHTGLYPHDISPLAY
280
    1
  9
$TILEMODELIGHTSYNCH
280
    1
  9
$SOLIDHIST
280
    1
  9
$SHOWHIST
280
    1
  9
$DWFFRAME
280
    2
  9
$DGNFRAME
280
    0
  9
$REALWORLDSCALE
290
    1
  9
$INTERFERECOLOR
 62
    1
  9
$CSHADOW
280
    0
  9
$SHADOWPLANELOCATION
 40
0
  0
ENDSEC
  0
SECTION
  2
CLASSES
  0
ENDSEC
  0
SECTION
  2
TABLES
  0
TABLE
  2
VPORT
  5
8
330
0
100
AcDbSymbolTable
 70
    1
  0
VPORT
  5
31
330
2
100
AcDbSymbolTableRecord
100
AcDbViewportTableRecord
  2
*ACTIVE
 70
    0
 10
0
 20
0
 11
1
 21
1
 12
1602.038042486582
 22
813.2420988817952
 13
0
 23
0
 14
10
 24
10
 15
10
 25
10
 16
0
 26
0
 36
1
 17
0
 27
0
 37
0
 40
2535.881174068283
 41
1.632390745501285
 42
50
 43
0
 44
0
 50
0
 51
0
 71
    0
 72
  100
 73
    1
 74
    3
 75
    0
 76
    1
 77
    0
 78
    0
281
    0
 65
    1
110
0
120
0
130
0
111
1
121
0
131
0
112
0
122
1
132
0
 79
    0
146
0
348
10020
 60
    7
 61
    5
292
1
282
    1
141
0
142
0
 63
  250
421
3358443
  0
ENDTAB
  0
TABLE
  2
LTYPE
  5
5
330
0
100
AcDbSymbolTable
 70
    4
  0
LTYPE
  5
14
330
5
100
AcDbSymbolTableRecord
100
AcDbLinetypeTableRecord
  2
ByBlock
 70
    0
  3

 72
   65
 73
    0
 40
0
  0
LTYPE
  5
15
330
5
100
AcDbSymbolTableRecord
100
AcDbLinetypeTableRecord
  2
ByLayer
 70
    0
  3

 72
   65
 73
    0
 40
0
  0
LTYPE
  5
16
330
5
100
AcDbSymbolTableRecord
100
AcDbLinetypeTableRecord
  2
Continuous
 70
    0
  3
Solid line
 72
   65
 73
    0
 40
0
  0
LTYPE
  5
32
330
5
100
AcDbSymbolTableRecord
100
AcDbLinetypeTableRecord
  2
DOT
 70
    0
  3
Dot . . . . . . . . . . . . . . . . . . . . . .
 72
   65
 73
    2
 40
6.35
 49
0
 74
    0
 49
-6.35
 74
    0
  0
LTYPE
  5
33
330
5
100
AcDbSymbolTableRecord
100
AcDbLinetypeTableRecord
  2
DOTTINY
 70
    0
  3
Dot (.15x) .....................................
 72
   65
 73
    2
 40
0.9525
 49
0
 74
    0
 49
-0.9525
 74
    0
  0
LTYPE
  5
34
330
5
100
AcDbSymbolTableRecord
100
AcDbLinetypeTableRecord
  2
DOT2
 70
    0
  3
Dot (.5x) .....................................
 72
   65
 73
    2
 40
3.175
 49
0
 74
    0
 49
-3.175
 74
    0
  0
LTYPE
  5
35
330
5
100
AcDbSymbolTableRecord
100
AcDbLinetypeTableRecord
  2
DOTX2
 70
    0
  3
Dot (2x) .  .  .  .  .  .  .  .  .  .  .  .  .
 72
   65
 73
    2
 40
12.7
 49
0
 74
    0
 49
-12.7
 74
    0
  0
LTYPE
  5
36
330
5
100
AcDbSymbolTableRecord
100
AcDbLinetypeTableRecord
  2
DASHED
 70
    0
  3
Dashed _ _ _ _ _ _ _ _ _ _ _ _ _ _ _ _ _
 72
   65
 73
    2
 40
19.05
 49
12.7
 74
    0
 49
-6.35
 74
    0
  0
LTYPE
  5
37
330
5
100
AcDbSymbolTableRecord
100
AcDbLinetypeTableRecord
  2
DASHEDTINY
 70
    0
  3
Dashed (.15x) _ _ _ _ _ _ _ _ _ _ _ _ _ _ _ _ _
 72
   65
 73
    2
 40
2.8575
 49
1.905
 74
    0
 49
-0.9525
 74
    0
  0
LTYPE
  5
38
330
5
100
AcDbSymbolTableRecord
100
AcDbLinetypeTableRecord
  2
DASHED2
 70
    0
  3
Dashed (.5x) _ _ _ _ _ _ _ _ _ _ _ _ _ _ _ _ _
 72
   65
 73
    2
 40
9.524999999999999
 49
6.35
 74
    0
 49
-3.175
 74
    0
  0
LTYPE
  5
39
330
5
100
AcDbSymbolTableRecord
100
AcDbLinetypeTableRecord
  2
DASHEDX2
 70
    0
  3
Dashed (2x) ____  ____  ____  ____  ____  ___
 72
   65
 73
    2
 40
38.09999999999999
 49
25.4
 74
    0
 49
-12.7
 74
    0
  0
LTYPE
  5
3A
330
5
100
AcDbSymbolTableRecord
100
AcDbLinetypeTableRecord
  2
DASHDOT
 70
    0
  3
Dash dot __ . __ . __ . __ . __ . __ . __ . __
 72
   65
 73
    4
 40
25.4
 49
12.7
 74
    0
 49
-6.35
 74
    0
 49
0
 74
    0
 49
-6.35
 74
    0
  0
LTYPE
  5
3B
330
5
100
AcDbSymbolTableRecord
100
AcDbLinetypeTableRecord
  2
DASHDOTTINY
 70
    0
  3
Dash dot (.15x) _._._._._._._._._._._._._._._.
 72
   65
 73
    4
 40
3.81
 49
1.905
 74
    0
 49
-0.9525
 74
    0
 49
0
 74
    0
 49
-0.9525
 74
    0
  0
LTYPE
  5
3C
330
5
100
AcDbSymbolTableRecord
100
AcDbLinetypeTableRecord
  2
DASHDOT2
 70
    0
  3
Dash dot (.5x) _._._._._._._._._._._._._._._.
 72
   65
 73
    4
 40
12.7
 49
6.35
 74
    0
 49
-3.175
 74
    0
 49
0
 74
    0
 49
-3.175
 74
    0
  0
LTYPE
  5
3D
330
5
100
AcDbSymbolTableRecord
100
AcDbLinetypeTableRecord
  2
DASHDOTX2
 70
    0
  3
Dash dot (2x) ____  .  ____  .  ____  .  ___
 72
   65
 73
    4
 40
50.8
 49
25.4
 74
    0
 49
-12.7
 74
    0
 49
0
 74
    0
 49
-12.7
 74
    0
  0
LTYPE
  5
3E
330
5
100
AcDbSymbolTableRecord
100
AcDbLinetypeTableRecord
  2
DIVIDE
 70
    0
  3
Divide ____ . . ____ . . ____ . . ____ . . ____
 72
   65
 73
    6
 40
31.75
 49
12.7
 74
    0
 49
-6.35
 74
    0
 49
0
 74
    0
 49
-6.35
 74
    0
 49
0
 74
    0
 49
-6.35
 74
    0
  0
LTYPE
  5
3F
330
5
100
AcDbSymbolTableRecord
100
AcDbLinetypeTableRecord
  2
DIVIDETINY
 70
    0
  3
Divide (.15x) __..__..__..__..__..__..__..__.._
 72
   65
 73
    6
 40
4.7625
 49
1.905
 74
    0
 49
-0.9525
 74
    0
 49
0
 74
    0
 49
-0.9525
 74
    0
 49
0
 74
    0
 49
-0.9525
 74
    0
  0
LTYPE
  5
40
330
5
100
AcDbSymbolTableRecord
100
AcDbLinetypeTableRecord
  2
DIVIDE2
 70
    0
  3
Divide (.5x) __..__..__..__..__..__..__..__.._
 72
   65
 73
    6
 40
15.875
 49
6.35
 74
    0
 49
-3.175
 74
    0
 49
0
 74
    0
 49
-3.175
 74
    0
 49
0
 74
    0
 49
-3.175
 74
    0
  0
LTYPE
  5
41
330
5
100
AcDbSymbolTableRecord
100
AcDbLinetypeTableRecord
  2
DIVIDEX2
 70
    0
  3
Divide (2x) ________  .  .  ________  .  .  _
 72
   65
 73
    6
 40
63.5
 49
25.4
 74
    0
 49
-12.7
 74
    0
 49
0
 74
    0
 49
-12.7
 74
    0
 49
0
 74
    0
 49
-12.7
 74
    0
  0
LTYPE
  5
42
330
5
100
AcDbSymbolTableRecord
100
AcDbLinetypeTableRecord
  2
BORDER
 70
    0
  3
Border __ __ . __ __ . __ __ . __ __ . __ __ .
 72
   65
 73
    6
 40
44.45
 49
12.7
 74
    0
 49
-6.35
 74
    0
 49
12.7
 74
    0
 49
-6.35
 74
    0
 49
0
 74
    0
 49
-6.35
 74
    0
  0
LTYPE
  5
43
330
5
100
AcDbSymbolTableRecord
100
AcDbLinetypeTableRecord
  2
BORDERTINY
 70
    0
  3
Border (.15x) __.__.__.__.__.__.__.__.__.__.__.
 72
   65
 73
    6
 40
6.6675
 49
1.905
 74
    0
 49
-0.9525
 74
    0
 49
1.905
 74
    0
 49
-0.9525
 74
    0
 49
0
 74
    0
 49
-0.9525
 74
    0
  0
LTYPE
  5
44
330
5
100
AcDbSymbolTableRecord
100
AcDbLinetypeTableRecord
  2
BORDER2
 70
    0
  3
Border (.5x) __.__.__.__.__.__.__.__.__.__.__.
 72
   65
 73
    6
 40
22.225
 49
6.35
 74
    0
 49
-3.175
 74
    0
 49
6.35
 74
    0
 49
-3.175
 74
    0
 49
0
 74
    0
 49
-3.175
 74
    0
  0
LTYPE
  5
45
330
5
100
AcDbSymbolTableRecord
100
AcDbLinetypeTableRecord
  2
BORDERX2
 70
    0
  3
Border (2x) ____  ____  .  ____  ____  .  ___
 72
   65
 73
    6
 40
88.89999999999999
 49
25.4
 74
    0
 49
-12.7
 74
    0
 49
25.4
 74
    0
 49
-12.7
 74
    0
 49
0
 74
    0
 49
-12.7
 74
    0
  0
LTYPE
  5
46
330
5
100
AcDbSymbolTableRecord
100
AcDbLinetypeTableRecord
  2
CENTER
 70
    0
  3
Center ____ _ ____ _ ____ _ ____ _ ____ _ ____
 72
   65
 73
    4
 40
50.8
 49
31.75
 74
    0
 49
-6.35
 74
    0
 49
6.35
 74
    0
 49
-6.35
 74
    0
  0
LTYPE
  5
47
330
5
100
AcDbSymbolTableRecord
100
AcDbLinetypeTableRecord
  2
CENTERTINY
 70
    0
  3
Center (.15x) ___ _ ___ _ ___ _ ___ _ ___ _ ___
 72
   65
 73
    4
 40
7.62
 49
4.7625
 74
    0
 49
-0.9525
 74
    0
 49
0.9525
 74
    0
 49
-0.9525
 74
    0
  0
LTYPE
  5
48
330
5
100
AcDbSymbolTableRecord
100
AcDbLinetypeTableRecord
  2
CENTER2
 70
    0
  3
Center (.5x) ___ _ ___ _ ___ _ ___ _ ___ _ ___
 72
   65
 73
    4
 40
28.575
 49
19.05
 74
    0
 49
-3.175
 74
    0
 49
3.175
 74
    0
 49
-3.175
 74
    0
  0
LTYPE
  5
49
330
5
100
AcDbSymbolTableRecord
100
AcDbLinetypeTableRecord
  2
CENTERX2
 70
    0
  3
Center (2x) ________  __  ________  __  _____
 72
   65
 73
    4
 40
101.6
 49
63.5
 74
    0
 49
-12.7
 74
    0
 49
12.7
 74
    0
 49
-12.7
 74
    0
  0
ENDTAB
  0
TABLE
  2
LAYER
  5
2
330
0
100
AcDbSymbolTable
 70
    1
  0
LAYER
  5
10
330
2
100
AcDbSymbolTableRecord
100
AcDbLayerTableRecord
  2
0
 70
    0
 62
    7
  6
CONTINUOUS
370
    0
390
F
  0
LAYER
  5
4A
330
2
100
AcDbSymbolTableRecord
100
AcDbLayerTableRecord
  2
base
 70
    0
 62
    7
  6
CONTINUOUS
370
    0
390
F
  0
LAYER
  5
4B
330
2
100
AcDbSymbolTableRecord
100
AcDbLayerTableRecord
  2
braces
 70
    0
 62
    7
  6
CONTINUOUS
370
    0
390
F
  0
LAYER
  5
4C
330
2
100
AcDbSymbolTableRecord
100
AcDbLayerTableRecord
  2
side_bottom_left
 70
    0
 62
    7
  6
CONTINUOUS
370
    0
390
F
  0
LAYER
  5
4D
330
2
100
AcDbSymbolTableRecord
100
AcDbLayerTableRecord
  2
side_bottom_right
 70
    0
 62
    7
  6
CONTINUOUS
370
    0
390
F
  0
LAYER
  5
4E
330
2
100
AcDbSymbolTableRecord
100
AcDbLayerTableRecord
  2
side_top_left
 70
    0
 62
    7
  6
CONTINUOUS
370
    0
390
F
  0
LAYER
  5
4F
330
2
100
AcDbSymbolTableRecord
100
AcDbLayerTableRecord
  2
side_top_right
 70
    0
 62
    7
  6
CONTINUOUS
370
    0
390
F
  0
LAYER
  5
50
330
2
100
AcDbSymbolTableRecord
100
AcDbLayerTableRecord
  2
top
 70
    0
 62
    7
  6
CONTINUOUS
370
    0
390
F
  0
ENDTAB
  0
TABLE
  2
STYLE
  5
3
330
0
100
AcDbSymbolTable
 70
    3
  0
STYLE
  5
51
330
2
100
AcDbSymbolTableRecord
100
AcDbTextStyleTableRecord
  2
Standard
 70
    0
 40
0
 41
1
 50
0
 71
    0
 42
1
  3
txt
  4

  0
ENDTAB
  0
TABLE
  2
VIEW
  5
6
330
0
100
AcDbSymbolTable
 70
    0
  0
ENDTAB
  0
TABLE
  2
UCS
  5
7
330
0
100
AcDbSymbolTable
 70
    0
  0
ENDTAB
  0
TABLE
  2
APPID
  5
9
330
0
100
AcDbSymbolTable
 70
    1
  0
APPID
  5
12
330
9
100
AcDbSymbolTableRecord
100
AcDbRegAppTableRecord
  2
ACAD
 70
    0
  0
APPID
  5
52
330
9
100
AcDbSymbolTableRecord
100
AcDbRegAppTableRecord
  2
LibreCad
 70
    0
  0
ENDTAB
  0
TABLE
  2
DIMSTYLE
  5
A
330
0
100
AcDbSymbolTable
 70
    1
100
AcDbDimStyleTable
 71
    1
  0
DIMSTYLE
105
53
330
A
100
AcDbSymbolTableRecord
100
AcDbDimStyleTableRecord
  2
Standard
 70
    0
 40
1
 41
15
 42
0.625
 43
0.38
 44
1.25
 45
0
 46
0
 47
0
 48
0
 49
1
140
15
141
0.09
142
0
143
25.4
144
1
145
0
146
1
147
0.625
148
0
 71
    0
 72
    0
 73
    0
 74
    1
 75
    0
 76
    0
 77
    0
 78
    1
 79
    0
170
    0
171
    2
172
    0
173
    0
174
    0
175
    0
176
    0
177
    0
178
    0
179
    2
271
    2
272
    4
273
    2
274
    2
275
    0
276
    0
277
    2
278
    0
279
    0
280
    0
281
    0
282
    0
283
    1
284
    0
285
    0
286
    0
288
    0
289
    3
340
standard
341

371
   -2
372
   -2
  0
ENDTAB
  0
TABLE
  2
BLOCK_RECORD
  5
1
330
0
100
AcDbSymbolTable
 70
    2
  0
BLOCK_RECORD
  5
1F
330
1
100
AcDbSymbolTableRecord
100
AcDbBlockTableRecord
  2
*Model_Space
 70
    0
280
    1
281
    0
  0
BLOCK_RECORD
  5
1E
330
1
100
AcDbSymbolTableRecord
100
AcDbBlockTableRecord
  2
*Paper_Space
 70
    0
280
    1
281
    0
  0
ENDTAB
  0
ENDSEC
  0
SECTION
  2
BLOCKS
  0
BLOCK
  5
20
330
1F
100
AcDbEntity
  8
0
100
AcDbBlockBegin
  2
*Model_Space
 70
    0
 10
0
 20
0
 30
0
  3
*Model_Space
  1

  0
ENDBLK
  5
21
330
1F
100
AcDbEntity
  8
0
100
AcDbBlockEnd
  0
BLOCK
  5
1C
330
1B
100
AcDbEntity
  8
0
100
AcDbBlockBegin
  2
*Paper_Space
 70
    0
 10
0
 20
0
 30
0
  3
*Paper_Space
  1

  0
ENDBLK
  5
1D
330
1F
100
AcDbEntity
  8
0
100
AcDbBlockEnd
  0
ENDSEC
  0
SECTION
  2
ENTITIES
  0
LINE
  5
54
100
AcDbEntity
  8
base
  6
CONTINUOUS
 62
    7
370
   -1
100
AcDbLine
 10
533.9660000000073
 20
44.39400000000433
 11
889.5660000000073
 21
44.39400000000429
  0
LINE
  5
55
100
AcDbEntity
  8
base
  6
CONTINUOUS
 62
    7
370
   -1
100
AcDbLine
 10
940.3660000000074
 20
95.19400000000424
 11
940.3660000000076
 21
806.3940000000043
  0
LINE
  5
56
100
AcDbEntity
  8
base
  6
CONTINUOUS
 62
    7
370
   -1
100
AcDbLine
 10
483.1660000000076
 20
806.3940000000044
 11
483.1660000000074
 21
95.19400000000429
  0
LINE
  5
57
100
AcDbEntity
  8
base
  6
CONTINUOUS
 62
    7
370
   -1
100
AcDbLine
 10
940.3660000000076
 20
806.3940000000043
 11
483.1660000000076
 21
806.3940000000044
  0
ARC
  5
58
100
AcDbEntity
  8
base
  6
CONTINUOUS
 62
    7
370
   -1
100
AcDbCircle
 10
889.5660000000073
 20
95.19400000000422
 40
50.8
100
AcDbArc
 50
270
 51
360
  0
ARC
  5
59
100
AcDbEntity
  8
base
  6
CONTINUOUS
 62
    7
370
   -1
100
AcDbCircle
 10
533.9660000000074
 20
95.19400000000428
 40
50.8
100
AcDbArc
 50
180
 51
270
  0
CIRCLE
  5
5A
100
AcDbEntity
  8
base
  6
CONTINUOUS
 62
    7
370
   -1
100
AcDbCircle
 10
813.3660000000075
 20
476.1940000000043
 40
3.81
  0
CIRCLE
  5
5B
100
AcDbEntity
  8
base
  6
CONTINUOUS
 62
    7
370
   -1
100
AcDbCircle
 10
813.3660000000075
 20
514.2940000000044
 40
3.81
  0
CIRCLE
  5
5C
100
AcDbEntity
  8
base
  6
CONTINUOUS
 62
    7
370
   -1
100
AcDbCircle
 10
813.3660000000075
 20
552.3940000000043
 40
3.81
  0
CIRCLE
  5
5D
100
AcDbEntity
  8
base
  6
CONTINUOUS
 62
    7
370
   -1
100
AcDbCircle
 10
610.1660000000076
 20
476.1940000000043
 40
3.81
  0
CIRCLE
  5
5E
100
AcDbEntity
  8
base
  6
CONTINUOUS
 62
    7
370
   -1
100
AcDbCircle
 10
610.1660000000076
 20
514.2940000000044
 40
3.81
  0
LINE
  5
5F
100
AcDbEntity
  8
side_bottom_right
  6
CONTINUOUS
 62
    7
370
   -1
100
AcDbLine
 10
975.7458830695424
 20
805.8426203036262
 11
982.0958830695425
 21
805.8426203036262
  0
LINE
  5
60
100
AcDbEntity
  8
side_bottom_right
  6
CONTINUOUS
 62
    7
370
   -1
100
AcDbLine
 10
975.7458830695424
 20
348.6426203036262
 11
975.7458830695424
 21
805.8426203036262
  0
LINE
  5
61
100
AcDbEntity
  8
side_bottom_right
  6
CONTINUOUS
 62
    7
370
   -1
100
AcDbLine
 10
1318.645883069543
 20
357.5353872069064
 11
1171.561829986525
 21
442.454404848846
  0
LINE
  5
62
100
AcDbEntity
  8
side_bottom_right
  6
CONTINUOUS
 62
    7
370
   -1
100
AcDbLine
 10
982.0958830695425
 20
805.8426203036262
 11
1344.045883069542
 21
596.8706903692265
  0
LINE
  5
63
100
AcDbEntity
  8
side_bottom_right
  6
CONTINUOUS
 62
    7
370
   -1
100
AcDbLine
 10
1356.745883069543
 20
574.873645112706
 11
1356.745883069543
 21
379.5324324634263
  0
LINE
  5
64
100
AcDbEntity
  8
side_bottom_right
  6
CONTINUOUS
 62
    7
370
   -1
100
AcDbLine
 10
982.0958830695428
 20
348.6426203036262
 11
975.7458830695424
 21
348.6426203036262
  0
CIRCLE
  5
65
100
AcDbEntity
  8
side_bottom_right
  6
CONTINUOUS
 62
    7
370
   -1
100
AcDbCircle
 10
1178.945883069543
 20
641.3912198116062
 40
3.96875
  0
ARC
  5
66
100
AcDbEntity
  8
side_bottom_right
  6
CONTINUOUS
 62
    7
370
   -1
100
AcDbCircle
 10
1108.061829986525
 20
332.4691785687863
 40
127
100
AcDbArc
 50
59.99999999999993
 51
172.6835181098
  0
CIRCLE
  5
67
100
AcDbEntity
  8
side_bottom_right
  6
CONTINUOUS
 62
    7
370
   -1
100
AcDbCircle
 10
1178.945883069543
 20
488.9912198116062
 40
3.96875
  0
ARC
  5
68
100
AcDbEntity
  8
side_bottom_right
  6
CONTINUOUS
 62
    7
370
   -1
100
AcDbCircle
 10
1331.345883069543
 20
574.873645112706
 40
25.4
100
AcDbArc
 50
0
 51
59.99999999999993
  0
CIRCLE
  5
69
100
AcDbEntity
  8
side_bottom_right
  6
CONTINUOUS
 62
    7
370
   -1
100
AcDbCircle
 10
1217.045883069542
 20
619.3941745576261
 40
3.96875
  0
CIRCLE
  5
6A
100
AcDbEntity
  8
side_bottom_right
  6
CONTINUOUS
 62
    7
370
   -1
100
AcDbCircle
 10
1255.145883069543
 20
597.3971293011062
 40
3.96875
  0
CIRCLE
  5
6B
100
AcDbEntity
  8
side_bottom_right
  6
CONTINUOUS
 62
    7
370
   -1
100
AcDbCircle
 10
1293.245883069543
 20
575.4000840445864
 40
3.96875
  0
CIRCLE
  5
6C
100
AcDbEntity
  8
side_bottom_right
  6
CONTINUOUS
 62
    7
370
   -1
100
AcDbCircle
 10
1331.345883069543
 20
553.4030387880665
 40
3.96875
  0
ARC
  5
6D
100
AcDbEntity
  8
side_bottom_right
  6
CONTINUOUS
 62
    7
370
   -1
100
AcDbCircle
 10
1331.345883069543
 20
379.5324324634263
 40
25.4
100
AcDbArc
 50
240
 51
0
  0
CIRCLE
  5
6E
100
AcDbEntity
  8
side_bottom_right
  6
CONTINUOUS
 62
    7
370
   -1
100
AcDbCircle
 10
1217.045883069542
 20
466.994174557626
 40
3.96875
  0
CIRCLE
  5
6F
100
AcDbEntity
  8
side_bottom_right
  6
CONTINUOUS
 62
    7
370
   -1
100
AcDbCircle
 10
1255.145883069543
 20
444.9971293011062
 40
3.96875
  0
CIRCLE
  5
70
100
AcDbEntity
  8
side_bottom_right
  6
CONTINUOUS
 62
    7
370
   -1
100
AcDbCircle
 10
1293.245883069543
 20
423.0000840445863
 40
3.96875
  0
CIRCLE
  5
71
100
AcDbEntity
  8
side_bottom_right
  6
CONTINUOUS
 62
    7
370
   -1
100
AcDbCircle
 10
1331.345883069543
 20
401.0030387880665
 40
3.96875
  0
LINE
  5
72
100
AcDbEntity
  8
side_bottom_left
  6
CONTINUOUS
 62
    7
370
   -1
100
AcDbLine
 10
451.7810462555483
 20
806.5024859739696
 11
445.4310462555482
 21
806.5024859739696
  0
LINE
  5
73
100
AcDbEntity
  8
side_bottom_left
  6
CONTINUOUS
 62
    7
370
   -1
100
AcDbLine
 10
451.7810462555482
 20
349.3024859739696
 11
451.7810462555483
 21
806.5024859739696
  0
LINE
  5
74
100
AcDbEntity
  8
side_bottom_left
  6
CONTINUOUS
 62
    7
370
   -1
100
AcDbLine
 10
108.881046255548
 20
358.1952528772498
 11
255.965099338566
 21
443.1142705191894
  0
LINE
  5
75
100
AcDbEntity
  8
side_bottom_left
  6
CONTINUOUS
 62
    7
370
   -1
100
AcDbLine
 10
445.4310462555482
 20
806.5024859739696
 11
83.48104625554842
 21
597.5305560395699
  0
LINE
  5
76
100
AcDbEntity
  8
side_bottom_left
  6
CONTINUOUS
 62
    7
370
   -1
100
AcDbLine
 10
70.78104625554815
 20
575.5335107830493
 11
70.78104625554813
 21
380.1922981337697
  0
LINE
  5
77
100
AcDbEntity
  8
side_bottom_left
  6
CONTINUOUS
 62
    7
370
   -1
100
AcDbLine
 10
445.4310462555481
 20
349.3024859739696
 11
451.7810462555482
 21
349.3024859739696
  0
CIRCLE
  5
78
100
AcDbEntity
  8
side_bottom_left
  6
CONTINUOUS
 62
    7
370
   -1
100
AcDbCircle
 10
248.5810462555482
 20
642.0510854819496
 40
3.96875
  0
ARC
  5
79
100
AcDbEntity
  8
side_bottom_left
  6
CONTINUOUS
 62
    7
370
   -1
100
AcDbCircle
 10
319.4650993385659
 20
333.1290442391297
 40
127
100
AcDbArc
 50
7.316481890200011
 51
120.0000000000001
  0
CIRCLE
  5
7A
100
AcDbEntity
  8
side_bottom_left
  6
CONTINUOUS
 62
    7
370
   -1
100
AcDbCircle
 10
248.5810462555482
 20
489.6510854819496
 40
3.96875
  0
ARC
  5
7B
100
AcDbEntity
  8
side_bottom_left
  6
CONTINUOUS
 62
    7
370
   -1
100
AcDbCircle
 10
96.18104625554821
 20
575.5335107830493
 40
25.4
100
AcDbArc
 50
120.0000000000001
 51
180
  0
CIRCLE
  5
7C
100
AcDbEntity
  8
side_bottom_left
  6
CONTINUOUS
 62
    7
370
   -1
100
AcDbCircle
 10
210.4810462555484
 20
620.0540402279695
 40
3.96875
  0
CIRCLE
  5
7D
100
AcDbEntity
  8
side_bottom_left
  6
CONTINUOUS
 62
    7
370
   -1
100
AcDbCircle
 10
172.3810462555481
 20
598.0569949714496
 40
3.96875
  0
CIRCLE
  5
7E
100
AcDbEntity
  8
side_bottom_left
  6
CONTINUOUS
 62
    7
370
   -1
100
AcDbCircle
 10
134.2810462555482
 20
576.0599497149298
 40
3.96875
  0
CIRCLE
  5
7F
100
AcDbEntity
  8
side_bottom_left
  6
CONTINUOUS
 62
    7
370
   -1
100
AcDbCircle
 10
96.18104625554821
 20
554.0629044584099
 40
3.96875
  0
ARC
  5
80
100
AcDbEntity
  8
side_bottom_left
  6
CONTINUOUS
 62
    7
370
   -1
100
AcDbCircle
 10
96.18104625554821
 20
380.1922981337697
 40
25.4
100
AcDbArc
 50
180
 51
299.9999999999999
  0
CIRCLE
  5
81
100
AcDbEntity
  8
side_bottom_left
  6
CONTINUOUS
 62
    7
370
   -1
100
AcDbCircle
 10
210.4810462555484
 20
467.6540402279694
 40
3.96875
  0
CIRCLE
  5
82
100
AcDbEntity
  8
side_bottom_left
  6
CONTINUOUS
 62
    7
370
   -1
100
AcDbCircle
 10
172.381046255548
 20
445.6569949714495
 40
3.96875
  0
CIRCLE
  5
83
100
AcDbEntity
  8
side_bottom_left
  6
CONTINUOUS
 62
    7
370
   -1
100
AcDbCircle
 10
134.2810462555481
 20
423.6599497149297
 40
3.96875
  0
CIRCLE
  5
84
100
AcDbEntity
  8
side_bottom_left
  6
CONTINUOUS
 62
    7
370
   -1
100
AcDbCircle
 10
96.18104625554821
 20
401.6629044584099
 40
3.96875
  0
LINE
  5
85
100
AcDbEntity
  8
braces
  6
CONTINUOUS
 62
    7
370
   -1
100
AcDbLine
 10
295.0447085813466
 20
221.7570935609336
 11
295.0447085813466
 21
278.9070935609336
  0
LINE
  5
86
100
AcDbEntity
  8
braces
  6
CONTINUOUS
 62
    7
370
   -1
100
AcDbLine
 10
295.0447085813466
 20
278.9070935609336
 11
237.8947085813465
 21
278.9070935609336
  0
LINE
  5
87
100
AcDbEntity
  8
braces
  6
CONTINUOUS
 62
    7
370
   -1
100
AcDbLine
 10
237.8947085813465
 20
278.9070935609336
 11
237.8947085813465
 21
272.5570935609335
  0
LINE
  5
88
100
AcDbEntity
  8
braces
  6
CONTINUOUS
 62
    7
370
   -1
100
AcDbLine
 10
288.6947085813467
 20
221.7570935609336
 11
295.0447085813466
 21
221.7570935609336
  0
ARC
  5
89
100
AcDbEntity
  8
braces
  6
CONTINUOUS
 62
    7
370
   -1
100
AcDbCircle
 10
237.8947085813465
 20
221.7570935609336
 40
50.8
100
AcDbArc
 50
360
 51
90
  0
LINE
  5
8A
100
AcDbEntity
  8
braces
  6
CONTINUOUS
 62
    7
370
   -1
100
AcDbLine
 10
376.9121390231988
 20
222.3372834139195
 11
376.9121390231988
 21
279.4872834139194
  0
LINE
  5
8B
100
AcDbEntity
  8
braces
  6
CONTINUOUS
 62
    7
370
   -1
100
AcDbLine
 10
376.9121390231988
 20
279.4872834139194
 11
319.7621390231988
 21
279.4872834139194
  0
LINE
  5
8C
100
AcDbEntity
  8
braces
  6
CONTINUOUS
 62
    7
370
   -1
100
AcDbLine
 10
319.7621390231988
 20
279.4872834139194
 11
319.7621390231988
 21
273.1372834139195
  0
LINE
  5
8D
100
AcDbEntity
  8
braces
  6
CONTINUOUS
 62
    7
370
   -1
100
AcDbLine
 10
370.5621390231989
 20
222.3372834139195
 11
376.9121390231988
 21
222.3372834139195
  0
ARC
  5
8E
100
AcDbEntity
  8
braces
  6
CONTINUOUS
 62
    7
370
   -1
100
AcDbCircle
 10
319.7621390231988
 20
222.3372834139193
 40
50.8
100
AcDbArc
 50
360
 51
90
  0
LINE
  5
8F
100
AcDbEntity
  8
braces
  6
CONTINUOUS
 62
    7
370
   -1
100
AcDbLine
 10
354.2264441107077
 20
139.6965376612731
 11
354.2264441107077
 21
196.846537661273
  0
LINE
  5
90
100
AcDbEntity
  8
braces
  6
CONTINUOUS
 62
    7
370
   -1
100
AcDbLine
 10
354.2264441107077
 20
196.846537661273
 11
297.0764441107076
 21
196.846537661273
  0
LINE
  5
91
100
AcDbEntity
  8
braces
  6
CONTINUOUS
 62
    7
370
   -1
100
AcDbLine
 10
297.0764441107076
 20
196.846537661273
 11
297.0764441107076
 21
190.4965376612731
  0
LINE
  5
92
100
AcDbEntity
  8
braces
  6
CONTINUOUS
 62
    7
370
   -1
100
AcDbLine
 10
347.8764441107077
 20
139.6965376612731
 11
354.2264441107077
 21
139.6965376612731
  0
ARC
  5
93
100
AcDbEntity
  8
braces
  6
CONTINUOUS
 62
    7
370
   -1
100
AcDbCircle
 10
297.0764441107076
 20
139.6965376612731
 40
50.8
100
AcDbArc
 50
360
 51
90
  0
LINE
  5
94
100
AcDbEntity
  8
braces
  6
CONTINUOUS
 62
    7
370
   -1
100
AcDbLine
 10
212.1707831110606
 20
222.2329105395369
 11
212.1707831110606
 21
279.382910539537
  0
LINE
  5
95
100
AcDbEntity
  8
braces
  6
CONTINUOUS
 62
    7
370
   -1
100
AcDbLine
 10
212.1707831110606
 20
279.382910539537
 11
155.0207831110606
 21
279.382910539537
  0
LINE
  5
96
100
AcDbEntity
  8
braces
  6
CONTINUOUS
 62
    7
370
   -1
100
AcDbLine
 10
155.0207831110606
 20
279.382910539537
 11
155.0207831110606
 21
273.0329105395369
  0
LINE
  5
97
100
AcDbEntity
  8
braces
  6
CONTINUOUS
 62
    7
370
   -1
100
AcDbLine
 10
205.8207831110607
 20
222.2329105395369
 11
212.1707831110606
 21
222.2329105395369
  0
ARC
  5
98
100
AcDbEntity
  8
braces
  6
CONTINUOUS
 62
    7
370
   -1
100
AcDbCircle
 10
155.0207831110606
 20
222.2329105395369
 40
50.8
100
AcDbArc
 50
360
 51
90
  0
LINE
  5
99
100
AcDbEntity
  8
braces
  6
CONTINUOUS
 62
    7
370
   -1
100
AcDbLine
 10
256.3882684894536
 20
139.7725461880145
 11
256.3882684894536
 21
196.9225461880144
  0
LINE
  5
9A
100
AcDbEntity
  8
braces
  6
CONTINUOUS
 62
    7
370
   -1
100
AcDbLine
 10
256.3882684894536
 20
196.9225461880144
 11
199.2382684894535
 21
196.9225461880144
  0
LINE
  5
9B
100
AcDbEntity
  8
braces
  6
CONTINUOUS
 62
    7
370
   -1
100
AcDbLine
 10
199.2382684894535
 20
196.9225461880144
 11
199.2382684894535
 21
190.5725461880145
  0
LINE
  5
9C
100
AcDbEntity
  8
braces
  6
CONTINUOUS
 62
    7
370
   -1
100
AcDbLine
 10
250.0382684894536
 20
139.7725461880145
 11
256.3882684894536
 21
139.7725461880145
  0
ARC
  5
9D
100
AcDbEntity
  8
braces
  6
CONTINUOUS
 62
    7
370
   -1
100
AcDbCircle
 10
199.2382684894535
 20
139.7725461880145
 40
50.8
100
AcDbArc
 50
360
 51
90
  0
LINE
  5
9E
100
AcDbEntity
  8
braces
  6
CONTINUOUS
 62
    7
370
   -1
100
AcDbLine
 10
1175.998594489678
 20
222.2378810969644
 11
1175.998594489678
 21
279.3878810969645
  0
LINE
  5
9F
100
AcDbEntity
  8
braces
  6
CONTINUOUS
 62
    7
370
   -1
100
AcDbLine
 10
1175.998594489678
 20
279.3878810969645
 11
1118.848594489678
 21
279.3878810969645
  0
LINE
  5
A0
100
AcDbEntity
  8
braces
  6
CONTINUOUS
 62
    7
370
   -1
100
AcDbLine
 10
1118.848594489678
 20
279.3878810969645
 11
1118.848594489678
 21
273.0378810969643
  0
LINE
  5
A1
100
AcDbEntity
  8
braces
  6
CONTINUOUS
 62
    7
370
   -1
100
AcDbLine
 10
1169.648594489678
 20
222.2378810969644
 11
1175.998594489678
 21
222.2378810969644
  0
ARC
  5
A2
100
AcDbEntity
  8
braces
  6
CONTINUOUS
 62
    7
370
   -1
100
AcDbCircle
 10
1118.848594489678
 20
222.2378810969644
 40
50.8
100
AcDbArc
 50
360
 51
90
  0
LINE
  5
A3
100
AcDbEntity
  8
braces
  6
CONTINUOUS
 62
    7
370
   -1
100
AcDbLine
 10
1257.86602493153
 20
222.8180709499504
 11
1257.86602493153
 21
279.9680709499502
  0
LINE
  5
A4
100
AcDbEntity
  8
braces
  6
CONTINUOUS
 62
    7
370
   -1
100
AcDbLine
 10
1257.86602493153
 20
279.9680709499502
 11
1200.71602493153
 21
279.9680709499502
  0
LINE
  5
A5
100
AcDbEntity
  8
braces
  6
CONTINUOUS
 62
    7
370
   -1
100
AcDbLine
 10
1200.71602493153
 20
279.9680709499502
 11
1200.71602493153
 21
273.6180709499503
  0
LINE
  5
A6
100
AcDbEntity
  8
braces
  6
CONTINUOUS
 62
    7
370
   -1
100
AcDbLine
 10
1251.51602493153
 20
222.8180709499504
 11
1257.86602493153
 21
222.8180709499504
  0
ARC
  5
A7
100
AcDbEntity
  8
braces
  6
CONTINUOUS
 62
    7
370
   -1
100
AcDbCircle
 10
1200.71602493153
 20
222.8180709499501
 40
50.8
100
AcDbArc
 50
360
 51
90
  0
LINE
  5
A8
100
AcDbEntity
  8
braces
  6
CONTINUOUS
 62
    7
370
   -1
100
AcDbLine
 10
1235.180330019039
 20
140.177325197304
 11
1235.180330019039
 21
197.3273251973038
  0
LINE
  5
A9
100
AcDbEntity
  8
braces
  6
CONTINUOUS
 62
    7
370
   -1
100
AcDbLine
 10
1235.180330019039
 20
197.3273251973038
 11
1178.030330019039
 21
197.3273251973038
  0
LINE
  5
AA
100
AcDbEntity
  8
braces
  6
CONTINUOUS
 62
    7
370
   -1
100
AcDbLine
 10
1178.030330019039
 20
197.3273251973038
 11
1178.030330019039
 21
190.9773251973039
  0
LINE
  5
AB
100
AcDbEntity
  8
braces
  6
CONTINUOUS
 62
    7
370
   -1
100
AcDbLine
 10
1228.830330019039
 20
140.177325197304
 11
1235.180330019039
 21
140.177325197304
  0
ARC
  5
AC
100
AcDbEntity
  8
braces
  6
CONTINUOUS
 62
    7
370
   -1
100
AcDbCircle
 10
1178.030330019039
 20
140.177325197304
 40
50.8
100
AcDbArc
 50
360
 51
90
  0
LINE
  5
AD
100
AcDbEntity
  8
braces
  6
CONTINUOUS
 62
    7
370
   -1
100
AcDbLine
 10
1093.124669019392
 20
222.7136980755678
 11
1093.124669019392
 21
279.8636980755679
  0
LINE
  5
AE
100
AcDbEntity
  8
braces
  6
CONTINUOUS
 62
    7
370
   -1
100
AcDbLine
 10
1093.124669019392
 20
279.8636980755679
 11
1035.974669019392
 21
279.8636980755679
  0
LINE
  5
AF
100
AcDbEntity
  8
braces
  6
CONTINUOUS
 62
    7
370
   -1
100
AcDbLine
 10
1035.974669019392
 20
279.8636980755679
 11
1035.974669019392
 21
273.5136980755677
  0
LINE
  5
B0
100
AcDbEntity
  8
braces
  6
CONTINUOUS
 62
    7
370
   -1
100
AcDbLine
 10
1086.774669019392
 20
222.7136980755678
 11
1093.124669019392
 21
222.7136980755678
  0
ARC
  5
B1
100
AcDbEntity
  8
braces
  6
CONTINUOUS
 62
    7
370
   -1
100
AcDbCircle
 10
1035.974669019392
 20
222.7136980755678
 40
50.8
100
AcDbArc
 50
360
 51
90
  0
LINE
  5
B2
100
AcDbEntity
  8
braces
  6
CONTINUOUS
 62
    7
370
   -1
100
AcDbLine
 10
1137.342154397785
 20
140.2533337240454
 11
1137.342154397785
 21
197.4033337240452
  0
LINE
  5
B3
100
AcDbEntity
  8
braces
  6
CONTINUOUS
 62
    7
370
   -1
100
AcDbLine
 10
1137.342154397785
 20
197.4033337240452
 11
1080.192154397785
 21
197.4033337240452
  0
LINE
  5
B4
100
AcDbEntity
  8
braces
  6
CONTINUOUS
 62
    7
370
   -1
100
AcDbLine
 10
1080.192154397785
 20
197.4033337240452
 11
1080.192154397785
 21
191.0533337240453
  0
LINE
  5
B5
100
AcDbEntity
  8
braces
  6
CONTINUOUS
 62
    7
370
   -1
100
AcDbLine
 10
1130.992154397785
 20
140.2533337240454
 11
1137.342154397785
 21
140.2533337240454
  0
ARC
  5
B6
100
AcDbEntity
  8
braces
  6
CONTINUOUS
 62
    7
370
   -1
100
AcDbCircle
 10
1080.192154397785
 20
140.2533337240454
 40
50.8
100
AcDbArc
 50
360
 51
90
  0
LINE
  5
B7
100
AcDbEntity
  8
side_bottom_left
  6
CONTINUOUS
 62
    1
370
   -1
100
AcDbLine
 10
458.1310462555481
 20
450.9024859739696
 11
458.1310462555481
 21
469.1904859739695
  0
LINE
  5
B8
100
AcDbEntity
  8
side_bottom_left
  6
CONTINUOUS
 62
    1
370
   -1
100
AcDbLine
 10
458.1310462555482
 20
596.1904859739695
 11
458.1310462555482
 21
614.4784859739696
  0
LINE
  5
B9
100
AcDbEntity
  8
side_bottom_left
  6
CONTINUOUS
 62
    1
370
   -1
100
AcDbLine
 10
458.1310462555482
 20
741.4784859739696
 11
458.1310462555482
 21
759.7664859739695
  0
LINE
  5
BA
100
AcDbEntity
  8
side_bottom_left
  6
CONTINUOUS
 62
    1
370
   -1
100
AcDbLine
 10
458.1310462555482
 20
759.7664859739695
 11
401.235046255548
 21
759.7664859739695
  0
LINE
  5
BB
100
AcDbEntity
  8
side_bottom_left
  6
CONTINUOUS
 62
    1
370
   -1
100
AcDbLine
 10
401.235046255548
 20
741.4784859739696
 11
458.1310462555482
 21
741.4784859739696
  0
LINE
  5
BC
100
AcDbEntity
  8
side_bottom_left
  6
CONTINUOUS
 62
    1
370
   -1
100
AcDbLine
 10
394.6310462555482
 20
759.7664859739695
 11
394.6310462555482
 21
741.4784859739696
  0
LINE
  5
BD
100
AcDbEntity
  8
side_bottom_left
  6
CONTINUOUS
 62
    1
370
   -1
100
AcDbLine
 10
394.6310462555482
 20
614.4784859739696
 11
394.6310462555482
 21
596.1904859739697
  0
LINE
  5
BE
100
AcDbEntity
  8
side_bottom_left
  6
CONTINUOUS
 62
    1
370
   -1
100
AcDbLine
 10
394.6310462555481
 20
469.1904859739695
 11
394.6310462555481
 21
450.9024859739696
  0
LINE
  5
BF
100
AcDbEntity
  8
side_bottom_left
  6
CONTINUOUS
 62
    1
370
   -1
100
AcDbLine
 10
458.1310462555482
 20
614.4784859739696
 11
401.235046255548
 21
614.4784859739696
  0
LINE
  5
C0
100
AcDbEntity
  8
side_bottom_left
  6
CONTINUOUS
 62
    1
370
   -1
100
AcDbLine
 10
401.235046255548
 20
596.1904859739697
 11
458.1310462555482
 21
596.1904859739695
  0
LINE
  5
C1
100
AcDbEntity
  8
side_bottom_left
  6
CONTINUOUS
 62
    1
370
   -1
100
AcDbLine
 10
458.1310462555481
 20
469.1904859739695
 11
401.235046255548
 21
469.1904859739695
  0
LINE
  5
C2
100
AcDbEntity
  8
side_bottom_left
  6
CONTINUOUS
 62
    1
370
   -1
100
AcDbLine
 10
401.235046255548
 20
450.9024859739696
 11
458.1310462555481
 21
450.9024859739696
  0
ARC
  5
C3
100
AcDbEntity
  8
side_bottom_left
  6
CONTINUOUS
 62
    1
370
   -1
100
AcDbCircle
 10
397.933046255551
 20
614.4784859739697
 40
3.302
100
AcDbArc
 50
360
 51
180
  0
ARC
  5
C4
100
AcDbEntity
  8
side_bottom_left
  6
CONTINUOUS
 62
    1
370
   -1
100
AcDbCircle
 10
397.933046255551
 20
596.1904859739697
 40
3.302
100
AcDbArc
 50
180
 51
360
  0
ARC
  5
C5
100
AcDbEntity
  8
side_bottom_left
  6
CONTINUOUS
 62
    1
370
   -1
100
AcDbCircle
 10
397.9330462555511
 20
759.7664859739695
 40
3.302
100
AcDbArc
 50
360
 51
180
  0
ARC
  5
C6
100
AcDbEntity
  8
side_bottom_left
  6
CONTINUOUS
 62
    1
370
   -1
100
AcDbCircle
 10
397.9330462555511
 20
741.4784859739697
 40
3.302
100
AcDbArc
 50
180
 51
360
  0
ARC
  5
C7
100
AcDbEntity
  8
side_bottom_left
  6
CONTINUOUS
 62
    1
370
   -1
100
AcDbCircle
 10
397.933046255551
 20
469.1904859739695
 40
3.302
100
AcDbArc
 50
360
 51
180
  0
ARC
  5
C8
100
AcDbEntity
  8
side_bottom_left
  6
CONTINUOUS
 62
    1
370
   -1
100
AcDbCircle
 10
397.933046255551
 20
450.9024859739696
 40
3.302
100
AcDbArc
 50
180
 51
360
  0
LINE
  5
C9
100
AcDbEntity
  8
side_bottom_left
  6
CONTINUOUS
 62
    0
370
   -1
100
AcDbLine
 10
451.7810462555482
 20
349.3024859739696
 11
451.7810462555483
 21
806.5024859739696
  0
LINE
  5
CA
100
AcDbEntity
  8
base
  6
CONTINUOUS
 62
    1
370
   -1
100
AcDbLine
 10
946.7160000000075
 20
349.1940000000042
 11
946.7160000000076
 21
812.7440000000042
  0
LINE
  5
CB
100
AcDbEntity
  8
base
  6
CONTINUOUS
 62
    1
370
   -1
100
AcDbLine
 10
922.0780000000069
 20
812.7440000000042
 11
922.0780000000069
 21
759.6580000000042
  0
LINE
  5
CC
100
AcDbEntity
  8
base
  6
CONTINUOUS
 62
    1
370
   -1
100
AcDbLine
 10
922.0780000000069
 20
741.3700000000042
 11
922.0780000000069
 21
614.3700000000042
  0
LINE
  5
CD
100
AcDbEntity
  8
base
  6
CONTINUOUS
 62
    1
370
   -1
100
AcDbLine
 10
922.0780000000069
 20
596.0820000000042
 11
922.0780000000068
 21
469.0820000000041
  0
LINE
  5
CE
100
AcDbEntity
  8
base
  6
CONTINUOUS
 62
    1
370
   -1
100
AcDbLine
 10
922.0780000000068
 20
450.7940000000041
 11
922.0780000000068
 21
355.798000000004
  0
LINE
  5
CF
100
AcDbEntity
  8
base
  6
CONTINUOUS
 62
    1
370
   -1
100
AcDbLine
 10
871.2780000000068
 20
759.6580000000042
 11
871.2780000000068
 21
741.3700000000042
  0
LINE
  5
D0
100
AcDbEntity
  8
base
  6
CONTINUOUS
 62
    1
370
   -1
100
AcDbLine
 10
871.2780000000068
 20
614.3700000000042
 11
871.2780000000068
 21
596.0820000000042
  0
LINE
  5
D1
100
AcDbEntity
  8
base
  6
CONTINUOUS
 62
    1
370
   -1
100
AcDbLine
 10
871.2780000000068
 20
469.0820000000041
 11
871.2780000000067
 21
450.7940000000044
  0
LINE
  5
D2
100
AcDbEntity
  8
base
  6
CONTINUOUS
 62
    1
370
   -1
100
AcDbLine
 10
476.8160000000075
 20
349.1940000000043
 11
501.4540000000068
 21
349.1940000000043
  0
LINE
  5
D3
100
AcDbEntity
  8
base
  6
CONTINUOUS
 62
    1
370
   -1
100
AcDbLine
 10
922.0780000000068
 20
349.1940000000042
 11
946.7160000000075
 21
349.1940000000042
  0
LINE
  5
D4
100
AcDbEntity
  8
base
  6
CONTINUOUS
 62
    1
370
   -1
100
AcDbLine
 10
501.4540000000068
 20
450.7940000000044
 11
545.6500000000069
 21
450.7940000000044
  0
LINE
  5
D5
100
AcDbEntity
  8
base
  6
CONTINUOUS
 62
    1
370
   -1
100
AcDbLine
 10
877.8820000000065
 20
450.7940000000044
 11
922.0780000000068
 21
450.7940000000041
  0
LINE
  5
D6
100
AcDbEntity
  8
base
  6
CONTINUOUS
 62
    1
370
   -1
100
AcDbLine
 10
922.0780000000068
 20
469.0820000000041
 11
877.8820000000065
 21
469.0820000000041
  0
LINE
  5
D7
100
AcDbEntity
  8
base
  6
CONTINUOUS
 62
    1
370
   -1
100
AcDbLine
 10
545.6500000000069
 20
469.0820000000044
 11
501.4540000000068
 21
469.0820000000044
  0
LINE
  5
D8
100
AcDbEntity
  8
base
  6
CONTINUOUS
 62
    1
370
   -1
100
AcDbLine
 10
501.4540000000068
 20
596.0820000000044
 11
545.650000000007
 21
596.0820000000044
  0
LINE
  5
D9
100
AcDbEntity
  8
base
  6
CONTINUOUS
 62
    1
370
   -1
100
AcDbLine
 10
877.8820000000067
 20
596.0820000000042
 11
922.0780000000069
 21
596.0820000000042
  0
LINE
  5
DA
100
AcDbEntity
  8
base
  6
CONTINUOUS
 62
    1
370
   -1
100
AcDbLine
 10
552.2540000000067
 20
450.7940000000044
 11
552.2540000000067
 21
469.0820000000044
  0
LINE
  5
DB
100
AcDbEntity
  8
base
  6
CONTINUOUS
 62
    1
370
   -1
100
AcDbLine
 10
552.2540000000068
 20
596.0820000000044
 11
552.2540000000068
 21
614.3700000000043
  0
LINE
  5
DC
100
AcDbEntity
  8
base
  6
CONTINUOUS
 62
    1
370
   -1
100
AcDbLine
 10
552.2540000000068
 20
741.3700000000043
 11
552.2540000000068
 21
759.6580000000043
  0
LINE
  5
DD
100
AcDbEntity
  8
base
  6
CONTINUOUS
 62
    1
370
   -1
100
AcDbLine
 10
922.0780000000069
 20
614.3700000000042
 11
877.8820000000067
 21
614.3700000000042
  0
LINE
  5
DE
100
AcDbEntity
  8
base
  6
CONTINUOUS
 62
    1
370
   -1
100
AcDbLine
 10
545.650000000007
 20
614.3700000000043
 11
501.4540000000068
 21
614.3700000000043
  0
LINE
  5
DF
100
AcDbEntity
  8
base
  6
CONTINUOUS
 62
    1
370
   -1
100
AcDbLine
 10
501.4540000000068
 20
355.7980000000041
 11
501.4540000000068
 21
450.7940000000044
  0
LINE
  5
E0
100
AcDbEntity
  8
base
  6
CONTINUOUS
 62
    1
370
   -1
100
AcDbLine
 10
501.4540000000068
 20
469.0820000000044
 11
501.4540000000068
 21
596.0820000000044
  0
LINE
  5
E1
100
AcDbEntity
  8
base
  6
CONTINUOUS
 62
    1
370
   -1
100
AcDbLine
 10
501.4540000000068
 20
614.3700000000043
 11
501.4540000000068
 21
741.3700000000043
  0
LINE
  5
E2
100
AcDbEntity
  8
base
  6
CONTINUOUS
 62
    1
370
   -1
100
AcDbLine
 10
501.4540000000068
 20
759.6580000000043
 11
501.4540000000068
 21
812.7440000000043
  0
LINE
  5
E3
100
AcDbEntity
  8
base
  6
CONTINUOUS
 62
    1
370
   -1
100
AcDbLine
 10
476.8160000000076
 20
812.7440000000043
 11
476.8160000000075
 21
349.1940000000043
  0
LINE
  5
E4
100
AcDbEntity
  8
base
  6
CONTINUOUS
 62
    1
370
   -1
100
AcDbLine
 10
501.4540000000068
 20
741.3700000000043
 11
545.650000000007
 21
741.3700000000043
  0
LINE
  5
E5
100
AcDbEntity
  8
base
  6
CONTINUOUS
 62
    1
370
   -1
100
AcDbLine
 10
877.8820000000067
 20
741.3700000000042
 11
922.0780000000069
 21
741.3700000000042
  0
LINE
  5
E6
100
AcDbEntity
  8
base
  6
CONTINUOUS
 62
    1
370
   -1
100
AcDbLine
 10
922.0780000000069
 20
759.6580000000042
 11
877.8820000000067
 21
759.6580000000042
  0
LINE
  5
E7
100
AcDbEntity
  8
base
  6
CONTINUOUS
 62
    1
370
   -1
100
AcDbLine
 10
545.650000000007
 20
759.6580000000043
 11
501.4540000000068
 21
759.6580000000043
  0
LINE
  5
E8
100
AcDbEntity
  8
base
  6
CONTINUOUS
 62
    1
370
   -1
100
AcDbLine
 10
946.7160000000076
 20
812.7440000000042
 11
922.0780000000069
 21
812.7440000000042
  0
LINE
  5
E9
100
AcDbEntity
  8
base
  6
CONTINUOUS
 62
    1
370
   -1
100
AcDbLine
 10
501.4540000000068
 20
812.7440000000043
 11
476.8160000000076
 21
812.7440000000043
  0
ARC
  5
EA
100
AcDbEntity
  8
base
  6
CONTINUOUS
 62
    1
370
   -1
100
AcDbCircle
 10
922.0780000000068
 20
352.4960000000042
 40
3.302
100
AcDbArc
 50
90
 51
270
  0
ARC
  5
EB
100
AcDbEntity
  8
base
  6
CONTINUOUS
 62
    1
370
   -1
100
AcDbCircle
 10
501.4540000000068
 20
352.4960000000042
 40
3.302
100
AcDbArc
 50
270
 51
90
  0
ARC
  5
EC
100
AcDbEntity
  8
base
  6
CONTINUOUS
 62
    1
370
   -1
100
AcDbCircle
 10
874.5800000000067
 20
596.0820000000042
 40
3.302
100
AcDbArc
 50
180
 51
360
  0
ARC
  5
ED
100
AcDbEntity
  8
base
  6
CONTINUOUS
 62
    1
370
   -1
100
AcDbCircle
 10
874.5800000000067
 20
469.0820000000042
 40
3.302
100
AcDbArc
 50
360
 51
180
  0
ARC
  5
EE
100
AcDbEntity
  8
base
  6
CONTINUOUS
 62
    1
370
   -1
100
AcDbCircle
 10
874.5800000000067
 20
450.7940000000044
 40
3.302
100
AcDbArc
 50
180
 51
360
  0
ARC
  5
EF
100
AcDbEntity
  8
base
  6
CONTINUOUS
 62
    1
370
   -1
100
AcDbCircle
 10
874.5800000000067
 20
759.6580000000042
 40
3.302
100
AcDbArc
 50
360
 51
180
  0
ARC
  5
F0
100
AcDbEntity
  8
base
  6
CONTINUOUS
 62
    1
370
   -1
100
AcDbCircle
 10
874.5800000000067
 20
741.3700000000042
 40
3.302
100
AcDbArc
 50
180
 51
360
  0
ARC
  5
F1
100
AcDbEntity
  8
base
  6
CONTINUOUS
 62
    1
370
   -1
100
AcDbCircle
 10
874.5800000000067
 20
614.3700000000042
 40
3.302
100
AcDbArc
 50
360
 51
180
  0
ARC
  5
F2
100
AcDbEntity
  8
base
  6
CONTINUOUS
 62
    1
370
   -1
100
AcDbCircle
 10
548.9520000000069
 20
450.7940000000044
 40
3.302
100
AcDbArc
 50
180
 51
360
  0
ARC
  5
F3
100
AcDbEntity
  8
base
  6
CONTINUOUS
 62
    1
370
   -1
100
AcDbCircle
 10
548.9520000000069
 20
469.0820000000044
 40
3.302
100
AcDbArc
 50
360
 51
180
  0
ARC
  5
F4
100
AcDbEntity
  8
base
  6
CONTINUOUS
 62
    1
370
   -1
100
AcDbCircle
 10
548.9520000000069
 20
596.0820000000044
 40
3.302
100
AcDbArc
 50
180
 51
360
  0
ARC
  5
F5
100
AcDbEntity
  8
base
  6
CONTINUOUS
 62
    1
370
   -1
100
AcDbCircle
 10
548.9520000000069
 20
614.3700000000043
 40
3.302
100
AcDbArc
 50
360
 51
180
  0
ARC
  5
F6
100
AcDbEntity
  8
base
  6
CONTINUOUS
 62
    1
370
   -1
100
AcDbCircle
 10
548.9520000000069
 20
741.3700000000043
 40
3.302
100
AcDbArc
 50
180
 51
360
  0
ARC
  5
F7
100
AcDbEntity
  8
base
  6
CONTINUOUS
 62
    1
370
   -1
100
AcDbCircle
 10
548.9520000000069
 20
759.6580000000043
 40
3.302
100
AcDbArc
 50
360
 51
180
  0
LINE
  5
F8
100
AcDbEntity
  8
side_bottom_right
  6
CONTINUOUS
 62
    1
370
   -1
100
AcDbLine
 10
969.3958830695425
 20
450.2426203036263
 11
969.3958830695425
 21
468.5306203036262
  0
LINE
  5
F9
100
AcDbEntity
  8
side_bottom_right
  6
CONTINUOUS
 62
    1
370
   -1
100
AcDbLine
 10
969.3958830695425
 20
595.5306203036262
 11
969.3958830695425
 21
613.8186203036262
  0
LINE
  5
FA
100
AcDbEntity
  8
side_bottom_right
  6
CONTINUOUS
 62
    1
370
   -1
100
AcDbLine
 10
969.3958830695425
 20
740.8186203036263
 11
969.3958830695425
 21
759.1066203036261
  0
LINE
  5
FB
100
AcDbEntity
  8
side_bottom_right
  6
CONTINUOUS
 62
    1
370
   -1
100
AcDbLine
 10
969.3958830695425
 20
759.1066203036261
 11
1026.291883069543
 21
759.1066203036261
  0
LINE
  5
FC
100
AcDbEntity
  8
side_bottom_right
  6
CONTINUOUS
 62
    1
370
   -1
100
AcDbLine
 10
1026.291883069543
 20
740.8186203036263
 11
969.3958830695425
 21
740.8186203036263
  0
LINE
  5
FD
100
AcDbEntity
  8
side_bottom_right
  6
CONTINUOUS
 62
    1
370
   -1
100
AcDbLine
 10
1032.895883069542
 20
759.1066203036261
 11
1032.895883069542
 21
740.8186203036263
  0
LINE
  5
FE
100
AcDbEntity
  8
side_bottom_right
  6
CONTINUOUS
 62
    1
370
   -1
100
AcDbLine
 10
1032.895883069542
 20
613.8186203036262
 11
1032.895883069542
 21
595.5306203036263
  0
LINE
  5
FF
100
AcDbEntity
  8
side_bottom_right
  6
CONTINUOUS
 62
    1
370
   -1
100
AcDbLine
 10
1032.895883069542
 20
468.5306203036262
 11
1032.895883069542
 21
450.2426203036263
  0
LINE
  5
100
100
AcDbEntity
  8
side_bottom_right
  6
CONTINUOUS
 62
    1
370
   -1
100
AcDbLine
 10
969.3958830695425
 20
613.8186203036262
 11
1026.291883069543
 21
613.8186203036262
  0
LINE
  5
101
100
AcDbEntity
  8
side_bottom_right
  6
CONTINUOUS
 62
    1
370
   -1
100
AcDbLine
 10
1026.291883069543
 20
595.5306203036263
 11
969.3958830695425
 21
595.5306203036262
  0
LINE
  5
102
100
AcDbEntity
  8
side_bottom_right
  6
CONTINUOUS
 62
    1
370
   -1
100
AcDbLine
 10
969.3958830695425
 20
468.5306203036262
 11
1026.291883069543
 21
468.5306203036262
  0
LINE
  5
103
100
AcDbEntity
  8
side_bottom_right
  6
CONTINUOUS
 62
    1
370
   -1
100
AcDbLine
 10
1026.291883069543
 20
450.2426203036263
 11
969.3958830695425
 21
450.2426203036263
  0
ARC
  5
104
100
AcDbEntity
  8
side_bottom_right
  6
CONTINUOUS
 62
    1
370
   -1
100
AcDbCircle
 10
1029.59388306954
 20
613.8186203036263
 40
3.302
100
AcDbArc
 50
0
 51
180
  0
ARC
  5
105
100
AcDbEntity
  8
side_bottom_right
  6
CONTINUOUS
 62
    1
370
   -1
100
AcDbCircle
 10
1029.59388306954
 20
595.5306203036263
 40
3.302
100
AcDbArc
 50
180
 51
0
  0
ARC
  5
106
100
AcDbEntity
  8
side_bottom_right
  6
CONTINUOUS
 62
    1
370
   -1
100
AcDbCircle
 10
1029.59388306954
 20
759.1066203036261
 40
3.302
100
AcDbArc
 50
0
 51
180
  0
ARC
  5
107
100
AcDbEntity
  8
side_bottom_right
  6
CONTINUOUS
 62
    1
370
   -1
100
AcDbCircle
 10
1029.59388306954
 20
740.8186203036263
 40
3.302
100
AcDbArc
 50
180
 51
0
  0
ARC
  5
108
100
AcDbEntity
  8
side_bottom_right
  6
CONTINUOUS
 62
    1
370
   -1
100
AcDbCircle
 10
1029.59388306954
 20
468.5306203036262
 40
3.302
100
AcDbArc
 50
0
 51
180
  0
ARC
  5
109
100
AcDbEntity
  8
side_bottom_right
  6
CONTINUOUS
 62
    1
370
   -1
100
AcDbCircle
 10
1029.59388306954
 20
450.2426203036263
 40
3.302
100
AcDbArc
 50
180
 51
0
  0
LINE
  5
10A
100
AcDbEntity
  8
side_bottom_right
  6
CONTINUOUS
 62
    0
370
   -1
100
AcDbLine
 10
975.7458830695424
 20
348.6426203036262
 11
975.7458830695424
 21
805.8426203036262
  0
LINE
  5
10B
100
AcDbEntity
  8
top
  6
CONTINUOUS
 62
    7
370
   -1
100
AcDbLine
 10
514.1302822766334
 20
846.5399703719788
 11
912.9102822766345
 21
846.5399703719786
  0
LINE
  5
10C
100
AcDbEntity
  8
top
  6
CONTINUOUS
 62
    1
370
   -1
100
AcDbLine
 10
919.2602822766339
 20
892.8202580162571
 11
919.2602822766339
 21
911.1082580162567
  0
LINE
  5
10D
100
AcDbEntity
  8
top
  6
CONTINUOUS
 62
    1
370
   -1
100
AcDbLine
 10
919.2602822766339
 20
1012.708258016257
 11
919.2602822766339
 21
1030.996258016257
  0
LINE
  5
10E
100
AcDbEntity
  8
top
  6
CONTINUOUS
 62
    1
370
   -1
100
AcDbLine
 10
855.7602822766339
 20
1030.996258016257
 11
855.7602822766339
 21
1012.708258016257
  0
LINE
  5
10F
100
AcDbEntity
  8
top
  6
CONTINUOUS
 62
    1
370
   -1
100
AcDbLine
 10
855.7602822766339
 20
911.108258016257
 11
855.7602822766339
 21
892.8202580162573
  0
LINE
  5
110
100
AcDbEntity
  8
top
  6
CONTINUOUS
 62
    1
370
   -1
100
AcDbLine
 10
919.2602822766339
 20
1030.996258016257
 11
862.3642822766337
 21
1030.996258016257
  0
LINE
  5
111
100
AcDbEntity
  8
top
  6
CONTINUOUS
 62
    1
370
   -1
100
AcDbLine
 10
564.6762822766334
 20
1030.996258016257
 11
507.780282276633
 21
1030.996258016257
  0
LINE
  5
112
100
AcDbEntity
  8
top
  6
CONTINUOUS
 62
    1
370
   -1
100
AcDbLine
 10
507.7802822766332
 20
1012.708258016257
 11
564.6762822766334
 21
1012.708258016257
  0
LINE
  5
113
100
AcDbEntity
  8
top
  6
CONTINUOUS
 62
    1
370
   -1
100
AcDbLine
 10
862.3642822766337
 20
1012.708258016257
 11
919.2602822766339
 21
1012.708258016257
  0
LINE
  5
114
100
AcDbEntity
  8
top
  6
CONTINUOUS
 62
    1
370
   -1
100
AcDbLine
 10
919.2602822766339
 20
911.1082580162567
 11
862.3642822766337
 21
911.1082580162569
  0
LINE
  5
115
100
AcDbEntity
  8
top
  6
CONTINUOUS
 62
    1
370
   -1
100
AcDbLine
 10
564.6762822766332
 20
911.1082580162567
 11
507.780282276633
 21
911.1082580162569
  0
LINE
  5
116
100
AcDbEntity
  8
top
  6
CONTINUOUS
 62
    1
370
   -1
100
AcDbLine
 10
507.780282276633
 20
892.8202580162572
 11
564.6762822766329
 21
892.8202580162575
  0
LINE
  5
117
100
AcDbEntity
  8
top
  6
CONTINUOUS
 62
    1
370
   -1
100
AcDbLine
 10
862.3642822766337
 20
892.8202580162572
 11
919.2602822766339
 21
892.8202580162571
  0
LINE
  5
118
100
AcDbEntity
  8
top
  6
CONTINUOUS
 62
    1
370
   -1
100
AcDbLine
 10
571.280282276633
 20
892.8202580162575
 11
571.280282276633
 21
911.1082580162567
  0
LINE
  5
119
100
AcDbEntity
  8
top
  6
CONTINUOUS
 62
    1
370
   -1
100
AcDbLine
 10
571.2802822766332
 20
1012.708258016257
 11
571.2802822766332
 21
1030.996258016257
  0
LINE
  5
11A
100
AcDbEntity
  8
top
  6
CONTINUOUS
 62
    1
370
   -1
100
AcDbLine
 10
507.780282276633
 20
1030.996258016257
 11
507.7802822766332
 21
1012.708258016257
  0
LINE
  5
11B
100
AcDbEntity
  8
top
  6
CONTINUOUS
 62
    1
370
   -1
100
AcDbLine
 10
507.780282276633
 20
911.1082580162569
 11
507.780282276633
 21
892.8202580162572
  0
ARC
  5
11C
100
AcDbEntity
  8
top
  6
CONTINUOUS
 62
    1
370
   -1
100
AcDbCircle
 10
567.9782822766329
 20
892.8202580162573
 40
3.302
100
AcDbArc
 50
180
 51
360
  0
ARC
  5
11D
100
AcDbEntity
  8
top
  6
CONTINUOUS
 62
    1
370
   -1
100
AcDbCircle
 10
567.9782822766326
 20
911.1082580162569
 40
3.302
100
AcDbArc
 50
360
 51
180
  0
ARC
  5
11E
100
AcDbEntity
  8
top
  6
CONTINUOUS
 62
    1
370
   -1
100
AcDbCircle
 10
567.9782822766331
 20
1012.708258016257
 40
3.302
100
AcDbArc
 50
180
 51
360
  0
ARC
  5
11F
100
AcDbEntity
  8
top
  6
CONTINUOUS
 62
    1
370
   -1
100
AcDbCircle
 10
567.9782822766331
 20
1030.996258016257
 40
3.302
100
AcDbArc
 50
360
 51
180
  0
ARC
  5
120
100
AcDbEntity
  8
top
  6
CONTINUOUS
 62
    1
370
   -1
100
AcDbCircle
 10
859.0622822766341
 20
911.1082580162567
 40
3.302
100
AcDbArc
 50
360
 51
180
  0
ARC
  5
121
100
AcDbEntity
  8
top
  6
CONTINUOUS
 62
    1
370
   -1
100
AcDbCircle
 10
859.0622822766341
 20
892.8202580162571
 40
3.302
100
AcDbArc
 50
180
 51
360
  0
ARC
  5
122
100
AcDbEntity
  8
top
  6
CONTINUOUS
 62
    1
370
   -1
100
AcDbCircle
 10
859.0622822766341
 20
1030.996258016257
 40
3.302
100
AcDbArc
 50
360
 51
180
  0
ARC
  5
123
100
AcDbEntity
  8
top
  6
CONTINUOUS
 62
    1
370
   -1
100
AcDbCircle
 10
859.0622822766341
 20
1012.708258016257
 40
3.302
100
AcDbArc
 50
180
 51
360
  0
LINE
  5
124
100
AcDbEntity
  8
side_top_right
  6
CONTINUOUS
 62
    7
370
   -1
100
AcDbLine
 10
1047.992373202896
 20
1080.543651461471
 11
1327.392373202895
 21
919.2319862495297
  0
LINE
  5
125
100
AcDbEntity
  8
side_top_right
  6
CONTINUOUS
 62
    7
370
   -1
100
AcDbLine
 10
1009.892373202895
 20
863.20539355567
 11
1009.892373202895
 21
1058.546606204951
  0
ARC
  5
126
100
AcDbEntity
  8
side_top_right
  6
CONTINUOUS
 62
    7
370
   -1
100
AcDbCircle
 10
1035.292373202896
 20
863.2053935556702
 40
25.4
100
AcDbArc
 50
180.0000000000001
 51
240
  0
ARC
  5
127
100
AcDbEntity
  8
side_top_right
  6
CONTINUOUS
 62
    7
370
   -1
100
AcDbCircle
 10
1035.292373202896
 20
1058.546606204951
 40
25.4
100
AcDbArc
 50
59.99999999999993
 51
180.0000000000001
  0
CIRCLE
  5
128
100
AcDbEntity
  8
side_top_right
  6
CONTINUOUS
 62
    7
370
   -1
100
AcDbCircle
 10
1035.292373202896
 20
884.6759998803103
 40
3.96875
  0
CIRCLE
  5
129
100
AcDbEntity
  8
side_top_right
  6
CONTINUOUS
 62
    7
370
   -1
100
AcDbCircle
 10
1035.292373202896
 20
1037.075999880311
 40
3.96875
  0
LINE
  5
12A
100
AcDbEntity
  8
side_top_right
  6
CONTINUOUS
 62
    7
370
   -1
100
AcDbLine
 10
1286.743476549996
 20
688.700637674425
 11
1022.592373202895
 21
841.2083482991502
  0
LINE
  5
12B
100
AcDbEntity
  8
side_top_right
  6
CONTINUOUS
 62
    7
370
   -1
100
AcDbLine
 10
1327.392373202895
 20
919.2319862495297
 11
1286.743476549996
 21
688.700637674425
  0
LINE
  5
12C
100
AcDbEntity
  8
side_top_right
  6
CONTINUOUS
 62
    1
370
   -1
100
AcDbLine
 10
1337.439683904109
 20
935.2567410892557
 11
1289.804515806517
 21
665.1042782829448
  0
LINE
  5
12D
100
AcDbEntity
  8
side_top_right
  6
CONTINUOUS
 62
    1
370
   -1
100
AcDbLine
 10
1264.790398880007
 20
669.5149419956849
 11
1278.507563026628
 21
747.3088456371319
  0
LINE
  5
12E
100
AcDbEntity
  8
side_top_right
  6
CONTINUOUS
 62
    1
370
   -1
100
AcDbLine
 10
1281.683240899801
 20
765.3190098242198
 11
1299.325895750761
 21
865.3754775302602
  0
LINE
  5
12F
100
AcDbEntity
  8
side_top_right
  6
CONTINUOUS
 62
    1
370
   -1
100
AcDbLine
 10
1302.501573623934
 20
883.3856417173479
 11
1312.425566977599
 21
939.6674048019956
  0
LINE
  5
130
100
AcDbEntity
  8
side_top_right
  6
CONTINUOUS
 62
    1
370
   -1
100
AcDbLine
 10
1228.479329173608
 20
756.1301730626117
 11
1231.655007046781
 21
774.1403372496998
  0
LINE
  5
131
100
AcDbEntity
  8
side_top_right
  6
CONTINUOUS
 62
    1
370
   -1
100
AcDbLine
 10
1249.297661897741
 20
874.1968049557402
 11
1252.473339770914
 21
892.2069691428283
  0
LINE
  5
132
100
AcDbEntity
  8
side_top_right
  6
CONTINUOUS
 62
    1
370
   -1
100
AcDbLine
 10
1312.425566977599
 20
939.6674048019956
 11
1337.439683904109
 21
935.2567410892557
  0
LINE
  5
133
100
AcDbEntity
  8
side_top_right
  6
CONTINUOUS
 62
    1
370
   -1
100
AcDbLine
 10
1258.977010171806
 20
891.0601965775156
 11
1302.501573623934
 21
883.3856417173479
  0
LINE
  5
134
100
AcDbEntity
  8
side_top_right
  6
CONTINUOUS
 62
    1
370
   -1
100
AcDbLine
 10
1299.325895750761
 20
865.3754775302602
 11
1255.801332298633
 21
873.050032390428
  0
LINE
  5
135
100
AcDbEntity
  8
side_top_right
  6
CONTINUOUS
 62
    1
370
   -1
100
AcDbLine
 10
1238.158677447673
 20
772.9935646843875
 11
1281.683240899801
 21
765.3190098242198
  0
LINE
  5
136
100
AcDbEntity
  8
side_top_right
  6
CONTINUOUS
 62
    1
370
   -1
100
AcDbLine
 10
1278.507563026628
 20
747.3088456371319
 11
1234.9829995745
 21
754.9834004972995
  0
LINE
  5
137
100
AcDbEntity
  8
side_top_right
  6
CONTINUOUS
 62
    1
370
   -1
100
AcDbLine
 10
1289.804515806517
 20
665.1042782829448
 11
1264.790398880007
 21
669.5149419956849
  0
ARC
  5
138
100
AcDbEntity
  8
side_top_right
  6
CONTINUOUS
 62
    1
370
   -1
100
AcDbCircle
 10
1231.731164374054
 20
755.5567867799557
 40
3.302
100
AcDbArc
 50
170.0000000000001
 51
350.0000000000001
  0
ARC
  5
139
100
AcDbEntity
  8
side_top_right
  6
CONTINUOUS
 62
    1
370
   -1
100
AcDbCircle
 10
1234.906842247227
 20
773.5669509670436
 40
3.302
100
AcDbArc
 50
350.0000000000001
 51
170.0000000000001
  0
ARC
  5
13A
100
AcDbEntity
  8
side_top_right
  6
CONTINUOUS
 62
    1
370
   -1
100
AcDbCircle
 10
1252.549497098187
 20
873.623418673084
 40
3.302
100
AcDbArc
 50
170.0000000000001
 51
350.0000000000001
  0
ARC
  5
13B
100
AcDbEntity
  8
side_top_right
  6
CONTINUOUS
 62
    1
370
   -1
100
AcDbCircle
 10
1255.72517497136
 20
891.6335828601721
 40
3.302
100
AcDbArc
 50
350.0000000000001
 51
170.0000000000001
  0
CIRCLE
  5
13C
100
AcDbEntity
  8
side_top_right
  6
CONTINUOUS
 62
    7
370
   -1
100
AcDbCircle
 10
1167.274644739644
 20
960.8759998803105
 40
3.96875
  0
LINE
  5
13D
100
AcDbEntity
  8
side_top_left
  6
CONTINUOUS
 62
    7
370
   -1
100
AcDbLine
 10
390.8962692057177
 20
1080.727054354476
 11
111.4962692057178
 21
919.4153891425345
  0
LINE
  5
13E
100
AcDbEntity
  8
side_top_left
  6
CONTINUOUS
 62
    7
370
   -1
100
AcDbLine
 10
428.9962692057178
 20
863.388796448675
 11
428.9962692057178
 21
1058.730009097956
  0
ARC
  5
13F
100
AcDbEntity
  8
side_top_left
  6
CONTINUOUS
 62
    7
370
   -1
100
AcDbCircle
 10
403.5962692057177
 20
863.388796448675
 40
25.4
100
AcDbArc
 50
300
 51
359.9999999999999
  0
ARC
  5
140
100
AcDbEntity
  8
side_top_left
  6
CONTINUOUS
 62
    7
370
   -1
100
AcDbCircle
 10
403.5962692057177
 20
1058.730009097956
 40
25.4
100
AcDbArc
 50
359.9999999999999
 51
120.0000000000001
  0
CIRCLE
  5
141
100
AcDbEntity
  8
side_top_left
  6
CONTINUOUS
 62
    7
370
   -1
100
AcDbCircle
 10
403.5962692057177
 20
884.8594027733153
 40
3.96875
  0
CIRCLE
  5
142
100
AcDbEntity
  8
side_top_left
  6
CONTINUOUS
 62
    7
370
   -1
100
AcDbCircle
 10
403.5962692057177
 20
1037.259402773315
 40
3.96875
  0
LINE
  5
143
100
AcDbEntity
  8
side_top_left
  6
CONTINUOUS
 62
    7
370
   -1
100
AcDbLine
 10
152.1451658586169
 20
688.8840405674299
 11
416.2962692057177
 21
841.3917511921551
  0
LINE
  5
144
100
AcDbEntity
  8
side_top_left
  6
CONTINUOUS
 62
    7
370
   -1
100
AcDbLine
 10
111.4962692057178
 20
919.4153891425345
 11
152.1451658586169
 21
688.8840405674299
  0
LINE
  5
145
100
AcDbEntity
  8
side_top_left
  6
CONTINUOUS
 62
    1
370
   -1
100
AcDbLine
 10
101.4489585045041
 20
935.4401439822606
 11
149.0841266020967
 21
665.2876811759498
  0
LINE
  5
146
100
AcDbEntity
  8
side_top_left
  6
CONTINUOUS
 62
    1
370
   -1
100
AcDbLine
 10
174.0982435286065
 20
669.6983448886898
 11
160.3810793819852
 21
747.4922485301369
  0
LINE
  5
147
100
AcDbEntity
  8
side_top_left
  6
CONTINUOUS
 62
    1
370
   -1
100
AcDbLine
 10
157.2054015088121
 20
765.5024127172247
 11
139.562746657852
 21
865.5588804232651
  0
LINE
  5
148
100
AcDbEntity
  8
side_top_left
  6
CONTINUOUS
 62
    1
370
   -1
100
AcDbLine
 10
136.3870687846792
 20
883.5690446103528
 11
126.4630754310141
 21
939.8508076950005
  0
LINE
  5
149
100
AcDbEntity
  8
side_top_left
  6
CONTINUOUS
 62
    1
370
   -1
100
AcDbLine
 10
210.4093132350055
 20
756.3135759556166
 11
207.2336353618324
 21
774.3237401427047
  0
LINE
  5
14A
100
AcDbEntity
  8
side_top_left
  6
CONTINUOUS
 62
    1
370
   -1
100
AcDbLine
 10
189.5909805108723
 20
874.380207848745
 11
186.4153026376995
 21
892.3903720358331
  0
LINE
  5
14B
100
AcDbEntity
  8
side_top_left
  6
CONTINUOUS
 62
    1
370
   -1
100
AcDbLine
 10
126.4630754310141
 20
939.8508076950005
 11
101.4489585045041
 21
935.4401439822606
  0
LINE
  5
14C
100
AcDbEntity
  8
side_top_left
  6
CONTINUOUS
 62
    1
370
   -1
100
AcDbLine
 10
179.9116322368071
 20
891.2435994705205
 11
136.3870687846792
 21
883.5690446103528
  0
LINE
  5
14D
100
AcDbEntity
  8
side_top_left
  6
CONTINUOUS
 62
    1
370
   -1
100
AcDbLine
 10
139.562746657852
 20
865.5588804232651
 11
183.08731010998
 21
873.2334352834329
  0
LINE
  5
14E
100
AcDbEntity
  8
side_top_left
  6
CONTINUOUS
 62
    1
370
   -1
100
AcDbLine
 10
200.72996496094
 20
773.1769675773922
 11
157.2054015088121
 21
765.5024127172247
  0
LINE
  5
14F
100
AcDbEntity
  8
side_top_left
  6
CONTINUOUS
 62
    1
370
   -1
100
AcDbLine
 10
160.3810793819852
 20
747.4922485301369
 11
203.9056428341131
 21
755.1668033903044
  0
LINE
  5
150
100
AcDbEntity
  8
side_top_left
  6
CONTINUOUS
 62
    1
370
   -1
100
AcDbLine
 10
149.0841266020967
 20
665.2876811759498
 11
174.0982435286065
 21
669.6983448886898
  0
ARC
  5
151
100
AcDbEntity
  8
side_top_left
  6
CONTINUOUS
 62
    1
370
   -1
100
AcDbCircle
 10
207.1574780345592
 20
755.7401896729606
 40
3.302
100
AcDbArc
 50
189.9999999999999
 51
9.999999999999938
  0
ARC
  5
152
100
AcDbEntity
  8
side_top_left
  6
CONTINUOUS
 62
    1
370
   -1
100
AcDbCircle
 10
203.9818001613863
 20
773.7503538600484
 40
3.302
100
AcDbArc
 50
9.999999999999938
 51
189.9999999999999
  0
ARC
  5
153
100
AcDbEntity
  8
side_top_left
  6
CONTINUOUS
 62
    1
370
   -1
100
AcDbCircle
 10
186.3391453104263
 20
873.8068215660888
 40
3.302
100
AcDbArc
 50
189.9999999999999
 51
9.999999999999938
  0
ARC
  5
154
100
AcDbEntity
  8
side_top_left
  6
CONTINUOUS
 62
    1
370
   -1
100
AcDbCircle
 10
183.1634674372532
 20
891.8169857531769
 40
3.302
100
AcDbArc
 50
9.999999999999938
 51
189.9999999999999
  0
CIRCLE
  5
155
100
AcDbEntity
  8
side_top_left
  6
CONTINUOUS
 62
    7
370
   -1
100
AcDbCircle
 10
271.6139976689693
 20
961.0594027733154
 40
3.96875
  0
CIRCLE
  5
156
100
AcDbEntity
  8
base
  6
CONTINUOUS
 62
    7
370
   -1
100
AcDbCircle
 10
813.3660000000075
 20
590.6232993018248
 40
3.81
  0
CIRCLE
  5
157
100
AcDbEntity
  8
base
  6
CONTINUOUS
 62
    7
370
   -1
100
AcDbCircle
 10
813.3660000000075
 20
628.7232993018247
 40
3.81
  0
CIRCLE
  5
158
100
AcDbEntity
  8
base
  6
CONTINUOUS
 62
    7
370
   -1
100
AcDbCircle
 10
610.1660000000076
 20
552.5232993018246
 40
3.81
  0
CIRCLE
  5
159
100
AcDbEntity
  8
base
  6
CONTINUOUS
 62
    7
370
   -1
100
AcDbCircle
 10
610.1660000000076
 20
590.6232993018248
 40
3.81
  0
CIRCLE
  5
15A
100
AcDbEntity
  8
base
  6
CONTINUOUS
 62
    7
370
   -1
100
AcDbCircle
 10
610.1660000000076
 20
628.7232993018247
 40
3.81
  0
CIRCLE
  5
15B
100
AcDbEntity
  8
base
  6
CONTINUOUS
 62
    7
370
   -1
100
AcDbCircle
 10
813.3660000000075
 20
664.2521527229678
 40
3.81
  0
CIRCLE
  5
15C
100
AcDbEntity
  8
base
  6
CONTINUOUS
 62
    7
370
   -1
100
AcDbCircle
 10
813.3660000000076
 20
702.3521527229678
 40
3.81
  0
CIRCLE
  5
15D
100
AcDbEntity
  8
base
  6
CONTINUOUS
 62
    7
370
   -1
100
AcDbCircle
 10
813.3660000000076
 20
740.4521527229679
 40
3.81
  0
CIRCLE
  5
15E
100
AcDbEntity
  8
base
  6
CONTINUOUS
 62
    7
370
   -1
100
AcDbCircle
 10
610.1660000000076
 20
664.2521527229679
 40
3.81
  0
CIRCLE
  5
15F
100
AcDbEntity
  8
base
  6
CONTINUOUS
 62
    7
370
   -1
100
AcDbCircle
 10
610.1660000000076
 20
702.352152722968
 40
3.81
  0
CIRCLE
  5
160
100
AcDbEntity
  8
base
  6
CONTINUOUS
 62
    7
370
   -1
100
AcDbCircle
 10
610.1660000000076
 20
740.4521527229679
 40
3.81
  0
CIRCLE
  5
161
100
AcDbEntity
  8
base
  6
CONTINUOUS
 62
    7
370
   -1
100
AcDbCircle
 10
813.3660000000076
 20
778.5902004474227
 40
3.81
  0
CIRCLE
  5
162
100
AcDbEntity
  8
base
  6
CONTINUOUS
 62
    7
370
   -1
100
AcDbCircle
 10
610.1660000000076
 20
778.5902004474227
 40
3.81
  0
ARC
  5
163
100
AcDbEntity
  8
top
  6
ByLayer
 62
  256
370
   -1
100
AcDbCircle
 10
524.1422827879617
 20
1090.52796986065
 40
10.01200777450895
100
AcDbArc
 50
89.93098547714493
 51
179.9309854771443
  0
LINE
  5
164
100
AcDbEntity
  8
top
  6
CONTINUOUS
 62
    7
370
   -1
100
AcDbLine
 10
514.1302822766334
 20
1090.540029628022
 11
514.1302822766334
 21
846.5399703719788
  0
ARC
  5
165
100
AcDbEntity
  8
top
  6
ByLayer
 62
  256
370
   -1
100
AcDbCircle
 10
902.9101559523277
 20
1090.539844047672
 40
10.00012632552266
100
AcDbArc
 50
0.0008935297323623546
 51
90.00089352973106
  0
LINE
  5
166
100
AcDbEntity
  8
top
  6
CONTINUOUS
 62
    7
370
   -1
100
AcDbLine
 10
902.91
 20
1100.539970371979
 11
524.1543425553331
 21
1100.539970371978
  0
LINE
  5
167
100
AcDbEntity
  8
top
  6
CONTINUOUS
 62
    7
370
   -1
100
AcDbLine
 10
912.9102822766345
 20
846.5399703719786
 11
912.9102822766343
 21
1090.54
  0
ENDSEC
  0
SECTION
  2
OBJECTS
  0
DICTIONARY
  5
C
330
0
100
AcDbDictionary
281
    1
  3
ACAD_GROUP
350
D
  0
DICTIONARY
  5
D
330
C
100
AcDbDictionary
281
    1
  0
ENDSEC
  0
EOF
