  0
SECTION
  2
HEADER
  9
$ACADVER
  1
AC1018
  9
$ACADMAINTVER
 70
     0
  9
$DWGCODEPAGE
  3
ANSI_932
  9
$INSBASE
 10
0.0
 20
0.0
 30
0.0
  9
$EXTMIN
 10
1.000000000000000E+20
 20
1.000000000000000E+20
 30
1.000000000000000E+20
  9
$EXTMAX
 10
-1.000000000000000E+20
 20
-1.000000000000000E+20
 30
-1.000000000000000E+20
  9
$LIMMIN
 10
0.0
 20
0.0
  9
$LIMMAX
 10
12.0
 20
9.0
  9
$ORTHOMODE
 70
     0
  9
$REGENMODE
 70
     1
  9
$FILLMODE
 70
     1
  9
$QTEXTMODE
 70
     0
  9
$MIRRTEXT
 70
     1
  9
$LTSCALE
 40
1.0
  9
$ATTMODE
 70
     1
  9
$TEXTSIZE
 40
0.2
  9
$TRACEWID
 40
0.05
  9
$TEXTSTYLE
  7
Standard
  9
$CLAYER
  8
0
  9
$CELTYPE
  6
ByLayer
  9
$CECOLOR
 62
   256
  9
$CELTSCALE
 40
1.0
  9
$DISPSILH
 70
     0
  9
$DIMSCALE
 40
1.0
  9
$DIMASZ
 40
0.18
  9
$DIMEXO
 40
0.0625
  9
$DIMDLI
 40
0.38
  9
$DIMRND
 40
0.0
  9
$DIMDLE
 40
0.0
  9
$DIMEXE
 40
0.18
  9
$DIMTP
 40
0.0
  9
$DIMTM
 40
0.0
  9
$DIMTXT
 40
0.18
  9
$DIMCEN
 40
0.09
  9
$DIMTSZ
 40
0.0
  9
$DIMTOL
 70
     0
  9
$DIMLIM
 70
     0
  9
$DIMTIH
 70
     1
  9
$DIMTOH
 70
     1
  9
$DIMSE1
 70
     0
  9
$DIMSE2
 70
     0
  9
$DIMTAD
 70
     0
  9
$DIMZIN
 70
     0
  9
$DIMBLK
  1

  9
$DIMASO
 70
     1
  9
$DIMSHO
 70
     1
  9
$DIMPOST
  1

  9
$DIMAPOST
  1

  9
$DIMALT
 70
     0
  9
$DIMALTD
 70
     2
  9
$DIMALTF
 40
25.4
  9
$DIMLFAC
 40
1.0
  9
$DIMTOFL
 70
     0
  9
$DIMTVP
 40
0.0
  9
$DIMTIX
 70
     0
  9
$DIMSOXD
 70
     0
  9
$DIMSAH
 70
     0
  9
$DIMBLK1
  1

  9
$DIMBLK2
  1

  9
$DIMSTYLE
  2
Standard
  9
$DIMCLRD
 70
     0
  9
$DIMCLRE
 70
     0
  9
$DIMCLRT
 70
     0
  9
$DIMTFAC
 40
1.0
  9
$DIMGAP
 40
0.09
  9
$DIMJUST
 70
     0
  9
$DIMSD1
 70
     0
  9
$DIMSD2
 70
     0
  9
$DIMTOLJ
 70
     1
  9
$DIMTZIN
 70
     0
  9
$DIMALTZ
 70
     0
  9
$DIMALTTZ
 70
     0
  9
$DIMUPT
 70
     0
  9
$DIMDEC
 70
     4
  9
$DIMTDEC
 70
     4
  9
$DIMALTU
 70
     2
  9
$DIMALTTD
 70
     2
  9
$DIMTXSTY
  7
Standard
  9
$DIMAUNIT
 70
     0
  9
$DIMADEC
 70
     0
  9
$DIMALTRND
 40
0.0
  9
$DIMAZIN
 70
     0
  9
$DIMDSEP
 70
    46
  9
$DIMATFIT
 70
     3
  9
$DIMFRAC
 70
     0
  9
$DIMLDRBLK
  1

  9
$DIMLUNIT
 70
     2
  9
$DIMLWD
 70
    -2
  9
$DIMLWE
 70
    -2
  9
$DIMTMOVE
 70
     0
  9
$LUNITS
 70
     2
  9
$LUPREC
 70
     4
  9
$SKETCHINC
 40
0.1
  9
$FILLETRAD
 40
0.5
  9
$AUNITS
 70
     0
  9
$AUPREC
 70
     0
  9
$MENU
  1
.
  9
$ELEVATION
 40
0.0
  9
$PELEVATION
 40
0.0
  9
$THICKNESS
 40
0.0
  9
$LIMCHECK
 70
     0
  9
$CHAMFERA
 40
0.5
  9
$CHAMFERB
 40
0.5
  9
$CHAMFERC
 40
1.0
  9
$CHAMFERD
 40
0.0
  9
$SKPOLY
 70
     0
  9
$TDCREATE
 40
2457109.626979167
  9
$TDUCREATE
 40
2457109.626979167
  9
$TDUPDATE
 40
2457109.626979178
  9
$TDUUPDATE
 40
2457109.626979178
  9
$TDINDWG
 40
0.0000000116
  9
$TDUSRTIMER
 40
0.0000000116
  9
$USRTIMER
 70
     1
  9
$ANGBASE
 50
0.0
  9
$ANGDIR
 70
     0
  9
$PDMODE
 70
     0
  9
$PDSIZE
 40
0.0
  9
$PLINEWID
 40
0.0
  9
$SPLFRAME
 70
     0
  9
$SPLINETYPE
 70
     6
  9
$SPLINESEGS
 70
     8
  9
$HANDSEED
  5
4B
  9
$SURFTAB1
 70
     6
  9
$SURFTAB2
 70
     6
  9
$SURFTYPE
 70
     6
  9
$SURFU
 70
     6
  9
$SURFV
 70
     6
  9
$UCSBASE
  2

  9
$UCSNAME
  2

  9
$UCSORG
 10
0.0
 20
0.0
 30
0.0
  9
$UCSXDIR
 10
1.0
 20
0.0
 30
0.0
  9
$UCSYDIR
 10
0.0
 20
1.0
 30
0.0
  9
$UCSORTHOREF
  2

  9
$UCSORTHOVIEW
 70
     0
  9
$UCSORGTOP
 10
0.0
 20
0.0
 30
0.0
  9
$UCSORGBOTTOM
 10
0.0
 20
0.0
 30
0.0
  9
$UCSORGLEFT
 10
0.0
 20
0.0
 30
0.0
  9
$UCSORGRIGHT
 10
0.0
 20
0.0
 30
0.0
  9
$UCSORGFRONT
 10
0.0
 20
0.0
 30
0.0
  9
$UCSORGBACK
 10
0.0
 20
0.0
 30
0.0
  9
$PUCSBASE
  2

  9
$PUCSNAME
  2

  9
$PUCSORG
 10
0.0
 20
0.0
 30
0.0
  9
$PUCSXDIR
 10
1.0
 20
0.0
 30
0.0
  9
$PUCSYDIR
 10
0.0
 20
1.0
 30
0.0
  9
$PUCSORTHOREF
  2

  9
$PUCSORTHOVIEW
 70
     0
  9
$PUCSORGTOP
 10
0.0
 20
0.0
 30
0.0
  9
$PUCSORGBOTTOM
 10
0.0
 20
0.0
 30
0.0
  9
$PUCSORGLEFT
 10
0.0
 20
0.0
 30
0.0
  9
$PUCSORGRIGHT
 10
0.0
 20
0.0
 30
0.0
  9
$PUCSORGFRONT
 10
0.0
 20
0.0
 30
0.0
  9
$PUCSORGBACK
 10
0.0
 20
0.0
 30
0.0
  9
$USERI1
 70
     0
  9
$USERI2
 70
     0
  9
$USERI3
 70
     0
  9
$USERI4
 70
     0
  9
$USERI5
 70
     0
  9
$USERR1
 40
0.0
  9
$USERR2
 40
0.0
  9
$USERR3
 40
0.0
  9
$USERR4
 40
0.0
  9
$USERR5
 40
0.0
  9
$WORLDVIEW
 70
     1
  9
$SHADEDGE
 70
     3
  9
$SHADEDIF
 70
    70
  9
$TILEMODE
 70
     1
  9
$MAXACTVP
 70
    64
  9
$PINSBASE
 10
0.0
 20
0.0
 30
0.0
  9
$PLIMCHECK
 70
     0
  9
$PEXTMIN
 10
1.000000000000000E+20
 20
1.000000000000000E+20
 30
1.000000000000000E+20
  9
$PEXTMAX
 10
-1.000000000000000E+20
 20
-1.000000000000000E+20
 30
-1.000000000000000E+20
  9
$PLIMMIN
 10
0.0
 20
0.0
  9
$PLIMMAX
 10
12.0
 20
9.0
  9
$UNITMODE
 70
     0
  9
$VISRETAIN
 70
     1
  9
$PLINEGEN
 70
     0
  9
$PSLTSCALE
 70
     1
  9
$TREEDEPTH
 70
  3020
  9
$CMLSTYLE
  2
Standard
  9
$CMLJUST
 70
     0
  9
$CMLSCALE
 40
1.0
  9
$PROXYGRAPHICS
 70
     1
  9
$MEASUREMENT
 70
     0
  9
$CELWEIGHT
370
    -1
  9
$ENDCAPS
280
     0
  9
$JOINSTYLE
280
     0
  9
$LWDISPLAY
290
     1
  9
$INSUNITS
 70
     1
  9
$HYPERLINKBASE
  1

  9
$STYLESHEET
  1

  9
$XEDIT
290
     1
  9
$CEPSNTYPE
380
     0
  9
$PSTYLEMODE
290
     1
  9
$FINGERPRINTGUID
  2
{27ABFD9F-2472-74F3-C7D8-E3C8AC40117B}
  9
$VERSIONGUID
  2
{FAEB1C32-E019-11D5-929B-00C0DF256EC4}
  9
$EXTNAMES
290
     1
  9
$PSVPSCALE
 40
0.0
  9
$OLESTARTUP
290
     0
  9
$SORTENTS
280
   127
  9
$INDEXCTL
280
     0
  9
$HIDETEXT
280
     1
  9
$XCLIPFRAME
290
     0
  9
$HALOGAP
280
     0
  9
$OBSCOLOR
 70
   257
  9
$OBSLTYPE
280
     0
  9
$INTERSECTIONDISPLAY
280
     0
  9
$INTERSECTIONCOLOR
 70
   257
  9
$DIMASSOC
280
     2
  9
$PROJECTNAME
  1

  0
ENDSEC
  0
SECTION
  2
CLASSES
  0
CLASS
  1
ACDBDICTIONARYWDFLT
  2
AcDbDictionaryWithDefault
  3
ObjectDBX Classes
 90
        0
 91
        3
280
     0
281
     0
  0
CLASS
  1
VISUALSTYLE
  2
AcDbVisualStyle
  3
ObjectDBX Classes
 90
     4095
 91
        3
280
     0
281
     0
  0
ENDSEC
  0
SECTION
  2
TABLES
  0
TABLE
  2
VPORT
  5
8
330
0
100
AcDbSymbolTable
 70
     1
  0
VPORT
  5
29
330
8
100
AcDbSymbolTableRecord
100
AcDbViewportTableRecord
  2
*Active
 70
     0
 10
0.0
 20
0.0
 11
1.0
 21
1.0
 12
0.0
 22
0.0
 13
0.0
 23
0.0
 14
0.5
 24
0.5
 15
0.5
 25
0.5
 16
0.0
 26
0.0
 36
1.0
 17
148.4999796178229
 27
209.9997571632119
 37
0.0
 40
419.9995143264238
 41
0.7071435778014196
 42
50.0
 43
0.0
 44
0.0
 50
0.0
 51
0.0
 71
     0
 72
   100
 73
     1
 74
     3
 75
     0
 76
     0
 77
     0
 78
     0
281
     0
 65
     1
110
0.0
120
0.0
130
0.0
111
1.0
121
0.0
131
0.0
112
0.0
122
1.0
132
0.0
 79
     0
146
0.0
  0
ENDTAB
  0
TABLE
  2
LTYPE
  5
5
330
0
100
AcDbSymbolTable
 70
     1
  0
LTYPE
  5
14
330
5
100
AcDbSymbolTableRecord
100
AcDbLinetypeTableRecord
  2
ByBlock
 70
     0
  3

 72
    65
 73
     0
 40
0.0
  0
LTYPE
  5
15
330
5
100
AcDbSymbolTableRecord
100
AcDbLinetypeTableRecord
  2
ByLayer
 70
     0
  3

 72
    65
 73
     0
 40
0.0
  0
LTYPE
  5
16
330
5
100
AcDbSymbolTableRecord
100
AcDbLinetypeTableRecord
  2
Continuous
 70
     0
  3
Solid line
 72
    65
 73
     0
 40
0.0
  0
ENDTAB
  0
TABLE
  2
LAYER
  5
2
330
0
100
AcDbSymbolTable
 70
     2
  0
LAYER
  5
10
330
2
100
AcDbSymbolTableRecord
100
AcDbLayerTableRecord
  2
0
 70
     0
 62
     7
  6
Continuous
370
    -3
390
F
  0
LAYER
  5
3B
330
2
100
AcDbSymbolTableRecord
100
AcDbLayerTableRecord
  2
Layer 1
 70
     0
 62
     7
  6
Continuous
370
    -3
390
F
  0
ENDTAB
  0
TABLE
  2
STYLE
  5
3
330
0
100
AcDbSymbolTable
 70
     1
  0
STYLE
  5
11
330
3
100
AcDbSymbolTableRecord
100
AcDbTextStyleTableRecord
  2
Standard
 70
     0
 40
0.0
 41
1.0
 50
0.0
 71
     0
 42
0.2
  3
txt
  4

  0
ENDTAB
  0
TABLE
  2
VIEW
  5
6
330
0
100
AcDbSymbolTable
 70
     0
  0
ENDTAB
  0
TABLE
  2
UCS
  5
7
330
0
100
AcDbSymbolTable
 70
     0
  0
ENDTAB
  0
TABLE
  2
APPID
  5
9
330
0
100
AcDbSymbolTable
 70
     1
  0
APPID
  5
12
330
9
100
AcDbSymbolTableRecord
100
AcDbRegAppTableRecord
  2
ACAD
 70
     0
  0
ENDTAB
  0
TABLE
  2
DIMSTYLE
  5
A
330
0
100
AcDbSymbolTable
 70
     1
100
AcDbDimStyleTable
  0
DIMSTYLE
105
27
330
A
100
AcDbSymbolTableRecord
100
AcDbDimStyleTableRecord
  2
Standard
 70
     0
340
11
  0
ENDTAB
  0
TABLE
  2
BLOCK_RECORD
  5
1
330
0
100
AcDbSymbolTable
 70
     2
  0
BLOCK_RECORD
  5
1F
330
1
100
AcDbSymbolTableRecord
100
AcDbBlockTableRecord
  2
*Model_Space
340
22
  0
BLOCK_RECORD
  5
1B
330
1
100
AcDbSymbolTableRecord
100
AcDbBlockTableRecord
  2
*Paper_Space
340
1E
  0
BLOCK_RECORD
  5
23
330
1
100
AcDbSymbolTableRecord
100
AcDbBlockTableRecord
  2
*Paper_Space0
340
26
  0
BLOCK_RECORD
  5
44
330
1
100
AcDbSymbolTableRecord
100
AcDbBlockTableRecord
  2
block 2
340
0
102
{BLKREFS
331
45
102
}
  0
ENDTAB
  0
ENDSEC
  0
SECTION
  2
BLOCKS
  0
BLOCK
  5
20
330
1F
100
AcDbEntity
  8
0
100
AcDbBlockBegin
  2
*Model_Space
 70
     0
 71
     0
 10
0.0
 20
0.0
 30
0.0
  3
*Model_Space
  1

  0
ENDBLK
  5
21
330
1F
100
AcDbEntity
  8
0
100
AcDbBlockEnd
  0
BLOCK
  5
1C
330
1B
100
AcDbEntity
 67
     1
  8
0
100
AcDbBlockBegin
  2
*Paper_Space
 70
     0
 71
     0
 10
0.0
 20
0.0
 30
0.0
  3
*Paper_Space
  1

  0
ENDBLK
  5
1D
330
1B
100
AcDbEntity
 67
     1
  8
0
100
AcDbBlockEnd
  0
BLOCK
  5
24
330
23
100
AcDbEntity
  8
0
100
AcDbBlockBegin
  2
*Paper_Space0
 70
     0
 71
     0
 10
0.0
 20
0.0
 30
0.0
  3
*Paper_Space0
  1

  0
ENDBLK
  5
25
330
23
100
AcDbEntity
  8
0
100
AcDbBlockEnd
  0
BLOCK
  5
46
330
44
100
AcDbEntity
  8
0
100
AcDbBlockBegin
  2
block 2
 70
     0
 71
     0
 10
0.0
 20
0.0
 30
0.0
  3
block 2
  1

  0
SPLINE
  5
48
330
44
100
AcDbEntity
  8
Layer 1
370
     0
100
AcDbSpline
210
0.0
220
0.0
230
1.0
 70
    11
 71
     3
 72
    59
 73
    55
 74
     0
 42
0.0000000001
 43
0.0000000001
 40
0.0
 40
0.0
 40
0.0
 40
0.0
 40
1.0
 40
1.0
 40
1.0
 40
2.0
 40
2.0
 40
2.0
 40
3.0
 40
3.0
 40
3.0
 40
4.0
 40
4.0
 40
4.0
 40
5.0
 40
5.0
 40
5.0
 40
6.0
 40
6.0
 40
6.0
 40
7.0
 40
7.0
 40
7.0
 40
8.0
 40
8.0
 40
8.0
 40
9.0
 40
9.0
 40
9.0
 40
10.0
 40
10.0
 40
10.0
 40
11.0
 40
11.0
 40
11.0
 40
12.0
 40
12.0
 40
12.0
 40
13.0
 40
13.0
 40
13.0
 40
14.0
 40
14.0
 40
14.0
 40
15.0
 40
15.0
 40
15.0
 40
16.0
 40
16.0
 40
16.0
 40
17.0
 40
17.0
 40
17.0
 40
18.0
 40
18.0
 40
18.0
 40
18.0
 10
128.1635809683931
 20
310.9574190845871
 30
0.0
 10
128.1635809683931
 20
313.3462482940593
 30
0.0
 10
129.6894137588103
 20
315.3733424775803
 30
0.0
 10
131.8174492400491
 20
316.1329860320779
 30
0.0
 10
130.9172457897533
 20
321.6937146548196
 30
0.0
 10
127.8969305778348
 20
326.6357041284105
 30
0.0
 10
123.5102904964662
 20
330.2668347698639
 30
0.0
 10
123.5102904964662
 20
330.2668347698639
 30
0.0
 10
120.647071638675
 20
330.3739772394551
 30
0.0
 10
120.647071638675
 20
330.3739772394551
 30
0.0
 10
120.647071638675
 20
330.3739772394551
 30
0.0
 10
118.0157077070412
 20
328.3923583163394
 30
0.0
 10
118.0157077070412
 20
328.3923583163394
 30
0.0
 10
117.2860364832653
 20
326.0886229653528
 30
0.0
 10
115.0853094872877
 20
324.41465106907
 30
0.0
 10
112.4825398481815
 20
324.41465106907
 30
0.0
 10
109.6475707733694
 20
324.41465106907
 30
0.0
 10
107.292158990104
 20
326.4028156736076
 30
0.0
 10
106.7939981829369
 20
329.0262558856254
 30
0.0
 10
106.7939981829369
 20
329.0262558856254
 30
0.0
 10
104.7107489430064
 20
330.9699787584033
 30
0.0
 10
104.7107489430064
 20
330.9699787584033
 30
0.0
 10
104.7107489430064
 20
330.9699787584033
 30
0.0
 10
88.96287297038081
 20
331.5590900863811
 30
0.0
 10
88.96287297038081
 20
331.5590900863811
 30
0.0
 10
88.96287297038081
 20
331.5590900863811
 30
0.0
 10
76.96842852893498
 20
330.6743895657689
 30
0.0
 10
76.96842852893498
 20
330.6743895657689
 30
0.0
 10
76.96842852893498
 20
330.6743895657689
 30
0.0
 10
71.06008977173151
 20
331.6689886323605
 30
0.0
 10
71.06008977173151
 20
331.6689886323605
 30
0.0
 10
64.70802271602786
 20
327.2971624615785
 30
0.0
 10
60.60732555993498
 20
320.4104165865641
 30
0.0
 10
60.60732555993498
 20
312.658951744752
 30
0.0
 10
60.60732555993498
 20
301.0517360358482
 30
0.0
 10
69.79505070954777
 20
291.3782524228152
 30
0.0
 10
81.98310951726464
 20
289.1981959997491
 30
0.0
 10
81.98310951726464
 20
289.1981959997491
 30
0.0
 10
82.61287297196832
 20
291.2807562205826
 30
0.0
 10
82.61287297196832
 20
291.2807562205826
 30
0.0
 10
82.61287297196832
 20
291.2807562205826
 30
0.0
 10
95.56057533418277
 20
290.5059542459499
 30
0.0
 10
95.56057533418277
 20
290.5059542459499
 30
0.0
 10
96.12384844602113
 20
289.5175563512317
 30
0.0
 10
97.15427650565935
 20
288.8202690250172
 30
0.0
 10
98.37418481698631
 20
288.73551967608
 30
0.0
 10
98.37418481698631
 20
288.73551967608
 30
0.0
 10
105.5155232483607
 20
288.73551967608
 30
0.0
 10
105.5155232483607
 20
288.73551967608
 30
0.0
 10
117.6715426680648
 20
288.73551967608
 30
0.0
 10
127.914156055261
 20
296.078051683793
 30
0.0
 10
131.0839884112394
 20
306.1008679790303
 30
0.0
 10
129.3469712675765
 20
307.0255316072714
 30
0.0
 10
128.1635809683931
 20
308.8524657430994
 30
0.0
 10
128.1635809683931
 20
310.9574190845871
 30
0.0
  0
ENDBLK
  5
47
330
44
100
AcDbEntity
  8
0
100
AcDbBlockEnd
  0
ENDSEC
  0
SECTION
  2
ENTITIES
  0
SPLINE
  5
3C
330
1F
100
AcDbEntity
  8
Layer 1
370
     0
100
AcDbSpline
210
0.0
220
0.0
230
1.0
 70
    11
 71
     3
 72
    17
 73
    13
 74
     0
 42
0.0000000001
 43
0.0000000001
 40
0.0
 40
0.0
 40
0.0
 40
0.0
 40
1.0
 40
1.0
 40
1.0
 40
2.0
 40
2.0
 40
2.0
 40
3.0
 40
3.0
 40
3.0
 40
4.0
 40
4.0
 40
4.0
 40
4.0
 10
89.32994789433418
 20
377.4501735167486
 30
0.0
 10
89.32994789433418
 20
369.1660969129168
 30
0.0
 10
82.61407875538815
 20
362.4502277739708
 30
0.0
 10
74.33000215155639
 20
362.4502277739708
 30
0.0
 10
66.04592554772464
 20
362.4502277739708
 30
0.0
 10
59.32988415400434
 20
369.1660969129168
 30
0.0
 10
59.32988415400434
 20
377.4501735167486
 30
0.0
 10
59.32988415400434
 20
385.7342501205803
 30
0.0
 10
66.04592554772464
 20
392.4501192595264
 30
0.0
 10
74.33000215155639
 20
392.4501192595264
 30
0.0
 10
82.61407875538815
 20
392.4501192595264
 30
0.0
 10
89.32994789433418
 20
385.7342501205803
 30
0.0
 10
89.32994789433418
 20
377.4501735167486
 30
0.0
  0
SPLINE
  5
3D
330
1F
100
AcDbEntity
  8
Layer 1
370
     0
100
AcDbSpline
210
0.0
220
0.0
230
1.0
 70
    11
 71
     3
 72
   128
 73
   124
 74
     0
 42
0.0000000001
 43
0.0000000001
 40
0.0
 40
0.0
 40
0.0
 40
0.0
 40
1.0
 40
1.0
 40
1.0
 40
2.0
 40
2.0
 40
2.0
 40
3.0
 40
3.0
 40
3.0
 40
4.0
 40
4.0
 40
4.0
 40
5.0
 40
5.0
 40
5.0
 40
6.0
 40
6.0
 40
6.0
 40
7.0
 40
7.0
 40
7.0
 40
8.0
 40
8.0
 40
8.0
 40
9.0
 40
9.0
 40
9.0
 40
10.0
 40
10.0
 40
10.0
 40
11.0
 40
11.0
 40
11.0
 40
12.0
 40
12.0
 40
12.0
 40
13.0
 40
13.0
 40
13.0
 40
14.0
 40
14.0
 40
14.0
 40
15.0
 40
15.0
 40
15.0
 40
16.0
 40
16.0
 40
16.0
 40
17.0
 40
17.0
 40
17.0
 40
18.0
 40
18.0
 40
18.0
 40
19.0
 40
19.0
 40
19.0
 40
20.0
 40
20.0
 40
20.0
 40
21.0
 40
21.0
 40
21.0
 40
22.0
 40
22.0
 40
22.0
 40
23.0
 40
23.0
 40
23.0
 40
24.0
 40
24.0
 40
24.0
 40
25.0
 40
25.0
 40
25.0
 40
26.0
 40
26.0
 40
26.0
 40
27.0
 40
27.0
 40
27.0
 40
28.0
 40
28.0
 40
28.0
 40
29.0
 40
29.0
 40
29.0
 40
30.0
 40
30.0
 40
30.0
 40
31.0
 40
31.0
 40
31.0
 40
32.0
 40
32.0
 40
32.0
 40
33.0
 40
33.0
 40
33.0
 40
34.0
 40
34.0
 40
34.0
 40
35.0
 40
35.0
 40
35.0
 40
36.0
 40
36.0
 40
36.0
 40
37.0
 40
37.0
 40
37.0
 40
38.0
 40
38.0
 40
38.0
 40
39.0
 40
39.0
 40
39.0
 40
40.0
 40
40.0
 40
40.0
 40
41.0
 40
41.0
 40
41.0
 40
41.0
 10
145.7526882231105
 20
350.2776718959375
 30
0.0
 10
145.7526882231105
 20
350.2776718959375
 30
0.0
 10
143.7703802808977
 20
354.4972248462715
 30
0.0
 10
143.7703802808977
 20
354.4972248462715
 30
0.0
 10
143.7703802808977
 20
354.4972248462715
 30
0.0
 10
144.7277723162486
 20
367.4063421390512
 30
0.0
 10
144.7277723162486
 20
367.4063421390512
 30
0.0
 10
145.1218912397612
 20
368.2372991700935
 30
0.0
 10
145.4688123551259
 20
369.0958169650177
 30
0.0
 10
145.7526882231105
 20
369.982584542921
 30
0.0
 10
145.7526882231105
 20
369.982584542921
 30
0.0
 10
145.7526882231105
 20
381.2273762067765
 30
0.0
 10
145.7526882231105
 20
381.2273762067765
 30
0.0
 10
145.7526882231105
 20
381.2273762067765
 30
0.0
 10
146.7407416082801
 20
394.5509384864317
 30
0.0
 10
146.7407416082801
 20
394.5509384864317
 30
0.0
 10
146.7579670857064
 20
394.6818521148712
 30
0.0
 10
146.7703694294532
 20
394.8148328006019
 30
0.0
 10
146.7703694294532
 20
394.9498805436236
 30
0.0
 10
146.7703694294532
 20
396.6069714720288
 30
0.0
 10
145.4267821902058
 20
397.9498696921792
 30
0.0
 10
143.7696912618006
 20
397.9498696921792
 30
0.0
 10
143.5030408712423
 20
397.9498696921792
 30
0.0
 10
143.2467257671397
 20
397.9119736418415
 30
0.0
 10
143.0007459494929
 20
397.8472058467188
 30
0.0
 10
143.0007459494929
 20
397.8472058467188
 30
0.0
 10
132.1624755528969
 20
396.3919975137492
 30
0.0
 10
132.1624755528969
 20
396.3919975137492
 30
0.0
 10
132.1624755528969
 20
396.3919975137492
 30
0.0
 10
126.0584553721312
 20
396.4181802394372
 30
0.0
 10
126.0584553721312
 20
396.4181802394372
 30
0.0
 10
125.9595811317046
 20
396.4388508123486
 30
0.0
 10
125.8572617957926
 20
396.4498751179015
 30
0.0
 10
125.7521863834925
 20
396.4498751179015
 30
0.0
 10
125.6533121430658
 20
396.4498751179015
 30
0.0
 10
125.5575384885759
 20
396.4395398314457
 30
0.0
 10
125.4638318913771
 20
396.4209363158253
 30
0.0
 10
125.4638318913771
 20
396.4209363158253
 30
0.0
 10
118.8316785727226
 20
396.4498751179015
 30
0.0
 10
118.8316785727226
 20
396.4498751179015
 30
0.0
 10
118.8316785727226
 20
396.4498751179015
 30
0.0
 10
78.73248967215716
 20
397.9498696921792
 30
0.0
 10
78.73248967215716
 20
397.9498696921792
 30
0.0
 10
78.73248967215716
 20
397.9498696921792
 30
0.0
 10
66.73804523071132
 20
397.065169171567
 30
0.0
 10
66.73804523071132
 20
397.065169171567
 30
0.0
 10
66.73804523071132
 20
397.065169171567
 30
0.0
 10
43.68983967006712
 20
400.9457247261525
 30
0.0
 10
43.68983967006712
 20
400.9457247261525
 30
0.0
 10
43.68983967006712
 20
400.9457247261525
 30
0.0
 10
32.67414685598077
 20
405.2576062354912
 30
0.0
 10
32.67414685598077
 20
405.2576062354912
 30
0.0
 10
32.26194118117063
 20
405.4712021555766
 30
0.0
 10
31.79495848814501
 20
405.5938475548515
 30
0.0
 10
31.29869248349477
 20
405.5938475548515
 30
0.0
 10
30.20211859053975
 20
405.5938475548515
 30
0.0
 10
29.04249945020466
 20
405.1763019820393
 30
0.0
 10
28.51936170076947
 20
404.2978026333006
 30
0.0
 10
28.51936170076947
 20
404.2978026333006
 30
0.0
 10
28.29939235403626
 20
404.0029024597632
 30
0.0
 10
28.29939235403626
 20
404.0029024597632
 30
0.0
 10
28.29939235403626
 20
404.0029024597632
 30
0.0
 10
21.36114230151735
 20
393.8302245109174
 30
0.0
 10
21.36114230151735
 20
393.8302245109174
 30
0.0
 10
20.94652505986754
 20
393.3155272454212
 30
0.0
 10
20.69710014673545
 20
392.6623371414178
 30
0.0
 10
20.69710014673545
 20
391.9498913950681
 30
0.0
 10
20.69710014673545
 20
390.29348948576
 30
0.0
 10
22.03999836688584
 20
388.9499022465125
 30
0.0
 10
23.69640027619396
 20
388.9499022465125
 30
0.0
 10
23.69640027619396
 20
388.9499022465125
 30
0.0
 10
37.57290038123178
 20
388.9499022465125
 30
0.0
 10
37.57290038123178
 20
388.9499022465125
 30
0.0
 10
37.57290038123178
 20
388.9499022465125
 30
0.0
 10
55.08966063075884
 20
360.6980522101727
 30
0.0
 10
55.08966063075884
 20
360.6980522101727
 30
0.0
 10
55.30549586290974
 20
359.253179163659
 30
0.0
 10
56.54779729489083
 20
358.1438584174085
 30
0.0
 10
58.05227049329943
 20
358.1438584174085
 30
0.0
 10
58.05227049329943
 20
358.1438584174085
 30
0.0
 10
62.56000568097458
 20
356.3913383440619
 30
0.0
 10
62.56000568097458
 20
356.3913383440619
 30
0.0
 10
62.56000568097458
 20
356.3913383440619
 30
0.0
 10
62.56000568097458
 20
345.030791471902
 30
0.0
 10
62.56000568097458
 20
345.030791471902
 30
0.0
 10
62.56000568097458
 20
343.3737005434969
 30
0.0
 10
63.90273164635071
 20
342.0308023233465
 30
0.0
 10
65.55913355565883
 20
342.0308023233465
 30
0.0
 10
67.216224484064
 20
342.0308023233465
 30
0.0
 10
68.55981172331144
 20
343.3737005434969
 30
0.0
 10
68.55981172331144
 20
345.030791471902
 30
0.0
 10
68.55981172331144
 20
345.030791471902
 30
0.0
 10
72.38248967374466
 20
357.6718803359292
 30
0.0
 10
72.38248967374466
 20
357.6718803359292
 30
0.0
 10
72.38248967374466
 20
357.6718803359292
 30
0.0
 10
113.6571451538774
 20
355.2014023634566
 30
0.0
 10
113.6571451538774
 20
355.2014023634566
 30
0.0
 10
113.8466254055661
 20
355.1641953322159
 30
0.0
 10
114.0423068291283
 20
355.1435247593044
 30
0.0
 10
114.2428113863699
 20
355.1435247593044
 30
0.0
 10
114.589387992186
 20
355.1435247593044
 30
0.0
 10
114.9214951969641
 20
355.2055364780389
 30
0.0
 10
115.2315537906366
 20
355.3137124762758
 30
0.0
 10
115.2315537906366
 20
355.3137124762758
 30
0.0
 10
118.9305528131493
 20
356.5374103926365
 30
0.0
 10
118.9305528131493
 20
356.5374103926365
 30
0.0
 10
119.0687011421078
 20
356.48986807494
 30
0.0
 10
119.2034043755811
 20
356.4361245853701
 30
0.0
 10
119.3429307427337
 20
356.3913383440619
 30
0.0
 10
119.3429307427337
 20
356.3913383440619
 30
0.0
 10
126.3943521819431
 20
356.3913383440619
 30
0.0
 10
126.3943521819431
 20
356.3913383440619
 30
0.0
 10
126.3943521819431
 20
356.3913383440619
 30
0.0
 10
140.7703911323421
 20
346.7361137371007
 30
0.0
 10
140.7703911323421
 20
346.7361137371007
 30
0.0
 10
141.4549316052613
 20
345.8197183380242
 30
0.0
 10
142.5149874860726
 20
345.030791471902
 30
0.0
 10
143.7696912618006
 20
345.030791471902
 30
0.0
 10
145.4267821902058
 20
345.030791471902
 30
0.0
 10
146.7703694294532
 20
346.3736896920524
 30
0.0
 10
146.7703694294532
 20
348.0307806204576
 30
0.0
 10
146.7703694294532
 20
348.9265054466226
 30
0.0
 10
146.3752169772951
 20
349.7285236755887
 30
0.0
 10
145.7526882231105
 20
350.2776718959375
 30
0.0
  0
SPLINE
  5
3E
330
1F
100
AcDbEntity
  8
Layer 1
370
     0
100
AcDbSpline
210
0.0
220
0.0
230
1.0
 70
    11
 71
     3
 72
    17
 73
    13
 74
     0
 42
0.0000000001
 43
0.0000000001
 40
0.0
 40
0.0
 40
0.0
 40
0.0
 40
1.0
 40
1.0
 40
1.0
 40
2.0
 40
2.0
 40
2.0
 40
3.0
 40
3.0
 40
3.0
 40
4.0
 40
4.0
 40
4.0
 40
4.0
 10
143.2753200596673
 20
349.9049125644335
 30
0.0
 10
143.2753200596673
 20
349.0763671002309
 30
0.0
 10
142.6035264400436
 20
348.4049179901558
 30
0.0
 10
141.7753254853895
 20
348.4049179901558
 30
0.0
 10
140.9467800211869
 20
348.4049179901558
 30
0.0
 10
140.2753309111117
 20
349.0763671002309
 30
0.0
 10
140.2753309111117
 20
349.9049125644335
 30
0.0
 10
140.2753309111117
 20
350.7331135190876
 30
0.0
 10
140.9467800211869
 20
351.4049071387113
 30
0.0
 10
141.7753254853895
 20
351.4049071387113
 30
0.0
 10
142.6035264400436
 20
351.4049071387113
 30
0.0
 10
143.2753200596673
 20
350.7331135190876
 30
0.0
 10
143.2753200596673
 20
349.9049125644335
 30
0.0
  0
SPLINE
  5
3F
330
1F
100
AcDbEntity
  8
Layer 1
370
     0
100
AcDbSpline
210
0.0
220
0.0
230
1.0
 70
    11
 71
     3
 72
    17
 73
    13
 74
     0
 42
0.0000000001
 43
0.0000000001
 40
0.0
 40
0.0
 40
0.0
 40
0.0
 40
1.0
 40
1.0
 40
1.0
 40
2.0
 40
2.0
 40
2.0
 40
3.0
 40
3.0
 40
3.0
 40
4.0
 40
4.0
 40
4.0
 40
4.0
 10
67.13319768286948
 20
348.4049179901558
 30
0.0
 10
67.13319768286948
 20
347.5763725259532
 30
0.0
 10
66.46140406324577
 20
346.9049234158779
 30
0.0
 10
65.6332031085917
 20
346.9049234158779
 30
0.0
 10
64.80500215393764
 20
346.9049234158779
 30
0.0
 10
64.13320853431392
 20
347.5763725259532
 30
0.0
 10
64.13320853431392
 20
348.4049179901558
 30
0.0
 10
64.13320853431392
 20
349.2331189448098
 30
0.0
 10
64.80500215393764
 20
349.9049125644335
 30
0.0
 10
65.6332031085917
 20
349.9049125644335
 30
0.0
 10
66.46140406324577
 20
349.9049125644335
 30
0.0
 10
67.13319768286948
 20
349.2331189448098
 30
0.0
 10
67.13319768286948
 20
348.4049179901558
 30
0.0
  0
SPLINE
  5
40
330
1F
100
AcDbEntity
  8
Layer 1
370
     0
100
AcDbSpline
210
0.0
220
0.0
230
1.0
 70
    11
 71
     3
 72
    17
 73
    13
 74
     0
 42
0.0000000001
 43
0.0000000001
 40
0.0
 40
0.0
 40
0.0
 40
0.0
 40
1.0
 40
1.0
 40
1.0
 40
2.0
 40
2.0
 40
2.0
 40
3.0
 40
3.0
 40
3.0
 40
4.0
 40
4.0
 40
4.0
 40
4.0
 10
46.13189560478647
 20
381.4623317188705
 30
0.0
 10
46.13189560478647
 20
380.6341307642165
 30
0.0
 10
45.46010198516275
 20
379.9623371445928
 30
0.0
 10
44.63190103050869
 20
379.9623371445928
 30
0.0
 10
43.80301105675758
 20
379.9623371445928
 30
0.0
 10
43.13190645623092
 20
380.6341307642165
 30
0.0
 10
43.13190645623092
 20
381.4623317188705
 30
0.0
 10
43.13190645623092
 20
382.2908771830731
 30
0.0
 10
43.80301105675758
 20
382.9623262931484
 30
0.0
 10
44.63190103050869
 20
382.9623262931484
 30
0.0
 10
45.46010198516275
 20
382.9623262931484
 30
0.0
 10
46.13189560478647
 20
382.2908771830731
 30
0.0
 10
46.13189560478647
 20
381.4623317188705
 30
0.0
  0
SPLINE
  5
41
330
1F
100
AcDbEntity
  8
Layer 1
370
     0
100
AcDbSpline
210
0.0
220
0.0
230
1.0
 70
    11
 71
     3
 72
    17
 73
    13
 74
     0
 42
0.0000000001
 43
0.0000000001
 40
0.0
 40
0.0
 40
0.0
 40
0.0
 40
1.0
 40
1.0
 40
1.0
 40
2.0
 40
2.0
 40
2.0
 40
3.0
 40
3.0
 40
3.0
 40
4.0
 40
4.0
 40
4.0
 40
4.0
 10
103.5254638413061
 20
394.3028916114937
 30
0.0
 10
103.5254638413061
 20
393.4743461472912
 30
0.0
 10
102.8536702216824
 20
392.802897037216
 30
0.0
 10
102.0254692670284
 20
392.802897037216
 30
0.0
 10
101.1965792932773
 20
392.802897037216
 30
0.0
 10
100.5254746927506
 20
393.4743461472912
 30
0.0
 10
100.5254746927506
 20
394.3028916114937
 30
0.0
 10
100.5254746927506
 20
395.1310925661478
 30
0.0
 10
101.1965792932773
 20
395.8028861857715
 30
0.0
 10
102.0254692670284
 20
395.8028861857715
 30
0.0
 10
102.8536702216824
 20
395.8028861857715
 30
0.0
 10
103.5254638413061
 20
395.1310925661478
 30
0.0
 10
103.5254638413061
 20
394.3028916114937
 30
0.0
  0
SPLINE
  5
42
330
1F
100
AcDbEntity
  8
Layer 1
370
     0
100
AcDbSpline
210
0.0
220
0.0
230
1.0
 70
    11
 71
     3
 72
    17
 73
    13
 74
     0
 42
0.0000000001
 43
0.0000000001
 40
0.0
 40
0.0
 40
0.0
 40
0.0
 40
1.0
 40
1.0
 40
1.0
 40
2.0
 40
2.0
 40
2.0
 40
3.0
 40
3.0
 40
3.0
 40
4.0
 40
4.0
 40
4.0
 40
4.0
 10
53.05946586130111
 20
397.3028807600493
 30
0.0
 10
53.05946586130111
 20
396.4743352958467
 30
0.0
 10
52.38767224167739
 20
395.8028861857715
 30
0.0
 10
51.55947128702333
 20
395.8028861857715
 30
0.0
 10
50.73058131327222
 20
395.8028861857715
 30
0.0
 10
50.05947671274555
 20
396.4743352958467
 30
0.0
 10
50.05947671274555
 20
397.3028807600493
 30
0.0
 10
50.05947671274555
 20
398.1310817147034
 30
0.0
 10
50.73058131327222
 20
398.8028753343271
 30
0.0
 10
51.55947128702333
 20
398.8028753343271
 30
0.0
 10
52.38767224167739
 20
398.8028753343271
 30
0.0
 10
53.05946586130111
 20
398.1310817147034
 30
0.0
 10
53.05946586130111
 20
397.3028807600493
 30
0.0
  0
SPLINE
  5
43
330
1F
100
AcDbEntity
  8
Layer 1
370
     0
100
AcDbSpline
210
0.0
220
0.0
230
1.0
 70
    11
 71
     3
 72
    17
 73
    13
 74
     0
 42
0.0000000001
 43
0.0000000001
 40
0.0
 40
0.0
 40
0.0
 40
0.0
 40
1.0
 40
1.0
 40
1.0
 40
2.0
 40
2.0
 40
2.0
 40
3.0
 40
3.0
 40
3.0
 40
4.0
 40
4.0
 40
4.0
 40
4.0
 10
102.0604369862036
 20
310.9515624222621
 30
0.0
 10
102.0604369862036
 20
301.2866915479422
 30
0.0
 10
94.22560083364847
 20
293.4515108858385
 30
0.0
 10
84.56004094023152
 20
293.4515108858385
 30
0.0
 10
74.89517006591163
 20
293.4515108858385
 30
0.0
 10
67.06067842290497
 20
301.2866915479422
 30
0.0
 10
67.06067842290497
 20
310.9515624222621
 30
0.0
 10
67.06067842290497
 20
320.616433296582
 30
0.0
 10
74.89517006591163
 20
328.4512694491372
 30
0.0
 10
84.56004094023152
 20
328.4512694491372
 30
0.0
 10
94.22560083364847
 20
328.4512694491372
 30
0.0
 10
102.0604369862036
 20
320.616433296582
 30
0.0
 10
102.0604369862036
 20
310.9515624222621
 30
0.0
  0
INSERT
  5
45
330
1F
100
AcDbEntity
  8
Layer 1
100
AcDbBlockReference
  2
block 2
 10
0.0
 20
0.0
 30
0.0
  0
SPLINE
  5
49
330
1F
100
AcDbEntity
  8
Layer 1
370
     0
100
AcDbSpline
210
0.0
220
0.0
230
1.0
 70
    11
 71
     3
 72
    17
 73
    13
 74
     0
 42
0.0000000001
 43
0.0000000001
 40
0.0
 40
0.0
 40
0.0
 40
0.0
 40
1.0
 40
1.0
 40
1.0
 40
2.0
 40
2.0
 40
2.0
 40
3.0
 40
3.0
 40
3.0
 40
4.0
 40
4.0
 40
4.0
 40
4.0
 10
117.9133883711293
 20
377.4432833257781
 30
0.0
 10
117.9133883711293
 20
380.4804795055744
 30
0.0
 10
120.3759426239859
 20
382.9430337584309
 30
0.0
 10
123.4134833133307
 20
382.9430337584309
 30
0.0
 10
126.4510240026754
 20
382.9430337584309
 30
0.0
 10
128.9134060007578
 20
380.4804795055744
 30
0.0
 10
128.9134060007578
 20
377.4432833257781
 30
0.0
 10
128.9134060007578
 20
374.4053981268848
 30
0.0
 10
126.4510240026754
 20
371.9431883835767
 30
0.0
 10
123.4134833133307
 20
371.9431883835767
 30
0.0
 10
120.3759426239859
 20
371.9431883835767
 30
0.0
 10
117.9133883711293
 20
374.4053981268848
 30
0.0
 10
117.9133883711293
 20
377.4432833257781
 30
0.0
  0
ENDSEC
  0
SECTION
  2
OBJECTS
  0
DICTIONARY
  5
C
330
0
100
AcDbDictionary
281
     1
  3
ACAD_GROUP
350
D
  3
ACAD_LAYOUT
350
1A
  3
ACAD_MLINESTYLE
350
17
  3
ACAD_PLOTSETTINGS
350
19
  3
ACAD_PLOTSTYLENAME
350
E
  3
ACAD_TABLESTYLE
350
4A
  3
ACAD_VISUALSTYLE
350
2A
  0
DICTIONARY
  5
D
102
{ACAD_REACTORS
330
C
102
}
330
C
100
AcDbDictionary
281
     1
  0
DICTIONARY
  5
1A
102
{ACAD_REACTORS
330
C
102
}
330
C
100
AcDbDictionary
281
     1
  3
Layout1
350
1E
  3
Layout2
350
26
  3
Model
350
22
  0
DICTIONARY
  5
17
102
{ACAD_REACTORS
330
C
102
}
330
C
100
AcDbDictionary
281
     1
  3
Standard
350
18
  0
DICTIONARY
  5
19
102
{ACAD_REACTORS
330
C
102
}
330
C
100
AcDbDictionary
281
     1
  0
ACDBDICTIONARYWDFLT
  5
E
102
{ACAD_REACTORS
330
C
102
}
330
C
100
AcDbDictionary
281
     1
  3
Normal
350
F
100
AcDbDictionaryWithDefault
340
F
  0
DICTIONARY
  5
4A
102
{ACAD_REACTORS
330
C
102
}
330
C
100
AcDbDictionary
281
     1
  0
DICTIONARY
  5
2A
102
{ACAD_REACTORS
330
C
102
}
330
C
100
AcDbDictionary
281
     1
  3
2dWireframe
350
2F
  3
3D Hidden
350
31
  3
3dWireframe
350
30
  3
Basic
350
32
  3
Brighten
350
36
  3
ColorChange
350
3A
  3
Conceptual
350
34
  3
Dim
350
35
  3
Facepattern
350
39
  3
Flat
350
2B
  3
FlatWithEdges
350
2C
  3
Gouraud
350
2D
  3
GouraudWithEdges
350
2E
  3
Linepattern
350
38
  3
Realistic
350
33
  3
Thicken
350
37
  0
LAYOUT
  5
1E
102
{ACAD_REACTORS
330
1A
102
}
330
1A
100
AcDbPlotSettings
  1

  2
none_device
  4

  6

 40
0.0
 41
0.0
 42
0.0
 43
0.0
 44
0.0
 45
0.0
 46
0.0
 47
0.0
 48
0.0
 49
0.0
140
0.0
141
0.0
142
1.0
143
1.0
 70
   688
 72
     0
 73
     0
 74
     5
  7

 75
    16
 76
     0
 77
     2
 78
   300
147
1.0
148
0.0
149
0.0
100
AcDbLayout
  1
Layout1
 70
     1
 71
     1
 10
0.0
 20
0.0
 11
12.0
 21
9.0
 12
0.0
 22
0.0
 32
0.0
 14
1.000000000000000E+20
 24
1.000000000000000E+20
 34
1.000000000000000E+20
 15
-1.000000000000000E+20
 25
-1.000000000000000E+20
 35
-1.000000000000000E+20
146
0.0
 13
0.0
 23
0.0
 33
0.0
 16
1.0
 26
0.0
 36
0.0
 17
0.0
 27
1.0
 37
0.0
 76
     0
330
1B
  0
LAYOUT
  5
26
102
{ACAD_REACTORS
330
1A
102
}
330
1A
100
AcDbPlotSettings
  1

  2
none_device
  4

  6

 40
0.0
 41
0.0
 42
0.0
 43
0.0
 44
0.0
 45
0.0
 46
0.0
 47
0.0
 48
0.0
 49
0.0
140
0.0
141
0.0
142
1.0
143
1.0
 70
   688
 72
     0
 73
     0
 74
     5
  7

 75
    16
 76
     0
 77
     2
 78
   300
147
1.0
148
0.0
149
0.0
100
AcDbLayout
  1
Layout2
 70
     1
 71
     2
 10
0.0
 20
0.0
 11
0.0
 21
0.0
 12
0.0
 22
0.0
 32
0.0
 14
0.0
 24
0.0
 34
0.0
 15
0.0
 25
0.0
 35
0.0
146
0.0
 13
0.0
 23
0.0
 33
0.0
 16
1.0
 26
0.0
 36
0.0
 17
0.0
 27
1.0
 37
0.0
 76
     0
330
23
  0
LAYOUT
  5
22
102
{ACAD_REACTORS
330
1A
102
}
330
1A
100
AcDbPlotSettings
  1

  2
none_device
  4

  6

 40
0.0
 41
0.0
 42
0.0
 43
0.0
 44
0.0
 45
0.0
 46
0.0
 47
0.0
 48
0.0
 49
0.0
140
0.0
141
0.0
142
1.0
143
1.0
 70
  1712
 72
     0
 73
     0
 74
     0
  7

 75
     0
 76
     0
 77
     2
 78
   300
147
1.0
148
0.0
149
0.0
100
AcDbLayout
  1
Model
 70
     1
 71
     0
 10
0.0
 20
0.0
 11
12.0
 21
9.0
 12
0.0
 22
0.0
 32
0.0
 14
1.000000000000000E+20
 24
1.000000000000000E+20
 34
1.000000000000000E+20
 15
-1.000000000000000E+20
 25
-1.000000000000000E+20
 35
-1.000000000000000E+20
146
0.0
 13
0.0
 23
0.0
 33
0.0
 16
1.0
 26
0.0
 36
0.0
 17
0.0
 27
1.0
 37
0.0
 76
     0
330
1F
331
29
  0
MLINESTYLE
  5
18
102
{ACAD_REACTORS
330
17
102
}
330
17
100
AcDbMlineStyle
  2
Standard
 70
     0
  3

 62
   256
 51
90.0
 52
90.0
 71
     2
 49
0.5
 62
   256
  6
BYLAYER
 49
-0.5
 62
   256
  6
BYLAYER
  0
ACDBPLACEHOLDER
  5
F
102
{ACAD_REACTORS
330
E
102
}
330
E
  0
VISUALSTYLE
  5
2F
102
{ACAD_REACTORS
330
2A
102
}
330
2A
100
AcDbVisualStyle
  2
2dWireframe
 70
     4
 71
     0
 72
     2
 73
     0
 90
        0
 40
-0.6
 41
-30.0
 62
     5
 63
     7
421
 16777215
 74
     1
 91
        4
 64
     7
 65
   257
 75
     1
175
     1
 42
1.0
 92
        0
 66
   257
 43
1.0
 76
     1
 77
     6
 78
     2
 67
     7
 79
     5
170
     0
171
     0
290
     0
174
     0
 93
        1
 44
0.0
173
     0
291
     0
 45
0.0
1001
ACAD
1000
AcDbSavedByObjectVersion
1070
     0
  0
VISUALSTYLE
  5
31
102
{ACAD_REACTORS
330
2A
102
}
330
2A
100
AcDbVisualStyle
  2
3D Hidden
 70
     6
 71
     1
 72
     2
 73
     2
 90
        0
 40
-0.6
 41
-30.0
 62
     5
 63
     7
421
 16777215
 74
     2
 91
        2
 64
     7
 65
   257
 75
     2
175
     1
 42
40.0
 92
        0
 66
   257
 43
1.0
 76
     1
 77
     6
 78
     2
 67
     7
 79
     3
170
     0
171
     0
290
     0
174
     0
 93
        1
 44
0.0
173
     0
291
     0
 45
0.0
1001
ACAD
1000
AcDbSavedByObjectVersion
1070
     0
  0
VISUALSTYLE
  5
30
102
{ACAD_REACTORS
330
2A
102
}
330
2A
100
AcDbVisualStyle
  2
3dWireframe
 70
     5
 71
     0
 72
     2
 73
     0
 90
        0
 40
-0.6
 41
-30.0
 62
     5
 63
     7
421
 16777215
 74
     1
 91
        4
 64
     7
 65
   257
 75
     1
175
     1
 42
1.0
 92
        0
 66
   257
 43
1.0
 76
     1
 77
     6
 78
     2
 67
     7
 79
     5
170
     0
171
     0
290
     0
174
     0
 93
        1
 44
0.0
173
     0
291
     0
 45
0.0
1001
ACAD
1000
AcDbSavedByObjectVersion
1070
     0
  0
VISUALSTYLE
  5
32
102
{ACAD_REACTORS
330
2A
102
}
330
2A
100
AcDbVisualStyle
  2
Basic
 70
     7
 71
     1
 72
     0
 73
     1
 90
        0
 40
-0.6
 41
-30.0
 62
     5
 63
     7
421
 16777215
 74
     0
 91
        4
 64
     7
 65
   257
 75
     1
175
     1
 42
1.0
 92
        8
 66
     7
 43
1.0
 76
     1
 77
     6
 78
     2
 67
     7
 79
     5
170
     0
171
     0
290
     0
174
     0
 93
        1
 44
0.0
173
     0
291
     1
 45
0.0
1001
ACAD
1000
AcDbSavedByObjectVersion
1070
     0
  0
VISUALSTYLE
  5
36
102
{ACAD_REACTORS
330
2A
102
}
330
2A
100
AcDbVisualStyle
  2
Brighten
 70
    12
 71
     2
 72
     2
 73
     0
 90
        0
 40
-0.6
 41
-30.0
 62
     5
 63
     7
421
 16777215
 74
     1
 91
        4
 64
     7
 65
   257
 75
     1
175
     1
 42
1.0
 92
        8
 66
     7
 43
1.0
 76
     1
 77
     6
 78
     2
 67
     7
 79
     5
170
     0
171
     0
290
     0
174
     0
 93
        1
 44
50.0
173
     0
291
     1
 45
0.0
1001
ACAD
1000
AcDbSavedByObjectVersion
1070
     0
  0
VISUALSTYLE
  5
3A
102
{ACAD_REACTORS
330
2A
102
}
330
2A
100
AcDbVisualStyle
  2
ColorChange
 70
    16
 71
     2
 72
     2
 73
     3
 90
        0
 40
-0.6
 41
-30.0
 62
     5
 63
     8
421
  8421504
 74
     1
 91
        4
 64
     7
 65
   257
 75
     1
175
     1
 42
1.0
 92
        8
 66
     8
424
  8421504
 43
1.0
 76
     1
 77
     6
 78
     2
 67
     7
 79
     5
170
     0
171
     0
290
     0
174
     0
 93
        1
 44
0.0
173
     0
291
     1
 45
0.0
1001
ACAD
1000
AcDbSavedByObjectVersion
1070
     0
  0
VISUALSTYLE
  5
34
102
{ACAD_REACTORS
330
2A
102
}
330
2A
100
AcDbVisualStyle
  2
Conceptual
 70
     9
 71
     3
 72
     2
 73
     0
 90
        0
 40
-0.6
 41
-30.0
 62
     5
 63
     7
421
 16777215
 74
     2
 91
        2
 64
     7
 65
   257
 75
     1
175
     1
 42
40.0
 92
        8
 66
     7
 43
1.0
 76
     1
 77
     6
 78
     2
 67
     7
 79
     3
170
     0
171
     0
290
     0
174
     0
 93
        1
 44
0.0
173
     0
291
     0
 45
0.0
1001
ACAD
1000
AcDbSavedByObjectVersion
1070
     0
  0
VISUALSTYLE
  5
35
102
{ACAD_REACTORS
330
2A
102
}
330
2A
100
AcDbVisualStyle
  2
Dim
 70
    11
 71
     2
 72
     2
 73
     0
 90
        0
 40
-0.6
 41
-30.0
 62
     5
 63
     7
421
 16777215
 74
     1
 91
        4
 64
     7
 65
   257
 75
     1
175
     1
 42
1.0
 92
        8
 66
     7
 43
1.0
 76
     1
 77
     6
 78
     2
 67
     7
 79
     5
170
     0
171
     0
290
     0
174
     0
 93
        1
 44
-50.0
173
     0
291
     1
 45
0.0
1001
ACAD
1000
AcDbSavedByObjectVersion
1070
     0
  0
VISUALSTYLE
  5
39
102
{ACAD_REACTORS
330
2A
102
}
330
2A
100
AcDbVisualStyle
  2
Facepattern
 70
    15
 71
     2
 72
     2
 73
     0
 90
        0
 40
-0.6
 41
-30.0
 62
     5
 63
     7
421
 16777215
 74
     1
 91
        4
 64
     7
 65
   257
 75
     1
175
     1
 42
1.0
 92
        8
 66
     7
 43
1.0
 76
     1
 77
     6
 78
     2
 67
     7
 79
     5
170
     0
171
     0
290
     0
174
     0
 93
        1
 44
0.0
173
     0
291
     1
 45
0.0
1001
ACAD
1000
AcDbSavedByObjectVersion
1070
     0
  0
VISUALSTYLE
  5
2B
102
{ACAD_REACTORS
330
2A
102
}
330
2A
100
AcDbVisualStyle
  2
Flat
 70
     0
 71
     2
 72
     1
 73
     1
 90
        2
 40
-0.6
 41
30.0
 62
     5
 63
     7
421
 16777215
 74
     0
 91
        4
 64
     7
 65
   257
 75
     1
175
     1
 42
1.0
 92
        8
 66
     7
 43
1.0
 76
     1
 77
     6
 78
     2
 67
     7
 79
     5
170
     0
171
     0
290
     0
174
     0
 93
       13
 44
0.0
173
     0
291
     1
 45
0.0
1001
ACAD
1000
AcDbSavedByObjectVersion
1070
     0
  0
VISUALSTYLE
  5
2C
102
{ACAD_REACTORS
330
2A
102
}
330
2A
100
AcDbVisualStyle
  2
FlatWithEdges
 70
     1
 71
     2
 72
     1
 73
     1
 90
        2
 40
-0.6
 41
30.0
 62
     5
 63
     7
421
 16777215
 74
     1
 91
        4
 64
     7
 65
   257
 75
     1
175
     1
 42
1.0
 92
        0
 66
   257
 43
1.0
 76
     1
 77
     6
 78
     2
 67
     7
 79
     5
170
     0
171
     0
290
     0
174
     0
 93
       13
 44
0.0
173
     0
291
     1
 45
0.0
1001
ACAD
1000
AcDbSavedByObjectVersion
1070
     0
  0
VISUALSTYLE
  5
2D
102
{ACAD_REACTORS
330
2A
102
}
330
2A
100
AcDbVisualStyle
  2
Gouraud
 70
     2
 71
     2
 72
     2
 73
     1
 90
        2
 40
-0.6
 41
30.0
 62
     5
 63
     7
421
 16777215
 74
     0
 91
        4
 64
     7
 65
   257
 75
     1
175
     1
 42
1.0
 92
        0
 66
     7
 43
1.0
 76
     1
 77
     6
 78
     2
 67
     7
 79
     5
170
     0
171
     0
290
     0
174
     0
 93
       13
 44
0.0
173
     0
291
     1
 45
0.0
1001
ACAD
1000
AcDbSavedByObjectVersion
1070
     0
  0
VISUALSTYLE
  5
2E
102
{ACAD_REACTORS
330
2A
102
}
330
2A
100
AcDbVisualStyle
  2
GouraudWithEdges
 70
     3
 71
     2
 72
     2
 73
     1
 90
        2
 40
-0.6
 41
30.0
 62
     5
 63
     7
421
 16777215
 74
     1
 91
        4
 64
     7
 65
   257
 75
     1
175
     1
 42
1.0
 92
        0
 66
   257
 43
1.0
 76
     1
 77
     6
 78
     2
 67
     7
 79
     5
170
     0
171
     0
290
     0
174
     0
 93
       13
 44
0.0
173
     0
291
     1
 45
0.0
1001
ACAD
1000
AcDbSavedByObjectVersion
1070
     0
  0
VISUALSTYLE
  5
38
102
{ACAD_REACTORS
330
2A
102
}
330
2A
100
AcDbVisualStyle
  2
Linepattern
 70
    14
 71
     2
 72
     2
 73
     0
 90
        0
 40
-0.6
 41
-30.0
 62
     5
 63
     7
421
 16777215
 74
     1
 91
        4
 64
     7
 65
   257
 75
     7
175
     7
 42
1.0
 92
        8
 66
     7
 43
1.0
 76
     1
 77
     6
 78
     2
 67
     7
 79
     5
170
     0
171
     0
290
     0
174
     0
 93
        1
 44
0.0
173
     0
291
     1
 45
0.0
1001
ACAD
1000
AcDbSavedByObjectVersion
1070
     0
  0
VISUALSTYLE
  5
33
102
{ACAD_REACTORS
330
2A
102
}
330
2A
100
AcDbVisualStyle
  2
Realistic
 70
     8
 71
     2
 72
     2
 73
     0
 90
        0
 40
-0.6
 41
-30.0
 62
     5
 63
     7
421
 16777215
 74
     1
 91
        0
 64
     7
 65
   257
 75
     1
175
     1
 42
1.0
 92
        8
 66
     8
424
  7895160
 43
1.0
 76
     1
 77
     6
 78
     2
 67
     7
 79
     5
170
     0
171
     0
290
     0
174
     0
 93
       13
 44
0.0
173
     0
291
     0
 45
0.0
1001
ACAD
1000
AcDbSavedByObjectVersion
1070
     0
  0
VISUALSTYLE
  5
37
102
{ACAD_REACTORS
330
2A
102
}
330
2A
100
AcDbVisualStyle
  2
Thicken
 70
    13
 71
     2
 72
     2
 73
     0
 90
        0
 40
-0.6
 41
-30.0
 62
     5
 63
     7
421
 16777215
 74
     1
 91
        4
 64
     7
 65
   257
 75
     1
175
     1
 42
1.0
 92
       12
 66
     7
 43
1.0
 76
     1
 77
     6
 78
     2
 67
     7
 79
     5
170
     0
171
     0
290
     0
174
     0
 93
        1
 44
0.0
173
     0
291
     1
 45
0.0
1001
ACAD
1000
AcDbSavedByObjectVersion
1070
     0
  0
ENDSEC
  0
EOF
