  0
SECTION
  2
HEADER
  9
$LIMMIN
 10
0.000000
 20
0.000000
  9
$LIMMAX
 10
199.150000
 20
281.862000
  9
$EXTMIN
 10
0.000000
 20
0.000000
  9
$EXTMAX
 10
199.150000
 20
281.862000
  0
ENDSEC
  0
SECTION
  2
TABLES
  0
TABLE
  2
LTYPE
 70
     1
  0
LTYPE
  2
CONTINUOUS
 70
    64
  3
Ausgezogene Linie
 72
    65
 73
     0
 40
0.0
  0
ENDTAB
  0
TABLE
  2
LAYER
 70
     1
  0
LAYER
  2
WHITE
 70
    64
 62
     7
  6
CONTINUOUS
  0
ENDTAB
  0
TABLE
  2
STYLE
 70
     1
  0
STYLE
  2
TXT8
 70
    64
 40
0.0
 41
1.0
 50
0.0
 71
     0
 42
3.500000
  3
TXT8
  4

  0
ENDTAB
  0
ENDSEC
  0
SECTION
  2
BLOCKS
  0
ENDSEC
  0
SECTION
  2
ENTITIES
  0
LINE
  8
WHITE
 62
     7
  6
CONTINUOUS
 10
0.000000
 20
276.862000
 11
0.000000
 21
5.000000
  0
ARC
  8
WHITE
 62
     7
  6
CONTINUOUS
 10
5.000000
 20
5.000000
 40
5.000000
 50
180.000000
 51
270.000000
  0
LINE
  8
WHITE
 62
     7
  6
CONTINUOUS
 10
5.000000
 20
0.000000
 11
194.150000
 21
0.000000
  0
ARC
  8
WHITE
 62
     7
  6
CONTINUOUS
 10
194.150000
 20
5.000000
 40
5.000000
 50
270.000000
 51
0.000000
  0
LINE
  8
WHITE
 62
     7
  6
CONTINUOUS
 10
199.150000
 20
5.000000
 11
199.150000
 21
280.862000
  0
ARC
  8
WHITE
 62
     7
  6
CONTINUOUS
 10
198.092659
 20
280.804659
 40
1.058895
 50
3.104187
 51
86.895813
  0
LINE
  8
WHITE
 62
     7
  6
CONTINUOUS
 10
198.150000
 20
281.862000
 11
5.000000
 21
281.862000
  0
ARC
  8
WHITE
 62
     7
  6
CONTINUOUS
 10
5.000000
 20
276.862000
 40
5.000000
 50
90.000000
 51
180.000000
  0
LINE
  8
WHITE
 62
     7
  6
CONTINUOUS
 10
73.408845
 20
21.507732
 11
72.761000
 21
21.507732
  0
ARC
  8
WHITE
 62
     7
  6
CONTINUOUS
 10
72.761000
 20
21.207732
 40
0.300000
 50
90.000000
 51
180.000000
  0
LINE
  8
WHITE
 62
     7
  6
CONTINUOUS
 10
72.461000
 20
21.207732
 11
72.461000
 21
20.637732
  0
ARC
  8
WHITE
 62
     7
  6
CONTINUOUS
 10
72.761000
 20
20.637732
 40
0.300000
 50
180.000000
 51
270.000000
  0
LINE
  8
WHITE
 62
     7
  6
CONTINUOUS
 10
72.761000
 20
20.337732
 11
73.408845
 21
20.337732
  0
ARC
  8
WHITE
 62
     7
  6
CONTINUOUS
 10
73.408845
 20
19.837732
 40
0.500000
 50
6.378150
 51
90.000000
  0
ARC
  8
WHITE
 62
     7
  6
CONTINUOUS
 10
83.786202
 20
20.997732
 40
9.941990
 50
186.378149
 51
353.621850
  0
ARC
  8
WHITE
 62
     7
  6
CONTINUOUS
 10
94.163560
 20
19.837732
 40
0.500000
 50
90.000000
 51
173.621849
  0
LINE
  8
WHITE
 62
     7
  6
CONTINUOUS
 10
94.163560
 20
20.337732
 11
94.811038
 21
20.337732
  0
ARC
  8
WHITE
 62
     7
  6
CONTINUOUS
 10
94.811038
 20
20.637732
 40
0.300000
 50
270.000000
 51
0.000000
  0
LINE
  8
WHITE
 62
     7
  6
CONTINUOUS
 10
95.111038
 20
20.637748
 11
95.111000
 21
21.207732
  0
ARC
  8
WHITE
 62
     7
  6
CONTINUOUS
 10
94.811000
 20
21.207732
 40
0.300000
 50
0.000000
 51
89.999905
  0
LINE
  8
WHITE
 62
     7
  6
CONTINUOUS
 10
94.811000
 20
21.507732
 11
94.163560
 21
21.507733
  0
ARC
  8
WHITE
 62
     7
  6
CONTINUOUS
 10
94.163560
 20
22.007733
 40
0.500000
 50
186.378153
 51
270.000000
  0
ARC
  8
WHITE
 62
     7
  6
CONTINUOUS
 10
83.782011
 20
20.885233
 40
9.942061
 50
6.160693
 51
173.404395
  0
ARC
  8
WHITE
 62
     7
  6
CONTINUOUS
 10
73.366919
 20
22.045232
 40
0.539133
 50
274.460080
 51
358.081931
  0
LINE
  8
WHITE
 62
     7
  6
CONTINUOUS
 10
73.408845
 20
52.802212
 11
72.761000
 21
52.802212
  0
ARC
  8
WHITE
 62
     7
  6
CONTINUOUS
 10
72.761000
 20
52.502212
 40
0.300000
 50
90.000000
 51
180.000000
  0
LINE
  8
WHITE
 62
     7
  6
CONTINUOUS
 10
72.461000
 20
52.502212
 11
72.461000
 21
51.932212
  0
ARC
  8
WHITE
 62
     7
  6
CONTINUOUS
 10
72.761000
 20
51.932212
 40
0.300000
 50
180.000000
 51
270.000000
  0
LINE
  8
WHITE
 62
     7
  6
CONTINUOUS
 10
72.761000
 20
51.632212
 11
73.408845
 21
51.632212
  0
ARC
  8
WHITE
 62
     7
  6
CONTINUOUS
 10
73.408845
 20
51.132212
 40
0.500000
 50
6.378150
 51
90.000000
  0
ARC
  8
WHITE
 62
     7
  6
CONTINUOUS
 10
83.786202
 20
52.292212
 40
9.941990
 50
186.378149
 51
353.621850
  0
ARC
  8
WHITE
 62
     7
  6
CONTINUOUS
 10
94.163560
 20
51.132212
 40
0.500000
 50
90.000000
 51
173.621849
  0
LINE
  8
WHITE
 62
     7
  6
CONTINUOUS
 10
94.163560
 20
51.632212
 11
94.811038
 21
51.632212
  0
ARC
  8
WHITE
 62
     7
  6
CONTINUOUS
 10
94.811038
 20
51.932212
 40
0.300000
 50
270.000000
 51
0.000000
  0
LINE
  8
WHITE
 62
     7
  6
CONTINUOUS
 10
95.111038
 20
51.932228
 11
95.111000
 21
52.502212
  0
ARC
  8
WHITE
 62
     7
  6
CONTINUOUS
 10
94.811000
 20
52.502212
 40
0.300000
 50
0.000000
 51
89.999905
  0
LINE
  8
WHITE
 62
     7
  6
CONTINUOUS
 10
94.811000
 20
52.802212
 11
94.163560
 21
52.802213
  0
ARC
  8
WHITE
 62
     7
  6
CONTINUOUS
 10
94.163560
 20
53.302213
 40
0.500000
 50
186.378153
 51
270.000000
  0
ARC
  8
WHITE
 62
     7
  6
CONTINUOUS
 10
83.782011
 20
52.179712
 40
9.942061
 50
6.160693
 51
173.404395
  0
ARC
  8
WHITE
 62
     7
  6
CONTINUOUS
 10
73.366919
 20
53.339712
 40
0.539133
 50
274.460080
 51
358.081931
  0
LINE
  8
WHITE
 62
     7
  6
CONTINUOUS
 10
105.529661
 20
40.819813
 11
104.881817
 21
40.819813
  0
ARC
  8
WHITE
 62
     7
  6
CONTINUOUS
 10
104.881817
 20
40.519813
 40
0.300000
 50
90.000000
 51
180.000000
  0
LINE
  8
WHITE
 62
     7
  6
CONTINUOUS
 10
104.581817
 20
40.519813
 11
104.581817
 21
39.949813
  0
ARC
  8
WHITE
 62
     7
  6
CONTINUOUS
 10
104.881817
 20
39.949813
 40
0.300000
 50
180.000000
 51
270.000000
  0
LINE
  8
WHITE
 62
     7
  6
CONTINUOUS
 10
104.881817
 20
39.649813
 11
105.529661
 21
39.649813
  0
ARC
  8
WHITE
 62
     7
  6
CONTINUOUS
 10
105.529661
 20
39.149813
 40
0.500000
 50
6.378150
 51
90.000000
  0
ARC
  8
WHITE
 62
     7
  6
CONTINUOUS
 10
115.907019
 20
40.309813
 40
9.941990
 50
186.378149
 51
353.621850
  0
ARC
  8
WHITE
 62
     7
  6
CONTINUOUS
 10
126.284377
 20
39.149812
 40
0.500000
 50
90.000000
 51
173.621849
  0
LINE
  8
WHITE
 62
     7
  6
CONTINUOUS
 10
126.284377
 20
39.649812
 11
126.931854
 21
39.649813
  0
ARC
  8
WHITE
 62
     7
  6
CONTINUOUS
 10
126.931854
 20
39.949813
 40
0.300000
 50
270.000000
 51
0.000000
  0
LINE
  8
WHITE
 62
     7
  6
CONTINUOUS
 10
127.231854
 20
39.949829
 11
127.231816
 21
40.519813
  0
ARC
  8
WHITE
 62
     7
  6
CONTINUOUS
 10
126.931816
 20
40.519812
 40
0.300000
 50
0.000000
 51
89.999905
  0
LINE
  8
WHITE
 62
     7
  6
CONTINUOUS
 10
126.931817
 20
40.819813
 11
126.284377
 21
40.819813
  0
ARC
  8
WHITE
 62
     7
  6
CONTINUOUS
 10
126.284377
 20
41.319813
 40
0.500000
 50
186.378153
 51
270.000000
  0
ARC
  8
WHITE
 62
     7
  6
CONTINUOUS
 10
115.902827
 20
40.197313
 40
9.942061
 50
6.160693
 51
173.404395
  0
ARC
  8
WHITE
 62
     7
  6
CONTINUOUS
 10
105.487736
 20
41.357313
 40
0.539133
 50
274.460080
 51
358.081932
  0
LINE
  8
WHITE
 62
     7
  6
CONTINUOUS
 10
138.558394
 20
52.802212
 11
137.910549
 21
52.802212
  0
ARC
  8
WHITE
 62
     7
  6
CONTINUOUS
 10
137.910549
 20
52.502212
 40
0.300000
 50
90.000000
 51
180.000000
  0
LINE
  8
WHITE
 62
     7
  6
CONTINUOUS
 10
137.610549
 20
52.502212
 11
137.610549
 21
51.932212
  0
ARC
  8
WHITE
 62
     7
  6
CONTINUOUS
 10
137.910549
 20
51.932212
 40
0.300000
 50
180.000000
 51
270.000000
  0
LINE
  8
WHITE
 62
     7
  6
CONTINUOUS
 10
137.910549
 20
51.632212
 11
138.558394
 21
51.632212
  0
ARC
  8
WHITE
 62
     7
  6
CONTINUOUS
 10
138.558394
 20
51.132212
 40
0.500000
 50
6.378150
 51
90.000000
  0
ARC
  8
WHITE
 62
     7
  6
CONTINUOUS
 10
148.935752
 20
52.292212
 40
9.941990
 50
186.378149
 51
353.621850
  0
ARC
  8
WHITE
 62
     7
  6
CONTINUOUS
 10
159.313109
 20
51.132212
 40
0.500000
 50
90.000000
 51
173.621849
  0
LINE
  8
WHITE
 62
     7
  6
CONTINUOUS
 10
159.313109
 20
51.632212
 11
159.960587
 21
51.632212
  0
ARC
  8
WHITE
 62
     7
  6
CONTINUOUS
 10
159.960587
 20
51.932212
 40
0.300000
 50
270.000000
 51
0.000000
  0
LINE
  8
WHITE
 62
     7
  6
CONTINUOUS
 10
160.260587
 20
51.932228
 11
160.260549
 21
52.502212
  0
ARC
  8
WHITE
 62
     7
  6
CONTINUOUS
 10
159.960549
 20
52.502212
 40
0.300000
 50
0.000000
 51
89.999905
  0
LINE
  8
WHITE
 62
     7
  6
CONTINUOUS
 10
159.960549
 20
52.802212
 11
159.313109
 21
52.802213
  0
ARC
  8
WHITE
 62
     7
  6
CONTINUOUS
 10
159.313109
 20
53.302213
 40
0.500000
 50
186.378153
 51
270.000000
  0
ARC
  8
WHITE
 62
     7
  6
CONTINUOUS
 10
148.931560
 20
52.179712
 40
9.942061
 50
6.160693
 51
173.404395
  0
ARC
  8
WHITE
 62
     7
  6
CONTINUOUS
 10
138.516469
 20
53.339712
 40
0.539133
 50
274.460080
 51
358.081931
  0
ARC
  8
WHITE
 62
     7
  6
CONTINUOUS
 10
142.340944
 20
144.620560
 40
0.074440
 50
89.957033
 51
232.364146
  0
ARC
  8
WHITE
 62
     7
  6
CONTINUOUS
 10
140.037262
 20
141.770002
 40
3.590634
 50
308.960550
 51
51.029438
  0
ARC
  8
WHITE
 62
     7
  6
CONTINUOUS
 10
142.342000
 20
138.919000
 40
0.075432
 50
128.541184
 51
269.225780
  0
LINE
  8
WHITE
 62
     7
  6
CONTINUOUS
 10
142.340981
 20
138.843575
 11
154.681000
 21
138.845000
  0
ARC
  8
WHITE
 62
     7
  6
CONTINUOUS
 10
154.685592
 20
138.917752
 40
0.072897
 50
266.388578
 51
54.896007
  0
ARC
  8
WHITE
 62
     7
  6
CONTINUOUS
 10
156.959437
 20
141.769000
 40
3.574154
 50
128.632734
 51
231.357253
  0
ARC
  8
WHITE
 62
     7
  6
CONTINUOUS
 10
154.680465
 20
144.619570
 40
0.075432
 50
309.062641
 51
89.593617
  0
LINE
  8
WHITE
 62
     7
  6
CONTINUOUS
 10
154.681000
 20
144.695000
 11
142.341000
 21
144.695000
  0
ARC
  8
WHITE
 62
     7
  6
CONTINUOUS
 10
181.007934
 20
179.266934
 40
0.428952
 50
180.525465
 51
269.474535
  0
LINE
  8
WHITE
 62
     7
  6
CONTINUOUS
 10
181.004000
 20
178.838000
 11
192.579000
 21
178.838000
  0
ARC
  8
WHITE
 62
     7
  6
CONTINUOUS
 10
192.518115
 20
179.323885
 40
0.489685
 50
277.142397
 51
352.857603
  0
LINE
  8
WHITE
 62
     7
  6
CONTINUOUS
 10
193.004000
 20
179.263000
 11
193.004000
 21
182.336000
  0
ARC
  8
WHITE
 62
     7
  6
CONTINUOUS
 10
192.566250
 20
182.325447
 40
0.437877
 50
1.381014
 51
79.506269
  0
LINE
  8
WHITE
 62
     7
  6
CONTINUOUS
 10
192.646000
 20
182.756000
 11
181.071000
 21
184.597000
  0
ARC
  8
WHITE
 62
     7
  6
CONTINUOUS
 10
181.004000
 20
184.177000
 40
0.425310
 50
80.936328
 51
180.000000
  0
LINE
  8
WHITE
 62
     7
  6
CONTINUOUS
 10
180.578690
 20
184.177000
 11
180.579000
 21
179.263000
  0
ARC
  8
WHITE
 62
     7
  6
CONTINUOUS
 10
166.462112
 20
179.296112
 40
0.459307
 50
184.134136
 51
265.865864
  0
LINE
  8
WHITE
 62
     7
  6
CONTINUOUS
 10
166.429000
 20
178.838000
 11
178.004000
 21
178.838000
  0
ARC
  8
WHITE
 62
     7
  6
CONTINUOUS
 10
177.993735
 20
179.273265
 40
0.435386
 50
271.350915
 51
358.649085
  0
LINE
  8
WHITE
 62
     7
  6
CONTINUOUS
 10
178.429000
 20
179.263000
 11
178.429000
 21
184.177000
  0
ARC
  8
WHITE
 62
     7
  6
CONTINUOUS
 10
177.978144
 20
184.147026
 40
0.451851
 50
3.803524
 51
95.224452
  0
LINE
  8
WHITE
 62
     7
  6
CONTINUOUS
 10
177.937000
 20
184.597000
 11
172.150000
 21
183.676000
  0
LINE
  8
WHITE
 62
     7
  6
CONTINUOUS
 10
172.150000
 20
183.676000
 11
166.362000
 21
182.756000
  0
ARC
  8
WHITE
 62
     7
  6
CONTINUOUS
 10
166.429000
 20
182.336000
 40
0.425310
 50
99.063672
 51
180.000000
  0
LINE
  8
WHITE
 62
     7
  6
CONTINUOUS
 10
166.003690
 20
182.336000
 11
166.004000
 21
179.263000
  0
ARC
  8
WHITE
 62
     7
  6
CONTINUOUS
 10
126.010000
 20
253.251000
 40
0.574200
 50
306.929768
 51
351.898094
  0
LINE
  8
WHITE
 62
     7
  6
CONTINUOUS
 10
126.578469
 20
253.170076
 11
127.323020
 21
258.402140
  0
ARC
  8
WHITE
 62
     7
  6
CONTINUOUS
 10
127.875297
 20
258.315383
 40
0.559050
 50
56.548091
 51
171.072413
  0
LINE
  8
WHITE
 62
     7
  6
CONTINUOUS
 10
128.183466
 20
258.781826
 11
135.949821
 21
252.698306
  0
ARC
  8
WHITE
 62
     7
  6
CONTINUOUS
 10
135.772207
 20
252.471202
 40
0.288310
 50
231.971682
 51
51.971681
  0
LINE
  8
WHITE
 62
     7
  6
CONTINUOUS
 10
135.594593
 20
252.244098
 11
128.892000
 21
257.323000
  0
ARC
  8
WHITE
 62
     7
  6
CONTINUOUS
 10
128.544000
 20
256.865000
 40
0.575211
 50
52.771510
 51
171.898094
  0
LINE
  8
WHITE
 62
     7
  6
CONTINUOUS
 10
127.974530
 20
256.946067
 11
127.572000
 21
254.118000
  0
ARC
  8
WHITE
 62
     7
  6
CONTINUOUS
 10
128.141000
 20
254.037000
 40
0.574736
 50
171.898094
 51
232.850905
  0
LINE
  8
WHITE
 62
     7
  6
CONTINUOUS
 10
127.793922
 20
253.578897
 11
135.531000
 21
247.715000
  0
ARC
  8
WHITE
 62
     7
  6
CONTINUOUS
 10
135.328000
 20
247.255500
 40
0.502344
 50
246.164899
 51
66.164899
  0
LINE
  8
WHITE
 62
     7
  6
CONTINUOUS
 10
135.125000
 20
246.796000
 11
128.195000
 21
252.338000
  0
ARC
  8
WHITE
 62
     7
  6
CONTINUOUS
 10
127.835000
 20
251.889000
 40
0.575501
 50
51.277998
 51
171.898094
  0
LINE
  8
WHITE
 62
     7
  6
CONTINUOUS
 10
127.265243
 20
251.970108
 11
126.867000
 21
249.168000
  0
ARC
  8
WHITE
 62
     7
  6
CONTINUOUS
 10
127.436000
 20
249.087000
 40
0.574736
 50
171.898094
 51
232.850905
  0
LINE
  8
WHITE
 62
     7
  6
CONTINUOUS
 10
127.088922
 20
248.628897
 11
134.826000
 21
242.765000
  0
ARC
  8
WHITE
 62
     7
  6
CONTINUOUS
 10
134.603836
 20
242.479432
 40
0.361809
 50
232.118017
 51
52.118017
  0
LINE
  8
WHITE
 62
     7
  6
CONTINUOUS
 10
134.381671
 20
242.193864
 11
127.482000
 21
247.423000
  0
ARC
  8
WHITE
 62
     7
  6
CONTINUOUS
 10
127.134000
 20
246.965000
 40
0.575211
 50
52.771510
 51
171.898094
  0
LINE
  8
WHITE
 62
     7
  6
CONTINUOUS
 10
126.564530
 20
247.046067
 11
126.163000
 21
244.218000
  0
ARC
  8
WHITE
 62
     7
  6
CONTINUOUS
 10
126.730860
 20
244.136026
 40
0.573746
 50
171.785778
 51
232.803300
  0
LINE
  8
WHITE
 62
     7
  6
CONTINUOUS
 10
126.384000
 20
243.679000
 11
134.121000
 21
237.815000
  0
ARC
  8
WHITE
 62
     7
  6
CONTINUOUS
 10
133.898836
 20
237.530932
 40
0.360627
 50
231.971681
 51
51.971681
  0
LINE
  8
WHITE
 62
     7
  6
CONTINUOUS
 10
133.676671
 20
237.246864
 11
125.426493
 21
243.541338
  0
ARC
  8
WHITE
 62
     7
  6
CONTINUOUS
 10
125.685000
 20
243.879000
 40
0.425254
 50
171.888952
 51
232.563103
  0
LINE
  8
WHITE
 62
     7
  6
CONTINUOUS
 10
125.264000
 20
243.939000
 11
125.813000
 21
247.793000
  0
ARC
  8
WHITE
 62
     7
  6
CONTINUOUS
 10
125.244000
 20
247.874000
 40
0.574736
 50
351.898094
 51
36.869898
  0
ARC
  8
WHITE
 62
     7
  6
CONTINUOUS
 10
128.316589
 20
250.179728
 40
3.266771
 50
126.903357
 51
216.887948
  0
ARC
  8
WHITE
 62
     7
  6
CONTINUOUS
 10
175.350531
 20
253.280958
 40
0.574200
 50
188.101906
 51
233.070232
  0
LINE
  8
WHITE
 62
     7
  6
CONTINUOUS
 10
174.782062
 20
253.200033
 11
174.037511
 21
258.432098
  0
ARC
  8
WHITE
 62
     7
  6
CONTINUOUS
 10
173.485234
 20
258.345341
 40
0.559050
 50
8.927587
 51
123.451909
  0
LINE
  8
WHITE
 62
     7
  6
CONTINUOUS
 10
173.177065
 20
258.811783
 11
165.410710
 21
252.728263
  0
ARC
  8
WHITE
 62
     7
  6
CONTINUOUS
 10
165.588324
 20
252.501160
 40
0.288310
 50
128.028319
 51
308.028318
  0
LINE
  8
WHITE
 62
     7
  6
CONTINUOUS
 10
165.765938
 20
252.274056
 11
172.468531
 21
257.352958
  0
ARC
  8
WHITE
 62
     7
  6
CONTINUOUS
 10
172.816531
 20
256.894958
 40
0.575211
 50
8.101906
 51
127.228490
  0
LINE
  8
WHITE
 62
     7
  6
CONTINUOUS
 10
173.386001
 20
256.976025
 11
173.788531
 21
254.147958
  0
ARC
  8
WHITE
 62
     7
  6
CONTINUOUS
 10
173.219531
 20
254.066958
 40
0.574736
 50
307.149095
 51
8.101906
  0
LINE
  8
WHITE
 62
     7
  6
CONTINUOUS
 10
173.566609
 20
253.608854
 11
165.829531
 21
247.744958
  0
ARC
  8
WHITE
 62
     7
  6
CONTINUOUS
 10
166.032531
 20
247.285458
 40
0.502344
 50
113.835101
 51
293.835101
  0
LINE
  8
WHITE
 62
     7
  6
CONTINUOUS
 10
166.235531
 20
246.825958
 11
173.165531
 21
252.367958
  0
ARC
  8
WHITE
 62
     7
  6
CONTINUOUS
 10
173.525531
 20
251.918958
 40
0.575501
 50
8.101906
 51
128.722002
  0
LINE
  8
WHITE
 62
     7
  6
CONTINUOUS
 10
174.095287
 20
252.000065
 11
174.493531
 21
249.197958
  0
ARC
  8
WHITE
 62
     7
  6
CONTINUOUS
 10
173.924531
 20
249.116958
 40
0.574736
 50
307.149095
 51
8.101906
  0
LINE
  8
WHITE
 62
     7
  6
CONTINUOUS
 10
174.271609
 20
248.658854
 11
166.534531
 21
242.794958
  0
ARC
  8
WHITE
 62
     7
  6
CONTINUOUS
 10
166.756695
 20
242.509390
 40
0.361809
 50
127.881983
 51
307.881983
  0
LINE
  8
WHITE
 62
     7
  6
CONTINUOUS
 10
166.978859
 20
242.223822
 11
173.878531
 21
247.452958
  0
ARC
  8
WHITE
 62
     7
  6
CONTINUOUS
 10
174.226531
 20
246.994958
 40
0.575211
 50
8.101906
 51
127.228490
  0
LINE
  8
WHITE
 62
     7
  6
CONTINUOUS
 10
174.796001
 20
247.076025
 11
175.197531
 21
244.247958
  0
ARC
  8
WHITE
 62
     7
  6
CONTINUOUS
 10
174.629670
 20
244.165984
 40
0.573746
 50
307.196700
 51
8.214222
  0
LINE
  8
WHITE
 62
     7
  6
CONTINUOUS
 10
174.976531
 20
243.708958
 11
167.239531
 21
237.844958
  0
ARC
  8
WHITE
 62
     7
  6
CONTINUOUS
 10
167.461695
 20
237.560890
 40
0.360627
 50
128.028319
 51
308.028319
  0
LINE
  8
WHITE
 62
     7
  6
CONTINUOUS
 10
167.683859
 20
237.276822
 11
175.934037
 21
243.571296
  0
ARC
  8
WHITE
 62
     7
  6
CONTINUOUS
 10
175.675531
 20
243.908958
 40
0.425254
 50
307.436897
 51
8.111048
  0
LINE
  8
WHITE
 62
     7
  6
CONTINUOUS
 10
176.096531
 20
243.968958
 11
175.547531
 21
247.822958
  0
ARC
  8
WHITE
 62
     7
  6
CONTINUOUS
 10
176.116531
 20
247.903958
 40
0.574736
 50
143.130102
 51
188.101906
  0
ARC
  8
WHITE
 62
     7
  6
CONTINUOUS
 10
173.043942
 20
250.209686
 40
3.266771
 50
323.112052
 51
53.096643
  0
ARC
  8
WHITE
 62
     7
  6
CONTINUOUS
 10
176.347086
 20
138.639069
 40
0.621803
 50
21.404910
 51
86.965774
  0
ARC
  8
WHITE
 62
     7
  6
CONTINUOUS
 10
179.586115
 20
139.745697
 40
2.801800
 50
198.298994
 51
341.699521
  0
ARC
  8
WHITE
 62
     7
  6
CONTINUOUS
 10
182.792000
 20
138.685000
 40
0.575000
 50
90.000000
 51
161.659547
  0
LINE
  8
WHITE
 62
     7
  6
CONTINUOUS
 10
182.792000
 20
139.260000
 11
189.018605
 21
139.260000
  0
ARC
  8
WHITE
 62
     7
  6
CONTINUOUS
 10
189.018605
 20
139.560000
 40
0.300000
 50
270.000000
 51
0.075389
  0
LINE
  8
WHITE
 62
     7
  6
CONTINUOUS
 10
189.318605
 20
139.560395
 11
189.317394
 21
140.480395
  0
ARC
  8
WHITE
 62
     7
  6
CONTINUOUS
 10
189.017394
 20
140.480000
 40
0.300000
 50
0.075389
 51
90.000000
  0
LINE
  8
WHITE
 62
     7
  6
CONTINUOUS
 10
189.017394
 20
140.780000
 11
170.067395
 21
140.780000
  0
ARC
  8
WHITE
 62
     7
  6
CONTINUOUS
 10
170.067395
 20
140.480000
 40
0.300000
 50
90.000000
 51
180.075389
  0
LINE
  8
WHITE
 62
     7
  6
CONTINUOUS
 10
169.767395
 20
140.479605
 11
169.768606
 21
139.559605
  0
ARC
  8
WHITE
 62
     7
  6
CONTINUOUS
 10
170.068606
 20
139.560000
 40
0.300000
 50
180.075389
 51
270.000000
  0
LINE
  8
WHITE
 62
     7
  6
CONTINUOUS
 10
170.068606
 20
139.260000
 11
176.380000
 21
139.260000
  0
ARC
  8
WHITE
 62
     7
  6
CONTINUOUS
 10
124.384670
 20
157.783948
 40
0.441522
 50
297.128624
 51
354.287434
  0
LINE
  8
WHITE
 62
     7
  6
CONTINUOUS
 10
124.824000
 20
157.740000
 11
124.824000
 21
159.105380
  0
ARC
  8
WHITE
 62
     7
  6
CONTINUOUS
 10
124.524000
 20
159.105380
 40
0.300000
 50
0.000000
 51
67.975687
  0
ARC
  8
WHITE
 62
     7
  6
CONTINUOUS
 10
124.824000
 20
159.847000
 40
0.500000
 50
22.024314
 51
247.975687
  0
ARC
  8
WHITE
 62
     7
  6
CONTINUOUS
 10
125.565620
 20
160.147000
 40
0.300000
 50
202.024314
 51
270.000000
  0
LINE
  8
WHITE
 62
     7
  6
CONTINUOUS
 10
125.565620
 20
159.847000
 11
125.632382
 21
159.847004
  0
ARC
  8
WHITE
 62
     7
  6
CONTINUOUS
 10
125.632382
 20
160.147004
 40
0.300000
 50
270.000000
 51
337.975355
  0
ARC
  8
WHITE
 62
     7
  6
CONTINUOUS
 10
126.374000
 20
159.847000
 40
0.500000
 50
292.024313
 51
157.975355
  0
ARC
  8
WHITE
 62
     7
  6
CONTINUOUS
 10
126.674000
 20
159.105380
 40
0.300000
 50
112.024313
 51
180.000000
  0
LINE
  8
WHITE
 62
     7
  6
CONTINUOUS
 10
126.374000
 20
159.105380
 11
126.374000
 21
150.538620
  0
ARC
  8
WHITE
 62
     7
  6
CONTINUOUS
 10
126.674000
 20
150.538620
 40
0.300000
 50
180.000000
 51
247.975687
  0
ARC
  8
WHITE
 62
     7
  6
CONTINUOUS
 10
126.374000
 20
149.797000
 40
0.500000
 50
202.024314
 51
67.975687
  0
ARC
  8
WHITE
 62
     7
  6
CONTINUOUS
 10
125.632380
 20
149.497000
 40
0.300000
 50
22.024314
 51
90.000000
  0
LINE
  8
WHITE
 62
     7
  6
CONTINUOUS
 10
125.632380
 20
149.797000
 11
125.565623
 21
149.797007
  0
ARC
  8
WHITE
 62
     7
  6
CONTINUOUS
 10
125.565623
 20
149.497007
 40
0.300000
 50
90.000000
 51
157.976239
  0
ARC
  8
WHITE
 62
     7
  6
CONTINUOUS
 10
124.824000
 20
149.797000
 40
0.500000
 50
112.024313
 51
337.976239
  0
ARC
  8
WHITE
 62
     7
  6
CONTINUOUS
 10
124.524000
 20
150.538620
 40
0.300000
 50
292.024313
 51
0.000000
  0
LINE
  8
WHITE
 62
     7
  6
CONTINUOUS
 10
124.824000
 20
150.538620
 11
124.824000
 21
152.226000
  0
ARC
  8
WHITE
 62
     7
  6
CONTINUOUS
 10
124.449000
 20
152.225921
 40
0.375000
 50
0.000000
 51
68.571903
  0
ARC
  8
WHITE
 62
     7
  6
CONTINUOUS
 10
125.530000
 20
154.983000
 40
2.586426
 50
111.406499
 51
248.593501
  0
ARC
  8
WHITE
 62
     7
  6
CONTINUOUS
 10
40.135000
 20
141.875000
 40
0.500000
 50
193.844224
 51
59.769243
  0
ARC
  8
WHITE
 62
     7
  6
CONTINUOUS
 10
40.537787
 20
142.566204
 40
0.300000
 50
171.793556
 51
239.769243
  0
LINE
  8
WHITE
 62
     7
  6
CONTINUOUS
 10
40.240859
 20
142.609026
 11
40.250388
 21
142.675103
  0
ARC
  8
WHITE
 62
     7
  6
CONTINUOUS
 10
40.547316
 20
142.632281
 40
0.300000
 50
103.817869
 51
171.793556
  0
ARC
  8
WHITE
 62
     7
  6
CONTINUOUS
 10
40.356247
 20
143.409128
 40
0.500000
 50
283.817869
 51
149.814117
  0
ARC
  8
WHITE
 62
     7
  6
CONTINUOUS
 10
39.664728
 20
143.811374
 40
0.300000
 50
261.838430
 51
329.814117
  0
LINE
  8
WHITE
 62
     7
  6
CONTINUOUS
 10
39.622139
 20
143.514413
 11
38.062247
 21
143.738128
  0
ARC
  8
WHITE
 62
     7
  6
CONTINUOUS
 10
38.115324
 20
144.108825
 40
0.374477
 50
194.173878
 51
261.851697
  0
ARC
  8
WHITE
 62
     7
  6
CONTINUOUS
 10
35.479853
 20
143.441682
 40
2.344123
 50
14.210485
 51
149.416039
  0
ARC
  8
WHITE
 62
     7
  6
CONTINUOUS
 10
33.139247
 20
144.825128
 40
0.374767
 50
261.869898
 51
329.402848
  0
LINE
  8
WHITE
 62
     7
  6
CONTINUOUS
 10
33.086247
 20
144.454128
 11
31.142320
 21
144.733595
  0
ARC
  8
WHITE
 62
     7
  6
CONTINUOUS
 10
31.185010
 20
145.030542
 40
0.300000
 50
193.843297
 51
261.818984
  0
ARC
  8
WHITE
 62
     7
  6
CONTINUOUS
 10
30.408247
 20
144.839128
 40
0.500000
 50
13.843297
 51
239.769243
  0
ARC
  8
WHITE
 62
     7
  6
CONTINUOUS
 10
30.005460
 20
144.147925
 40
0.300000
 50
351.793556
 51
59.769243
  0
LINE
  8
WHITE
 62
     7
  6
CONTINUOUS
 10
30.302388
 20
144.105103
 11
30.292859
 21
144.039026
  0
ARC
  8
WHITE
 62
     7
  6
CONTINUOUS
 10
29.995931
 20
144.081848
 40
0.300000
 50
283.817869
 51
351.793556
  0
ARC
  8
WHITE
 62
     7
  6
CONTINUOUS
 10
30.187000
 20
143.305000
 40
0.500000
 50
103.817869
 51
329.795598
  0
ARC
  8
WHITE
 62
     7
  6
CONTINUOUS
 10
30.878389
 20
142.902531
 40
0.300000
 50
81.819911
 51
149.795598
  0
LINE
  8
WHITE
 62
     7
  6
CONTINUOUS
 10
30.921074
 20
143.199479
 11
39.400926
 21
141.980521
  0
ARC
  8
WHITE
 62
     7
  6
CONTINUOUS
 10
39.358240
 20
141.683574
 40
0.300000
 50
13.844224
 51
81.819911
  0
ARC
  8
WHITE
 62
     7
  6
CONTINUOUS
 10
40.353687
 20
166.236504
 40
0.500000
 50
210.210354
 51
76.096973
  0
ARC
  8
WHITE
 62
     7
  6
CONTINUOUS
 10
40.545911
 20
167.013067
 40
0.300000
 50
188.121286
 51
256.096973
  0
LINE
  8
WHITE
 62
     7
  6
CONTINUOUS
 10
40.248920
 20
166.970686
 11
40.239768
 21
167.034818
  0
ARC
  8
WHITE
 62
     7
  6
CONTINUOUS
 10
40.536759
 20
167.077198
 40
0.300000
 50
120.145599
 51
188.121286
  0
ARC
  8
WHITE
 62
     7
  6
CONTINUOUS
 10
40.135000
 20
167.769000
 40
0.500000
 50
300.145599
 51
166.144491
  0
ARC
  8
WHITE
 62
     7
  6
CONTINUOUS
 10
39.358278
 20
167.960579
 40
0.300000
 50
278.168804
 51
346.144491
  0
LINE
  8
WHITE
 62
     7
  6
CONTINUOUS
 10
39.400905
 20
167.663623
 11
35.160858
 21
167.054980
  0
LINE
  8
WHITE
 62
     7
  6
CONTINUOUS
 10
35.160858
 20
167.054980
 11
30.921054
 21
166.444666
  0
ARC
  8
WHITE
 62
     7
  6
CONTINUOUS
 10
30.878310
 20
166.741605
 40
0.300000
 50
210.215686
 51
278.191374
  0
ARC
  8
WHITE
 62
     7
  6
CONTINUOUS
 10
30.187000
 20
166.339000
 40
0.500000
 50
30.215687
 51
256.096973
  0
ARC
  8
WHITE
 62
     7
  6
CONTINUOUS
 10
29.994777
 20
165.562437
 40
0.300000
 50
8.121286
 51
76.096973
  0
LINE
  8
WHITE
 62
     7
  6
CONTINUOUS
 10
30.291768
 20
165.604818
 11
30.300920
 21
165.540686
  0
ARC
  8
WHITE
 62
     7
  6
CONTINUOUS
 10
30.003928
 20
165.498305
 40
0.300000
 50
300.145599
 51
8.121286
  0
ARC
  8
WHITE
 62
     7
  6
CONTINUOUS
 10
30.405687
 20
164.806504
 40
0.500000
 50
120.145599
 51
346.166868
  0
ARC
  8
WHITE
 62
     7
  6
CONTINUOUS
 10
31.182484
 20
164.615228
 40
0.300000
 50
98.191181
 51
166.166868
  0
LINE
  8
WHITE
 62
     7
  6
CONTINUOUS
 10
31.139741
 20
164.912167
 11
33.083620
 21
165.191979
  0
ARC
  8
WHITE
 62
     7
  6
CONTINUOUS
 10
33.136687
 20
164.820504
 40
0.375247
 50
30.597152
 51
98.130102
  0
ARC
  8
WHITE
 62
     7
  6
CONTINUOUS
 10
35.477687
 20
166.205504
 40
2.344773
 50
210.611739
 51
345.750343
  0
ARC
  8
WHITE
 62
     7
  6
CONTINUOUS
 10
38.112633
 20
165.536496
 40
0.373777
 50
98.143416
 51
165.775079
  0
LINE
  8
WHITE
 62
     7
  6
CONTINUOUS
 10
38.059687
 20
165.906504
 11
39.619624
 21
166.130906
  0
ARC
  8
WHITE
 62
     7
  6
CONTINUOUS
 10
39.662340
 20
165.833963
 40
0.300000
 50
30.210354
 51
98.186042
  0
ARC
  8
WHITE
 62
     7
  6
CONTINUOUS
 10
122.292780
 20
142.069832
 40
0.372834
 50
188.457094
 51
270.187460
  0
LINE
  8
WHITE
 62
     7
  6
CONTINUOUS
 10
122.294000
 20
141.697000
 11
124.140380
 21
141.697000
  0
ARC
  8
WHITE
 62
     7
  6
CONTINUOUS
 10
124.140380
 20
141.997000
 40
0.300000
 50
270.000000
 51
337.975687
  0
ARC
  8
WHITE
 62
     7
  6
CONTINUOUS
 10
124.882000
 20
141.697000
 40
0.500000
 50
292.024316
 51
157.975687
  0
ARC
  8
WHITE
 62
     7
  6
CONTINUOUS
 10
125.182000
 20
140.955380
 40
0.300000
 50
112.024316
 51
180.000000
  0
LINE
  8
WHITE
 62
     7
  6
CONTINUOUS
 10
124.882000
 20
140.955380
 11
124.881979
 21
140.938628
  0
ARC
  8
WHITE
 62
     7
  6
CONTINUOUS
 10
125.181979
 20
140.938628
 40
0.300000
 50
180.000000
 51
247.977286
  0
ARC
  8
WHITE
 62
     7
  6
CONTINUOUS
 10
124.882000
 20
140.197000
 40
0.500000
 50
202.024313
 51
67.977286
  0
ARC
  8
WHITE
 62
     7
  6
CONTINUOUS
 10
124.140380
 20
139.897000
 40
0.300000
 50
22.024313
 51
90.000000
  0
LINE
  8
WHITE
 62
     7
  6
CONTINUOUS
 10
124.140380
 20
140.197000
 11
115.573620
 21
140.197000
  0
ARC
  8
WHITE
 62
     7
  6
CONTINUOUS
 10
115.573620
 20
139.897000
 40
0.300000
 50
90.000000
 51
157.975687
  0
ARC
  8
WHITE
 62
     7
  6
CONTINUOUS
 10
114.832000
 20
140.197000
 40
0.500000
 50
112.024313
 51
337.975687
  0
ARC
  8
WHITE
 62
     7
  6
CONTINUOUS
 10
114.532000
 20
140.938620
 40
0.300000
 50
292.024313
 51
0.000000
  0
LINE
  8
WHITE
 62
     7
  6
CONTINUOUS
 10
114.832000
 20
140.938620
 11
114.831995
 21
140.955382
  0
ARC
  8
WHITE
 62
     7
  6
CONTINUOUS
 10
114.531995
 20
140.955382
 40
0.300000
 50
0.000000
 51
67.975322
  0
ARC
  8
WHITE
 62
     7
  6
CONTINUOUS
 10
114.832000
 20
141.697000
 40
0.500000
 50
22.024313
 51
247.975322
  0
ARC
  8
WHITE
 62
     7
  6
CONTINUOUS
 10
115.573620
 20
141.997000
 40
0.300000
 50
202.024313
 51
270.000000
  0
LINE
  8
WHITE
 62
     7
  6
CONTINUOUS
 10
115.573620
 20
141.697000
 11
117.768000
 21
141.697000
  0
ARC
  8
WHITE
 62
     7
  6
CONTINUOUS
 10
117.768000
 20
142.072000
 40
0.375000
 50
270.000000
 51
351.265443
  0
ARC
  8
WHITE
 62
     7
  6
CONTINUOUS
 10
120.031321
 20
141.727431
 40
1.914400
 50
8.639294
 51
171.359083
  0
LINE
  8
WHITE
 62
     7
  6
CONTINUOUS
 10
20.309329
 20
47.914412
 11
21.531872
 21
47.914412
  0
ARC
  8
WHITE
 62
     7
  6
CONTINUOUS
 10
21.531872
 20
47.614412
 40
0.300000
 50
0.000000
 51
90.000000
  0
LINE
  8
WHITE
 62
     7
  6
CONTINUOUS
 10
21.831872
 20
47.614412
 11
21.831872
 21
46.864412
  0
ARC
  8
WHITE
 62
     7
  6
CONTINUOUS
 10
21.531872
 20
46.864412
 40
0.300000
 50
270.000000
 51
0.000000
  0
LINE
  8
WHITE
 62
     7
  6
CONTINUOUS
 10
21.531872
 20
46.564412
 11
20.314626
 21
46.564412
  0
ARC
  8
WHITE
 62
     7
  6
CONTINUOUS
 10
20.314626
 20
46.064412
 40
0.500000
 50
90.000000
 51
223.874562
  0
LINE
  8
WHITE
 62
     7
  6
CONTINUOUS
 10
19.954197
 20
45.717871
 11
25.435746
 21
40.016634
  0
ARC
  8
WHITE
 62
     7
  6
CONTINUOUS
 10
25.297309
 20
39.881523
 40
0.193442
 50
224.303444
 51
44.303445
  0
LINE
  8
WHITE
 62
     7
  6
CONTINUOUS
 10
25.158872
 20
39.746412
 11
18.700872
 21
46.417412
  0
ARC
  8
WHITE
 62
     7
  6
CONTINUOUS
 10
18.359115
 20
46.087160
 40
0.475252
 50
44.019111
 51
90.029272
  0
LINE
  8
WHITE
 62
     7
  6
CONTINUOUS
 10
18.358872
 20
46.562412
 11
17.500782
 21
46.564014
  0
ARC
  8
WHITE
 62
     7
  6
CONTINUOUS
 10
17.499849
 20
46.064014
 40
0.500000
 50
89.893060
 51
136.129885
  0
LINE
  8
WHITE
 62
     7
  6
CONTINUOUS
 10
17.139393
 20
46.410527
 11
10.596051
 21
39.603887
  0
ARC
  8
WHITE
 62
     7
  6
CONTINUOUS
 10
10.453462
 20
39.744150
 40
0.200013
 50
135.471375
 51
315.471375
  0
LINE
  8
WHITE
 62
     7
  6
CONTINUOUS
 10
10.310872
 20
39.884412
 11
16.495050
 21
46.419819
  0
ARC
  8
WHITE
 62
     7
  6
CONTINUOUS
 10
16.131872
 20
46.763478
 40
0.500000
 50
316.581721
 51
0.000000
  0
LINE
  8
WHITE
 62
     7
  6
CONTINUOUS
 10
16.631872
 20
46.763478
 11
16.631872
 21
47.828412
  0
ARC
  8
WHITE
 62
     7
  6
CONTINUOUS
 10
16.156873
 20
47.827774
 40
0.475000
 50
0.076972
 51
43.945594
  0
LINE
  8
WHITE
 62
     7
  6
CONTINUOUS
 10
16.498872
 20
48.157412
 11
10.310872
 21
54.593412
  0
ARC
  8
WHITE
 62
     7
  6
CONTINUOUS
 10
10.449309
 20
54.728523
 40
0.193442
 50
44.303445
 51
224.303444
  0
LINE
  8
WHITE
 62
     7
  6
CONTINUOUS
 10
10.587746
 20
54.863634
 11
17.140304
 21
48.066989
  0
ARC
  8
WHITE
 62
     7
  6
CONTINUOUS
 10
17.500262
 20
48.414020
 40
0.500000
 50
223.952477
 51
269.894334
  0
LINE
  8
WHITE
 62
     7
  6
CONTINUOUS
 10
17.499340
 20
47.914021
 11
18.371872
 21
47.912412
  0
ARC
  8
WHITE
 62
     7
  6
CONTINUOUS
 10
18.371872
 20
48.387412
 40
0.475000
 50
270.000000
 51
316.023030
  0
LINE
  8
WHITE
 62
     7
  6
CONTINUOUS
 10
18.713691
 20
48.057587
 11
25.158872
 21
54.732412
  0
ARC
  8
WHITE
 62
     7
  6
CONTINUOUS
 10
25.300889
 20
54.591564
 40
0.200018
 50
315.236751
 51
135.236751
  0
LINE
  8
WHITE
 62
     7
  6
CONTINUOUS
 10
25.442907
 20
54.450715
 11
19.949642
 21
48.761724
  0
ARC
  8
WHITE
 62
     7
  6
CONTINUOUS
 10
20.309329
 20
48.414412
 40
0.500000
 50
136.002767
 51
270.000000
  0
LINE
  8
WHITE
 62
     7
  6
CONTINUOUS
 10
36.019457
 20
21.745000
 11
37.242000
 21
21.745000
  0
ARC
  8
WHITE
 62
     7
  6
CONTINUOUS
 10
37.242000
 20
21.445000
 40
0.300000
 50
0.000000
 51
90.000000
  0
LINE
  8
WHITE
 62
     7
  6
CONTINUOUS
 10
37.542000
 20
21.445000
 11
37.542000
 21
20.695000
  0
ARC
  8
WHITE
 62
     7
  6
CONTINUOUS
 10
37.242000
 20
20.695000
 40
0.300000
 50
270.000000
 51
0.000000
  0
LINE
  8
WHITE
 62
     7
  6
CONTINUOUS
 10
37.242000
 20
20.395000
 11
36.024754
 21
20.395000
  0
ARC
  8
WHITE
 62
     7
  6
CONTINUOUS
 10
36.024754
 20
19.895000
 40
0.500000
 50
90.000000
 51
223.874562
  0
LINE
  8
WHITE
 62
     7
  6
CONTINUOUS
 10
35.664325
 20
19.548459
 11
41.145874
 21
13.847223
  0
ARC
  8
WHITE
 62
     7
  6
CONTINUOUS
 10
41.007437
 20
13.712111
 40
0.193442
 50
224.303445
 51
44.303445
  0
LINE
  8
WHITE
 62
     7
  6
CONTINUOUS
 10
40.869000
 20
13.577000
 11
34.411000
 21
20.248000
  0
ARC
  8
WHITE
 62
     7
  6
CONTINUOUS
 10
34.069243
 20
19.917749
 40
0.475252
 50
44.019111
 51
90.029272
  0
LINE
  8
WHITE
 62
     7
  6
CONTINUOUS
 10
34.069000
 20
20.393000
 11
33.210910
 21
20.394602
  0
ARC
  8
WHITE
 62
     7
  6
CONTINUOUS
 10
33.209977
 20
19.894602
 40
0.500000
 50
89.893060
 51
136.129885
  0
LINE
  8
WHITE
 62
     7
  6
CONTINUOUS
 10
32.849520
 20
20.241115
 11
26.306179
 21
13.434475
  0
ARC
  8
WHITE
 62
     7
  6
CONTINUOUS
 10
26.163589
 20
13.574738
 40
0.200013
 50
135.471375
 51
315.471375
  0
LINE
  8
WHITE
 62
     7
  6
CONTINUOUS
 10
26.021000
 20
13.715000
 11
32.205178
 21
20.250407
  0
ARC
  8
WHITE
 62
     7
  6
CONTINUOUS
 10
31.842000
 20
20.594067
 40
0.500000
 50
316.581721
 51
0.000000
  0
LINE
  8
WHITE
 62
     7
  6
CONTINUOUS
 10
32.342000
 20
20.594067
 11
32.342000
 21
21.659000
  0
ARC
  8
WHITE
 62
     7
  6
CONTINUOUS
 10
31.867000
 20
21.658362
 40
0.475000
 50
0.076972
 51
43.945594
  0
LINE
  8
WHITE
 62
     7
  6
CONTINUOUS
 10
32.209000
 20
21.988000
 11
26.021000
 21
28.424000
  0
ARC
  8
WHITE
 62
     7
  6
CONTINUOUS
 10
26.159437
 20
28.559111
 40
0.193442
 50
44.303445
 51
224.303445
  0
LINE
  8
WHITE
 62
     7
  6
CONTINUOUS
 10
26.297874
 20
28.694223
 11
32.850432
 21
21.897578
  0
ARC
  8
WHITE
 62
     7
  6
CONTINUOUS
 10
33.210390
 20
22.244608
 40
0.500000
 50
223.952477
 51
269.894334
  0
LINE
  8
WHITE
 62
     7
  6
CONTINUOUS
 10
33.209468
 20
21.744609
 11
34.082000
 21
21.743000
  0
ARC
  8
WHITE
 62
     7
  6
CONTINUOUS
 10
34.082000
 20
22.218000
 40
0.475000
 50
270.000000
 51
316.023030
  0
LINE
  8
WHITE
 62
     7
  6
CONTINUOUS
 10
34.423819
 20
21.888175
 11
40.869000
 21
28.563000
  0
ARC
  8
WHITE
 62
     7
  6
CONTINUOUS
 10
41.011017
 20
28.422152
 40
0.200018
 50
315.236751
 51
135.236751
  0
LINE
  8
WHITE
 62
     7
  6
CONTINUOUS
 10
41.153034
 20
28.281303
 11
35.659770
 21
22.592312
  0
ARC
  8
WHITE
 62
     7
  6
CONTINUOUS
 10
36.019457
 20
22.245000
 40
0.500000
 50
136.002767
 51
270.000000
  0
LINE
  8
WHITE
 62
     7
  6
CONTINUOUS
 10
144.463091
 20
21.745000
 11
145.685634
 21
21.745000
  0
ARC
  8
WHITE
 62
     7
  6
CONTINUOUS
 10
145.685634
 20
21.445000
 40
0.300000
 50
0.000000
 51
90.000000
  0
LINE
  8
WHITE
 62
     7
  6
CONTINUOUS
 10
145.985634
 20
21.445000
 11
145.985634
 21
20.695000
  0
ARC
  8
WHITE
 62
     7
  6
CONTINUOUS
 10
145.685634
 20
20.695000
 40
0.300000
 50
270.000000
 51
0.000000
  0
LINE
  8
WHITE
 62
     7
  6
CONTINUOUS
 10
145.685634
 20
20.395000
 11
144.468388
 21
20.395000
  0
ARC
  8
WHITE
 62
     7
  6
CONTINUOUS
 10
144.468388
 20
19.895000
 40
0.500000
 50
90.000000
 51
223.874562
  0
LINE
  8
WHITE
 62
     7
  6
CONTINUOUS
 10
144.107958
 20
19.548459
 11
149.589508
 21
13.847223
  0
ARC
  8
WHITE
 62
     7
  6
CONTINUOUS
 10
149.451071
 20
13.712111
 40
0.193442
 50
224.303445
 51
44.303445
  0
LINE
  8
WHITE
 62
     7
  6
CONTINUOUS
 10
149.312634
 20
13.577000
 11
142.854634
 21
20.248000
  0
ARC
  8
WHITE
 62
     7
  6
CONTINUOUS
 10
142.512877
 20
19.917749
 40
0.475252
 50
44.019111
 51
90.029272
  0
LINE
  8
WHITE
 62
     7
  6
CONTINUOUS
 10
142.512634
 20
20.393000
 11
141.654544
 21
20.394602
  0
ARC
  8
WHITE
 62
     7
  6
CONTINUOUS
 10
141.653610
 20
19.894602
 40
0.500000
 50
89.893060
 51
136.129885
  0
LINE
  8
WHITE
 62
     7
  6
CONTINUOUS
 10
141.293154
 20
20.241115
 11
134.749813
 21
13.434475
  0
ARC
  8
WHITE
 62
     7
  6
CONTINUOUS
 10
134.607223
 20
13.574738
 40
0.200013
 50
135.471375
 51
315.471375
  0
LINE
  8
WHITE
 62
     7
  6
CONTINUOUS
 10
134.464634
 20
13.715000
 11
140.648811
 21
20.250407
  0
ARC
  8
WHITE
 62
     7
  6
CONTINUOUS
 10
140.285634
 20
20.594067
 40
0.500000
 50
316.581721
 51
0.000000
  0
LINE
  8
WHITE
 62
     7
  6
CONTINUOUS
 10
140.785634
 20
20.594067
 11
140.785634
 21
21.659000
  0
ARC
  8
WHITE
 62
     7
  6
CONTINUOUS
 10
140.310634
 20
21.658362
 40
0.475000
 50
0.076972
 51
43.945594
  0
LINE
  8
WHITE
 62
     7
  6
CONTINUOUS
 10
140.652634
 20
21.988000
 11
134.464634
 21
28.424000
  0
ARC
  8
WHITE
 62
     7
  6
CONTINUOUS
 10
134.603071
 20
28.559111
 40
0.193442
 50
44.303445
 51
224.303445
  0
LINE
  8
WHITE
 62
     7
  6
CONTINUOUS
 10
134.741508
 20
28.694223
 11
141.294066
 21
21.897578
  0
ARC
  8
WHITE
 62
     7
  6
CONTINUOUS
 10
141.654024
 20
22.244608
 40
0.500000
 50
223.952477
 51
269.894334
  0
LINE
  8
WHITE
 62
     7
  6
CONTINUOUS
 10
141.653101
 20
21.744609
 11
142.525634
 21
21.743000
  0
ARC
  8
WHITE
 62
     7
  6
CONTINUOUS
 10
142.525634
 20
22.218000
 40
0.475000
 50
270.000000
 51
316.023030
  0
LINE
  8
WHITE
 62
     7
  6
CONTINUOUS
 10
142.867453
 20
21.888175
 11
149.312634
 21
28.563000
  0
ARC
  8
WHITE
 62
     7
  6
CONTINUOUS
 10
149.454651
 20
28.422152
 40
0.200018
 50
315.236751
 51
135.236751
  0
LINE
  8
WHITE
 62
     7
  6
CONTINUOUS
 10
149.596668
 20
28.281303
 11
144.103404
 21
22.592312
  0
ARC
  8
WHITE
 62
     7
  6
CONTINUOUS
 10
144.463091
 20
22.245000
 40
0.500000
 50
136.002767
 51
270.000000
  0
LINE
  8
WHITE
 62
     7
  6
CONTINUOUS
 10
181.222359
 20
21.745000
 11
182.444902
 21
21.745000
  0
ARC
  8
WHITE
 62
     7
  6
CONTINUOUS
 10
182.444902
 20
21.445000
 40
0.300000
 50
0.000000
 51
90.000000
  0
LINE
  8
WHITE
 62
     7
  6
CONTINUOUS
 10
182.744902
 20
21.445000
 11
182.744902
 21
20.695000
  0
ARC
  8
WHITE
 62
     7
  6
CONTINUOUS
 10
182.444902
 20
20.695000
 40
0.300000
 50
270.000000
 51
0.000000
  0
LINE
  8
WHITE
 62
     7
  6
CONTINUOUS
 10
182.444902
 20
20.395000
 11
181.227656
 21
20.395000
  0
ARC
  8
WHITE
 62
     7
  6
CONTINUOUS
 10
181.227656
 20
19.895000
 40
0.500000
 50
90.000000
 51
223.874562
  0
LINE
  8
WHITE
 62
     7
  6
CONTINUOUS
 10
180.867226
 20
19.548459
 11
186.348776
 21
13.847223
  0
ARC
  8
WHITE
 62
     7
  6
CONTINUOUS
 10
186.210339
 20
13.712111
 40
0.193442
 50
224.303445
 51
44.303444
  0
LINE
  8
WHITE
 62
     7
  6
CONTINUOUS
 10
186.071902
 20
13.577000
 11
179.613902
 21
20.248000
  0
ARC
  8
WHITE
 62
     7
  6
CONTINUOUS
 10
179.272145
 20
19.917749
 40
0.475252
 50
44.019111
 51
90.029272
  0
LINE
  8
WHITE
 62
     7
  6
CONTINUOUS
 10
179.271902
 20
20.393000
 11
178.413812
 21
20.394602
  0
ARC
  8
WHITE
 62
     7
  6
CONTINUOUS
 10
178.412878
 20
19.894602
 40
0.500000
 50
89.893060
 51
136.129885
  0
LINE
  8
WHITE
 62
     7
  6
CONTINUOUS
 10
178.052422
 20
20.241115
 11
171.509081
 21
13.434475
  0
ARC
  8
WHITE
 62
     7
  6
CONTINUOUS
 10
171.366491
 20
13.574738
 40
0.200013
 50
135.471375
 51
315.471375
  0
LINE
  8
WHITE
 62
     7
  6
CONTINUOUS
 10
171.223902
 20
13.715000
 11
177.408079
 21
20.250407
  0
ARC
  8
WHITE
 62
     7
  6
CONTINUOUS
 10
177.044902
 20
20.594067
 40
0.500000
 50
316.581721
 51
0.000000
  0
LINE
  8
WHITE
 62
     7
  6
CONTINUOUS
 10
177.544902
 20
20.594067
 11
177.544902
 21
21.659000
  0
ARC
  8
WHITE
 62
     7
  6
CONTINUOUS
 10
177.069902
 20
21.658362
 40
0.475000
 50
0.076972
 51
43.945594
  0
LINE
  8
WHITE
 62
     7
  6
CONTINUOUS
 10
177.411902
 20
21.988000
 11
171.223902
 21
28.424000
  0
ARC
  8
WHITE
 62
     7
  6
CONTINUOUS
 10
171.362339
 20
28.559111
 40
0.193442
 50
44.303444
 51
224.303445
  0
LINE
  8
WHITE
 62
     7
  6
CONTINUOUS
 10
171.500776
 20
28.694223
 11
178.053334
 21
21.897578
  0
ARC
  8
WHITE
 62
     7
  6
CONTINUOUS
 10
178.413292
 20
22.244608
 40
0.500000
 50
223.952477
 51
269.894334
  0
LINE
  8
WHITE
 62
     7
  6
CONTINUOUS
 10
178.412369
 20
21.744609
 11
179.284902
 21
21.743000
  0
ARC
  8
WHITE
 62
     7
  6
CONTINUOUS
 10
179.284902
 20
22.218000
 40
0.475000
 50
270.000000
 51
316.023030
  0
LINE
  8
WHITE
 62
     7
  6
CONTINUOUS
 10
179.626721
 20
21.888175
 11
186.071902
 21
28.563000
  0
ARC
  8
WHITE
 62
     7
  6
CONTINUOUS
 10
186.213919
 20
28.422152
 40
0.200018
 50
315.236751
 51
135.236751
  0
LINE
  8
WHITE
 62
     7
  6
CONTINUOUS
 10
186.355936
 20
28.281303
 11
180.862672
 21
22.592312
  0
ARC
  8
WHITE
 62
     7
  6
CONTINUOUS
 10
181.222359
 20
22.245000
 40
0.500000
 50
136.002767
 51
270.000000
  0
ARC
  8
WHITE
 62
     7
  6
CONTINUOUS
 10
117.735976
 20
167.533921
 40
0.414318
 50
13.408734
 51
85.566970
  0
ARC
  8
WHITE
 62
     7
  6
CONTINUOUS
 10
120.031000
 20
167.922000
 40
1.914400
 50
188.773468
 51
351.231095
  0
ARC
  8
WHITE
 62
     7
  6
CONTINUOUS
 10
122.292632
 20
167.573001
 40
0.374001
 50
89.790489
 51
171.210449
  0
LINE
  8
WHITE
 62
     7
  6
CONTINUOUS
 10
122.294000
 20
167.947000
 11
124.140380
 21
167.947000
  0
ARC
  8
WHITE
 62
     7
  6
CONTINUOUS
 10
124.140380
 20
167.647000
 40
0.300000
 50
22.024313
 51
90.000000
  0
ARC
  8
WHITE
 62
     7
  6
CONTINUOUS
 10
124.882000
 20
167.947000
 40
0.500000
 50
202.024313
 51
67.977420
  0
ARC
  8
WHITE
 62
     7
  6
CONTINUOUS
 10
125.181978
 20
168.688629
 40
0.300000
 50
180.005320
 51
247.977420
  0
LINE
  8
WHITE
 62
     7
  6
CONTINUOUS
 10
124.881978
 20
168.688601
 11
124.881976
 21
168.705304
  0
ARC
  8
WHITE
 62
     7
  6
CONTINUOUS
 10
125.181976
 20
168.705370
 40
0.300000
 50
112.022460
 51
180.012688
  0
ARC
  8
WHITE
 62
     7
  6
CONTINUOUS
 10
124.882000
 20
169.447000
 40
0.500000
 50
292.022460
 51
157.975687
  0
ARC
  8
WHITE
 62
     7
  6
CONTINUOUS
 10
124.140380
 20
169.747000
 40
0.300000
 50
270.000000
 51
337.975687
  0
LINE
  8
WHITE
 62
     7
  6
CONTINUOUS
 10
124.140380
 20
169.447000
 11
115.573620
 21
169.447000
  0
ARC
  8
WHITE
 62
     7
  6
CONTINUOUS
 10
115.573620
 20
169.747000
 40
0.300000
 50
202.024313
 51
270.000000
  0
ARC
  8
WHITE
 62
     7
  6
CONTINUOUS
 10
114.832000
 20
169.447000
 40
0.500000
 50
22.024313
 51
247.975695
  0
ARC
  8
WHITE
 62
     7
  6
CONTINUOUS
 10
114.532000
 20
168.705380
 40
0.300000
 50
0.000000
 51
67.975695
  0
LINE
  8
WHITE
 62
     7
  6
CONTINUOUS
 10
114.832000
 20
168.705380
 11
114.831934
 21
168.688593
  0
ARC
  8
WHITE
 62
     7
  6
CONTINUOUS
 10
114.531934
 20
168.688593
 40
0.300000
 50
292.029414
 51
0.000000
  0
ARC
  8
WHITE
 62
     7
  6
CONTINUOUS
 10
114.832000
 20
167.947000
 40
0.500000
 50
112.029414
 51
337.975687
  0
ARC
  8
WHITE
 62
     7
  6
CONTINUOUS
 10
115.573620
 20
167.647000
 40
0.300000
 50
90.000000
 51
157.975687
  0
LINE
  8
WHITE
 62
     7
  6
CONTINUOUS
 10
115.573620
 20
167.947000
 11
117.768000
 21
167.947000
  0
ARC
  8
WHITE
 62
     7
  6
CONTINUOUS
 10
69.656014
 20
152.514068
 40
1.124496
 50
114.538795
 51
178.321808
  0
LINE
  8
WHITE
 62
     7
  6
CONTINUOUS
 10
68.532000
 20
152.547000
 11
68.532000
 21
150.613620
  0
ARC
  8
WHITE
 62
     7
  6
CONTINUOUS
 10
68.832000
 20
150.613620
 40
0.300000
 50
180.000000
 51
247.975687
  0
ARC
  8
WHITE
 62
     7
  6
CONTINUOUS
 10
68.532000
 20
149.872000
 40
0.500000
 50
202.024278
 51
67.975687
  0
ARC
  8
WHITE
 62
     7
  6
CONTINUOUS
 10
67.790380
 20
149.572000
 40
0.300000
 50
22.024278
 51
90.000000
  0
LINE
  8
WHITE
 62
     7
  6
CONTINUOUS
 10
67.790380
 20
149.872000
 11
67.723620
 21
149.872000
  0
ARC
  8
WHITE
 62
     7
  6
CONTINUOUS
 10
67.723620
 20
149.572000
 40
0.300000
 50
90.000000
 51
157.975687
  0
ARC
  8
WHITE
 62
     7
  6
CONTINUOUS
 10
66.982000
 20
149.872000
 40
0.500000
 50
112.024313
 51
337.975687
  0
ARC
  8
WHITE
 62
     7
  6
CONTINUOUS
 10
66.682000
 20
150.613620
 40
0.300000
 50
292.024313
 51
0.000000
  0
LINE
  8
WHITE
 62
     7
  6
CONTINUOUS
 10
66.982000
 20
150.613620
 11
66.982000
 21
159.030380
  0
ARC
  8
WHITE
 62
     7
  6
CONTINUOUS
 10
66.682000
 20
159.030380
 40
0.300000
 50
0.000000
 51
67.975687
  0
ARC
  8
WHITE
 62
     7
  6
CONTINUOUS
 10
66.982000
 20
159.772000
 40
0.500000
 50
22.024312
 51
247.975687
  0
ARC
  8
WHITE
 62
     7
  6
CONTINUOUS
 10
67.723620
 20
160.072000
 40
0.300000
 50
202.024312
 51
270.000000
  0
LINE
  8
WHITE
 62
     7
  6
CONTINUOUS
 10
67.723620
 20
159.772000
 11
67.790380
 21
159.771999
  0
ARC
  8
WHITE
 62
     7
  6
CONTINUOUS
 10
67.790380
 20
160.071999
 40
0.300000
 50
270.000000
 51
337.975803
  0
ARC
  8
WHITE
 62
     7
  6
CONTINUOUS
 10
68.532000
 20
159.772000
 40
0.500000
 50
292.024313
 51
157.975803
  0
ARC
  8
WHITE
 62
     7
  6
CONTINUOUS
 10
68.832000
 20
159.030380
 40
0.300000
 50
112.024313
 51
180.000000
  0
LINE
  8
WHITE
 62
     7
  6
CONTINUOUS
 10
68.532000
 20
159.030380
 11
68.532000
 21
157.380000
  0
ARC
  8
WHITE
 62
     7
  6
CONTINUOUS
 10
69.607000
 20
157.379000
 40
1.075000
 50
179.946702
 51
247.109448
  0
ARC
  8
WHITE
 62
     7
  6
CONTINUOUS
 10
68.586521
 20
154.962797
 40
1.547863
 50
292.906787
 51
67.099045
  0
ARC
  8
WHITE
 62
     7
  6
CONTINUOUS
 10
58.164824
 20
142.081233
 40
0.384293
 50
192.050848
 51
268.982466
  0
LINE
  8
WHITE
 62
     7
  6
CONTINUOUS
 10
58.158000
 20
141.697000
 11
60.390380
 21
141.697000
  0
ARC
  8
WHITE
 62
     7
  6
CONTINUOUS
 10
60.390380
 20
141.997000
 40
0.300000
 50
270.000000
 51
337.975687
  0
ARC
  8
WHITE
 62
     7
  6
CONTINUOUS
 10
61.132000
 20
141.697000
 40
0.500000
 50
292.025694
 51
157.975687
  0
ARC
  8
WHITE
 62
     7
  6
CONTINUOUS
 10
61.432018
 20
140.955387
 40
0.300000
 50
112.025694
 51
180.000000
  0
LINE
  8
WHITE
 62
     7
  6
CONTINUOUS
 10
61.132018
 20
140.955387
 11
61.132000
 21
140.938620
  0
ARC
  8
WHITE
 62
     7
  6
CONTINUOUS
 10
61.432000
 20
140.938620
 40
0.300000
 50
180.000000
 51
247.975685
  0
ARC
  8
WHITE
 62
     7
  6
CONTINUOUS
 10
61.132000
 20
140.197000
 40
0.500000
 50
202.024313
 51
67.975685
  0
ARC
  8
WHITE
 62
     7
  6
CONTINUOUS
 10
60.390380
 20
139.897000
 40
0.300000
 50
22.024313
 51
90.000000
  0
LINE
  8
WHITE
 62
     7
  6
CONTINUOUS
 10
60.390380
 20
140.197000
 11
51.823620
 21
140.197000
  0
ARC
  8
WHITE
 62
     7
  6
CONTINUOUS
 10
51.823620
 20
139.897000
 40
0.300000
 50
90.000000
 51
157.975687
  0
ARC
  8
WHITE
 62
     7
  6
CONTINUOUS
 10
51.082000
 20
140.197000
 40
0.500000
 50
112.024145
 51
337.975687
  0
ARC
  8
WHITE
 62
     7
  6
CONTINUOUS
 10
50.782002
 20
140.938621
 40
0.300000
 50
292.024145
 51
0.000000
  0
LINE
  8
WHITE
 62
     7
  6
CONTINUOUS
 10
51.082002
 20
140.938621
 11
51.082000
 21
140.955380
  0
ARC
  8
WHITE
 62
     7
  6
CONTINUOUS
 10
50.782000
 20
140.955380
 40
0.300000
 50
0.000000
 51
67.975687
  0
ARC
  8
WHITE
 62
     7
  6
CONTINUOUS
 10
51.082000
 20
141.697000
 40
0.500000
 50
22.024313
 51
247.975687
  0
ARC
  8
WHITE
 62
     7
  6
CONTINUOUS
 10
51.823620
 20
141.997000
 40
0.300000
 50
202.024313
 51
270.000000
  0
LINE
  8
WHITE
 62
     7
  6
CONTINUOUS
 10
51.823620
 20
141.697000
 11
54.348000
 21
141.697000
  0
ARC
  8
WHITE
 62
     7
  6
CONTINUOUS
 10
54.346782
 20
142.071998
 40
0.375000
 50
270.186031
 51
349.115429
  0
ARC
  8
WHITE
 62
     7
  6
CONTINUOUS
 10
56.252000
 20
141.704000
 40
1.565432
 50
10.936675
 51
169.056376
  0
ARC
  8
WHITE
 62
     7
  6
CONTINUOUS
 10
54.319121
 20
167.537304
 40
0.410713
 50
14.912744
 51
85.967920
  0
ARC
  8
WHITE
 62
     7
  6
CONTINUOUS
 10
56.252391
 20
167.943136
 40
1.565432
 50
191.053619
 51
348.947898
  0
ARC
  8
WHITE
 62
     7
  6
CONTINUOUS
 10
58.157000
 20
167.572000
 40
0.375001
 50
89.847212
 51
169.079829
  0
LINE
  8
WHITE
 62
     7
  6
CONTINUOUS
 10
58.158000
 20
167.947000
 11
60.390380
 21
167.947000
  0
ARC
  8
WHITE
 62
     7
  6
CONTINUOUS
 10
60.390380
 20
167.647000
 40
0.300000
 50
22.024313
 51
90.000000
  0
ARC
  8
WHITE
 62
     7
  6
CONTINUOUS
 10
61.132000
 20
167.947000
 40
0.500000
 50
202.024313
 51
67.975689
  0
ARC
  8
WHITE
 62
     7
  6
CONTINUOUS
 10
61.432000
 20
168.688620
 40
0.300000
 50
180.000000
 51
247.975689
  0
LINE
  8
WHITE
 62
     7
  6
CONTINUOUS
 10
61.132000
 20
168.688620
 11
61.131981
 21
168.705373
  0
ARC
  8
WHITE
 62
     7
  6
CONTINUOUS
 10
61.431981
 20
168.705373
 40
0.300000
 50
112.022866
 51
180.000000
  0
ARC
  8
WHITE
 62
     7
  6
CONTINUOUS
 10
61.132000
 20
169.447000
 40
0.500000
 50
292.022866
 51
157.975687
  0
ARC
  8
WHITE
 62
     7
  6
CONTINUOUS
 10
60.390380
 20
169.747000
 40
0.300000
 50
270.000000
 51
337.975687
  0
LINE
  8
WHITE
 62
     7
  6
CONTINUOUS
 10
60.390380
 20
169.447000
 11
51.823620
 21
169.447000
  0
ARC
  8
WHITE
 62
     7
  6
CONTINUOUS
 10
51.823620
 20
169.747000
 40
0.300000
 50
202.024313
 51
270.000000
  0
ARC
  8
WHITE
 62
     7
  6
CONTINUOUS
 10
51.082000
 20
169.447000
 40
0.500000
 50
22.024313
 51
247.975684
  0
ARC
  8
WHITE
 62
     7
  6
CONTINUOUS
 10
50.782000
 20
168.705380
 40
0.300000
 50
0.000000
 51
67.975684
  0
LINE
  8
WHITE
 62
     7
  6
CONTINUOUS
 10
51.082000
 20
168.705380
 11
51.082028
 21
168.688631
  0
ARC
  8
WHITE
 62
     7
  6
CONTINUOUS
 10
50.782028
 20
168.688631
 40
0.300000
 50
292.022172
 51
0.000000
  0
ARC
  8
WHITE
 62
     7
  6
CONTINUOUS
 10
51.082000
 20
167.947000
 40
0.500000
 50
112.022172
 51
337.975687
  0
ARC
  8
WHITE
 62
     7
  6
CONTINUOUS
 10
51.823620
 20
167.647000
 40
0.300000
 50
90.000000
 51
157.975687
  0
LINE
  8
WHITE
 62
     7
  6
CONTINUOUS
 10
51.823620
 20
167.947000
 11
54.348000
 21
167.947000
  0
ARC
  8
WHITE
 62
     7
  6
CONTINUOUS
 10
87.463000
 20
154.808000
 40
1.526125
 50
299.824045
 51
60.194616
  0
ARC
  8
WHITE
 62
     7
  6
CONTINUOUS
 10
88.595901
 20
152.644824
 40
0.918704
 50
114.015713
 51
185.861646
  0
LINE
  8
WHITE
 62
     7
  6
CONTINUOUS
 10
87.682000
 20
152.551000
 11
87.682000
 21
150.593620
  0
ARC
  8
WHITE
 62
     7
  6
CONTINUOUS
 10
87.982000
 20
150.593620
 40
0.300000
 50
180.000000
 51
247.975687
  0
ARC
  8
WHITE
 62
     7
  6
CONTINUOUS
 10
87.682000
 20
149.852000
 40
0.500000
 50
202.024313
 51
67.975687
  0
ARC
  8
WHITE
 62
     7
  6
CONTINUOUS
 10
86.940380
 20
149.552000
 40
0.300000
 50
22.024313
 51
90.000000
  0
LINE
  8
WHITE
 62
     7
  6
CONTINUOUS
 10
86.940380
 20
149.852000
 11
86.873619
 21
149.851999
  0
ARC
  8
WHITE
 62
     7
  6
CONTINUOUS
 10
86.873619
 20
149.551999
 40
0.300000
 50
90.000000
 51
157.975613
  0
ARC
  8
WHITE
 62
     7
  6
CONTINUOUS
 10
86.132000
 20
149.852000
 40
0.500000
 50
112.024313
 51
337.975613
  0
ARC
  8
WHITE
 62
     7
  6
CONTINUOUS
 10
85.832000
 20
150.593620
 40
0.300000
 50
292.024313
 51
0.000000
  0
LINE
  8
WHITE
 62
     7
  6
CONTINUOUS
 10
86.132000
 20
150.593620
 11
86.132000
 21
159.050380
  0
ARC
  8
WHITE
 62
     7
  6
CONTINUOUS
 10
85.832000
 20
159.050380
 40
0.300000
 50
0.000000
 51
67.975687
  0
ARC
  8
WHITE
 62
     7
  6
CONTINUOUS
 10
86.132000
 20
159.792000
 40
0.500000
 50
22.024312
 51
247.975687
  0
ARC
  8
WHITE
 62
     7
  6
CONTINUOUS
 10
86.873620
 20
160.092000
 40
0.300000
 50
202.024312
 51
270.000000
  0
LINE
  8
WHITE
 62
     7
  6
CONTINUOUS
 10
86.873620
 20
159.792000
 11
86.940379
 21
159.791997
  0
ARC
  8
WHITE
 62
     7
  6
CONTINUOUS
 10
86.940379
 20
160.091997
 40
0.300000
 50
270.000000
 51
337.975931
  0
ARC
  8
WHITE
 62
     7
  6
CONTINUOUS
 10
87.682000
 20
159.792000
 40
0.500000
 50
292.024313
 51
157.975931
  0
ARC
  8
WHITE
 62
     7
  6
CONTINUOUS
 10
87.982000
 20
159.050380
 40
0.300000
 50
112.024313
 51
180.000000
  0
LINE
  8
WHITE
 62
     7
  6
CONTINUOUS
 10
87.682000
 20
159.050380
 11
87.682000
 21
157.065000
  0
ARC
  8
WHITE
 62
     7
  6
CONTINUOUS
 10
88.757000
 20
157.064416
 40
1.075000
 50
179.968881
 51
240.127232
  0
ARC
  8
WHITE
 62
     7
  6
CONTINUOUS
 10
18.290380
 20
159.052000
 40
0.300000
 50
270.000000
 51
337.975687
  0
LINE
  8
WHITE
 62
     7
  6
CONTINUOUS
 10
18.290380
 20
158.752000
 11
18.273620
 21
158.752000
  0
ARC
  8
WHITE
 62
     7
  6
CONTINUOUS
 10
18.273620
 20
159.052000
 40
0.300000
 50
202.024313
 51
270.000000
  0
ARC
  8
WHITE
 62
     7
  6
CONTINUOUS
 10
17.532000
 20
158.752000
 40
0.500000
 50
22.024313
 51
247.975687
  0
ARC
  8
WHITE
 62
     7
  6
CONTINUOUS
 10
17.232000
 20
158.010380
 40
0.300000
 50
0.000000
 51
67.975687
  0
LINE
  8
WHITE
 62
     7
  6
CONTINUOUS
 10
17.532000
 20
158.010380
 11
17.532000
 21
151.633620
  0
ARC
  8
WHITE
 62
     7
  6
CONTINUOUS
 10
17.232000
 20
151.633620
 40
0.300000
 50
292.024313
 51
0.000000
  0
ARC
  8
WHITE
 62
     7
  6
CONTINUOUS
 10
17.532000
 20
150.892000
 40
0.500000
 50
112.024313
 51
337.975687
  0
ARC
  8
WHITE
 62
     7
  6
CONTINUOUS
 10
18.273620
 20
150.592000
 40
0.300000
 50
90.000000
 51
157.975687
  0
LINE
  8
WHITE
 62
     7
  6
CONTINUOUS
 10
18.273620
 20
150.892000
 11
18.290380
 21
150.892000
  0
ARC
  8
WHITE
 62
     7
  6
CONTINUOUS
 10
18.290380
 20
150.592000
 40
0.300000
 50
22.024313
 51
90.000000
  0
ARC
  8
WHITE
 62
     7
  6
CONTINUOUS
 10
19.032000
 20
150.892000
 40
0.500000
 50
202.024313
 51
67.975687
  0
ARC
  8
WHITE
 62
     7
  6
CONTINUOUS
 10
19.332000
 20
151.633620
 40
0.300000
 50
180.000000
 51
247.975687
  0
LINE
  8
WHITE
 62
     7
  6
CONTINUOUS
 10
19.032000
 20
151.633620
 11
19.031963
 21
152.425282
  0
ARC
  8
WHITE
 62
     7
  6
CONTINUOUS
 10
19.531963
 20
152.425282
 40
0.500000
 50
106.648865
 51
180.000000
  0
ARC
  8
WHITE
 62
     7
  6
CONTINUOUS
 10
18.829000
 20
154.776000
 40
1.953576
 50
286.648865
 51
73.350552
  0
ARC
  8
WHITE
 62
     7
  6
CONTINUOUS
 10
19.531987
 20
157.126711
 40
0.500000
 50
180.000000
 51
253.350552
  0
LINE
  8
WHITE
 62
     7
  6
CONTINUOUS
 10
19.031987
 20
157.126711
 11
19.032000
 21
158.010380
  0
ARC
  8
WHITE
 62
     7
  6
CONTINUOUS
 10
19.332000
 20
158.010380
 40
0.300000
 50
112.024313
 51
180.000000
  0
ARC
  8
WHITE
 62
     7
  6
CONTINUOUS
 10
19.032000
 20
158.752000
 40
0.500000
 50
292.024313
 51
157.975687
  0
LINE
  8
WHITE
 62
     7
  6
CONTINUOUS
 10
25.569691
 20
81.763893
 11
21.101155
 21
80.227089
  0
ARC
  8
WHITE
 62
     7
  6
CONTINUOUS
 10
21.003587
 20
80.510779
 40
0.300000
 50
198.971662
 51
288.979334
  0
LINE
  8
WHITE
 62
     7
  6
CONTINUOUS
 10
20.719883
 20
80.413249
 11
20.619527
 21
80.705173
  0
ARC
  8
WHITE
 62
     7
  6
CONTINUOUS
 10
20.335823
 20
80.607643
 40
0.300000
 50
18.971662
 51
86.947349
  0
ARC
  8
WHITE
 62
     7
  6
CONTINUOUS
 10
20.378426
 20
81.406507
 40
0.500000
 50
40.988272
 51
266.947349
  0
ARC
  8
WHITE
 62
     7
  6
CONTINUOUS
 10
20.982301
 20
81.931231
 40
0.300000
 50
220.988272
 51
288.963959
  0
LINE
  8
WHITE
 62
     7
  6
CONTINUOUS
 10
21.079793
 20
81.647514
 11
23.453000
 21
82.463000
  0
ARC
  8
WHITE
 62
     7
  6
CONTINUOUS
 10
23.330546
 20
82.816843
 40
0.374433
 50
289.089192
 51
9.374080
  0
ARC
  8
WHITE
 62
     7
  6
CONTINUOUS
 10
25.106000
 20
83.111000
 40
1.425225
 50
28.543083
 51
189.416025
  0
ARC
  8
WHITE
 62
     7
  6
CONTINUOUS
 10
26.687000
 20
83.972000
 40
0.375021
 50
208.683619
 51
288.965897
  0
LINE
  8
WHITE
 62
     7
  6
CONTINUOUS
 10
26.808884
 20
83.617338
 11
29.181204
 21
84.432493
  0
ARC
  8
WHITE
 62
     7
  6
CONTINUOUS
 10
29.083715
 20
84.716211
 40
0.300000
 50
288.963374
 51
356.939062
  0
ARC
  8
WHITE
 62
     7
  6
CONTINUOUS
 10
29.882574
 20
84.673493
 40
0.500000
 50
310.995975
 51
176.939061
  0
ARC
  8
WHITE
 62
     7
  6
CONTINUOUS
 10
30.407379
 20
84.069688
 40
0.300000
 50
130.995975
 51
198.971662
  0
LINE
  8
WHITE
 62
     7
  6
CONTINUOUS
 10
30.123675
 20
83.972158
 11
30.224026
 21
83.680249
  0
ARC
  8
WHITE
 62
     7
  6
CONTINUOUS
 10
29.940322
 20
83.582719
 40
0.300000
 50
288.961136
 51
18.971662
  0
LINE
  8
WHITE
 62
     7
  6
CONTINUOUS
 10
30.037800
 20
83.298997
 11
25.569691
 21
81.763893
  0
LINE
  8
WHITE
 62
     7
  6
CONTINUOUS
 10
25.570000
 20
226.551000
 11
30.037867
 21
225.015021
  0
ARC
  8
WHITE
 62
     7
  6
CONTINUOUS
 10
29.940334
 20
224.731318
 40
0.300000
 50
341.028338
 51
71.027873
  0
LINE
  8
WHITE
 62
     7
  6
CONTINUOUS
 10
30.224038
 20
224.633788
 11
30.123669
 21
224.341824
  0
ARC
  8
WHITE
 62
     7
  6
CONTINUOUS
 10
30.407372
 20
224.244294
 40
0.300000
 50
161.028338
 51
229.004025
  0
ARC
  8
WHITE
 62
     7
  6
CONTINUOUS
 10
29.882568
 20
223.640489
 40
0.500000
 50
183.054443
 51
49.004025
  0
ARC
  8
WHITE
 62
     7
  6
CONTINUOUS
 10
29.083704
 20
223.597861
 40
0.300000
 50
3.054443
 51
71.030130
  0
LINE
  8
WHITE
 62
     7
  6
CONTINUOUS
 10
29.181225
 20
223.881568
 11
26.809000
 21
224.697000
  0
ARC
  8
WHITE
 62
     7
  6
CONTINUOUS
 10
26.687000
 20
224.343000
 40
0.374433
 50
70.984371
 51
151.450584
  0
ARC
  8
WHITE
 62
     7
  6
CONTINUOUS
 10
25.107274
 20
225.204665
 40
1.425012
 50
170.698073
 51
331.373627
  0
ARC
  8
WHITE
 62
     7
  6
CONTINUOUS
 10
23.331000
 20
225.496000
 40
0.374995
 50
350.638153
 51
71.034103
  0
LINE
  8
WHITE
 62
     7
  6
CONTINUOUS
 10
23.452875
 20
225.850637
 11
21.079770
 21
226.666419
  0
ARC
  8
WHITE
 62
     7
  6
CONTINUOUS
 10
20.982243
 20
226.382714
 40
0.300000
 50
71.029062
 51
139.004749
  0
ARC
  8
WHITE
 62
     7
  6
CONTINUOUS
 10
20.378432
 20
226.907511
 40
0.500000
 50
93.052651
 51
319.004749
  0
ARC
  8
WHITE
 62
     7
  6
CONTINUOUS
 10
20.335829
 20
227.706376
 40
0.300000
 50
273.052651
 51
341.028338
  0
LINE
  8
WHITE
 62
     7
  6
CONTINUOUS
 10
20.619533
 20
227.608845
 11
20.719908
 21
227.900823
  0
ARC
  8
WHITE
 62
     7
  6
CONTINUOUS
 10
21.003612
 20
227.803293
 40
0.300000
 50
71.031655
 51
161.028338
  0
LINE
  8
WHITE
 62
     7
  6
CONTINUOUS
 10
21.101125
 20
228.087003
 11
25.570000
 21
226.551000
  0
LINE
  8
WHITE
 62
     7
  6
CONTINUOUS
 10
60.154000
 20
229.152000
 11
54.484000
 21
221.592000
  0
ARC
  8
WHITE
 62
     7
  6
CONTINUOUS
 10
54.724000
 20
221.412000
 40
0.300000
 50
143.130102
 51
233.130102
  0
LINE
  8
WHITE
 62
     7
  6
CONTINUOUS
 10
54.544000
 20
221.172000
 11
54.790704
 21
220.986972
  0
ARC
  8
WHITE
 62
     7
  6
CONTINUOUS
 10
54.610704
 20
220.746972
 40
0.300000
 50
345.154415
 51
53.130102
  0
ARC
  8
WHITE
 62
     7
  6
CONTINUOUS
 10
55.384000
 20
220.542000
 40
0.500000
 50
165.154415
 51
31.105789
  0
ARC
  8
WHITE
 62
     7
  6
CONTINUOUS
 10
56.068972
 20
220.955296
 40
0.300000
 50
143.130102
 51
211.105790
  0
LINE
  8
WHITE
 62
     7
  6
CONTINUOUS
 10
55.828972
 20
221.135296
 11
57.334000
 21
223.142000
  0
ARC
  8
WHITE
 62
     7
  6
CONTINUOUS
 10
57.633817
 20
222.917094
 40
0.374797
 50
62.651475
 51
143.124896
  0
ARC
  8
WHITE
 62
     7
  6
CONTINUOUS
 10
58.456301
 20
224.518387
 40
1.425376
 50
242.855830
 51
43.435013
  0
ARC
  8
WHITE
 62
     7
  6
CONTINUOUS
 10
59.764000
 20
225.757000
 40
0.375800
 50
143.221580
 51
223.486878
  0
LINE
  8
WHITE
 62
     7
  6
CONTINUOUS
 10
59.463000
 20
225.982000
 11
60.968877
 21
227.988817
  0
ARC
  8
WHITE
 62
     7
  6
CONTINUOUS
 10
61.208832
 20
227.808756
 40
0.300000
 50
75.139867
 51
143.115554
  0
ARC
  8
WHITE
 62
     7
  6
CONTINUOUS
 10
61.414000
 20
228.582000
 40
0.500000
 50
255.139867
 51
121.105790
  0
ARC
  8
WHITE
 62
     7
  6
CONTINUOUS
 10
61.000704
 20
229.266972
 40
0.300000
 50
233.130102
 51
301.105789
  0
LINE
  8
WHITE
 62
     7
  6
CONTINUOUS
 10
60.820704
 20
229.026972
 11
60.574000
 21
229.212000
  0
ARC
  8
WHITE
 62
     7
  6
CONTINUOUS
 10
60.394000
 20
228.972000
 40
0.300000
 50
53.130102
 51
143.130102
  0
ARC
  8
WHITE
 62
     7
  6
CONTINUOUS
 10
55.564000
 20
87.532000
 40
0.500000
 50
328.894211
 51
194.845585
  0
ARC
  8
WHITE
 62
     7
  6
CONTINUOUS
 10
54.790704
 20
87.327028
 40
0.300000
 50
306.869898
 51
14.845585
  0
LINE
  8
WHITE
 62
     7
  6
CONTINUOUS
 10
54.970704
 20
87.087028
 11
54.724000
 21
86.902000
  0
ARC
  8
WHITE
 62
     7
  6
CONTINUOUS
 10
54.904000
 20
86.662000
 40
0.300000
 50
126.869898
 51
216.869898
  0
LINE
  8
WHITE
 62
     7
  6
CONTINUOUS
 10
54.664000
 20
86.482000
 11
59.974000
 21
79.402000
  0
ARC
  8
WHITE
 62
     7
  6
CONTINUOUS
 10
60.214000
 20
79.582000
 40
0.300000
 50
216.869898
 51
306.869898
  0
LINE
  8
WHITE
 62
     7
  6
CONTINUOUS
 10
60.394000
 20
79.342000
 11
60.640704
 21
79.527028
  0
ARC
  8
WHITE
 62
     7
  6
CONTINUOUS
 10
60.820704
 20
79.287028
 40
0.300000
 50
58.894210
 51
126.869898
  0
ARC
  8
WHITE
 62
     7
  6
CONTINUOUS
 10
61.234000
 20
79.972000
 40
0.500000
 50
238.894211
 51
104.860133
  0
ARC
  8
WHITE
 62
     7
  6
CONTINUOUS
 10
61.028832
 20
80.745244
 40
0.300000
 50
216.884446
 51
284.860133
  0
LINE
  8
WHITE
 62
     7
  6
CONTINUOUS
 10
60.788877
 20
80.565183
 11
59.463000
 21
82.332000
  0
ARC
  8
WHITE
 62
     7
  6
CONTINUOUS
 10
59.762421
 20
82.556393
 40
0.374172
 50
136.279261
 51
216.848751
  0
ARC
  8
WHITE
 62
     7
  6
CONTINUOUS
 10
58.459000
 20
83.797000
 40
1.425276
 50
316.449857
 51
117.284584
  0
ARC
  8
WHITE
 62
     7
  6
CONTINUOUS
 10
57.633762
 20
85.396319
 40
0.374401
 50
216.808350
 51
297.327176
  0
LINE
  8
WHITE
 62
     7
  6
CONTINUOUS
 10
57.334000
 20
85.172000
 11
56.008972
 21
86.938704
  0
ARC
  8
WHITE
 62
     7
  6
CONTINUOUS
 10
56.248972
 20
87.118704
 40
0.300000
 50
148.894210
 51
216.869898
  0
ARC
  8
WHITE
 62
     7
  6
CONTINUOUS
 10
6.363998
 20
49.400230
 40
0.704696
 50
291.465238
 51
352.021051
  0
LINE
  8
WHITE
 62
     7
  6
CONTINUOUS
 10
7.061872
 20
49.302412
 11
7.061872
 21
50.289412
  0
ARC
  8
WHITE
 62
     7
  6
CONTINUOUS
 10
7.187249
 20
50.289035
 40
0.125377
 50
90.172169
 51
179.827831
  0
LINE
  8
WHITE
 62
     7
  6
CONTINUOUS
 10
7.186872
 20
50.414412
 11
8.456872
 21
50.414412
  0
ARC
  8
WHITE
 62
     7
  6
CONTINUOUS
 10
8.464701
 20
50.297241
 40
0.117433
 50
356.177540
 51
93.822460
  0
LINE
  8
WHITE
 62
     7
  6
CONTINUOUS
 10
8.581872
 20
50.289412
 11
8.581872
 21
44.189412
  0
ARC
  8
WHITE
 62
     7
  6
CONTINUOUS
 10
8.460768
 20
44.185516
 40
0.121167
 50
268.157349
 51
1.842651
  0
LINE
  8
WHITE
 62
     7
  6
CONTINUOUS
 10
8.456872
 20
44.064412
 11
7.186872
 21
44.064412
  0
ARC
  8
WHITE
 62
     7
  6
CONTINUOUS
 10
7.183187
 20
44.185727
 40
0.121371
 50
178.260195
 51
271.739805
  0
LINE
  8
WHITE
 62
     7
  6
CONTINUOUS
 10
7.061872
 20
44.189412
 11
7.061872
 21
45.175412
  0
ARC
  8
WHITE
 62
     7
  6
CONTINUOUS
 10
6.486872
 20
45.175412
 40
0.575000
 50
0.000000
 51
76.422886
  0
ARC
  8
WHITE
 62
     7
  6
CONTINUOUS
 10
6.986706
 20
47.239376
 40
1.548625
 50
103.626159
 51
256.373211
  0
ARC
  8
WHITE
 62
     7
  6
CONTINUOUS
 10
22.074126
 20
23.230818
 40
0.704696
 50
291.465238
 51
352.021051
  0
LINE
  8
WHITE
 62
     7
  6
CONTINUOUS
 10
22.772000
 20
23.133000
 11
22.772000
 21
24.120000
  0
ARC
  8
WHITE
 62
     7
  6
CONTINUOUS
 10
22.897377
 20
24.119623
 40
0.125377
 50
90.172169
 51
179.827831
  0
LINE
  8
WHITE
 62
     7
  6
CONTINUOUS
 10
22.897000
 20
24.245000
 11
24.167000
 21
24.245000
  0
ARC
  8
WHITE
 62
     7
  6
CONTINUOUS
 10
24.174829
 20
24.127829
 40
0.117433
 50
356.177540
 51
93.822460
  0
LINE
  8
WHITE
 62
     7
  6
CONTINUOUS
 10
24.292000
 20
24.120000
 11
24.292000
 21
18.020000
  0
ARC
  8
WHITE
 62
     7
  6
CONTINUOUS
 10
24.170896
 20
18.016104
 40
0.121167
 50
268.157349
 51
1.842651
  0
LINE
  8
WHITE
 62
     7
  6
CONTINUOUS
 10
24.167000
 20
17.895000
 11
22.897000
 21
17.895000
  0
ARC
  8
WHITE
 62
     7
  6
CONTINUOUS
 10
22.893315
 20
18.016315
 40
0.121371
 50
178.260195
 51
271.739805
  0
LINE
  8
WHITE
 62
     7
  6
CONTINUOUS
 10
22.772000
 20
18.020000
 11
22.772000
 21
19.006000
  0
ARC
  8
WHITE
 62
     7
  6
CONTINUOUS
 10
22.197000
 20
19.006000
 40
0.575000
 50
0.000000
 51
76.422886
  0
ARC
  8
WHITE
 62
     7
  6
CONTINUOUS
 10
22.696834
 20
21.069964
 40
1.548625
 50
103.626159
 51
256.373211
  0
ARC
  8
WHITE
 62
     7
  6
CONTINUOUS
 10
130.517760
 20
23.230818
 40
0.704696
 50
291.465238
 51
352.021051
  0
LINE
  8
WHITE
 62
     7
  6
CONTINUOUS
 10
131.215634
 20
23.133000
 11
131.215634
 21
24.120000
  0
ARC
  8
WHITE
 62
     7
  6
CONTINUOUS
 10
131.341010
 20
24.119623
 40
0.125377
 50
90.172169
 51
179.827831
  0
LINE
  8
WHITE
 62
     7
  6
CONTINUOUS
 10
131.340634
 20
24.245000
 11
132.610634
 21
24.245000
  0
ARC
  8
WHITE
 62
     7
  6
CONTINUOUS
 10
132.618462
 20
24.127829
 40
0.117433
 50
356.177540
 51
93.822460
  0
LINE
  8
WHITE
 62
     7
  6
CONTINUOUS
 10
132.735634
 20
24.120000
 11
132.735634
 21
18.020000
  0
ARC
  8
WHITE
 62
     7
  6
CONTINUOUS
 10
132.614530
 20
18.016104
 40
0.121167
 50
268.157349
 51
1.842651
  0
LINE
  8
WHITE
 62
     7
  6
CONTINUOUS
 10
132.610634
 20
17.895000
 11
131.340634
 21
17.895000
  0
ARC
  8
WHITE
 62
     7
  6
CONTINUOUS
 10
131.336949
 20
18.016315
 40
0.121371
 50
178.260195
 51
271.739805
  0
LINE
  8
WHITE
 62
     7
  6
CONTINUOUS
 10
131.215634
 20
18.020000
 11
131.215634
 21
19.006000
  0
ARC
  8
WHITE
 62
     7
  6
CONTINUOUS
 10
130.640634
 20
19.006000
 40
0.575000
 50
0.000000
 51
76.422886
  0
ARC
  8
WHITE
 62
     7
  6
CONTINUOUS
 10
131.140451
 20
21.069964
 40
1.548621
 50
103.625565
 51
256.373806
  0
ARC
  8
WHITE
 62
     7
  6
CONTINUOUS
 10
167.277028
 20
23.230818
 40
0.704696
 50
291.465238
 51
352.021051
  0
LINE
  8
WHITE
 62
     7
  6
CONTINUOUS
 10
167.974902
 20
23.133000
 11
167.974902
 21
24.120000
  0
ARC
  8
WHITE
 62
     7
  6
CONTINUOUS
 10
168.100278
 20
24.119623
 40
0.125377
 50
90.172169
 51
179.827831
  0
LINE
  8
WHITE
 62
     7
  6
CONTINUOUS
 10
168.099902
 20
24.245000
 11
169.369902
 21
24.245000
  0
ARC
  8
WHITE
 62
     7
  6
CONTINUOUS
 10
169.377730
 20
24.127829
 40
0.117433
 50
356.177540
 51
93.822460
  0
LINE
  8
WHITE
 62
     7
  6
CONTINUOUS
 10
169.494902
 20
24.120000
 11
169.494902
 21
18.020000
  0
ARC
  8
WHITE
 62
     7
  6
CONTINUOUS
 10
169.373798
 20
18.016104
 40
0.121167
 50
268.157349
 51
1.842651
  0
LINE
  8
WHITE
 62
     7
  6
CONTINUOUS
 10
169.369902
 20
17.895000
 11
168.099902
 21
17.895000
  0
ARC
  8
WHITE
 62
     7
  6
CONTINUOUS
 10
168.096217
 20
18.016315
 40
0.121371
 50
178.260195
 51
271.739805
  0
LINE
  8
WHITE
 62
     7
  6
CONTINUOUS
 10
167.974902
 20
18.020000
 11
167.974902
 21
19.006000
  0
ARC
  8
WHITE
 62
     7
  6
CONTINUOUS
 10
167.399902
 20
19.006000
 40
0.575000
 50
0.000000
 51
76.422886
  0
ARC
  8
WHITE
 62
     7
  6
CONTINUOUS
 10
167.899719
 20
21.069964
 40
1.548621
 50
103.625565
 51
256.373806
  0
ARC
  8
WHITE
 62
     7
  6
CONTINUOUS
 10
29.095057
 20
45.200527
 40
0.543765
 50
100.938773
 51
182.647255
  0
LINE
  8
WHITE
 62
     7
  6
CONTINUOUS
 10
28.551872
 20
45.175412
 11
28.551872
 21
44.189412
  0
ARC
  8
WHITE
 62
     7
  6
CONTINUOUS
 10
28.410626
 20
44.205658
 40
0.142178
 50
276.561482
 51
353.438518
  0
LINE
  8
WHITE
 62
     7
  6
CONTINUOUS
 10
28.426872
 20
44.064412
 11
27.156872
 21
44.064412
  0
ARC
  8
WHITE
 62
     7
  6
CONTINUOUS
 10
27.165580
 20
44.198119
 40
0.133991
 50
183.726018
 51
266.273981
  0
LINE
  8
WHITE
 62
     7
  6
CONTINUOUS
 10
27.031872
 20
44.189412
 11
27.031872
 21
50.289412
  0
ARC
  8
WHITE
 62
     7
  6
CONTINUOUS
 10
27.153708
 20
50.292577
 40
0.121876
 50
88.512112
 51
181.487887
  0
LINE
  8
WHITE
 62
     7
  6
CONTINUOUS
 10
27.156872
 20
50.414412
 11
28.426872
 21
50.414412
  0
ARC
  8
WHITE
 62
     7
  6
CONTINUOUS
 10
28.412716
 20
50.275256
 40
0.139875
 50
5.808731
 51
84.191269
  0
LINE
  8
WHITE
 62
     7
  6
CONTINUOUS
 10
28.551872
 20
50.289412
 11
28.551872
 21
49.302412
  0
ARC
  8
WHITE
 62
     7
  6
CONTINUOUS
 10
29.126872
 20
49.303340
 40
0.575001
 50
180.092511
 51
256.421200
  0
ARC
  8
WHITE
 62
     7
  6
CONTINUOUS
 10
28.626872
 20
47.239412
 40
1.548628
 50
283.632443
 51
76.367557
  0
ARC
  8
WHITE
 62
     7
  6
CONTINUOUS
 10
44.805185
 20
19.031115
 40
0.543765
 50
100.938773
 51
182.647255
  0
LINE
  8
WHITE
 62
     7
  6
CONTINUOUS
 10
44.262000
 20
19.006000
 11
44.262000
 21
18.020000
  0
ARC
  8
WHITE
 62
     7
  6
CONTINUOUS
 10
44.120753
 20
18.036247
 40
0.142178
 50
276.561482
 51
353.438518
  0
LINE
  8
WHITE
 62
     7
  6
CONTINUOUS
 10
44.137000
 20
17.895000
 11
42.867000
 21
17.895000
  0
ARC
  8
WHITE
 62
     7
  6
CONTINUOUS
 10
42.875707
 20
18.028707
 40
0.133991
 50
183.726019
 51
266.273981
  0
LINE
  8
WHITE
 62
     7
  6
CONTINUOUS
 10
42.742000
 20
18.020000
 11
42.742000
 21
24.120000
  0
ARC
  8
WHITE
 62
     7
  6
CONTINUOUS
 10
42.863835
 20
24.123165
 40
0.121876
 50
88.512112
 51
181.487888
  0
LINE
  8
WHITE
 62
     7
  6
CONTINUOUS
 10
42.867000
 20
24.245000
 11
44.137000
 21
24.245000
  0
ARC
  8
WHITE
 62
     7
  6
CONTINUOUS
 10
44.122844
 20
24.105844
 40
0.139875
 50
5.808731
 51
84.191269
  0
LINE
  8
WHITE
 62
     7
  6
CONTINUOUS
 10
44.262000
 20
24.120000
 11
44.262000
 21
23.133000
  0
ARC
  8
WHITE
 62
     7
  6
CONTINUOUS
 10
44.837000
 20
23.133928
 40
0.575001
 50
180.092511
 51
256.421200
  0
ARC
  8
WHITE
 62
     7
  6
CONTINUOUS
 10
44.337000
 20
21.070000
 40
1.548628
 50
283.632443
 51
76.367557
  0
ARC
  8
WHITE
 62
     7
  6
CONTINUOUS
 10
153.248819
 20
19.031115
 40
0.543765
 50
100.938773
 51
182.647255
  0
LINE
  8
WHITE
 62
     7
  6
CONTINUOUS
 10
152.705634
 20
19.006000
 11
152.705634
 21
18.020000
  0
ARC
  8
WHITE
 62
     7
  6
CONTINUOUS
 10
152.564387
 20
18.036247
 40
0.142178
 50
276.561481
 51
353.438518
  0
LINE
  8
WHITE
 62
     7
  6
CONTINUOUS
 10
152.580634
 20
17.895000
 11
151.310634
 21
17.895000
  0
ARC
  8
WHITE
 62
     7
  6
CONTINUOUS
 10
151.319341
 20
18.028707
 40
0.133991
 50
183.726019
 51
266.273981
  0
LINE
  8
WHITE
 62
     7
  6
CONTINUOUS
 10
151.185634
 20
18.020000
 11
151.185634
 21
24.120000
  0
ARC
  8
WHITE
 62
     7
  6
CONTINUOUS
 10
151.307469
 20
24.123165
 40
0.121876
 50
88.512112
 51
181.487888
  0
LINE
  8
WHITE
 62
     7
  6
CONTINUOUS
 10
151.310634
 20
24.245000
 11
152.580634
 21
24.245000
  0
ARC
  8
WHITE
 62
     7
  6
CONTINUOUS
 10
152.566477
 20
24.105844
 40
0.139875
 50
5.808731
 51
84.191269
  0
LINE
  8
WHITE
 62
     7
  6
CONTINUOUS
 10
152.705634
 20
24.120000
 11
152.705634
 21
23.133000
  0
ARC
  8
WHITE
 62
     7
  6
CONTINUOUS
 10
153.280634
 20
23.133928
 40
0.575001
 50
180.092511
 51
256.421200
  0
ARC
  8
WHITE
 62
     7
  6
CONTINUOUS
 10
152.780634
 20
21.070000
 40
1.548628
 50
283.632443
 51
76.367557
  0
ARC
  8
WHITE
 62
     7
  6
CONTINUOUS
 10
190.008087
 20
19.031115
 40
0.543765
 50
100.938773
 51
182.647255
  0
LINE
  8
WHITE
 62
     7
  6
CONTINUOUS
 10
189.464902
 20
19.006000
 11
189.464902
 21
18.020000
  0
ARC
  8
WHITE
 62
     7
  6
CONTINUOUS
 10
189.323655
 20
18.036247
 40
0.142178
 50
276.561482
 51
353.438518
  0
LINE
  8
WHITE
 62
     7
  6
CONTINUOUS
 10
189.339902
 20
17.895000
 11
188.069902
 21
17.895000
  0
ARC
  8
WHITE
 62
     7
  6
CONTINUOUS
 10
188.078609
 20
18.028707
 40
0.133991
 50
183.726019
 51
266.273981
  0
LINE
  8
WHITE
 62
     7
  6
CONTINUOUS
 10
187.944902
 20
18.020000
 11
187.944902
 21
24.120000
  0
ARC
  8
WHITE
 62
     7
  6
CONTINUOUS
 10
188.066737
 20
24.123165
 40
0.121876
 50
88.512112
 51
181.487888
  0
LINE
  8
WHITE
 62
     7
  6
CONTINUOUS
 10
188.069902
 20
24.245000
 11
189.339902
 21
24.245000
  0
ARC
  8
WHITE
 62
     7
  6
CONTINUOUS
 10
189.325745
 20
24.105844
 40
0.139875
 50
5.808731
 51
84.191269
  0
LINE
  8
WHITE
 62
     7
  6
CONTINUOUS
 10
189.464902
 20
24.120000
 11
189.464902
 21
23.133000
  0
ARC
  8
WHITE
 62
     7
  6
CONTINUOUS
 10
190.039902
 20
23.133928
 40
0.575001
 50
180.092511
 51
256.421200
  0
ARC
  8
WHITE
 62
     7
  6
CONTINUOUS
 10
189.539902
 20
21.070000
 40
1.548628
 50
283.632443
 51
76.367557
  0
CIRCLE
  8
WHITE
 62
     7
  6
CONTINUOUS
 10
161.704000
 20
201.925000
 40
1.879866
  0
LINE
  8
WHITE
 62
     7
  6
CONTINUOUS
 10
3.737000
 20
5.510000
 11
6.055000
 21
7.557000
  0
ARC
  8
WHITE
 62
     7
  6
CONTINUOUS
 10
9.224631
 20
9.997149
 40
4.000112
 50
283.300937
 51
217.590973
  0
ARC
  8
WHITE
 62
     7
  6
CONTINUOUS
 10
10.099000
 20
6.299000
 40
0.200003
 50
180.286477
 51
283.273270
  0
LINE
  8
WHITE
 62
     7
  6
CONTINUOUS
 10
9.899000
 20
6.298000
 11
9.899000
 21
11.589000
  0
ARC
  8
WHITE
 62
     7
  6
CONTINUOUS
 10
9.699180
 20
11.589180
 40
0.199820
 50
0.000000
 51
90.051605
  0
LINE
  8
WHITE
 62
     7
  6
CONTINUOUS
 10
9.699000
 20
11.789000
 11
8.749000
 21
11.789000
  0
ARC
  8
WHITE
 62
     7
  6
CONTINUOUS
 10
8.742826
 20
11.595174
 40
0.193924
 50
88.175408
 51
181.824592
  0
LINE
  8
WHITE
 62
     7
  6
CONTINUOUS
 10
8.549000
 20
11.589000
 11
8.549000
 21
6.298000
  0
ARC
  8
WHITE
 62
     7
  6
CONTINUOUS
 10
8.353924
 20
6.292747
 40
0.195146
 50
254.897748
 51
1.542477
  0
ARC
  8
WHITE
 62
     7
  6
CONTINUOUS
 10
9.224000
 20
9.997000
 40
4.000111
 50
222.842167
 51
256.689772
  0
LINE
  8
WHITE
 62
     7
  6
CONTINUOUS
 10
3.737000
 20
20.510000
 11
6.055000
 21
22.557000
  0
ARC
  8
WHITE
 62
     7
  6
CONTINUOUS
 10
9.224631
 20
24.997149
 40
4.000112
 50
283.300937
 51
217.590973
  0
ARC
  8
WHITE
 62
     7
  6
CONTINUOUS
 10
10.099000
 20
21.299000
 40
0.200003
 50
180.286477
 51
283.273270
  0
LINE
  8
WHITE
 62
     7
  6
CONTINUOUS
 10
9.899000
 20
21.298000
 11
9.899000
 21
26.589000
  0
ARC
  8
WHITE
 62
     7
  6
CONTINUOUS
 10
9.699180
 20
26.589180
 40
0.199820
 50
0.000000
 51
90.051605
  0
LINE
  8
WHITE
 62
     7
  6
CONTINUOUS
 10
9.699000
 20
26.789000
 11
8.749000
 21
26.789000
  0
ARC
  8
WHITE
 62
     7
  6
CONTINUOUS
 10
8.742826
 20
26.595174
 40
0.193924
 50
88.175408
 51
181.824592
  0
LINE
  8
WHITE
 62
     7
  6
CONTINUOUS
 10
8.549000
 20
26.589000
 11
8.549000
 21
21.298000
  0
ARC
  8
WHITE
 62
     7
  6
CONTINUOUS
 10
8.353924
 20
21.292747
 40
0.195146
 50
254.897748
 51
1.542477
  0
ARC
  8
WHITE
 62
     7
  6
CONTINUOUS
 10
9.224000
 20
24.997000
 40
4.000111
 50
222.842167
 51
256.689772
  0
ARC
  8
WHITE
 62
     7
  6
CONTINUOUS
 10
17.805872
 20
47.237412
 40
13.998442
 50
227.428958
 51
224.756879
  0
LINE
  8
WHITE
 62
     7
  6
CONTINUOUS
 10
7.865567
 20
37.381109
 11
4.582872
 21
33.239412
  0
LINE
  8
WHITE
 62
     7
  6
CONTINUOUS
 10
30.902000
 20
139.247000
 11
125.277000
 21
139.247000
  0
ARC
  8
WHITE
 62
     7
  6
CONTINUOUS
 10
125.276003
 20
141.248000
 40
2.001000
 50
270.028558
 51
323.044162
  0
ARC
  8
WHITE
 62
     7
  6
CONTINUOUS
 10
107.245000
 20
154.822000
 40
24.570239
 50
323.028431
 51
36.973432
  0
ARC
  8
WHITE
 62
     7
  6
CONTINUOUS
 10
125.323411
 20
168.490984
 40
1.906581
 50
35.555280
 51
91.394871
  0
LINE
  8
WHITE
 62
     7
  6
CONTINUOUS
 10
125.277000
 20
170.397000
 11
20.722000
 21
170.397000
  0
ARC
  8
WHITE
 62
     7
  6
CONTINUOUS
 10
20.722000
 20
168.397000
 40
2.000000
 50
90.000000
 51
167.847213
  0
LINE
  8
WHITE
 62
     7
  6
CONTINUOUS
 10
18.766821
 20
168.818039
 11
14.753000
 21
157.139000
  0
ARC
  8
WHITE
 62
     7
  6
CONTINUOUS
 10
14.607959
 20
157.182037
 40
0.151292
 50
183.803925
 51
343.473203
  0
LINE
  8
WHITE
 62
     7
  6
CONTINUOUS
 10
14.457000
 20
157.172000
 11
14.457000
 21
176.327000
  0
ARC
  8
WHITE
 62
     7
  6
CONTINUOUS
 10
13.957000
 20
176.327000
 40
0.500000
 50
0.000000
 51
90.114591
  0
LINE
  8
WHITE
 62
     7
  6
CONTINUOUS
 10
13.956000
 20
176.827000
 11
11.457000
 21
176.822000
  0
ARC
  8
WHITE
 62
     7
  6
CONTINUOUS
 10
11.397946
 20
175.881054
 40
0.942797
 50
86.408808
 51
183.591192
  0
LINE
  8
WHITE
 62
     7
  6
CONTINUOUS
 10
10.457000
 20
175.822000
 11
10.457000
 21
133.822000
  0
ARC
  8
WHITE
 62
     7
  6
CONTINUOUS
 10
11.451387
 20
133.816387
 40
0.994403
 50
179.676579
 51
270.323421
  0
LINE
  8
WHITE
 62
     7
  6
CONTINUOUS
 10
11.457000
 20
132.822000
 11
13.957000
 21
132.822000
  0
ARC
  8
WHITE
 62
     7
  6
CONTINUOUS
 10
13.935418
 20
133.343582
 40
0.522028
 50
272.369403
 51
357.630597
  0
LINE
  8
WHITE
 62
     7
  6
CONTINUOUS
 10
14.457000
 20
133.322000
 11
14.457000
 21
152.472000
  0
ARC
  8
WHITE
 62
     7
  6
CONTINUOUS
 10
14.606676
 20
152.473469
 40
0.149683
 50
12.160695
 51
180.562177
  0
LINE
  8
WHITE
 62
     7
  6
CONTINUOUS
 10
14.753000
 20
152.505000
 11
18.767000
 21
140.827000
  0
ARC
  8
WHITE
 62
     7
  6
CONTINUOUS
 10
20.829255
 20
141.379212
 40
2.134908
 50
194.990482
 51
267.120330
  0
LINE
  8
WHITE
 62
     7
  6
CONTINUOUS
 10
20.722000
 20
139.247000
 11
30.102000
 21
139.247000
  0
LINE
  8
WHITE
 62
     7
  6
CONTINUOUS
 10
30.102000
 20
139.247000
 11
30.102000
 21
134.201000
  0
ARC
  8
WHITE
 62
     7
  6
CONTINUOUS
 10
48.058070
 20
125.728943
 40
12.000997
 50
271.489399
 51
357.703161
  0
ARC
  8
WHITE
 62
     7
  6
CONTINUOUS
 10
60.524457
 20
125.253570
 40
0.475064
 50
87.038697
 51
180.673880
  0
LINE
  8
WHITE
 62
     7
  6
CONTINUOUS
 10
60.549000
 20
125.728000
 11
70.139971
 21
125.727253
  0
ARC
  8
WHITE
 62
     7
  6
CONTINUOUS
 10
70.119000
 20
125.190000
 40
0.537663
 50
324.920679
 51
87.764682
  0
LINE
  8
WHITE
 62
     7
  6
CONTINUOUS
 10
70.559000
 20
124.881000
 11
66.567000
 21
118.612000
  0
ARC
  8
WHITE
 62
     7
  6
CONTINUOUS
 10
66.267000
 20
118.750000
 40
0.330218
 50
245.297570
 51
335.297570
  0
LINE
  8
WHITE
 62
     7
  6
CONTINUOUS
 10
66.129000
 20
118.450000
 11
65.542000
 21
118.830000
  0
ARC
  8
WHITE
 62
     7
  6
CONTINUOUS
 10
65.487000
 20
118.746500
 40
0.099986
 50
56.627798
 51
236.627798
  0
LINE
  8
WHITE
 62
     7
  6
CONTINUOUS
 10
65.432000
 20
118.663000
 11
66.797000
 21
117.780000
  0
ARC
  8
WHITE
 62
     7
  6
CONTINUOUS
 10
66.909000
 20
118.021000
 40
0.265754
 50
245.074280
 51
335.074280
  0
LINE
  8
WHITE
 62
     7
  6
CONTINUOUS
 10
67.150000
 20
117.909000
 11
71.604296
 21
124.793457
  0
ARC
  8
WHITE
 62
     7
  6
CONTINUOUS
 10
72.024000
 20
124.521000
 40
0.500384
 50
57.072137
 51
147.009791
  0
LINE
  8
WHITE
 62
     7
  6
CONTINUOUS
 10
72.296000
 20
124.941000
 11
79.976000
 21
119.972000
  0
ARC
  8
WHITE
 62
     7
  6
CONTINUOUS
 10
79.704705
 20
119.551544
 40
0.500384
 50
327.134299
 51
57.168280
  0
LINE
  8
WHITE
 62
     7
  6
CONTINUOUS
 10
80.125000
 20
119.280000
 11
69.587000
 21
102.993000
  0
ARC
  8
WHITE
 62
     7
  6
CONTINUOUS
 10
69.167295
 20
103.265456
 40
0.500384
 50
237.168213
 51
327.009976
  0
LINE
  8
WHITE
 62
     7
  6
CONTINUOUS
 10
68.896000
 20
102.845000
 11
61.215249
 21
107.813839
  0
ARC
  8
WHITE
 62
     7
  6
CONTINUOUS
 10
61.487000
 20
108.234000
 40
0.500384
 50
147.072137
 51
237.106098
  0
LINE
  8
WHITE
 62
     7
  6
CONTINUOUS
 10
61.067000
 20
108.506000
 11
65.697000
 21
115.662000
  0
ARC
  8
WHITE
 62
     7
  6
CONTINUOUS
 10
65.456822
 20
115.773618
 40
0.264847
 50
335.074256
 51
65.179219
  0
LINE
  8
WHITE
 62
     7
  6
CONTINUOUS
 10
65.568000
 20
116.014000
 11
64.265000
 21
116.857000
  0
ARC
  8
WHITE
 62
     7
  6
CONTINUOUS
 10
64.220355
 20
116.767068
 40
0.100404
 50
63.598974
 51
230.136490
  0
LINE
  8
WHITE
 62
     7
  6
CONTINUOUS
 10
64.156000
 20
116.690000
 11
64.743000
 21
116.310000
  0
ARC
  8
WHITE
 62
     7
  6
CONTINUOUS
 10
64.580000
 20
116.058000
 40
0.300122
 50
327.104185
 51
57.104185
  0
LINE
  8
WHITE
 62
     7
  6
CONTINUOUS
 10
64.832000
 20
115.895000
 11
60.290000
 21
108.774000
  0
ARC
  8
WHITE
 62
     7
  6
CONTINUOUS
 10
59.868627
 20
109.042907
 40
0.499866
 50
284.052501
 51
327.455273
  0
LINE
  8
WHITE
 62
     7
  6
CONTINUOUS
 10
59.990000
 20
108.558000
 11
55.784000
 21
107.507000
  0
ARC
  8
WHITE
 62
     7
  6
CONTINUOUS
 10
55.711000
 20
107.798000
 40
0.300017
 50
194.082562
 51
284.082562
  0
LINE
  8
WHITE
 62
     7
  6
CONTINUOUS
 10
55.420000
 20
107.725000
 11
55.232000
 21
108.477000
  0
ARC
  8
WHITE
 62
     7
  6
CONTINUOUS
 10
55.135000
 20
108.452000
 40
0.100170
 50
14.452428
 51
193.897176
  0
LINE
  8
WHITE
 62
     7
  6
CONTINUOUS
 10
55.037762
 20
108.427941
 11
55.432000
 21
106.852000
  0
ARC
  8
WHITE
 62
     7
  6
CONTINUOUS
 10
55.723000
 20
106.925000
 40
0.300017
 50
194.082562
 51
284.082562
  0
LINE
  8
WHITE
 62
     7
  6
CONTINUOUS
 10
55.796000
 20
106.634000
 11
59.871000
 21
107.652000
  0
ARC
  8
WHITE
 62
     7
  6
CONTINUOUS
 10
59.992000
 20
107.167000
 40
0.499866
 50
14.008443
 51
104.008443
  0
LINE
  8
WHITE
 62
     7
  6
CONTINUOUS
 10
60.477000
 20
107.288000
 11
62.695764
 21
98.411941
  0
ARC
  8
WHITE
 62
     7
  6
CONTINUOUS
 10
62.211000
 20
98.290000
 40
0.499866
 50
284.008443
 51
14.119603
  0
LINE
  8
WHITE
 62
     7
  6
CONTINUOUS
 10
62.332000
 20
97.805000
 11
51.254000
 21
95.036000
  0
ARC
  8
WHITE
 62
     7
  6
CONTINUOUS
 10
51.133000
 20
95.521000
 40
0.499866
 50
194.008443
 51
284.008443
  0
LINE
  8
WHITE
 62
     7
  6
CONTINUOUS
 10
50.648000
 20
95.400000
 11
48.428000
 21
104.276000
  0
ARC
  8
WHITE
 62
     7
  6
CONTINUOUS
 10
48.912764
 20
104.397941
 40
0.499866
 50
103.980589
 51
194.119664
  0
LINE
  8
WHITE
 62
     7
  6
CONTINUOUS
 10
48.792000
 20
104.883000
 11
53.128000
 21
105.967000
  0
ARC
  8
WHITE
 62
     7
  6
CONTINUOUS
 10
53.055000
 20
106.257000
 40
0.299047
 50
284.129181
 51
14.082562
  0
LINE
  8
WHITE
 62
     7
  6
CONTINUOUS
 10
53.345059
 20
106.329764
 11
52.970000
 21
107.834000
  0
ARC
  8
WHITE
 62
     7
  6
CONTINUOUS
 10
52.873000
 20
107.810000
 40
0.099925
 50
13.897176
 51
193.897176
  0
LINE
  8
WHITE
 62
     7
  6
CONTINUOUS
 10
52.776000
 20
107.786000
 11
52.946000
 21
107.107000
  0
ARC
  8
WHITE
 62
     7
  6
CONTINUOUS
 10
52.609018
 20
107.061867
 40
0.339991
 50
277.772814
 51
7.628328
  0
LINE
  8
WHITE
 62
     7
  6
CONTINUOUS
 10
52.655000
 20
106.725000
 11
48.172000
 21
105.615000
  0
ARC
  8
WHITE
 62
     7
  6
CONTINUOUS
 10
48.050030
 20
106.099991
 40
0.500093
 50
252.902158
 51
284.116578
  0
LINE
  8
WHITE
 62
     7
  6
CONTINUOUS
 10
47.903000
 20
105.622000
 11
42.946000
 21
107.147000
  0
ARC
  8
WHITE
 62
     7
  6
CONTINUOUS
 10
43.034000
 20
107.434000
 40
0.300188
 50
162.953402
 51
252.953402
  0
LINE
  8
WHITE
 62
     7
  6
CONTINUOUS
 10
42.747000
 20
107.522000
 11
42.953000
 21
108.191000
  0
ARC
  8
WHITE
 62
     7
  6
CONTINUOUS
 10
42.857500
 20
108.220500
 40
0.099952
 50
342.834054
 51
162.834054
  0
LINE
  8
WHITE
 62
     7
  6
CONTINUOUS
 10
42.762000
 20
108.250000
 11
42.306000
 21
106.769000
  0
ARC
  8
WHITE
 62
     7
  6
CONTINUOUS
 10
42.591717
 20
106.680087
 40
0.299232
 50
162.714234
 51
252.953874
  0
LINE
  8
WHITE
 62
     7
  6
CONTINUOUS
 10
42.504000
 20
106.394000
 11
47.380000
 21
104.894000
  0
ARC
  8
WHITE
 62
     7
  6
CONTINUOUS
 10
47.233000
 20
104.416000
 40
0.500093
 50
342.905694
 51
72.905694
  0
LINE
  8
WHITE
 62
     7
  6
CONTINUOUS
 10
47.711000
 20
104.269000
 11
45.020000
 21
95.523000
  0
ARC
  8
WHITE
 62
     7
  6
CONTINUOUS
 10
44.542000
 20
95.670000
 40
0.500093
 50
252.905694
 51
342.905694
  0
LINE
  8
WHITE
 62
     7
  6
CONTINUOUS
 10
44.395000
 20
95.192000
 11
32.208000
 21
98.942000
  0
ARC
  8
WHITE
 62
     7
  6
CONTINUOUS
 10
32.355000
 20
99.420000
 40
0.500093
 50
162.905694
 51
252.905694
  0
LINE
  8
WHITE
 62
     7
  6
CONTINUOUS
 10
31.877000
 20
99.567000
 11
34.568000
 21
108.313000
  0
ARC
  8
WHITE
 62
     7
  6
CONTINUOUS
 10
35.046000
 20
108.166000
 40
0.500093
 50
72.905694
 51
162.905694
  0
LINE
  8
WHITE
 62
     7
  6
CONTINUOUS
 10
35.193000
 20
108.644000
 11
39.876000
 21
107.203000
  0
ARC
  8
WHITE
 62
     7
  6
CONTINUOUS
 10
39.964000
 20
107.489000
 40
0.299232
 50
252.897271
 51
342.953402
  0
LINE
  8
WHITE
 62
     7
  6
CONTINUOUS
 10
40.250086
 20
107.401280
 11
40.707000
 21
108.883000
  0
ARC
  8
WHITE
 62
     7
  6
CONTINUOUS
 10
40.611500
 20
108.912000
 40
0.099806
 50
343.108304
 51
163.108304
  0
LINE
  8
WHITE
 62
     7
  6
CONTINUOUS
 10
40.516000
 20
108.941000
 11
40.309719
 21
108.272087
  0
ARC
  8
WHITE
 62
     7
  6
CONTINUOUS
 10
40.023000
 20
108.361000
 40
0.300188
 50
252.953402
 51
342.771100
  0
LINE
  8
WHITE
 62
     7
  6
CONTINUOUS
 10
39.935000
 20
108.074000
 11
35.192000
 21
109.533000
  0
ARC
  8
WHITE
 62
     7
  6
CONTINUOUS
 10
35.240072
 20
110.080937
 40
0.550042
 50
228.970676
 51
264.986092
  0
LINE
  8
WHITE
 62
     7
  6
CONTINUOUS
 10
34.879000
 20
109.666000
 11
29.944000
 21
116.348000
  0
ARC
  8
WHITE
 62
     7
  6
CONTINUOUS
 10
30.184000
 20
116.528000
 40
0.300000
 50
126.869898
 51
216.869898
  0
LINE
  8
WHITE
 62
     7
  6
CONTINUOUS
 10
30.004000
 20
116.768000
 11
30.564000
 21
117.188000
  0
ARC
  8
WHITE
 62
     7
  6
CONTINUOUS
 10
30.534000
 20
117.291000
 40
0.107280
 50
286.238842
 51
106.389540
  0
LINE
  8
WHITE
 62
     7
  6
CONTINUOUS
 10
30.503729
 20
117.393921
 11
29.204000
 21
116.418000
  0
ARC
  8
WHITE
 62
     7
  6
CONTINUOUS
 10
29.332000
 20
116.185000
 40
0.265844
 50
118.782467
 51
208.593228
  0
LINE
  8
WHITE
 62
     7
  6
CONTINUOUS
 10
29.098579
 20
116.057770
 11
34.064000
 21
109.438000
  0
ARC
  8
WHITE
 62
     7
  6
CONTINUOUS
 10
33.664000
 20
109.138000
 40
0.500000
 50
306.869898
 51
36.869898
  0
LINE
  8
WHITE
 62
     7
  6
CONTINUOUS
 10
33.964000
 20
108.738000
 11
26.644000
 21
103.248000
  0
ARC
  8
WHITE
 62
     7
  6
CONTINUOUS
 10
26.344000
 20
103.648000
 40
0.500000
 50
216.869898
 51
306.869898
  0
LINE
  8
WHITE
 62
     7
  6
CONTINUOUS
 10
25.944000
 20
103.348000
 11
23.485000
 21
106.625000
  0
ARC
  8
WHITE
 62
     7
  6
CONTINUOUS
 10
23.645774
 20
106.744552
 40
0.200352
 50
153.163587
 51
216.634598
  0
ARC
  8
WHITE
 62
     7
  6
CONTINUOUS
 10
23.243404
 20
106.945806
 40
0.249546
 50
333.638712
 51
190.121192
  0
ARC
  8
WHITE
 62
     7
  6
CONTINUOUS
 10
22.801000
 20
106.866000
 40
0.200000
 50
306.869898
 51
10.356026
  0
LINE
  8
WHITE
 62
     7
  6
CONTINUOUS
 10
22.921000
 20
106.706000
 11
22.503000
 21
106.393000
  0
ARC
  8
WHITE
 62
     7
  6
CONTINUOUS
 10
22.323000
 20
106.633000
 40
0.300000
 50
216.869898
 51
306.869898
  0
LINE
  8
WHITE
 62
     7
  6
CONTINUOUS
 10
22.083000
 20
106.453000
 11
18.618000
 21
111.073000
  0
ARC
  8
WHITE
 62
     7
  6
CONTINUOUS
 10
18.460793
 20
110.954720
 40
0.196734
 50
36.957268
 51
216.957268
  0
LINE
  8
WHITE
 62
     7
  6
CONTINUOUS
 10
18.303586
 20
110.836440
 11
21.588586
 21
106.456440
  0
ARC
  8
WHITE
 62
     7
  6
CONTINUOUS
 10
21.188586
 20
106.156440
 40
0.500000
 50
306.869898
 51
36.869898
  0
LINE
  8
WHITE
 62
     7
  6
CONTINUOUS
 10
21.488586
 20
105.756440
 11
20.784000
 21
105.228000
  0
ARC
  8
WHITE
 62
     7
  6
CONTINUOUS
 10
20.484000
 20
105.628000
 40
0.500000
 50
216.869898
 51
306.869898
  0
LINE
  8
WHITE
 62
     7
  6
CONTINUOUS
 10
20.084000
 20
105.328000
 11
14.654000
 21
112.568000
  0
ARC
  8
WHITE
 62
     7
  6
CONTINUOUS
 10
15.054000
 20
112.868000
 40
0.500000
 50
126.869898
 51
216.869898
  0
LINE
  8
WHITE
 62
     7
  6
CONTINUOUS
 10
14.754000
 20
113.268000
 11
16.831000
 21
114.826000
  0
ARC
  8
WHITE
 62
     7
  6
CONTINUOUS
 10
16.950552
 20
114.665226
 40
0.200352
 50
63.163587
 51
126.634598
  0
ARC
  8
WHITE
 62
     7
  6
CONTINUOUS
 10
17.153000
 20
115.068000
 40
0.250440
 50
243.434949
 51
100.366323
  0
ARC
  8
WHITE
 62
     7
  6
CONTINUOUS
 10
17.071273
 20
115.510963
 40
0.200000
 50
217.215448
 51
280.562697
  0
LINE
  8
WHITE
 62
     7
  6
CONTINUOUS
 10
16.912000
 20
115.390000
 11
14.454000
 21
118.668000
  0
ARC
  8
WHITE
 62
     7
  6
CONTINUOUS
 10
14.854000
 20
118.968000
 40
0.500000
 50
126.869898
 51
216.869898
  0
LINE
  8
WHITE
 62
     7
  6
CONTINUOUS
 10
14.554000
 20
119.368000
 11
21.874000
 21
124.858000
  0
ARC
  8
WHITE
 62
     7
  6
CONTINUOUS
 10
22.174000
 20
124.458000
 40
0.500000
 50
36.869898
 51
126.869898
  0
LINE
  8
WHITE
 62
     7
  6
CONTINUOUS
 10
22.574000
 20
124.758000
 11
27.539000
 21
118.138000
  0
ARC
  8
WHITE
 62
     7
  6
CONTINUOUS
 10
27.726000
 20
118.326000
 40
0.265166
 50
225.152788
 51
315.000000
  0
LINE
  8
WHITE
 62
     7
  6
CONTINUOUS
 10
27.913501
 20
118.138499
 11
29.154000
 21
119.068000
  0
ARC
  8
WHITE
 62
     7
  6
CONTINUOUS
 10
29.124000
 20
119.171000
 40
0.107280
 50
286.238842
 51
106.389540
  0
LINE
  8
WHITE
 62
     7
  6
CONTINUOUS
 10
29.093729
 20
119.273921
 11
28.474000
 21
118.808000
  0
ARC
  8
WHITE
 62
     7
  6
CONTINUOUS
 10
28.294000
 20
119.048000
 40
0.300000
 50
216.869898
 51
306.869898
  0
LINE
  8
WHITE
 62
     7
  6
CONTINUOUS
 10
28.054000
 20
118.868000
 11
23.599000
 21
124.808000
  0
ARC
  8
WHITE
 62
     7
  6
CONTINUOUS
 10
24.052373
 20
125.156314
 40
0.571725
 50
89.335817
 51
217.534080
  0
LINE
  8
WHITE
 62
     7
  6
CONTINUOUS
 10
24.059000
 20
125.728000
 11
35.569000
 21
125.728000
  0
ARC
  8
WHITE
 62
     7
  6
CONTINUOUS
 10
35.568016
 20
125.227601
 40
0.500400
 50
2.336318
 51
89.887345
  0
ARC
  8
WHITE
 62
     7
  6
CONTINUOUS
 10
48.058016
 20
125.727594
 40
11.999604
 50
182.290576
 51
270.076319
  0
LINE
  8
WHITE
 62
     7
  6
CONTINUOUS
 10
48.074000
 20
113.728000
 11
48.074000
 21
120.546000
  0
ARC
  8
WHITE
 62
     7
  6
CONTINUOUS
 10
48.058039
 20
182.585025
 40
12.000603
 50
2.296984
 51
88.510456
  0
ARC
  8
WHITE
 62
     7
  6
CONTINUOUS
 10
60.558024
 20
183.095817
 40
0.509897
 50
183.352337
 51
268.985941
  0
LINE
  8
WHITE
 62
     7
  6
CONTINUOUS
 10
60.549000
 20
182.586000
 11
70.140000
 21
182.586000
  0
ARC
  8
WHITE
 62
     7
  6
CONTINUOUS
 10
70.118112
 20
183.123965
 40
0.538410
 50
272.329878
 51
35.028101
  0
LINE
  8
WHITE
 62
     7
  6
CONTINUOUS
 10
70.559000
 20
183.433000
 11
66.567000
 21
189.702000
  0
ARC
  8
WHITE
 62
     7
  6
CONTINUOUS
 10
66.267000
 20
189.564000
 40
0.330218
 50
24.702430
 51
114.702430
  0
LINE
  8
WHITE
 62
     7
  6
CONTINUOUS
 10
66.129000
 20
189.864000
 11
65.542000
 21
189.483000
  0
ARC
  8
WHITE
 62
     7
  6
CONTINUOUS
 10
65.487000
 20
189.567000
 40
0.100404
 50
123.215251
 51
303.215251
  0
LINE
  8
WHITE
 62
     7
  6
CONTINUOUS
 10
65.432000
 20
189.651000
 11
66.797000
 21
190.534000
  0
ARC
  8
WHITE
 62
     7
  6
CONTINUOUS
 10
66.909000
 20
190.293000
 40
0.265754
 50
24.925720
 51
114.925720
  0
LINE
  8
WHITE
 62
     7
  6
CONTINUOUS
 10
67.150000
 20
190.405000
 11
71.605000
 21
183.521000
  0
ARC
  8
WHITE
 62
     7
  6
CONTINUOUS
 10
72.024000
 20
183.792000
 40
0.499001
 50
212.893902
 51
302.927863
  0
LINE
  8
WHITE
 62
     7
  6
CONTINUOUS
 10
72.295248
 20
183.373161
 11
79.976000
 21
188.342000
  0
ARC
  8
WHITE
 62
     7
  6
CONTINUOUS
 10
79.705000
 20
188.761000
 40
0.499001
 50
302.893902
 51
32.927863
  0
LINE
  8
WHITE
 62
     7
  6
CONTINUOUS
 10
80.123839
 20
189.032248
 11
69.587000
 21
205.320000
  0
ARC
  8
WHITE
 62
     7
  6
CONTINUOUS
 10
69.167544
 20
205.048704
 40
0.499545
 50
32.893973
 51
122.927839
  0
LINE
  8
WHITE
 62
     7
  6
CONTINUOUS
 10
68.896000
 20
205.468000
 11
61.216000
 21
200.499000
  0
ARC
  8
WHITE
 62
     7
  6
CONTINUOUS
 10
61.486544
 20
200.078706
 40
0.499841
 50
122.769420
 51
212.928001
  0
LINE
  8
WHITE
 62
     7
  6
CONTINUOUS
 10
61.067000
 20
199.807000
 11
65.697000
 21
192.651000
  0
ARC
  8
WHITE
 62
     7
  6
CONTINUOUS
 10
65.457000
 20
192.540000
 40
0.264426
 50
294.820541
 51
24.820541
  0
LINE
  8
WHITE
 62
     7
  6
CONTINUOUS
 10
65.568000
 20
192.300000
 11
64.265000
 21
191.456000
  0
ARC
  8
WHITE
 62
     7
  6
CONTINUOUS
 10
64.210500
 20
191.540000
 40
0.100131
 50
122.975891
 51
302.975891
  0
LINE
  8
WHITE
 62
     7
  6
CONTINUOUS
 10
64.156000
 20
191.624000
 11
64.743000
 21
192.004000
  0
ARC
  8
WHITE
 62
     7
  6
CONTINUOUS
 10
64.580000
 20
192.256000
 40
0.300122
 50
302.895815
 51
32.895815
  0
LINE
  8
WHITE
 62
     7
  6
CONTINUOUS
 10
64.832000
 20
192.419000
 11
60.290000
 21
199.539000
  0
ARC
  8
WHITE
 62
     7
  6
CONTINUOUS
 10
59.869000
 20
199.270000
 40
0.499602
 50
32.576742
 51
75.991557
  0
LINE
  8
WHITE
 62
     7
  6
CONTINUOUS
 10
59.989936
 20
199.754744
 11
55.784000
 21
200.807000
  0
ARC
  8
WHITE
 62
     7
  6
CONTINUOUS
 10
55.711000
 20
200.516000
 40
0.300017
 50
75.917438
 51
165.917438
  0
LINE
  8
WHITE
 62
     7
  6
CONTINUOUS
 10
55.420000
 20
200.589000
 11
55.232000
 21
199.837000
  0
ARC
  8
WHITE
 62
     7
  6
CONTINUOUS
 10
55.135000
 20
199.861000
 40
0.099925
 50
166.102824
 51
346.102824
  0
LINE
  8
WHITE
 62
     7
  6
CONTINUOUS
 10
55.038000
 20
199.885000
 11
55.432000
 21
201.462000
  0
ARC
  8
WHITE
 62
     7
  6
CONTINUOUS
 10
55.723000
 20
201.389000
 40
0.300017
 50
75.917438
 51
165.917438
  0
LINE
  8
WHITE
 62
     7
  6
CONTINUOUS
 10
55.796000
 20
201.680000
 11
59.871000
 21
200.661000
  0
ARC
  8
WHITE
 62
     7
  6
CONTINUOUS
 10
59.992000
 20
201.146000
 40
0.499866
 50
255.991557
 51
345.991557
  0
LINE
  8
WHITE
 62
     7
  6
CONTINUOUS
 10
60.477000
 20
201.025000
 11
62.696000
 21
209.902000
  0
ARC
  8
WHITE
 62
     7
  6
CONTINUOUS
 10
62.211000
 20
210.023000
 40
0.499866
 50
345.991557
 51
75.991557
  0
LINE
  8
WHITE
 62
     7
  6
CONTINUOUS
 10
62.332000
 20
210.508000
 11
51.157000
 21
213.302000
  0
ARC
  8
WHITE
 62
     7
  6
CONTINUOUS
 10
51.036000
 20
212.817000
 40
0.499866
 50
75.991557
 51
165.991557
  0
LINE
  8
WHITE
 62
     7
  6
CONTINUOUS
 10
50.551000
 20
212.938000
 11
48.331000
 21
204.062000
  0
ARC
  8
WHITE
 62
     7
  6
CONTINUOUS
 10
48.816000
 20
203.940000
 40
0.500109
 50
165.880397
 51
255.991557
  0
LINE
  8
WHITE
 62
     7
  6
CONTINUOUS
 10
48.694941
 20
203.454764
 11
53.128000
 21
202.347000
  0
ARC
  8
WHITE
 62
     7
  6
CONTINUOUS
 10
53.055000
 20
202.056000
 40
0.300017
 50
345.917438
 51
75.917438
  0
LINE
  8
WHITE
 62
     7
  6
CONTINUOUS
 10
53.346000
 20
201.983000
 11
52.970000
 21
200.480000
  0
ARC
  8
WHITE
 62
     7
  6
CONTINUOUS
 10
52.873000
 20
200.504000
 40
0.099925
 50
166.102824
 51
346.102824
  0
LINE
  8
WHITE
 62
     7
  6
CONTINUOUS
 10
52.776000
 20
200.528000
 11
52.946000
 21
201.207000
  0
ARC
  8
WHITE
 62
     7
  6
CONTINUOUS
 10
52.610000
 20
201.252000
 40
0.339000
 50
352.371850
 51
82.394220
  0
LINE
  8
WHITE
 62
     7
  6
CONTINUOUS
 10
52.654869
 20
201.588018
 11
48.172000
 21
202.699000
  0
ARC
  8
WHITE
 62
     7
  6
CONTINUOUS
 10
48.050030
 20
202.213992
 40
0.500109
 50
75.883934
 51
107.097330
  0
LINE
  8
WHITE
 62
     7
  6
CONTINUOUS
 10
47.903000
 20
202.692000
 11
42.946000
 21
201.166000
  0
ARC
  8
WHITE
 62
     7
  6
CONTINUOUS
 10
43.034000
 20
200.879000
 40
0.300188
 50
107.046598
 51
197.046598
  0
LINE
  8
WHITE
 62
     7
  6
CONTINUOUS
 10
42.747000
 20
200.791000
 11
42.953000
 21
200.122000
  0
ARC
  8
WHITE
 62
     7
  6
CONTINUOUS
 10
42.857500
 20
200.092500
 40
0.099952
 50
197.165946
 51
17.165946
  0
LINE
  8
WHITE
 62
     7
  6
CONTINUOUS
 10
42.762000
 20
200.063000
 11
42.305086
 21
201.544719
  0
ARC
  8
WHITE
 62
     7
  6
CONTINUOUS
 10
42.592000
 20
201.633000
 40
0.300188
 50
107.046598
 51
197.102729
  0
LINE
  8
WHITE
 62
     7
  6
CONTINUOUS
 10
42.504000
 20
201.920000
 11
47.380000
 21
203.420000
  0
ARC
  8
WHITE
 62
     7
  6
CONTINUOUS
 10
47.233000
 20
203.898000
 40
0.500093
 50
287.094306
 51
17.094306
  0
LINE
  8
WHITE
 62
     7
  6
CONTINUOUS
 10
47.711000
 20
204.045000
 11
45.020000
 21
212.790000
  0
ARC
  8
WHITE
 62
     7
  6
CONTINUOUS
 10
44.542000
 20
212.643000
 40
0.500093
 50
17.094306
 51
107.094306
  0
LINE
  8
WHITE
 62
     7
  6
CONTINUOUS
 10
44.395000
 20
213.121000
 11
32.208000
 21
209.371000
  0
ARC
  8
WHITE
 62
     7
  6
CONTINUOUS
 10
32.355000
 20
208.893000
 40
0.500093
 50
107.094306
 51
197.094306
  0
LINE
  8
WHITE
 62
     7
  6
CONTINUOUS
 10
31.877000
 20
208.746000
 11
34.568000
 21
200.001000
  0
ARC
  8
WHITE
 62
     7
  6
CONTINUOUS
 10
35.046000
 20
200.148000
 40
0.500093
 50
197.094306
 51
287.094306
  0
LINE
  8
WHITE
 62
     7
  6
CONTINUOUS
 10
35.193000
 20
199.670000
 11
39.875719
 21
201.111914
  0
ARC
  8
WHITE
 62
     7
  6
CONTINUOUS
 10
39.964000
 20
200.825000
 40
0.300188
 50
17.046598
 51
107.102729
  0
LINE
  8
WHITE
 62
     7
  6
CONTINUOUS
 10
40.251000
 20
200.913000
 11
40.707000
 21
199.431000
  0
ARC
  8
WHITE
 62
     7
  6
CONTINUOUS
 10
40.611500
 20
199.401500
 40
0.099952
 50
197.165946
 51
17.165946
  0
LINE
  8
WHITE
 62
     7
  6
CONTINUOUS
 10
40.516000
 20
199.372000
 11
40.310000
 21
200.041000
  0
ARC
  8
WHITE
 62
     7
  6
CONTINUOUS
 10
40.023000
 20
199.953000
 40
0.300188
 50
17.046598
 51
107.046598
  0
LINE
  8
WHITE
 62
     7
  6
CONTINUOUS
 10
39.935000
 20
200.240000
 11
35.192000
 21
198.780000
  0
ARC
  8
WHITE
 62
     7
  6
CONTINUOUS
 10
35.238408
 20
198.232863
 40
0.549102
 50
94.848180
 51
130.884581
  0
LINE
  8
WHITE
 62
     7
  6
CONTINUOUS
 10
34.879000
 20
198.648000
 11
29.944000
 21
191.966000
  0
ARC
  8
WHITE
 62
     7
  6
CONTINUOUS
 10
30.184000
 20
191.786000
 40
0.300000
 50
143.130102
 51
233.130102
  0
LINE
  8
WHITE
 62
     7
  6
CONTINUOUS
 10
30.004000
 20
191.546000
 11
30.563732
 21
191.125079
  0
ARC
  8
WHITE
 62
     7
  6
CONTINUOUS
 10
30.534000
 20
191.023000
 40
0.106320
 50
253.610460
 51
73.761159
  0
LINE
  8
WHITE
 62
     7
  6
CONTINUOUS
 10
30.504000
 20
190.921000
 11
29.204000
 21
191.895000
  0
ARC
  8
WHITE
 62
     7
  6
CONTINUOUS
 10
29.331770
 20
192.127579
 40
0.265364
 50
151.303125
 51
241.217284
  0
LINE
  8
WHITE
 62
     7
  6
CONTINUOUS
 10
29.099000
 20
192.255000
 11
34.064000
 21
198.875000
  0
ARC
  8
WHITE
 62
     7
  6
CONTINUOUS
 10
33.664000
 20
199.175000
 40
0.500000
 50
323.130102
 51
53.130102
  0
LINE
  8
WHITE
 62
     7
  6
CONTINUOUS
 10
33.964000
 20
199.575000
 11
26.644000
 21
205.066000
  0
ARC
  8
WHITE
 62
     7
  6
CONTINUOUS
 10
26.344000
 20
204.666000
 40
0.500000
 50
53.130102
 51
143.130102
  0
LINE
  8
WHITE
 62
     7
  6
CONTINUOUS
 10
25.944000
 20
204.966000
 11
23.485000
 21
201.688000
  0
ARC
  8
WHITE
 62
     7
  6
CONTINUOUS
 10
23.646000
 20
201.568000
 40
0.200801
 50
143.301304
 51
206.692943
  0
ARC
  8
WHITE
 62
     7
  6
CONTINUOUS
 10
23.243703
 20
201.364404
 40
0.250082
 50
169.261815
 51
26.963808
  0
ARC
  8
WHITE
 62
     7
  6
CONTINUOUS
 10
22.800909
 20
201.447513
 40
0.200445
 50
349.504482
 51
53.192892
  0
LINE
  8
WHITE
 62
     7
  6
CONTINUOUS
 10
22.921000
 20
201.608000
 11
22.503000
 21
201.921000
  0
ARC
  8
WHITE
 62
     7
  6
CONTINUOUS
 10
22.323000
 20
201.681000
 40
0.300000
 50
53.130102
 51
143.130102
  0
LINE
  8
WHITE
 62
     7
  6
CONTINUOUS
 10
22.083000
 20
201.861000
 11
18.618000
 21
197.241000
  0
ARC
  8
WHITE
 62
     7
  6
CONTINUOUS
 10
18.598500
 20
197.256000
 40
0.024602
 50
142.431408
 51
322.431408
  0
LINE
  8
WHITE
 62
     7
  6
CONTINUOUS
 10
18.579000
 20
197.271000
 11
21.864000
 21
201.651000
  0
ARC
  8
WHITE
 62
     7
  6
CONTINUOUS
 10
21.464000
 20
201.951000
 40
0.500000
 50
323.130102
 51
53.130102
  0
LINE
  8
WHITE
 62
     7
  6
CONTINUOUS
 10
21.764000
 20
202.351000
 11
20.784000
 21
203.086000
  0
ARC
  8
WHITE
 62
     7
  6
CONTINUOUS
 10
20.484000
 20
202.686000
 40
0.500000
 50
53.130102
 51
143.130102
  0
LINE
  8
WHITE
 62
     7
  6
CONTINUOUS
 10
20.084000
 20
202.986000
 11
14.654000
 21
195.746000
  0
ARC
  8
WHITE
 62
     7
  6
CONTINUOUS
 10
15.054000
 20
195.446000
 40
0.500000
 50
143.130102
 51
233.130102
  0
LINE
  8
WHITE
 62
     7
  6
CONTINUOUS
 10
14.754000
 20
195.046000
 11
16.831000
 21
193.488000
  0
ARC
  8
WHITE
 62
     7
  6
CONTINUOUS
 10
16.950835
 20
193.648123
 40
0.200000
 50
233.189046
 51
296.719281
  0
ARC
  8
WHITE
 62
     7
  6
CONTINUOUS
 10
17.153000
 20
193.246000
 40
0.250082
 50
259.633677
 51
116.667732
  0
ARC
  8
WHITE
 62
     7
  6
CONTINUOUS
 10
17.072000
 20
192.803000
 40
0.200262
 50
79.643974
 51
143.130102
  0
LINE
  8
WHITE
 62
     7
  6
CONTINUOUS
 10
16.911790
 20
192.923157
 11
14.454000
 21
189.646000
  0
ARC
  8
WHITE
 62
     7
  6
CONTINUOUS
 10
14.854000
 20
189.346000
 40
0.500000
 50
143.130102
 51
233.130102
  0
LINE
  8
WHITE
 62
     7
  6
CONTINUOUS
 10
14.554000
 20
188.946000
 11
21.874000
 21
183.455000
  0
ARC
  8
WHITE
 62
     7
  6
CONTINUOUS
 10
22.174000
 20
183.855000
 40
0.500000
 50
233.130102
 51
323.130102
  0
LINE
  8
WHITE
 62
     7
  6
CONTINUOUS
 10
22.574000
 20
183.555000
 11
27.538502
 21
190.175501
  0
ARC
  8
WHITE
 62
     7
  6
CONTINUOUS
 10
27.726000
 20
189.987000
 40
0.265872
 50
45.000000
 51
134.847212
  0
LINE
  8
WHITE
 62
     7
  6
CONTINUOUS
 10
27.914000
 20
190.175000
 11
29.153732
 21
189.245079
  0
ARC
  8
WHITE
 62
     7
  6
CONTINUOUS
 10
29.124000
 20
189.143000
 40
0.106320
 50
253.610460
 51
73.761159
  0
LINE
  8
WHITE
 62
     7
  6
CONTINUOUS
 10
29.094000
 20
189.041000
 11
28.474000
 21
189.506000
  0
ARC
  8
WHITE
 62
     7
  6
CONTINUOUS
 10
28.294000
 20
189.266000
 40
0.300000
 50
53.130102
 51
143.130102
  0
LINE
  8
WHITE
 62
     7
  6
CONTINUOUS
 10
28.054000
 20
189.446000
 11
23.599000
 21
183.506000
  0
ARC
  8
WHITE
 62
     7
  6
CONTINUOUS
 10
24.077365
 20
183.170182
 40
0.584471
 50
144.930702
 51
268.199400
  0
LINE
  8
WHITE
 62
     7
  6
CONTINUOUS
 10
24.059000
 20
182.586000
 11
35.569000
 21
182.586000
  0
ARC
  8
WHITE
 62
     7
  6
CONTINUOUS
 10
35.567992
 20
183.086000
 40
0.500001
 50
270.115471
 51
357.709428
  0
ARC
  8
WHITE
 62
     7
  6
CONTINUOUS
 10
48.058000
 20
182.586000
 40
12.000011
 50
89.923606
 51
177.707482
  0
LINE
  8
WHITE
 62
     7
  6
CONTINUOUS
 10
48.074000
 20
194.586000
 11
48.074000
 21
187.767000
  0
LINE
  8
WHITE
 62
     7
  6
CONTINUOUS
 10
80.572000
 20
95.372000
 11
87.684000
 21
95.372000
  0
ARC
  8
WHITE
 62
     7
  6
CONTINUOUS
 10
87.646005
 20
94.834005
 40
0.539336
 50
4.039759
 51
85.960241
  0
LINE
  8
WHITE
 62
     7
  6
CONTINUOUS
 10
88.184000
 20
94.872000
 11
88.184000
 21
94.089951
  0
ARC
  8
WHITE
 62
     7
  6
CONTINUOUS
 10
87.609000
 20
94.014951
 40
0.579871
 50
277.431408
 51
7.431408
  0
LINE
  8
WHITE
 62
     7
  6
CONTINUOUS
 10
87.684000
 20
93.439951
 11
82.414593
 21
93.439951
  0
ARC
  8
WHITE
 62
     7
  6
CONTINUOUS
 10
82.414593
 20
93.739951
 40
0.300000
 50
212.733315
 51
270.000000
  0
ARC
  8
WHITE
 62
     7
  6
CONTINUOUS
 10
81.739470
 20
93.305975
 40
0.502574
 50
32.733315
 51
327.266685
  0
ARC
  8
WHITE
 62
     7
  6
CONTINUOUS
 10
82.414593
 20
92.872000
 40
0.300000
 50
90.000000
 51
147.266685
  0
LINE
  8
WHITE
 62
     7
  6
CONTINUOUS
 10
82.414593
 20
93.172000
 11
87.984000
 21
93.172000
  0
ARC
  8
WHITE
 62
     7
  6
CONTINUOUS
 10
87.961006
 20
92.849006
 40
0.323811
 50
4.072019
 51
85.927981
  0
LINE
  8
WHITE
 62
     7
  6
CONTINUOUS
 10
88.284000
 20
92.872000
 11
88.282905
 21
92.275000
  0
ARC
  8
WHITE
 62
     7
  6
CONTINUOUS
 10
88.083000
 20
92.275000
 40
0.199905
 50
296.436873
 51
0.000000
  0
ARC
  8
WHITE
 62
     7
  6
CONTINUOUS
 10
88.284000
 20
91.872000
 40
0.250440
 50
116.565051
 51
333.639942
  0
ARC
  8
WHITE
 62
     7
  6
CONTINUOUS
 10
88.670803
 20
91.698986
 40
0.173771
 50
84.651831
 51
159.161439
  0
LINE
  8
WHITE
 62
     7
  6
CONTINUOUS
 10
88.687000
 20
91.872000
 11
101.764000
 21
91.872000
  0
ARC
  8
WHITE
 62
     7
  6
CONTINUOUS
 10
101.763921
 20
91.571878
 40
0.300122
 50
327.131836
 51
89.984988
  0
LINE
  8
WHITE
 62
     7
  6
CONTINUOUS
 10
102.016000
 20
91.409000
 11
91.379912
 21
74.821057
  0
ARC
  8
WHITE
 62
     7
  6
CONTINUOUS
 10
91.128000
 20
74.984000
 40
0.300017
 50
284.082562
 51
327.104185
  0
LINE
  8
WHITE
 62
     7
  6
CONTINUOUS
 10
91.201000
 20
74.693000
 11
77.591000
 21
71.736000
  0
ARC
  8
WHITE
 62
     7
  6
CONTINUOUS
 10
77.664000
 20
71.445000
 40
0.300017
 50
104.082562
 51
126.449175
  0
ARC
  8
WHITE
 62
     7
  6
CONTINUOUS
 10
59.279096
 20
96.341142
 40
30.648692
 50
261.057559
 51
306.444486
  0
ARC
  8
WHITE
 62
     7
  6
CONTINUOUS
 10
58.383000
 20
90.764000
 40
25.000056
 50
245.755012
 51
261.099457
  0
ARC
  8
WHITE
 62
     7
  6
CONTINUOUS
 10
39.206719
 20
48.144126
 40
21.735196
 50
65.798486
 51
125.086193
  0
ARC
  8
WHITE
 62
     7
  6
CONTINUOUS
 10
26.541000
 20
66.176000
 40
0.300433
 50
199.038040
 51
304.960745
  0
LINE
  8
WHITE
 62
     7
  6
CONTINUOUS
 10
26.257000
 20
66.078000
 11
25.642634
 21
67.864907
  0
ARC
  8
WHITE
 62
     7
  6
CONTINUOUS
 10
25.926334
 20
67.962448
 40
0.300000
 50
134.350698
 51
198.973765
  0
ARC
  8
WHITE
 62
     7
  6
CONTINUOUS
 10
25.437000
 20
68.463000
 40
0.400000
 50
314.350698
 51
173.554593
  0
ARC
  8
WHITE
 62
     7
  6
CONTINUOUS
 10
24.741425
 20
68.541580
 40
0.300000
 50
288.931527
 51
353.554593
  0
LINE
  8
WHITE
 62
     7
  6
CONTINUOUS
 10
24.838756
 20
68.257807
 11
24.758244
 21
68.230193
  0
ARC
  8
WHITE
 62
     7
  6
CONTINUOUS
 10
24.660913
 20
68.513965
 40
0.300000
 50
224.308460
 51
288.931527
  0
ARC
  8
WHITE
 62
     7
  6
CONTINUOUS
 10
24.160000
 20
68.025000
 40
0.400000
 50
44.308460
 51
263.604540
  0
ARC
  8
WHITE
 62
     7
  6
CONTINUOUS
 10
24.082027
 20
67.329356
 40
0.300000
 50
18.981474
 51
83.604540
  0
LINE
  8
WHITE
 62
     7
  6
CONTINUOUS
 10
24.365714
 20
67.426935
 11
24.807000
 21
66.144000
  0
ARC
  8
WHITE
 62
     7
  6
CONTINUOUS
 10
24.533872
 20
66.038569
 40
0.292770
 50
267.871784
 51
21.107350
  0
LINE
  8
WHITE
 62
     7
  6
CONTINUOUS
 10
24.523000
 20
65.746000
 11
14.584000
 21
65.722000
  0
ARC
  8
WHITE
 62
     7
  6
CONTINUOUS
 10
14.597141
 20
65.935141
 40
0.213545
 50
183.527972
 51
266.472028
  0
LINE
  8
WHITE
 62
     7
  6
CONTINUOUS
 10
14.384000
 20
65.922000
 11
14.384000
 21
94.872000
  0
ARC
  8
WHITE
 62
     7
  6
CONTINUOUS
 10
14.861079
 20
94.894921
 40
0.477629
 50
87.249382
 51
182.750618
  0
LINE
  8
WHITE
 62
     7
  6
CONTINUOUS
 10
14.884000
 20
95.372000
 11
23.934000
 21
95.372000
  0
ARC
  8
WHITE
 62
     7
  6
CONTINUOUS
 10
23.917155
 20
94.855155
 40
0.517119
 50
1.866701
 51
88.133299
  0
LINE
  8
WHITE
 62
     7
  6
CONTINUOUS
 10
24.434000
 20
94.872000
 11
24.434000
 21
93.939951
  0
ARC
  8
WHITE
 62
     7
  6
CONTINUOUS
 10
23.969890
 20
93.904060
 40
0.465495
 50
265.578022
 51
4.421978
  0
LINE
  8
WHITE
 62
     7
  6
CONTINUOUS
 10
23.934000
 20
93.439951
 11
18.703229
 21
93.439951
  0
ARC
  8
WHITE
 62
     7
  6
CONTINUOUS
 10
18.703229
 20
93.739951
 40
0.300000
 50
206.344286
 51
270.000000
  0
ARC
  8
WHITE
 62
     7
  6
CONTINUOUS
 10
17.826853
 20
93.305975
 40
0.677942
 50
26.344286
 51
333.655714
  0
ARC
  8
WHITE
 62
     7
  6
CONTINUOUS
 10
18.703229
 20
92.872000
 40
0.300000
 50
90.000000
 51
153.655714
  0
LINE
  8
WHITE
 62
     7
  6
CONTINUOUS
 10
18.703229
 20
93.172000
 11
24.234000
 21
93.172000
  0
ARC
  8
WHITE
 62
     7
  6
CONTINUOUS
 10
24.250757
 20
92.888757
 40
0.283738
 50
356.614262
 51
93.385738
  0
LINE
  8
WHITE
 62
     7
  6
CONTINUOUS
 10
24.534000
 20
92.872000
 11
24.532905
 21
92.275000
  0
ARC
  8
WHITE
 62
     7
  6
CONTINUOUS
 10
24.333000
 20
92.275000
 40
0.199905
 50
296.436873
 51
0.000000
  0
ARC
  8
WHITE
 62
     7
  6
CONTINUOUS
 10
24.534000
 20
91.872000
 40
0.250440
 50
116.565051
 51
333.639942
  0
ARC
  8
WHITE
 62
     7
  6
CONTINUOUS
 10
24.976261
 20
91.609911
 40
0.265013
 50
98.519666
 51
145.293604
  0
LINE
  8
WHITE
 62
     7
  6
CONTINUOUS
 10
24.937000
 20
91.872000
 11
76.484000
 21
91.872000
  0
ARC
  8
WHITE
 62
     7
  6
CONTINUOUS
 10
76.516908
 20
91.604908
 40
0.269111
 50
352.975955
 51
97.024045
  0
LINE
  8
WHITE
 62
     7
  6
CONTINUOUS
 10
76.784000
 20
91.572000
 11
76.784000
 21
87.613620
  0
ARC
  8
WHITE
 62
     7
  6
CONTINUOUS
 10
76.484000
 20
87.613620
 40
0.300000
 50
292.024313
 51
0.000000
  0
ARC
  8
WHITE
 62
     7
  6
CONTINUOUS
 10
76.784000
 20
86.872000
 40
0.500000
 50
112.024313
 51
337.975687
  0
ARC
  8
WHITE
 62
     7
  6
CONTINUOUS
 10
77.459140
 20
86.621579
 40
0.220783
 50
15.907814
 51
163.441718
  0
ARC
  8
WHITE
 62
     7
  6
CONTINUOUS
 10
78.134000
 20
86.872000
 40
0.500000
 50
202.322109
 51
67.975687
  0
ARC
  8
WHITE
 62
     7
  6
CONTINUOUS
 10
78.434000
 20
87.613620
 40
0.300000
 50
180.000000
 51
247.975687
  0
LINE
  8
WHITE
 62
     7
  6
CONTINUOUS
 10
78.134000
 20
87.613620
 11
78.134000
 21
94.872000
  0
ARC
  8
WHITE
 62
     7
  6
CONTINUOUS
 10
78.632825
 20
94.873175
 40
0.498826
 50
89.865034
 51
180.134966
  0
LINE
  8
WHITE
 62
     7
  6
CONTINUOUS
 10
78.634000
 20
95.372000
 11
79.872000
 21
95.372000
  0
LINE
  8
WHITE
 62
     7
  6
CONTINUOUS
 10
79.872000
 20
95.372000
 11
79.872000
 21
101.062000
  0
LINE
  8
WHITE
 62
     7
  6
CONTINUOUS
 10
80.672000
 20
212.942000
 11
87.684000
 21
212.942000
  0
ARC
  8
WHITE
 62
     7
  6
CONTINUOUS
 10
87.685654
 20
213.440346
 40
0.498349
 50
269.809871
 51
0.190129
  0
LINE
  8
WHITE
 62
     7
  6
CONTINUOUS
 10
88.184000
 20
213.442000
 11
88.184000
 21
214.442000
  0
ARC
  8
WHITE
 62
     7
  6
CONTINUOUS
 10
87.609000
 20
214.517000
 40
0.579871
 50
352.568592
 51
82.568592
  0
LINE
  8
WHITE
 62
     7
  6
CONTINUOUS
 10
87.684000
 20
215.092000
 11
82.209000
 21
215.092000
  0
ARC
  8
WHITE
 62
     7
  6
CONTINUOUS
 10
81.909000
 20
215.117000
 40
0.301040
 50
4.763642
 51
355.236358
  0
LINE
  8
WHITE
 62
     7
  6
CONTINUOUS
 10
82.209000
 20
215.142000
 11
87.984000
 21
215.142000
  0
ARC
  8
WHITE
 62
     7
  6
CONTINUOUS
 10
87.965622
 20
215.460378
 40
0.318908
 50
273.303600
 51
356.696400
  0
LINE
  8
WHITE
 62
     7
  6
CONTINUOUS
 10
88.284000
 20
215.442000
 11
88.284000
 21
216.039000
  0
ARC
  8
WHITE
 62
     7
  6
CONTINUOUS
 10
88.083001
 20
216.038274
 40
0.201000
 50
0.206839
 51
63.655265
  0
ARC
  8
WHITE
 62
     7
  6
CONTINUOUS
 10
88.284000
 20
216.442000
 40
0.249994
 50
26.360058
 51
243.434949
  0
ARC
  8
WHITE
 62
     7
  6
CONTINUOUS
 10
88.698925
 20
216.661059
 40
0.219383
 50
209.508835
 51
266.884092
  0
LINE
  8
WHITE
 62
     7
  6
CONTINUOUS
 10
88.687000
 20
216.442000
 11
101.764000
 21
216.442000
  0
ARC
  8
WHITE
 62
     7
  6
CONTINUOUS
 10
101.764000
 20
216.742000
 40
0.300000
 50
270.000000
 51
32.895815
  0
LINE
  8
WHITE
 62
     7
  6
CONTINUOUS
 10
102.015898
 20
216.904934
 11
91.380000
 21
233.493000
  0
ARC
  8
WHITE
 62
     7
  6
CONTINUOUS
 10
91.128084
 20
233.329871
 40
0.300122
 50
32.925190
 51
75.938920
  0
LINE
  8
WHITE
 62
     7
  6
CONTINUOUS
 10
91.201000
 20
233.621000
 11
77.590863
 21
236.577456
  0
ARC
  8
WHITE
 62
     7
  6
CONTINUOUS
 10
77.664000
 20
236.868000
 40
0.299608
 50
233.550825
 51
255.870819
  0
ARC
  8
WHITE
 62
     7
  6
CONTINUOUS
 10
59.279743
 20
211.972190
 40
30.648450
 50
53.556118
 51
98.943731
  0
ARC
  8
WHITE
 62
     7
  6
CONTINUOUS
 10
58.381523
 20
217.548769
 40
25.000040
 50
98.897116
 51
114.241682
  0
ARC
  8
WHITE
 62
     7
  6
CONTINUOUS
 10
39.207000
 20
260.170000
 40
21.735727
 50
234.913393
 51
294.199621
  0
ARC
  8
WHITE
 62
     7
  6
CONTINUOUS
 10
26.540773
 20
242.138159
 40
0.300167
 50
54.986367
 51
160.976493
  0
LINE
  8
WHITE
 62
     7
  6
CONTINUOUS
 10
26.257000
 20
242.236000
 11
25.534513
 21
240.133739
  0
ARC
  8
WHITE
 62
     7
  6
CONTINUOUS
 10
25.250800
 20
240.231243
 40
0.300000
 50
251.028338
 51
341.033619
  0
LINE
  8
WHITE
 62
     7
  6
CONTINUOUS
 10
25.153270
 20
239.947539
 11
24.443752
 21
240.191453
  0
ARC
  8
WHITE
 62
     7
  6
CONTINUOUS
 10
24.541283
 20
240.475157
 40
0.300000
 50
161.018526
 51
251.028338
  0
LINE
  8
WHITE
 62
     7
  6
CONTINUOUS
 10
24.257595
 20
240.572736
 11
24.807000
 21
242.170000
  0
ARC
  8
WHITE
 62
     7
  6
CONTINUOUS
 10
24.496568
 20
242.248812
 40
0.320280
 50
345.754753
 51
85.266113
  0
LINE
  8
WHITE
 62
     7
  6
CONTINUOUS
 10
24.523000
 20
242.568000
 11
14.584000
 21
242.592000
  0
ARC
  8
WHITE
 62
     7
  6
CONTINUOUS
 10
14.577551
 20
242.398449
 40
0.193658
 50
88.091557
 51
181.908443
  0
LINE
  8
WHITE
 62
     7
  6
CONTINUOUS
 10
14.384000
 20
242.392000
 11
14.384000
 21
213.442000
  0
ARC
  8
WHITE
 62
     7
  6
CONTINUOUS
 10
14.879590
 20
213.437590
 40
0.495609
 50
179.490140
 51
270.509860
  0
LINE
  8
WHITE
 62
     7
  6
CONTINUOUS
 10
14.884000
 20
212.942000
 11
23.934000
 21
212.942000
  0
ARC
  8
WHITE
 62
     7
  6
CONTINUOUS
 10
23.957172
 20
213.418828
 40
0.477391
 50
267.217842
 51
2.782158
  0
LINE
  8
WHITE
 62
     7
  6
CONTINUOUS
 10
24.434000
 20
213.442000
 11
24.434000
 21
214.592000
  0
ARC
  8
WHITE
 62
     7
  6
CONTINUOUS
 10
23.911026
 20
214.569026
 40
0.523479
 50
2.515390
 51
87.484610
  0
LINE
  8
WHITE
 62
     7
  6
CONTINUOUS
 10
23.934000
 20
215.092000
 11
18.459000
 21
215.092000
  0
ARC
  8
WHITE
 62
     7
  6
CONTINUOUS
 10
18.159000
 20
215.117000
 40
0.301040
 50
4.763642
 51
355.236358
  0
LINE
  8
WHITE
 62
     7
  6
CONTINUOUS
 10
18.459000
 20
215.142000
 11
24.234000
 21
215.142000
  0
ARC
  8
WHITE
 62
     7
  6
CONTINUOUS
 10
24.241277
 20
215.434723
 40
0.292813
 50
268.575929
 51
1.424071
  0
LINE
  8
WHITE
 62
     7
  6
CONTINUOUS
 10
24.534000
 20
215.442000
 11
24.534000
 21
216.039000
  0
ARC
  8
WHITE
 62
     7
  6
CONTINUOUS
 10
24.333001
 20
216.038274
 40
0.201000
 50
0.206839
 51
63.655265
  0
ARC
  8
WHITE
 62
     7
  6
CONTINUOUS
 10
24.534000
 20
216.442000
 40
0.249994
 50
26.360058
 51
243.434949
  0
ARC
  8
WHITE
 62
     7
  6
CONTINUOUS
 10
24.928406
 20
216.627970
 40
0.186168
 50
203.747019
 51
272.645907
  0
LINE
  8
WHITE
 62
     7
  6
CONTINUOUS
 10
24.937000
 20
216.442000
 11
76.484000
 21
216.442000
  0
ARC
  8
WHITE
 62
     7
  6
CONTINUOUS
 10
76.460751
 20
216.765249
 40
0.324084
 50
274.113741
 51
355.886259
  0
LINE
  8
WHITE
 62
     7
  6
CONTINUOUS
 10
76.784000
 20
216.742000
 11
76.784000
 21
220.700380
  0
ARC
  8
WHITE
 62
     7
  6
CONTINUOUS
 10
76.484000
 20
220.700380
 40
0.300000
 50
0.000000
 51
67.975687
  0
ARC
  8
WHITE
 62
     7
  6
CONTINUOUS
 10
76.784000
 20
221.442000
 40
0.500000
 50
16.601112
 51
247.975687
  0
ARC
  8
WHITE
 62
     7
  6
CONTINUOUS
 10
77.454822
 20
221.641995
 40
0.200000
 50
196.601112
 51
270.001639
  0
LINE
  8
WHITE
 62
     7
  6
CONTINUOUS
 10
77.454828
 20
221.441995
 11
77.463184
 21
221.441995
  0
ARC
  8
WHITE
 62
     7
  6
CONTINUOUS
 10
77.463178
 20
221.641995
 40
0.200000
 50
270.001639
 51
343.398868
  0
ARC
  8
WHITE
 62
     7
  6
CONTINUOUS
 10
78.134000
 20
221.442000
 40
0.500000
 50
292.024313
 51
163.398868
  0
ARC
  8
WHITE
 62
     7
  6
CONTINUOUS
 10
78.434000
 20
220.700380
 40
0.300000
 50
112.024313
 51
180.000000
  0
LINE
  8
WHITE
 62
     7
  6
CONTINUOUS
 10
78.134000
 20
220.700380
 11
78.134000
 21
213.442000
  0
ARC
  8
WHITE
 62
     7
  6
CONTINUOUS
 10
78.662347
 20
213.470347
 40
0.529107
 50
183.071100
 51
266.928900
  0
LINE
  8
WHITE
 62
     7
  6
CONTINUOUS
 10
78.634000
 20
212.942000
 11
79.872000
 21
212.942000
  0
LINE
  8
WHITE
 62
     7
  6
CONTINUOUS
 10
79.872000
 20
212.942000
 11
79.872000
 21
207.251000
  0
LINE
  8
WHITE
 62
     7
  6
CONTINUOUS
 10
65.295000
 20
261.597000
 11
58.884000
 21
261.597000
  0
LINE
  8
WHITE
 62
     7
  6
CONTINUOUS
 10
58.884000
 20
261.597000
 11
58.884000
 21
257.562000
  0
ARC
  8
WHITE
 62
     7
  6
CONTINUOUS
 10
58.388835
 20
257.557142
 40
0.495189
 50
269.209155
 51
0.562120
  0
LINE
  8
WHITE
 62
     7
  6
CONTINUOUS
 10
58.382000
 20
257.062000
 11
55.787000
 21
257.068000
  0
ARC
  8
WHITE
 62
     7
  6
CONTINUOUS
 10
55.787264
 20
257.267462
 40
0.199462
 50
206.007451
 51
269.924256
  0
ARC
  8
WHITE
 62
     7
  6
CONTINUOUS
 10
55.384000
 20
257.069000
 40
0.249994
 50
26.360058
 51
243.434949
  0
ARC
  8
WHITE
 62
     7
  6
CONTINUOUS
 10
55.183001
 20
256.665274
 40
0.201000
 50
0.206839
 51
63.655265
  0
LINE
  8
WHITE
 62
     7
  6
CONTINUOUS
 10
55.384000
 20
256.666000
 11
55.384000
 21
249.546000
  0
ARC
  8
WHITE
 62
     7
  6
CONTINUOUS
 10
54.898008
 20
249.531932
 40
0.486196
 50
268.113228
 51
1.658046
  0
LINE
  8
WHITE
 62
     7
  6
CONTINUOUS
 10
54.882000
 20
249.046000
 11
43.882000
 21
249.070000
  0
ARC
  8
WHITE
 62
     7
  6
CONTINUOUS
 10
43.882999
 20
249.568999
 40
0.499000
 50
179.885064
 51
269.885294
  0
LINE
  8
WHITE
 62
     7
  6
CONTINUOUS
 10
43.384000
 20
249.570000
 11
43.384000
 21
260.896000
  0
ARC
  8
WHITE
 62
     7
  6
CONTINUOUS
 10
43.134000
 20
260.897000
 40
0.250002
 50
359.770818
 51
179.770818
  0
LINE
  8
WHITE
 62
     7
  6
CONTINUOUS
 10
42.884000
 20
260.898000
 11
42.884000
 21
249.574000
  0
ARC
  8
WHITE
 62
     7
  6
CONTINUOUS
 10
42.382997
 20
249.575003
 40
0.501004
 50
269.885980
 51
359.885295
  0
LINE
  8
WHITE
 62
     7
  6
CONTINUOUS
 10
42.382000
 20
249.074000
 11
31.382000
 21
249.101000
  0
ARC
  8
WHITE
 62
     7
  6
CONTINUOUS
 10
31.382999
 20
249.599999
 40
0.499000
 50
179.885064
 51
269.885294
  0
LINE
  8
WHITE
 62
     7
  6
CONTINUOUS
 10
30.884000
 20
249.601000
 11
30.884000
 21
260.927000
  0
ARC
  8
WHITE
 62
     7
  6
CONTINUOUS
 10
30.634000
 20
260.928000
 40
0.250002
 50
359.770818
 51
180.000000
  0
LINE
  8
WHITE
 62
     7
  6
CONTINUOUS
 10
30.383998
 20
260.928000
 11
30.384000
 21
249.604000
  0
ARC
  8
WHITE
 62
     7
  6
CONTINUOUS
 10
29.882997
 20
249.605003
 40
0.501004
 50
269.885980
 51
359.885295
  0
LINE
  8
WHITE
 62
     7
  6
CONTINUOUS
 10
29.882000
 20
249.104000
 11
17.882000
 21
249.134000
  0
ARC
  8
WHITE
 62
     7
  6
CONTINUOUS
 10
17.882999
 20
249.632999
 40
0.499000
 50
179.885064
 51
269.885294
  0
LINE
  8
WHITE
 62
     7
  6
CONTINUOUS
 10
17.384000
 20
249.634000
 11
17.384000
 21
251.878774
  0
ARC
  8
WHITE
 62
     7
  6
CONTINUOUS
 10
17.784000
 20
251.878774
 40
0.400000
 50
116.387800
 51
180.000000
  0
ARC
  8
WHITE
 62
     7
  6
CONTINUOUS
 10
17.384000
 20
252.685000
 40
0.500000
 50
296.387800
 51
152.013466
  0
ARC
  8
WHITE
 62
     7
  6
CONTINUOUS
 10
16.589248
 20
253.107338
 40
0.400000
 50
268.401266
 51
332.013466
  0
LINE
  8
WHITE
 62
     7
  6
CONTINUOUS
 10
16.578088
 20
252.707493
 11
15.381904
 21
252.740879
  0
ARC
  8
WHITE
 62
     7
  6
CONTINUOUS
 10
15.333000
 20
253.190000
 40
0.451775
 50
186.354197
 51
276.214390
  0
LINE
  8
WHITE
 62
     7
  6
CONTINUOUS
 10
14.884000
 20
253.140000
 11
14.884000
 21
261.465000
  0
ARC
  8
WHITE
 62
     7
  6
CONTINUOUS
 10
15.384037
 20
261.464963
 40
0.500037
 50
90.110396
 51
179.995805
  0
LINE
  8
WHITE
 62
     7
  6
CONTINUOUS
 10
15.383073
 20
261.965000
 11
15.535000
 21
261.965000
  0
ARC
  8
WHITE
 62
     7
  6
CONTINUOUS
 10
15.534000
 20
261.465000
 40
0.500001
 50
0.000000
 51
89.885409
  0
LINE
  8
WHITE
 62
     7
  6
CONTINUOUS
 10
16.034000
 20
261.465000
 11
16.034000
 21
254.588000
  0
ARC
  8
WHITE
 62
     7
  6
CONTINUOUS
 10
16.134000
 20
254.588000
 40
0.100000
 50
180.000000
 51
0.000000
  0
LINE
  8
WHITE
 62
     7
  6
CONTINUOUS
 10
16.234000
 20
254.588000
 11
16.234000
 21
269.738000
  0
ARC
  8
WHITE
 62
     7
  6
CONTINUOUS
 10
16.134000
 20
269.738000
 40
0.100000
 50
0.000000
 51
179.427061
  0
LINE
  8
WHITE
 62
     7
  6
CONTINUOUS
 10
16.034005
 20
269.739000
 11
16.034000
 21
262.865000
  0
ARC
  8
WHITE
 62
     7
  6
CONTINUOUS
 10
15.534000
 20
262.865000
 40
0.500000
 50
269.770818
 51
0.000000
  0
LINE
  8
WHITE
 62
     7
  6
CONTINUOUS
 10
15.532000
 20
262.365000
 11
15.382000
 21
262.365000
  0
ARC
  8
WHITE
 62
     7
  6
CONTINUOUS
 10
15.382999
 20
262.863999
 40
0.499000
 50
179.885064
 51
269.885294
  0
LINE
  8
WHITE
 62
     7
  6
CONTINUOUS
 10
14.884000
 20
262.865000
 11
14.883889
 21
271.190012
  0
ARC
  8
WHITE
 62
     7
  6
CONTINUOUS
 10
15.334000
 20
271.140000
 40
0.452881
 50
83.534068
 51
173.659808
  0
LINE
  8
WHITE
 62
     7
  6
CONTINUOUS
 10
15.385000
 20
271.590000
 11
16.577978
 21
271.616855
  0
ARC
  8
WHITE
 62
     7
  6
CONTINUOUS
 10
16.586981
 20
271.216957
 40
0.400000
 50
27.677382
 51
91.289582
  0
ARC
  8
WHITE
 62
     7
  6
CONTINUOUS
 10
17.384000
 20
271.635000
 40
0.500000
 50
207.677382
 51
63.612368
  0
ARC
  8
WHITE
 62
     7
  6
CONTINUOUS
 10
17.783998
 20
272.441227
 40
0.400000
 50
180.000000
 51
243.612368
  0
LINE
  8
WHITE
 62
     7
  6
CONTINUOUS
 10
17.383998
 20
272.441227
 11
17.384000
 21
274.684001
  0
ARC
  8
WHITE
 62
     7
  6
CONTINUOUS
 10
17.884000
 20
274.684001
 40
0.500000
 50
89.861535
 51
180.000000
  0
LINE
  8
WHITE
 62
     7
  6
CONTINUOUS
 10
17.885208
 20
275.183999
 11
29.885000
 21
275.155000
  0
ARC
  8
WHITE
 62
     7
  6
CONTINUOUS
 10
29.884000
 20
274.655000
 40
0.500001
 50
0.000000
 51
89.885409
  0
LINE
  8
WHITE
 62
     7
  6
CONTINUOUS
 10
30.384000
 20
274.655000
 11
30.384000
 21
263.328000
  0
ARC
  8
WHITE
 62
     7
  6
CONTINUOUS
 10
30.634000
 20
263.327000
 40
0.250002
 50
179.770818
 51
0.000000
  0
LINE
  8
WHITE
 62
     7
  6
CONTINUOUS
 10
30.884002
 20
263.327000
 11
30.883000
 21
274.651002
  0
ARC
  8
WHITE
 62
     7
  6
CONTINUOUS
 10
31.384000
 20
274.650000
 40
0.501001
 50
89.885637
 51
179.885409
  0
LINE
  8
WHITE
 62
     7
  6
CONTINUOUS
 10
31.385000
 20
275.151000
 11
42.385000
 21
275.124000
  0
ARC
  8
WHITE
 62
     7
  6
CONTINUOUS
 10
42.384000
 20
274.624000
 40
0.500001
 50
0.000000
 51
89.885409
  0
LINE
  8
WHITE
 62
     7
  6
CONTINUOUS
 10
42.884000
 20
274.624000
 11
42.884000
 21
263.298000
  0
ARC
  8
WHITE
 62
     7
  6
CONTINUOUS
 10
43.134000
 20
263.297000
 40
0.250002
 50
179.770818
 51
359.770818
  0
LINE
  8
WHITE
 62
     7
  6
CONTINUOUS
 10
43.384000
 20
263.296000
 11
43.383000
 21
274.620002
  0
ARC
  8
WHITE
 62
     7
  6
CONTINUOUS
 10
43.884000
 20
274.619000
 40
0.501001
 50
89.885637
 51
179.885409
  0
LINE
  8
WHITE
 62
     7
  6
CONTINUOUS
 10
43.885000
 20
275.120000
 11
54.885000
 21
275.096000
  0
ARC
  8
WHITE
 62
     7
  6
CONTINUOUS
 10
54.884000
 20
274.596000
 40
0.500001
 50
0.000000
 51
89.885409
  0
LINE
  8
WHITE
 62
     7
  6
CONTINUOUS
 10
55.384000
 20
274.596000
 11
55.384000
 21
267.473000
  0
ARC
  8
WHITE
 62
     7
  6
CONTINUOUS
 10
55.152819
 20
267.492001
 40
0.231960
 50
300.917167
 51
355.301250
  0
ARC
  8
WHITE
 62
     7
  6
CONTINUOUS
 10
55.383000
 20
267.069000
 40
0.249994
 50
116.360058
 51
333.639942
  0
ARC
  8
WHITE
 62
     7
  6
CONTINUOUS
 10
55.784995
 20
266.869008
 40
0.199003
 50
89.422826
 51
153.436305
  0
LINE
  8
WHITE
 62
     7
  6
CONTINUOUS
 10
55.787000
 20
267.068000
 11
56.334000
 21
267.067000
  0
ARC
  8
WHITE
 62
     7
  6
CONTINUOUS
 10
56.334000
 20
266.867000
 40
0.200000
 50
0.000000
 51
90.000000
  0
LINE
  8
WHITE
 62
     7
  6
CONTINUOUS
 10
56.534000
 20
266.867000
 11
56.534000
 21
261.067000
  0
ARC
  8
WHITE
 62
     7
  6
CONTINUOUS
 10
56.634000
 20
261.067000
 40
0.100000
 50
180.000000
 51
359.427061
  0
LINE
  8
WHITE
 62
     7
  6
CONTINUOUS
 10
56.733995
 20
261.066000
 11
56.734000
 21
266.766000
  0
ARC
  8
WHITE
 62
     7
  6
CONTINUOUS
 10
56.934000
 20
266.766000
 40
0.200000
 50
90.000000
 51
180.000000
  0
LINE
  8
WHITE
 62
     7
  6
CONTINUOUS
 10
56.934000
 20
266.966000
 11
58.684000
 21
266.961000
  0
ARC
  8
WHITE
 62
     7
  6
CONTINUOUS
 10
58.684000
 20
266.761000
 40
0.200000
 50
0.000000
 51
90.000000
  0
LINE
  8
WHITE
 62
     7
  6
CONTINUOUS
 10
58.884000
 20
266.761000
 11
58.884000
 21
262.297000
  0
ARC
  8
WHITE
 62
     7
  6
CONTINUOUS
 10
33.516000
 20
21.068000
 40
13.998442
 50
227.428958
 51
224.756879
  0
LINE
  8
WHITE
 62
     7
  6
CONTINUOUS
 10
23.575694
 20
11.211697
 11
20.293000
 21
7.070000
  0
LINE
  8
WHITE
 62
     7
  6
CONTINUOUS
 10
63.187134
 20
36.332083
 11
60.004730
 21
39.514487
  0
ARC
  8
WHITE
 62
     7
  6
CONTINUOUS
 10
59.863309
 20
39.373066
 40
0.200000
 50
45.000000
 51
134.192964
  0
ARC
  8
WHITE
 62
     7
  6
CONTINUOUS
 10
49.965134
 20
49.554083
 40
13.999541
 50
317.660513
 51
314.192964
  0
LINE
  8
WHITE
 62
     7
  6
CONTINUOUS
 10
49.814134
 20
49.329083
 11
49.814134
 21
45.079083
  0
ARC
  8
WHITE
 62
     7
  6
CONTINUOUS
 10
49.979780
 20
45.094728
 40
0.166383
 50
185.395708
 51
264.604292
  0
LINE
  8
WHITE
 62
     7
  6
CONTINUOUS
 10
49.964134
 20
44.929083
 11
52.639134
 21
44.929083
  0
ARC
  8
WHITE
 62
     7
  6
CONTINUOUS
 10
52.639134
 20
44.354083
 40
0.575000
 50
270.000000
 51
90.000000
  0
LINE
  8
WHITE
 62
     7
  6
CONTINUOUS
 10
52.639134
 20
43.779083
 11
51.000134
 21
43.779083
  0
ARC
  8
WHITE
 62
     7
  6
CONTINUOUS
 10
50.999229
 20
44.151213
 40
0.372132
 50
212.716498
 51
270.139318
  0
ARC
  8
WHITE
 62
     7
  6
CONTINUOUS
 10
50.539134
 20
43.855083
 40
0.175026
 50
32.872909
 51
237.127091
  0
ARC
  8
WHITE
 62
     7
  6
CONTINUOUS
 10
50.239134
 20
43.394075
 40
0.375001
 50
359.848426
 51
56.861498
  0
LINE
  8
WHITE
 62
     7
  6
CONTINUOUS
 10
50.614134
 20
43.393083
 11
50.614134
 21
39.271333
  0
ARC
  8
WHITE
 62
     7
  6
CONTINUOUS
 10
50.214134
 20
39.271333
 40
0.400000
 50
313.264260
 51
0.000000
  0
ARC
  8
WHITE
 62
     7
  6
CONTINUOUS
 10
50.714134
 20
38.740083
 40
0.329539
 50
133.264260
 51
46.735740
  0
ARC
  8
WHITE
 62
     7
  6
CONTINUOUS
 10
51.214134
 20
39.271333
 40
0.400000
 50
180.000000
 51
226.735740
  0
LINE
  8
WHITE
 62
     7
  6
CONTINUOUS
 10
50.814134
 20
39.271333
 11
50.814134
 21
39.828083
  0
ARC
  8
WHITE
 62
     7
  6
CONTINUOUS
 10
51.193886
 20
39.823445
 40
0.379780
 50
97.375270
 51
179.300317
  0
ARC
  8
WHITE
 62
     7
  6
CONTINUOUS
 10
49.943027
 20
50.053934
 40
9.926905
 50
276.955354
 51
83.045546
  0
ARC
  8
WHITE
 62
     7
  6
CONTINUOUS
 10
51.190134
 20
60.281083
 40
0.376000
 50
180.000000
 51
263.102572
  0
LINE
  8
WHITE
 62
     7
  6
CONTINUOUS
 10
50.814134
 20
60.281083
 11
50.814134
 21
60.820650
  0
ARC
  8
WHITE
 62
     7
  6
CONTINUOUS
 10
51.214134
 20
60.820650
 40
0.400000
 50
129.551772
 51
180.000000
  0
ARC
  8
WHITE
 62
     7
  6
CONTINUOUS
 10
50.714134
 20
61.426083
 40
0.385206
 50
309.551772
 51
230.448226
  0
ARC
  8
WHITE
 62
     7
  6
CONTINUOUS
 10
50.214134
 20
60.820650
 40
0.400000
 50
0.000000
 51
50.448226
  0
LINE
  8
WHITE
 62
     7
  6
CONTINUOUS
 10
50.614134
 20
60.820650
 11
50.614134
 21
56.715083
  0
ARC
  8
WHITE
 62
     7
  6
CONTINUOUS
 10
50.203041
 20
56.734630
 40
0.411557
 50
305.859969
 51
357.277689
  0
ARC
  8
WHITE
 62
     7
  6
CONTINUOUS
 10
50.539134
 20
56.254083
 40
0.175026
 50
122.872909
 51
327.127091
  0
ARC
  8
WHITE
 62
     7
  6
CONTINUOUS
 10
51.000141
 20
55.954083
 40
0.375000
 50
90.000973
 51
146.861369
  0
LINE
  8
WHITE
 62
     7
  6
CONTINUOUS
 10
51.000134
 20
56.329083
 11
52.639134
 21
56.329083
  0
ARC
  8
WHITE
 62
     7
  6
CONTINUOUS
 10
52.639134
 20
55.754083
 40
0.575000
 50
270.000000
 51
90.000000
  0
LINE
  8
WHITE
 62
     7
  6
CONTINUOUS
 10
52.639134
 20
55.179083
 11
47.289134
 21
55.179083
  0
ARC
  8
WHITE
 62
     7
  6
CONTINUOUS
 10
47.289134
 20
55.754083
 40
0.575000
 50
90.000000
 51
270.000000
  0
LINE
  8
WHITE
 62
     7
  6
CONTINUOUS
 10
47.289134
 20
56.329083
 11
48.928134
 21
56.329083
  0
ARC
  8
WHITE
 62
     7
  6
CONTINUOUS
 10
48.853384
 20
55.813737
 40
0.520738
 50
41.543162
 51
81.746915
  0
ARC
  8
WHITE
 62
     7
  6
CONTINUOUS
 10
49.391412
 20
56.252076
 40
0.175026
 50
212.094175
 51
57.836440
  0
ARC
  8
WHITE
 62
     7
  6
CONTINUOUS
 10
49.690134
 20
56.715083
 40
0.376000
 50
180.000000
 51
236.860836
  0
LINE
  8
WHITE
 62
     7
  6
CONTINUOUS
 10
49.314134
 20
56.715083
 11
49.314134
 21
60.836832
  0
ARC
  8
WHITE
 62
     7
  6
CONTINUOUS
 10
49.714134
 20
60.836832
 40
0.400000
 50
133.264269
 51
180.000000
  0
ARC
  8
WHITE
 62
     7
  6
CONTINUOUS
 10
49.214134
 20
61.368083
 40
0.329539
 50
313.264269
 51
226.731586
  0
ARC
  8
WHITE
 62
     7
  6
CONTINUOUS
 10
48.714096
 20
60.836868
 40
0.400000
 50
0.000000
 51
46.731586
  0
LINE
  8
WHITE
 62
     7
  6
CONTINUOUS
 10
49.114096
 20
60.836896
 11
49.114134
 21
60.281083
  0
ARC
  8
WHITE
 62
     7
  6
CONTINUOUS
 10
48.666805
 20
60.345536
 40
0.451949
 50
285.046782
 51
351.800960
  0
ARC
  8
WHITE
 62
     7
  6
CONTINUOUS
 10
49.941760
 20
50.054083
 40
9.922758
 50
96.699592
 51
263.299721
  0
ARC
  8
WHITE
 62
     7
  6
CONTINUOUS
 10
48.739137
 20
39.826792
 40
0.375000
 50
0.197188
 51
83.126408
  0
LINE
  8
WHITE
 62
     7
  6
CONTINUOUS
 10
49.114134
 20
39.828083
 11
49.114134
 21
39.287516
  0
ARC
  8
WHITE
 62
     7
  6
CONTINUOUS
 10
48.714134
 20
39.287516
 40
0.400000
 50
309.551774
 51
0.000000
  0
ARC
  8
WHITE
 62
     7
  6
CONTINUOUS
 10
49.214134
 20
38.682083
 40
0.385206
 50
129.551774
 51
50.448226
  0
ARC
  8
WHITE
 62
     7
  6
CONTINUOUS
 10
49.714134
 20
39.287516
 40
0.400000
 50
180.000000
 51
230.448226
  0
LINE
  8
WHITE
 62
     7
  6
CONTINUOUS
 10
49.314134
 20
39.287516
 11
49.314134
 21
43.393083
  0
ARC
  8
WHITE
 62
     7
  6
CONTINUOUS
 10
49.752219
 20
43.359180
 40
0.439394
 50
127.433975
 51
175.574748
  0
ARC
  8
WHITE
 62
     7
  6
CONTINUOUS
 10
49.392144
 20
43.856362
 40
0.175026
 50
302.093172
 51
147.837350
  0
ARC
  8
WHITE
 62
     7
  6
CONTINUOUS
 10
48.929134
 20
44.155083
 40
0.376001
 50
269.847618
 51
326.860836
  0
LINE
  8
WHITE
 62
     7
  6
CONTINUOUS
 10
48.928134
 20
43.779083
 11
47.289134
 21
43.779083
  0
ARC
  8
WHITE
 62
     7
  6
CONTINUOUS
 10
47.289134
 20
44.354083
 40
0.575000
 50
90.000000
 51
270.000000
  0
LINE
  8
WHITE
 62
     7
  6
CONTINUOUS
 10
47.289134
 20
44.929083
 11
49.414134
 21
44.929083
  0
LINE
  8
WHITE
 62
     7
  6
CONTINUOUS
 10
55.316538
 20
5.395000
 11
57.634538
 21
7.442000
  0
ARC
  8
WHITE
 62
     7
  6
CONTINUOUS
 10
60.804170
 20
9.882149
 40
4.000112
 50
283.300937
 51
217.590973
  0
ARC
  8
WHITE
 62
     7
  6
CONTINUOUS
 10
61.678538
 20
6.184000
 40
0.200003
 50
180.286477
 51
283.273270
  0
LINE
  8
WHITE
 62
     7
  6
CONTINUOUS
 10
61.478538
 20
6.183000
 11
61.478538
 21
11.474000
  0
ARC
  8
WHITE
 62
     7
  6
CONTINUOUS
 10
61.278718
 20
11.474180
 40
0.199820
 50
0.000000
 51
90.051605
  0
LINE
  8
WHITE
 62
     7
  6
CONTINUOUS
 10
61.278538
 20
11.674000
 11
60.328538
 21
11.674000
  0
ARC
  8
WHITE
 62
     7
  6
CONTINUOUS
 10
60.322364
 20
11.480174
 40
0.193924
 50
88.175408
 51
181.824592
  0
LINE
  8
WHITE
 62
     7
  6
CONTINUOUS
 10
60.128538
 20
11.474000
 11
60.128538
 21
6.183000
  0
ARC
  8
WHITE
 62
     7
  6
CONTINUOUS
 10
59.933463
 20
6.177747
 40
0.195146
 50
254.897748
 51
1.542477
  0
ARC
  8
WHITE
 62
     7
  6
CONTINUOUS
 10
60.803538
 20
9.882000
 40
4.000111
 50
222.842167
 51
256.689772
  0
LINE
  8
WHITE
 62
     7
  6
CONTINUOUS
 10
55.316538
 20
20.395000
 11
57.634538
 21
22.442000
  0
ARC
  8
WHITE
 62
     7
  6
CONTINUOUS
 10
60.804170
 20
24.882149
 40
4.000112
 50
283.300937
 51
217.590973
  0
ARC
  8
WHITE
 62
     7
  6
CONTINUOUS
 10
61.678538
 20
21.184000
 40
0.200003
 50
180.286477
 51
283.273270
  0
LINE
  8
WHITE
 62
     7
  6
CONTINUOUS
 10
61.478538
 20
21.183000
 11
61.478538
 21
26.474000
  0
ARC
  8
WHITE
 62
     7
  6
CONTINUOUS
 10
61.278718
 20
26.474180
 40
0.199820
 50
0.000000
 51
90.051605
  0
LINE
  8
WHITE
 62
     7
  6
CONTINUOUS
 10
61.278538
 20
26.674000
 11
60.328538
 21
26.674000
  0
ARC
  8
WHITE
 62
     7
  6
CONTINUOUS
 10
60.322364
 20
26.480174
 40
0.193924
 50
88.175408
 51
181.824592
  0
LINE
  8
WHITE
 62
     7
  6
CONTINUOUS
 10
60.128538
 20
26.474000
 11
60.128538
 21
21.183000
  0
ARC
  8
WHITE
 62
     7
  6
CONTINUOUS
 10
59.933463
 20
21.177747
 40
0.195146
 50
254.897748
 51
1.542477
  0
ARC
  8
WHITE
 62
     7
  6
CONTINUOUS
 10
60.803538
 20
24.882000
 40
4.000111
 50
222.842167
 51
256.689772
  0
ARC
  8
WHITE
 62
     7
  6
CONTINUOUS
 10
83.786202
 20
20.922733
 40
13.999834
 50
227.660485
 51
225.000028
  0
LINE
  8
WHITE
 62
     7
  6
CONTINUOUS
 10
73.886830
 20
11.023350
 11
70.563000
 21
7.700520
  0
ARC
  8
WHITE
 62
     7
  6
CONTINUOUS
 10
83.786202
 20
52.217212
 40
13.999834
 50
227.660485
 51
225.000028
  0
LINE
  8
WHITE
 62
     7
  6
CONTINUOUS
 10
73.886830
 20
42.317830
 11
70.563000
 21
38.995000
  0
LINE
  8
WHITE
 62
     7
  6
CONTINUOUS
 10
77.849000
 20
250.643000
 11
81.031404
 21
253.825404
  0
ARC
  8
WHITE
 62
     7
  6
CONTINUOUS
 10
80.889983
 20
253.966826
 40
0.200000
 50
315.000000
 51
44.192964
  0
ARC
  8
WHITE
 62
     7
  6
CONTINUOUS
 10
91.071000
 20
263.865000
 40
13.999541
 50
227.660513
 51
224.192964
  0
LINE
  8
WHITE
 62
     7
  6
CONTINUOUS
 10
90.846000
 20
264.016000
 11
86.596000
 21
264.016000
  0
ARC
  8
WHITE
 62
     7
  6
CONTINUOUS
 10
86.611646
 20
263.850354
 40
0.166383
 50
95.395708
 51
174.604292
  0
LINE
  8
WHITE
 62
     7
  6
CONTINUOUS
 10
86.446000
 20
263.866000
 11
86.446000
 21
261.191000
  0
ARC
  8
WHITE
 62
     7
  6
CONTINUOUS
 10
85.871000
 20
261.191000
 40
0.575000
 50
180.000000
 51
0.000000
  0
LINE
  8
WHITE
 62
     7
  6
CONTINUOUS
 10
85.296000
 20
261.191000
 11
85.296000
 21
262.830000
  0
ARC
  8
WHITE
 62
     7
  6
CONTINUOUS
 10
85.668131
 20
262.830905
 40
0.372132
 50
122.716498
 51
180.139318
  0
ARC
  8
WHITE
 62
     7
  6
CONTINUOUS
 10
85.372000
 20
263.291000
 40
0.175026
 50
302.872909
 51
147.127091
  0
ARC
  8
WHITE
 62
     7
  6
CONTINUOUS
 10
84.910992
 20
263.591000
 40
0.375001
 50
269.848426
 51
326.861498
  0
LINE
  8
WHITE
 62
     7
  6
CONTINUOUS
 10
84.910000
 20
263.216000
 11
80.788251
 21
263.216000
  0
ARC
  8
WHITE
 62
     7
  6
CONTINUOUS
 10
80.788251
 20
263.616000
 40
0.400000
 50
223.264260
 51
270.000000
  0
ARC
  8
WHITE
 62
     7
  6
CONTINUOUS
 10
80.257000
 20
263.116000
 40
0.329539
 50
43.264260
 51
316.735740
  0
ARC
  8
WHITE
 62
     7
  6
CONTINUOUS
 10
80.788251
 20
262.616000
 40
0.400000
 50
90.000000
 51
136.735740
  0
LINE
  8
WHITE
 62
     7
  6
CONTINUOUS
 10
80.788251
 20
263.016000
 11
81.345000
 21
263.016000
  0
ARC
  8
WHITE
 62
     7
  6
CONTINUOUS
 10
81.340362
 20
262.636249
 40
0.379780
 50
7.375270
 51
89.300317
  0
ARC
  8
WHITE
 62
     7
  6
CONTINUOUS
 10
91.570851
 20
263.867240
 40
9.924519
 50
186.841499
 51
353.159400
  0
ARC
  8
WHITE
 62
     7
  6
CONTINUOUS
 10
101.798000
 20
262.640000
 40
0.376000
 50
90.000000
 51
173.102572
  0
LINE
  8
WHITE
 62
     7
  6
CONTINUOUS
 10
101.798000
 20
263.016000
 11
102.337567
 21
263.016000
  0
ARC
  8
WHITE
 62
     7
  6
CONTINUOUS
 10
102.337567
 20
262.616000
 40
0.400000
 50
39.551772
 51
90.000000
  0
ARC
  8
WHITE
 62
     7
  6
CONTINUOUS
 10
102.943000
 20
263.116000
 40
0.385206
 50
219.551772
 51
140.448226
  0
ARC
  8
WHITE
 62
     7
  6
CONTINUOUS
 10
102.337567
 20
263.616000
 40
0.400000
 50
270.000000
 51
320.448226
  0
LINE
  8
WHITE
 62
     7
  6
CONTINUOUS
 10
102.337567
 20
263.216000
 11
98.232000
 21
263.216000
  0
ARC
  8
WHITE
 62
     7
  6
CONTINUOUS
 10
98.251547
 20
263.627093
 40
0.411557
 50
215.859969
 51
267.277689
  0
ARC
  8
WHITE
 62
     7
  6
CONTINUOUS
 10
97.771000
 20
263.291000
 40
0.175026
 50
32.872909
 51
237.127091
  0
ARC
  8
WHITE
 62
     7
  6
CONTINUOUS
 10
97.471000
 20
262.829994
 40
0.375000
 50
0.000000
 51
56.861368
  0
LINE
  8
WHITE
 62
     7
  6
CONTINUOUS
 10
97.846000
 20
262.830000
 11
97.846000
 21
261.191000
  0
ARC
  8
WHITE
 62
     7
  6
CONTINUOUS
 10
97.271000
 20
261.191000
 40
0.575000
 50
180.000000
 51
0.000000
  0
LINE
  8
WHITE
 62
     7
  6
CONTINUOUS
 10
96.696000
 20
261.191000
 11
96.696000
 21
266.541000
  0
ARC
  8
WHITE
 62
     7
  6
CONTINUOUS
 10
97.271000
 20
266.541000
 40
0.575000
 50
0.000000
 51
180.000000
  0
LINE
  8
WHITE
 62
     7
  6
CONTINUOUS
 10
97.846000
 20
266.541000
 11
97.846000
 21
264.902000
  0
ARC
  8
WHITE
 62
     7
  6
CONTINUOUS
 10
97.330655
 20
264.976750
 40
0.520738
 50
311.543162
 51
351.746915
  0
ARC
  8
WHITE
 62
     7
  6
CONTINUOUS
 10
97.768993
 20
264.438722
 40
0.175026
 50
122.094175
 51
327.836440
  0
ARC
  8
WHITE
 62
     7
  6
CONTINUOUS
 10
98.232000
 20
264.140000
 40
0.376000
 50
90.000000
 51
146.860836
  0
LINE
  8
WHITE
 62
     7
  6
CONTINUOUS
 10
98.232000
 20
264.516000
 11
102.353749
 21
264.516000
  0
ARC
  8
WHITE
 62
     7
  6
CONTINUOUS
 10
102.353749
 20
264.116000
 40
0.400000
 50
43.264269
 51
90.000000
  0
ARC
  8
WHITE
 62
     7
  6
CONTINUOUS
 10
102.885000
 20
264.616000
 40
0.329539
 50
223.264269
 51
136.731586
  0
ARC
  8
WHITE
 62
     7
  6
CONTINUOUS
 10
102.353786
 20
265.116039
 40
0.400000
 50
270.003970
 51
316.731586
  0
LINE
  8
WHITE
 62
     7
  6
CONTINUOUS
 10
102.353813
 20
264.716039
 11
101.798000
 21
264.716000
  0
ARC
  8
WHITE
 62
     7
  6
CONTINUOUS
 10
101.862453
 20
265.163329
 40
0.451949
 50
195.046782
 51
261.800961
  0
ARC
  8
WHITE
 62
     7
  6
CONTINUOUS
 10
91.571000
 20
263.868483
 40
9.925098
 50
6.813637
 51
173.185677
  0
ARC
  8
WHITE
 62
     7
  6
CONTINUOUS
 10
81.343709
 20
265.090998
 40
0.375000
 50
270.197188
 51
353.126408
  0
LINE
  8
WHITE
 62
     7
  6
CONTINUOUS
 10
81.345000
 20
264.716000
 11
80.804433
 21
264.716000
  0
ARC
  8
WHITE
 62
     7
  6
CONTINUOUS
 10
80.804433
 20
265.116000
 40
0.400000
 50
219.551774
 51
270.000000
  0
ARC
  8
WHITE
 62
     7
  6
CONTINUOUS
 10
80.199000
 20
264.616000
 40
0.385206
 50
39.551774
 51
320.448226
  0
ARC
  8
WHITE
 62
     7
  6
CONTINUOUS
 10
80.804433
 20
264.116000
 40
0.400000
 50
90.000000
 51
140.448226
  0
LINE
  8
WHITE
 62
     7
  6
CONTINUOUS
 10
80.804433
 20
264.516000
 11
84.910000
 21
264.516000
  0
ARC
  8
WHITE
 62
     7
  6
CONTINUOUS
 10
84.876097
 20
264.077916
 40
0.439394
 50
37.433975
 51
85.574748
  0
ARC
  8
WHITE
 62
     7
  6
CONTINUOUS
 10
85.373279
 20
264.437991
 40
0.175026
 50
212.093172
 51
57.837350
  0
ARC
  8
WHITE
 62
     7
  6
CONTINUOUS
 10
85.672000
 20
264.901000
 40
0.376001
 50
179.847618
 51
236.860836
  0
LINE
  8
WHITE
 62
     7
  6
CONTINUOUS
 10
85.296000
 20
264.902000
 11
85.296000
 21
266.541000
  0
ARC
  8
WHITE
 62
     7
  6
CONTINUOUS
 10
85.871000
 20
266.541000
 40
0.575000
 50
0.000000
 51
180.000000
  0
LINE
  8
WHITE
 62
     7
  6
CONTINUOUS
 10
86.446000
 20
266.541000
 11
86.446000
 21
264.416000
  0
ARC
  8
WHITE
 62
     7
  6
CONTINUOUS
 10
105.529903
 20
126.066873
 40
10.344366
 50
322.649104
 51
338.781606
  0
LINE
  8
WHITE
 62
     7
  6
CONTINUOUS
 10
115.173000
 20
122.323000
 11
116.300000
 21
127.403000
  0
ARC
  8
WHITE
 62
     7
  6
CONTINUOUS
 10
116.757677
 20
127.243404
 40
0.484705
 50
88.779705
 51
160.775958
  0
LINE
  8
WHITE
 62
     7
  6
CONTINUOUS
 10
116.768000
 20
127.728000
 11
142.922000
 21
127.728000
  0
ARC
  8
WHITE
 62
     7
  6
CONTINUOUS
 10
142.883931
 20
127.190005
 40
0.539340
 50
356.065765
 51
85.952409
  0
LINE
  8
WHITE
 62
     7
  6
CONTINUOUS
 10
143.422000
 20
127.153000
 11
143.446000
 21
121.939000
  0
ARC
  8
WHITE
 62
     7
  6
CONTINUOUS
 10
142.945702
 20
121.938897
 40
0.500298
 50
289.050495
 51
0.000000
  0
LINE
  8
WHITE
 62
     7
  6
CONTINUOUS
 10
143.109000
 20
121.466000
 11
130.355000
 21
117.082000
  0
ARC
  8
WHITE
 62
     7
  6
CONTINUOUS
 10
130.192894
 20
117.555307
 40
0.500298
 50
199.051616
 51
288.906143
  0
LINE
  8
WHITE
 62
     7
  6
CONTINUOUS
 10
129.720000
 20
117.392000
 11
129.558000
 21
117.865000
  0
ARC
  8
WHITE
 62
     7
  6
CONTINUOUS
 10
129.475714
 20
117.795337
 40
0.107815
 50
40.251155
 51
177.521020
  0
LINE
  8
WHITE
 62
     7
  6
CONTINUOUS
 10
129.368000
 20
117.800000
 11
129.897000
 21
116.263000
  0
ARC
  8
WHITE
 62
     7
  6
CONTINUOUS
 10
130.134000
 20
116.388000
 40
0.267944
 50
207.808337
 51
297.519892
  0
LINE
  8
WHITE
 62
     7
  6
CONTINUOUS
 10
130.257805
 20
116.150374
 11
143.325000
 21
120.641000
  0
ARC
  8
WHITE
 62
     7
  6
CONTINUOUS
 10
143.488000
 20
120.168000
 40
0.500298
 50
19.014406
 51
109.014406
  0
LINE
  8
WHITE
 62
     7
  6
CONTINUOUS
 10
143.961000
 20
120.331000
 11
146.930000
 21
111.676000
  0
ARC
  8
WHITE
 62
     7
  6
CONTINUOUS
 10
146.456693
 20
111.513894
 40
0.500298
 50
289.051616
 51
18.906143
  0
LINE
  8
WHITE
 62
     7
  6
CONTINUOUS
 10
146.620000
 20
111.041000
 11
142.675000
 21
109.685000
  0
ARC
  8
WHITE
 62
     7
  6
CONTINUOUS
 10
142.654953
 20
109.929078
 40
0.244900
 50
210.985069
 51
274.695339
  0
ARC
  8
WHITE
 62
     7
  6
CONTINUOUS
 10
142.269000
 20
109.625000
 40
0.250320
 50
45.323702
 51
262.647621
  0
ARC
  8
WHITE
 62
     7
  6
CONTINUOUS
 10
142.266270
 20
109.133588
 40
0.244910
 50
33.286311
 51
96.871997
  0
LINE
  8
WHITE
 62
     7
  6
CONTINUOUS
 10
142.471000
 20
109.268000
 11
143.339412
 21
106.740799
  0
ARC
  8
WHITE
 62
     7
  6
CONTINUOUS
 10
142.866000
 20
106.579000
 40
0.500298
 50
289.014406
 51
18.868999
  0
LINE
  8
WHITE
 62
     7
  6
CONTINUOUS
 10
143.029000
 20
106.106000
 11
134.387928
 21
103.135215
  0
ARC
  8
WHITE
 62
     7
  6
CONTINUOUS
 10
134.324000
 20
103.325000
 40
0.200262
 50
280.356026
 51
288.615692
  0
ARC
  8
WHITE
 62
     7
  6
CONTINUOUS
 10
134.277899
 20
103.573449
 40
0.452951
 50
192.683010
 51
280.442998
  0
LINE
  8
WHITE
 62
     7
  6
CONTINUOUS
 10
133.836000
 20
103.474000
 11
133.497070
 21
104.458813
  0
ARC
  8
WHITE
 62
     7
  6
CONTINUOUS
 10
133.906639
 20
104.651608
 40
0.452678
 50
115.315915
 51
205.207708
  0
LINE
  8
WHITE
 62
     7
  6
CONTINUOUS
 10
133.713070
 20
105.060813
 11
138.985070
 21
106.873813
  0
ARC
  8
WHITE
 62
     7
  6
CONTINUOUS
 10
138.946994
 20
106.984572
 40
0.117121
 50
288.971755
 51
108.971754
  0
LINE
  8
WHITE
 62
     7
  6
CONTINUOUS
 10
138.908917
 20
107.095331
 11
133.353000
 21
105.185000
  0
ARC
  8
WHITE
 62
     7
  6
CONTINUOUS
 10
133.288000
 20
105.374000
 40
0.199865
 50
198.978880
 51
288.978880
  0
LINE
  8
WHITE
 62
     7
  6
CONTINUOUS
 10
133.099000
 20
105.309000
 11
132.871873
 21
105.967610
  0
ARC
  8
WHITE
 62
     7
  6
CONTINUOUS
 10
133.061000
 20
106.033000
 40
0.200112
 50
135.202458
 51
199.072554
  0
ARC
  8
WHITE
 62
     7
  6
CONTINUOUS
 10
132.781000
 20
106.310000
 40
0.193752
 50
315.418210
 51
172.581350
  0
ARC
  8
WHITE
 62
     7
  6
CONTINUOUS
 10
132.390686
 20
106.360892
 40
0.199865
 50
289.073953
 51
352.561505
  0
LINE
  8
WHITE
 62
     7
  6
CONTINUOUS
 10
132.456000
 20
106.172000
 11
115.423799
 21
100.317588
  0
ARC
  8
WHITE
 62
     7
  6
CONTINUOUS
 10
115.262000
 20
100.791000
 40
0.500298
 50
199.014406
 51
288.868999
  0
LINE
  8
WHITE
 62
     7
  6
CONTINUOUS
 10
114.789000
 20
100.628000
 11
111.839000
 21
109.210000
  0
ARC
  8
WHITE
 62
     7
  6
CONTINUOUS
 10
112.338000
 20
109.419000
 40
0.541001
 50
112.725772
 51
202.725772
  0
LINE
  8
WHITE
 62
     7
  6
CONTINUOUS
 10
112.129000
 20
109.918000
 11
127.729000
 21
115.280000
  0
ARC
  8
WHITE
 62
     7
  6
CONTINUOUS
 10
127.653000
 20
115.489000
 40
0.222389
 50
289.983107
 51
19.653824
  0
LINE
  8
WHITE
 62
     7
  6
CONTINUOUS
 10
127.862433
 20
115.563798
 11
127.335000
 21
117.101000
  0
ARC
  8
WHITE
 62
     7
  6
CONTINUOUS
 10
127.250329
 20
117.039919
 40
0.104403
 50
35.806603
 51
182.151157
  0
LINE
  8
WHITE
 62
     7
  6
CONTINUOUS
 10
127.146000
 20
117.036000
 11
127.308412
 21
116.562799
  0
ARC
  8
WHITE
 62
     7
  6
CONTINUOUS
 10
126.835000
 20
116.401000
 40
0.500298
 50
289.014406
 51
18.868999
  0
LINE
  8
WHITE
 62
     7
  6
CONTINUOUS
 10
126.998000
 20
115.928000
 11
111.422000
 21
110.578000
  0
LINE
  8
WHITE
 62
     7
  6
CONTINUOUS
 10
111.422000
 20
110.578000
 11
105.497000
 21
110.578000
  0
ARC
  8
WHITE
 62
     7
  6
CONTINUOUS
 10
105.484329
 20
110.865329
 40
0.287609
 50
177.474997
 51
272.525003
  0
LINE
  8
WHITE
 62
     7
  6
CONTINUOUS
 10
105.197000
 20
110.878000
 11
105.197000
 21
111.578000
  0
ARC
  8
WHITE
 62
     7
  6
CONTINUOUS
 10
105.097000
 20
111.564000
 40
0.100975
 50
7.969610
 51
172.030390
  0
LINE
  8
WHITE
 62
     7
  6
CONTINUOUS
 10
104.997000
 20
111.578000
 11
104.997000
 21
110.028000
  0
ARC
  8
WHITE
 62
     7
  6
CONTINUOUS
 10
105.260000
 20
109.990000
 40
0.265731
 50
171.778420
 51
261.747471
  0
LINE
  8
WHITE
 62
     7
  6
CONTINUOUS
 10
105.221858
 20
109.727021
 11
110.997000
 21
109.728000
  0
ARC
  8
WHITE
 62
     7
  6
CONTINUOUS
 10
110.998731
 20
109.229731
 40
0.498272
 50
359.800941
 51
90.199059
  0
LINE
  8
WHITE
 62
     7
  6
CONTINUOUS
 10
111.497000
 20
109.228000
 11
111.497000
 21
100.078000
  0
ARC
  8
WHITE
 62
     7
  6
CONTINUOUS
 10
110.957230
 20
100.117770
 40
0.541233
 50
274.213939
 51
355.786061
  0
LINE
  8
WHITE
 62
     7
  6
CONTINUOUS
 10
110.997000
 20
99.578000
 11
96.847000
 21
99.578000
  0
ARC
  8
WHITE
 62
     7
  6
CONTINUOUS
 10
96.876590
 20
100.107590
 40
0.530416
 50
183.198007
 51
266.801993
  0
LINE
  8
WHITE
 62
     7
  6
CONTINUOUS
 10
96.347000
 20
100.078000
 11
96.347000
 21
109.228000
  0
ARC
  8
WHITE
 62
     7
  6
CONTINUOUS
 10
96.858752
 20
109.216248
 40
0.511887
 50
91.315514
 51
178.684486
  0
LINE
  8
WHITE
 62
     7
  6
CONTINUOUS
 10
96.847000
 20
109.728000
 11
102.622000
 21
109.728000
  0
ARC
  8
WHITE
 62
     7
  6
CONTINUOUS
 10
102.585000
 20
109.990000
 40
0.264600
 50
278.038233
 51
8.252529
  0
LINE
  8
WHITE
 62
     7
  6
CONTINUOUS
 10
102.846860
 20
110.027980
 11
102.847000
 21
111.578000
  0
ARC
  8
WHITE
 62
     7
  6
CONTINUOUS
 10
102.747000
 20
111.553000
 40
0.103078
 50
14.036243
 51
165.963757
  0
LINE
  8
WHITE
 62
     7
  6
CONTINUOUS
 10
102.647000
 20
111.578000
 11
102.647000
 21
110.878000
  0
ARC
  8
WHITE
 62
     7
  6
CONTINUOUS
 10
102.322166
 20
110.902834
 40
0.325782
 50
274.371897
 51
355.628103
  0
LINE
  8
WHITE
 62
     7
  6
CONTINUOUS
 10
102.347000
 20
110.578000
 11
96.395000
 21
110.582000
  0
LINE
  8
WHITE
 62
     7
  6
CONTINUOUS
 10
96.395000
 20
110.582000
 11
93.727000
 21
111.583000
  0
ARC
  8
WHITE
 62
     7
  6
CONTINUOUS
 10
93.854770
 20
111.815579
 40
0.265364
 50
151.303125
 51
241.217284
  0
LINE
  8
WHITE
 62
     7
  6
CONTINUOUS
 10
93.622000
 20
111.943000
 11
93.867000
 21
112.599000
  0
ARC
  8
WHITE
 62
     7
  6
CONTINUOUS
 10
93.773500
 20
112.634000
 40
0.099836
 50
339.477540
 51
159.477540
  0
LINE
  8
WHITE
 62
     7
  6
CONTINUOUS
 10
93.680000
 20
112.669000
 11
93.136000
 21
111.216000
  0
ARC
  8
WHITE
 62
     7
  6
CONTINUOUS
 10
93.367350
 20
111.088810
 40
0.264008
 50
151.199108
 51
241.407083
  0
LINE
  8
WHITE
 62
     7
  6
CONTINUOUS
 10
93.241000
 20
110.857000
 11
95.699000
 21
109.935000
  0
ARC
  8
WHITE
 62
     7
  6
CONTINUOUS
 10
95.523000
 20
109.467000
 40
0.500000
 50
339.390307
 51
69.390307
  0
LINE
  8
WHITE
 62
     7
  6
CONTINUOUS
 10
95.991000
 20
109.291000
 11
92.779000
 21
100.725000
  0
ARC
  8
WHITE
 62
     7
  6
CONTINUOUS
 10
92.310671
 20
100.900123
 40
0.500000
 50
249.430543
 51
339.497579
  0
LINE
  8
WHITE
 62
     7
  6
CONTINUOUS
 10
92.135000
 20
100.432000
 11
81.286000
 21
104.500000
  0
ARC
  8
WHITE
 62
     7
  6
CONTINUOUS
 10
81.462000
 20
104.968000
 40
0.500000
 50
159.390307
 51
249.390307
  0
LINE
  8
WHITE
 62
     7
  6
CONTINUOUS
 10
80.994000
 20
105.144000
 11
84.030672
 21
113.242123
  0
ARC
  8
WHITE
 62
     7
  6
CONTINUOUS
 10
84.967000
 20
112.892000
 40
0.999648
 50
69.443955
 51
159.497640
  0
LINE
  8
WHITE
 62
     7
  6
CONTINUOUS
 10
85.318000
 20
113.828000
 11
91.392000
 21
111.550000
  0
ARC
  8
WHITE
 62
     7
  6
CONTINUOUS
 10
91.497000
 20
111.831000
 40
0.299977
 50
249.511020
 51
339.511020
  0
LINE
  8
WHITE
 62
     7
  6
CONTINUOUS
 10
91.778000
 20
111.726000
 11
92.322000
 21
113.178000
  0
ARC
  8
WHITE
 62
     7
  6
CONTINUOUS
 10
92.228500
 20
113.213000
 40
0.099836
 50
339.477540
 51
159.477540
  0
LINE
  8
WHITE
 62
     7
  6
CONTINUOUS
 10
92.135000
 20
113.248000
 11
91.915060
 21
112.663237
  0
ARC
  8
WHITE
 62
     7
  6
CONTINUOUS
 10
91.586000
 20
112.746000
 40
0.339308
 50
255.840892
 51
345.882081
  0
LINE
  8
WHITE
 62
     7
  6
CONTINUOUS
 10
91.503000
 20
112.417000
 11
89.898756
 21
113.018383
  0
ARC
  8
WHITE
 62
     7
  6
CONTINUOUS
 10
90.111000
 20
113.555000
 40
0.577066
 50
103.121130
 51
248.420094
  0
LINE
  8
WHITE
 62
     7
  6
CONTINUOUS
 10
89.980000
 20
114.117000
 11
96.422000
 21
115.728000
  0
ARC
  8
WHITE
 62
     7
  6
CONTINUOUS
 10
100.953000
 20
150.456000
 40
35.022335
 50
262.566547
 51
281.190581
  0
ARC
  8
WHITE
 62
     7
  6
CONTINUOUS
 10
105.877893
 20
125.871171
 40
9.949327
 50
280.845036
 51
318.259010
  0
LINE
  8
WHITE
 62
     7
  6
CONTINUOUS
 10
113.301704
 20
119.247264
 11
109.179000
 21
124.439000
  0
ARC
  8
WHITE
 62
     7
  6
CONTINUOUS
 10
105.823000
 20
177.324000
 40
10.344321
 50
21.219245
 51
37.351782
  0
LINE
  8
WHITE
 62
     7
  6
CONTINUOUS
 10
115.466000
 20
181.068000
 11
116.593000
 21
175.988000
  0
ARC
  8
WHITE
 62
     7
  6
CONTINUOUS
 10
117.025442
 20
176.111257
 40
0.449665
 50
195.908844
 51
274.535493
  0
LINE
  8
WHITE
 62
     7
  6
CONTINUOUS
 10
117.061000
 20
175.663000
 11
143.214000
 21
175.663000
  0
ARC
  8
WHITE
 62
     7
  6
CONTINUOUS
 10
143.176000
 20
176.200000
 40
0.538343
 50
274.047703
 51
4.040204
  0
LINE
  8
WHITE
 62
     7
  6
CONTINUOUS
 10
143.713005
 20
176.237930
 11
143.739000
 21
181.452000
  0
ARC
  8
WHITE
 62
     7
  6
CONTINUOUS
 10
143.238001
 20
181.451257
 40
0.501000
 50
0.084941
 51
71.013328
  0
LINE
  8
WHITE
 62
     7
  6
CONTINUOUS
 10
143.401000
 20
181.925000
 11
130.648000
 21
186.309000
  0
ARC
  8
WHITE
 62
     7
  6
CONTINUOUS
 10
130.485693
 20
185.836105
 40
0.499973
 50
71.056705
 51
160.985536
  0
LINE
  8
WHITE
 62
     7
  6
CONTINUOUS
 10
130.013000
 20
185.999000
 11
129.850000
 21
185.526000
  0
ARC
  8
WHITE
 62
     7
  6
CONTINUOUS
 10
129.768919
 20
185.597518
 40
0.108116
 50
183.456479
 51
318.585761
  0
LINE
  8
WHITE
 62
     7
  6
CONTINUOUS
 10
129.661000
 20
185.591000
 11
130.189000
 21
187.128000
  0
ARC
  8
WHITE
 62
     7
  6
CONTINUOUS
 10
130.426589
 20
187.003215
 40
0.268365
 50
62.381146
 51
152.290851
  0
LINE
  8
WHITE
 62
     7
  6
CONTINUOUS
 10
130.551000
 20
187.241000
 11
143.618000
 21
182.750000
  0
ARC
  8
WHITE
 62
     7
  6
CONTINUOUS
 10
143.780000
 20
183.223000
 40
0.499973
 50
251.093939
 51
340.985594
  0
LINE
  8
WHITE
 62
     7
  6
CONTINUOUS
 10
144.252693
 20
183.060106
 11
147.223000
 21
191.715000
  0
ARC
  8
WHITE
 62
     7
  6
CONTINUOUS
 10
146.750000
 20
191.877000
 40
0.499973
 50
341.093939
 51
70.985594
  0
LINE
  8
WHITE
 62
     7
  6
CONTINUOUS
 10
146.912894
 20
192.349693
 11
142.967000
 21
193.706000
  0
ARC
  8
WHITE
 62
     7
  6
CONTINUOUS
 10
142.947536
 20
193.462037
 40
0.244739
 50
85.438370
 51
148.972339
  0
ARC
  8
WHITE
 62
     7
  6
CONTINUOUS
 10
142.562000
 20
193.766000
 40
0.250056
 50
97.352379
 51
314.676299
  0
ARC
  8
WHITE
 62
     7
  6
CONTINUOUS
 10
142.559000
 20
194.257000
 40
0.244724
 50
263.194420
 51
326.829019
  0
LINE
  8
WHITE
 62
     7
  6
CONTINUOUS
 10
142.763844
 20
194.123102
 11
143.632000
 21
196.650000
  0
ARC
  8
WHITE
 62
     7
  6
CONTINUOUS
 10
143.159000
 20
196.812000
 40
0.499973
 50
341.093939
 51
70.985594
  0
LINE
  8
WHITE
 62
     7
  6
CONTINUOUS
 10
143.321894
 20
197.284693
 11
134.669000
 21
200.260000
  0
ARC
  8
WHITE
 62
     7
  6
CONTINUOUS
 10
134.570000
 20
199.818000
 40
0.452951
 50
77.375151
 51
167.375151
  0
LINE
  8
WHITE
 62
     7
  6
CONTINUOUS
 10
134.128000
 20
199.917000
 11
133.730000
 21
198.758000
  0
ARC
  8
WHITE
 62
     7
  6
CONTINUOUS
 10
134.140000
 20
198.565000
 40
0.453154
 50
154.792147
 51
244.623722
  0
LINE
  8
WHITE
 62
     7
  6
CONTINUOUS
 10
133.945796
 20
198.155569
 11
139.217864
 21
196.342687
  0
ARC
  8
WHITE
 62
     7
  6
CONTINUOUS
 10
139.208000
 20
196.320000
 40
0.024739
 50
255.963757
 51
66.501435
  0
LINE
  8
WHITE
 62
     7
  6
CONTINUOUS
 10
139.202000
 20
196.296000
 11
133.646000
 21
198.206000
  0
ARC
  8
WHITE
 62
     7
  6
CONTINUOUS
 10
133.581000
 20
198.017000
 40
0.199865
 50
71.021120
 51
161.021120
  0
LINE
  8
WHITE
 62
     7
  6
CONTINUOUS
 10
133.392000
 20
198.082000
 11
133.165000
 21
197.423000
  0
ARC
  8
WHITE
 62
     7
  6
CONTINUOUS
 10
133.353601
 20
197.356850
 40
0.199865
 50
160.672233
 51
224.642545
  0
ARC
  8
WHITE
 62
     7
  6
CONTINUOUS
 10
133.073000
 20
197.081000
 40
0.193621
 50
187.418650
 51
44.374980
  0
ARC
  8
WHITE
 62
     7
  6
CONTINUOUS
 10
132.683000
 20
197.030000
 40
0.199700
 50
7.480886
 51
71.021120
  0
LINE
  8
WHITE
 62
     7
  6
CONTINUOUS
 10
132.747946
 20
197.218844
 11
115.717000
 21
203.074000
  0
ARC
  8
WHITE
 62
     7
  6
CONTINUOUS
 10
115.554000
 20
202.600000
 40
0.501243
 50
71.022836
 51
160.985594
  0
LINE
  8
WHITE
 62
     7
  6
CONTINUOUS
 10
115.080106
 20
202.763308
 11
112.131000
 21
194.181000
  0
ARC
  8
WHITE
 62
     7
  6
CONTINUOUS
 10
112.631000
 20
193.972000
 40
0.541923
 50
157.315072
 51
247.274228
  0
LINE
  8
WHITE
 62
     7
  6
CONTINUOUS
 10
112.421644
 20
193.472149
 11
128.021000
 21
188.111000
  0
ARC
  8
WHITE
 62
     7
  6
CONTINUOUS
 10
127.945685
 20
187.901113
 40
0.222991
 50
340.588085
 51
70.260268
  0
LINE
  8
WHITE
 62
     7
  6
CONTINUOUS
 10
128.156000
 20
187.827000
 11
127.628000
 21
186.290000
  0
ARC
  8
WHITE
 62
     7
  6
CONTINUOUS
 10
127.544026
 20
186.353106
 40
0.105043
 50
178.966690
 51
323.075551
  0
LINE
  8
WHITE
 62
     7
  6
CONTINUOUS
 10
127.439000
 20
186.355000
 11
127.601000
 21
186.828000
  0
ARC
  8
WHITE
 62
     7
  6
CONTINUOUS
 10
127.128000
 20
186.990000
 40
0.499973
 50
341.093939
 51
70.985594
  0
LINE
  8
WHITE
 62
     7
  6
CONTINUOUS
 10
127.290894
 20
187.462693
 11
111.714000
 21
192.813000
  0
LINE
  8
WHITE
 62
     7
  6
CONTINUOUS
 10
111.714000
 20
192.813000
 11
105.789000
 21
192.813000
  0
ARC
  8
WHITE
 62
     7
  6
CONTINUOUS
 10
105.792853
 20
192.509147
 40
0.303877
 50
90.726408
 51
179.273592
  0
LINE
  8
WHITE
 62
     7
  6
CONTINUOUS
 10
105.489000
 20
192.513000
 11
105.489000
 21
191.813000
  0
ARC
  8
WHITE
 62
     7
  6
CONTINUOUS
 10
105.389000
 20
191.827000
 40
0.100975
 50
187.969610
 51
352.030390
  0
LINE
  8
WHITE
 62
     7
  6
CONTINUOUS
 10
105.289000
 20
191.813000
 11
105.289000
 21
193.363000
  0
ARC
  8
WHITE
 62
     7
  6
CONTINUOUS
 10
105.551020
 20
193.400860
 40
0.264741
 50
98.038340
 51
188.221865
  0
LINE
  8
WHITE
 62
     7
  6
CONTINUOUS
 10
105.514000
 20
193.663000
 11
111.289000
 21
193.663000
  0
ARC
  8
WHITE
 62
     7
  6
CONTINUOUS
 10
111.291655
 20
194.160345
 40
0.497352
 50
269.694143
 51
0.305857
  0
LINE
  8
WHITE
 62
     7
  6
CONTINUOUS
 10
111.789000
 20
194.163000
 11
111.789000
 21
203.313000
  0
ARC
  8
WHITE
 62
     7
  6
CONTINUOUS
 10
111.256053
 20
203.280053
 40
0.533964
 50
3.537548
 51
86.462452
  0
LINE
  8
WHITE
 62
     7
  6
CONTINUOUS
 10
111.289000
 20
203.813000
 11
97.139000
 21
203.813000
  0
ARC
  8
WHITE
 62
     7
  6
CONTINUOUS
 10
97.121479
 20
203.330521
 40
0.482797
 50
87.920295
 51
182.079705
  0
LINE
  8
WHITE
 62
     7
  6
CONTINUOUS
 10
96.639000
 20
203.313000
 11
96.639000
 21
194.163000
  0
ARC
  8
WHITE
 62
     7
  6
CONTINUOUS
 10
97.179677
 20
194.203677
 40
0.542205
 50
184.302438
 51
265.697562
  0
LINE
  8
WHITE
 62
     7
  6
CONTINUOUS
 10
97.139000
 20
193.663000
 11
102.914000
 21
193.663000
  0
ARC
  8
WHITE
 62
     7
  6
CONTINUOUS
 10
102.876980
 20
193.400860
 40
0.264741
 50
351.778135
 51
81.961660
  0
LINE
  8
WHITE
 62
     7
  6
CONTINUOUS
 10
103.139000
 20
193.363000
 11
103.139000
 21
191.813000
  0
ARC
  8
WHITE
 62
     7
  6
CONTINUOUS
 10
103.039000
 20
191.838000
 40
0.103078
 50
194.036243
 51
345.963757
  0
LINE
  8
WHITE
 62
     7
  6
CONTINUOUS
 10
102.939000
 20
191.813000
 11
102.939000
 21
192.513000
  0
ARC
  8
WHITE
 62
     7
  6
CONTINUOUS
 10
102.601776
 20
192.475776
 40
0.339272
 50
6.299019
 51
83.700981
  0
LINE
  8
WHITE
 62
     7
  6
CONTINUOUS
 10
102.639000
 20
192.813000
 11
96.688000
 21
192.809000
  0
LINE
  8
WHITE
 62
     7
  6
CONTINUOUS
 10
96.688000
 20
192.809000
 11
94.020000
 21
191.808000
  0
ARC
  8
WHITE
 62
     7
  6
CONTINUOUS
 10
94.147000
 20
191.575000
 40
0.265364
 50
118.593228
 51
208.593228
  0
LINE
  8
WHITE
 62
     7
  6
CONTINUOUS
 10
93.914000
 20
191.448000
 11
94.160000
 21
190.792000
  0
ARC
  8
WHITE
 62
     7
  6
CONTINUOUS
 10
94.059897
 20
190.774639
 40
0.101597
 50
211.206156
 51
9.838764
  0
LINE
  8
WHITE
 62
     7
  6
CONTINUOUS
 10
93.973000
 20
190.722000
 11
93.426808
 21
192.174353
  0
ARC
  8
WHITE
 62
     7
  6
CONTINUOUS
 10
93.660000
 20
192.301000
 40
0.265364
 50
118.593228
 51
208.506538
  0
LINE
  8
WHITE
 62
     7
  6
CONTINUOUS
 10
93.533000
 20
192.534000
 11
95.991000
 21
193.456000
  0
ARC
  8
WHITE
 62
     7
  6
CONTINUOUS
 10
95.816000
 20
193.924000
 40
0.499649
 50
290.502360
 51
20.609693
  0
LINE
  8
WHITE
 62
     7
  6
CONTINUOUS
 10
96.283671
 20
194.099876
 11
93.072000
 21
202.666000
  0
ARC
  8
WHITE
 62
     7
  6
CONTINUOUS
 10
92.603877
 20
202.491329
 40
0.499649
 50
20.462096
 51
110.609783
  0
LINE
  8
WHITE
 62
     7
  6
CONTINUOUS
 10
92.428000
 20
202.959000
 11
81.579000
 21
198.891000
  0
ARC
  8
WHITE
 62
     7
  6
CONTINUOUS
 10
81.753671
 20
198.422877
 40
0.499649
 50
110.462096
 51
200.609783
  0
LINE
  8
WHITE
 62
     7
  6
CONTINUOUS
 10
81.286000
 20
198.247000
 11
84.323000
 21
190.149000
  0
ARC
  8
WHITE
 62
     7
  6
CONTINUOUS
 10
85.259795
 20
190.499549
 40
1.000234
 50
200.515866
 51
290.556012
  0
LINE
  8
WHITE
 62
     7
  6
CONTINUOUS
 10
85.611000
 20
189.563000
 11
91.684000
 21
191.841000
  0
ARC
  8
WHITE
 62
     7
  6
CONTINUOUS
 10
91.789000
 20
191.560000
 40
0.299977
 50
20.488980
 51
110.488980
  0
LINE
  8
WHITE
 62
     7
  6
CONTINUOUS
 10
92.070000
 20
191.665000
 11
92.615000
 21
190.213000
  0
ARC
  8
WHITE
 62
     7
  6
CONTINUOUS
 10
92.515971
 20
190.192771
 40
0.101074
 50
209.499686
 51
11.545235
  0
LINE
  8
WHITE
 62
     7
  6
CONTINUOUS
 10
92.428000
 20
190.143000
 11
92.208000
 21
190.728000
  0
ARC
  8
WHITE
 62
     7
  6
CONTINUOUS
 10
91.879000
 20
190.645000
 40
0.339308
 50
14.159108
 51
104.159108
  0
LINE
  8
WHITE
 62
     7
  6
CONTINUOUS
 10
91.796000
 20
190.974000
 11
90.192000
 21
190.372000
  0
ARC
  8
WHITE
 62
     7
  6
CONTINUOUS
 10
90.401304
 20
189.835335
 40
0.576036
 50
111.306229
 51
257.028156
  0
LINE
  8
WHITE
 62
     7
  6
CONTINUOUS
 10
90.272000
 20
189.274000
 11
96.713945
 21
187.663420
  0
ARC
  8
WHITE
 62
     7
  6
CONTINUOUS
 10
101.246000
 20
152.935000
 40
35.022888
 50
78.809419
 51
97.435076
  0
ARC
  8
WHITE
 62
     7
  6
CONTINUOUS
 10
106.169228
 20
177.519744
 40
9.950276
 50
41.738802
 51
79.145618
  0
LINE
  8
WHITE
 62
     7
  6
CONTINUOUS
 10
113.594000
 20
184.144000
 11
109.472000
 21
178.952000
  0
LINE
  8
WHITE
 62
     7
  6
CONTINUOUS
 10
123.046000
 20
214.886000
 11
134.597000
 21
214.886000
  0
ARC
  8
WHITE
 62
     7
  6
CONTINUOUS
 10
134.514846
 20
213.803846
 40
1.085267
 50
4.341378
 51
85.658622
  0
LINE
  8
WHITE
 62
     7
  6
CONTINUOUS
 10
135.597000
 20
213.886000
 11
135.595905
 21
213.289000
  0
ARC
  8
WHITE
 62
     7
  6
CONTINUOUS
 10
135.396000
 20
213.289000
 40
0.199905
 50
296.436873
 51
0.000000
  0
ARC
  8
WHITE
 62
     7
  6
CONTINUOUS
 10
135.596000
 20
212.886000
 40
0.249994
 50
116.360058
 51
333.639942
  0
ARC
  8
WHITE
 62
     7
  6
CONTINUOUS
 10
136.031381
 20
212.633666
 40
0.254278
 50
97.089052
 51
146.232450
  0
LINE
  8
WHITE
 62
     7
  6
CONTINUOUS
 10
136.000000
 20
212.886000
 11
138.603000
 21
212.886000
  0
ARC
  8
WHITE
 62
     7
  6
CONTINUOUS
 10
138.602967
 20
213.386000
 40
0.500000
 50
270.003837
 51
296.619730
  0
LINE
  8
WHITE
 62
     7
  6
CONTINUOUS
 10
138.827000
 20
212.939000
 11
140.432000
 21
213.741000
  0
ARC
  8
WHITE
 62
     7
  6
CONTINUOUS
 10
140.522870
 20
213.564912
 40
0.198152
 50
359.157877
 51
117.295866
  0
LINE
  8
WHITE
 62
     7
  6
CONTINUOUS
 10
140.721000
 20
213.562000
 11
140.721000
 21
213.186000
  0
ARC
  8
WHITE
 62
     7
  6
CONTINUOUS
 10
141.021000
 20
213.186000
 40
0.300000
 50
180.000000
 51
270.000000
  0
LINE
  8
WHITE
 62
     7
  6
CONTINUOUS
 10
141.021000
 20
212.886000
 11
142.071000
 21
212.886000
  0
ARC
  8
WHITE
 62
     7
  6
CONTINUOUS
 10
142.049555
 20
212.664555
 40
0.222481
 50
5.531273
 51
84.468727
  0
LINE
  8
WHITE
 62
     7
  6
CONTINUOUS
 10
142.271000
 20
212.686000
 11
142.271000
 21
210.936000
  0
ARC
  8
WHITE
 62
     7
  6
CONTINUOUS
 10
142.475433
 20
210.940433
 40
0.204481
 50
181.242249
 51
268.757751
  0
LINE
  8
WHITE
 62
     7
  6
CONTINUOUS
 10
142.471000
 20
210.736000
 11
143.421000
 21
210.736000
  0
ARC
  8
WHITE
 62
     7
  6
CONTINUOUS
 10
143.414386
 20
210.942614
 40
0.206720
 50
271.833548
 51
358.166452
  0
LINE
  8
WHITE
 62
     7
  6
CONTINUOUS
 10
143.621000
 20
210.936000
 11
143.621000
 21
212.686000
  0
ARC
  8
WHITE
 62
     7
  6
CONTINUOUS
 10
143.811607
 20
212.695393
 40
0.190838
 50
87.178635
 51
182.821365
  0
LINE
  8
WHITE
 62
     7
  6
CONTINUOUS
 10
143.821000
 20
212.886000
 11
144.421000
 21
212.886000
  0
ARC
  8
WHITE
 62
     7
  6
CONTINUOUS
 10
144.415589
 20
212.680589
 40
0.205482
 50
1.508979
 51
88.491021
  0
LINE
  8
WHITE
 62
     7
  6
CONTINUOUS
 10
144.621000
 20
212.686000
 11
144.621000
 21
208.236000
  0
ARC
  8
WHITE
 62
     7
  6
CONTINUOUS
 10
144.113302
 20
208.243698
 40
0.507757
 50
270.868713
 51
359.131287
  0
LINE
  8
WHITE
 62
     7
  6
CONTINUOUS
 10
144.121000
 20
207.736000
 11
141.020958
 21
207.736000
  0
ARC
  8
WHITE
 62
     7
  6
CONTINUOUS
 10
141.020958
 20
207.436000
 40
0.300000
 50
90.000000
 51
179.991946
  0
LINE
  8
WHITE
 62
     7
  6
CONTINUOUS
 10
140.720958
 20
207.436042
 11
140.720905
 21
207.060000
  0
ARC
  8
WHITE
 62
     7
  6
CONTINUOUS
 10
140.521000
 20
207.060000
 40
0.199905
 50
243.563127
 51
0.000000
  0
LINE
  8
WHITE
 62
     7
  6
CONTINUOUS
 10
140.432000
 20
206.881000
 11
138.827000
 21
207.683000
  0
ARC
  8
WHITE
 62
     7
  6
CONTINUOUS
 10
138.551204
 20
207.017232
 40
0.720632
 50
67.498137
 51
85.878296
  0
LINE
  8
WHITE
 62
     7
  6
CONTINUOUS
 10
138.603000
 20
207.736000
 11
106.419000
 21
207.736000
  0
ARC
  8
WHITE
 62
     7
  6
CONTINUOUS
 10
106.418000
 20
207.536000
 40
0.200002
 50
89.713523
 51
116.436873
  0
LINE
  8
WHITE
 62
     7
  6
CONTINUOUS
 10
106.328957
 20
207.715087
 11
104.661000
 21
206.881000
  0
ARC
  8
WHITE
 62
     7
  6
CONTINUOUS
 10
104.566432
 20
207.052205
 40
0.195587
 50
177.715846
 51
298.914951
  0
LINE
  8
WHITE
 62
     7
  6
CONTINUOUS
 10
104.371000
 20
207.060000
 11
104.371000
 21
207.436000
  0
ARC
  8
WHITE
 62
     7
  6
CONTINUOUS
 10
104.071000
 20
207.436000
 40
0.300000
 50
0.000000
 51
90.000000
  0
LINE
  8
WHITE
 62
     7
  6
CONTINUOUS
 10
104.071000
 20
207.736000
 11
100.971000
 21
207.736000
  0
ARC
  8
WHITE
 62
     7
  6
CONTINUOUS
 10
100.962837
 20
208.227837
 40
0.491905
 50
179.049170
 51
270.950830
  0
LINE
  8
WHITE
 62
     7
  6
CONTINUOUS
 10
100.471000
 20
208.236000
 11
100.471000
 21
212.686000
  0
ARC
  8
WHITE
 62
     7
  6
CONTINUOUS
 10
100.670210
 20
212.686790
 40
0.199211
 50
89.772745
 51
180.227255
  0
LINE
  8
WHITE
 62
     7
  6
CONTINUOUS
 10
100.671000
 20
212.886000
 11
101.271000
 21
212.886000
  0
ARC
  8
WHITE
 62
     7
  6
CONTINUOUS
 10
101.264655
 20
212.679655
 40
0.206443
 50
1.761261
 51
88.238739
  0
LINE
  8
WHITE
 62
     7
  6
CONTINUOUS
 10
101.471000
 20
212.686000
 11
101.471000
 21
210.936000
  0
ARC
  8
WHITE
 62
     7
  6
CONTINUOUS
 10
101.666484
 20
210.931484
 40
0.195536
 50
178.676470
 51
271.323530
  0
LINE
  8
WHITE
 62
     7
  6
CONTINUOUS
 10
101.671000
 20
210.736000
 11
102.621000
 21
210.736000
  0
ARC
  8
WHITE
 62
     7
  6
CONTINUOUS
 10
102.618027
 20
210.938973
 40
0.202995
 50
270.839135
 51
359.160865
  0
LINE
  8
WHITE
 62
     7
  6
CONTINUOUS
 10
102.821000
 20
210.936000
 11
102.821000
 21
212.686000
  0
ARC
  8
WHITE
 62
     7
  6
CONTINUOUS
 10
103.029894
 20
212.677106
 40
0.209083
 50
92.438033
 51
177.561967
  0
LINE
  8
WHITE
 62
     7
  6
CONTINUOUS
 10
103.021000
 20
212.886000
 11
104.071000
 21
212.886000
  0
ARC
  8
WHITE
 62
     7
  6
CONTINUOUS
 10
104.071000
 20
213.186000
 40
0.300000
 50
270.000000
 51
0.000000
  0
LINE
  8
WHITE
 62
     7
  6
CONTINUOUS
 10
104.371000
 20
213.186000
 11
104.371000
 21
213.562000
  0
ARC
  8
WHITE
 62
     7
  6
CONTINUOUS
 10
104.570904
 20
213.562549
 40
0.199905
 50
63.211845
 51
180.157358
  0
LINE
  8
WHITE
 62
     7
  6
CONTINUOUS
 10
104.661000
 20
213.741000
 11
106.329000
 21
212.907000
  0
ARC
  8
WHITE
 62
     7
  6
CONTINUOUS
 10
106.455166
 20
213.244356
 40
0.360176
 50
249.494909
 51
264.237047
  0
LINE
  8
WHITE
 62
     7
  6
CONTINUOUS
 10
106.419000
 20
212.886000
 11
109.093000
 21
212.885905
  0
ARC
  8
WHITE
 62
     7
  6
CONTINUOUS
 10
109.093000
 20
212.686000
 40
0.199905
 50
26.436873
 51
90.000000
  0
ARC
  8
WHITE
 62
     7
  6
CONTINUOUS
 10
109.497000
 20
212.886000
 40
0.250890
 50
206.258660
 51
63.639942
  0
ARC
  8
WHITE
 62
     7
  6
CONTINUOUS
 10
109.736910
 20
213.316408
 40
0.242464
 50
186.490633
 51
237.992905
  0
LINE
  8
WHITE
 62
     7
  6
CONTINUOUS
 10
109.496000
 20
213.289000
 11
109.496000
 21
213.886000
  0
ARC
  8
WHITE
 62
     7
  6
CONTINUOUS
 10
110.497986
 20
213.884014
 40
1.001988
 50
90.113576
 51
179.886424
  0
LINE
  8
WHITE
 62
     7
  6
CONTINUOUS
 10
110.496000
 20
214.886000
 11
122.546000
 21
214.886000
  0
LINE
  8
WHITE
 62
     7
  6
CONTINUOUS
 10
122.546000
 20
214.886000
 11
122.546000
 21
220.021000
  0
ARC
  8
WHITE
 62
     7
  6
CONTINUOUS
 10
115.907019
 20
40.234813
 40
13.999834
 50
227.660485
 51
225.000028
  0
LINE
  8
WHITE
 62
     7
  6
CONTINUOUS
 10
106.007646
 20
30.335430
 11
102.683817
 21
27.012601
  0
LINE
  8
WHITE
 62
     7
  6
CONTINUOUS
 10
103.322177
 20
65.150392
 11
106.504581
 21
68.332797
  0
ARC
  8
WHITE
 62
     7
  6
CONTINUOUS
 10
106.363160
 20
68.474218
 40
0.200000
 50
315.000000
 51
44.192964
  0
ARC
  8
WHITE
 62
     7
  6
CONTINUOUS
 10
116.544177
 20
78.372392
 40
13.999541
 50
227.660513
 51
224.192964
  0
LINE
  8
WHITE
 62
     7
  6
CONTINUOUS
 10
116.319177
 20
78.523392
 11
112.069177
 21
78.523392
  0
ARC
  8
WHITE
 62
     7
  6
CONTINUOUS
 10
112.084823
 20
78.357747
 40
0.166383
 50
95.395708
 51
174.604292
  0
LINE
  8
WHITE
 62
     7
  6
CONTINUOUS
 10
111.919177
 20
78.373392
 11
111.919177
 21
75.698392
  0
ARC
  8
WHITE
 62
     7
  6
CONTINUOUS
 10
111.344177
 20
75.698392
 40
0.575000
 50
180.000000
 51
0.000000
  0
LINE
  8
WHITE
 62
     7
  6
CONTINUOUS
 10
110.769177
 20
75.698392
 11
110.769177
 21
77.337392
  0
ARC
  8
WHITE
 62
     7
  6
CONTINUOUS
 10
111.141308
 20
77.338297
 40
0.372132
 50
122.716498
 51
180.139318
  0
ARC
  8
WHITE
 62
     7
  6
CONTINUOUS
 10
110.845177
 20
77.798392
 40
0.175026
 50
302.872909
 51
147.127091
  0
ARC
  8
WHITE
 62
     7
  6
CONTINUOUS
 10
110.384169
 20
78.098392
 40
0.375001
 50
269.848426
 51
326.861498
  0
LINE
  8
WHITE
 62
     7
  6
CONTINUOUS
 10
110.383177
 20
77.723392
 11
106.261428
 21
77.723392
  0
ARC
  8
WHITE
 62
     7
  6
CONTINUOUS
 10
106.261428
 20
78.123392
 40
0.400000
 50
223.264260
 51
270.000000
  0
ARC
  8
WHITE
 62
     7
  6
CONTINUOUS
 10
105.730177
 20
77.623392
 40
0.329539
 50
43.264260
 51
316.735740
  0
ARC
  8
WHITE
 62
     7
  6
CONTINUOUS
 10
106.261428
 20
77.123392
 40
0.400000
 50
90.000000
 51
136.735740
  0
LINE
  8
WHITE
 62
     7
  6
CONTINUOUS
 10
106.261428
 20
77.523392
 11
106.818177
 21
77.523392
  0
ARC
  8
WHITE
 62
     7
  6
CONTINUOUS
 10
106.813539
 20
77.143641
 40
0.379780
 50
7.375270
 51
89.300317
  0
ARC
  8
WHITE
 62
     7
  6
CONTINUOUS
 10
117.044028
 20
78.374632
 40
9.924519
 50
186.841499
 51
353.159400
  0
ARC
  8
WHITE
 62
     7
  6
CONTINUOUS
 10
127.271177
 20
77.147392
 40
0.376000
 50
90.000000
 51
173.102572
  0
LINE
  8
WHITE
 62
     7
  6
CONTINUOUS
 10
127.271177
 20
77.523392
 11
127.810744
 21
77.523392
  0
ARC
  8
WHITE
 62
     7
  6
CONTINUOUS
 10
127.810744
 20
77.123392
 40
0.400000
 50
39.551772
 51
90.000000
  0
ARC
  8
WHITE
 62
     7
  6
CONTINUOUS
 10
128.416177
 20
77.623392
 40
0.385206
 50
219.551772
 51
140.448226
  0
ARC
  8
WHITE
 62
     7
  6
CONTINUOUS
 10
127.810744
 20
78.123392
 40
0.400000
 50
270.000000
 51
320.448226
  0
LINE
  8
WHITE
 62
     7
  6
CONTINUOUS
 10
127.810744
 20
77.723392
 11
123.705177
 21
77.723392
  0
ARC
  8
WHITE
 62
     7
  6
CONTINUOUS
 10
123.724724
 20
78.134485
 40
0.411557
 50
215.859969
 51
267.277689
  0
ARC
  8
WHITE
 62
     7
  6
CONTINUOUS
 10
123.244177
 20
77.798392
 40
0.175026
 50
32.872909
 51
237.127091
  0
ARC
  8
WHITE
 62
     7
  6
CONTINUOUS
 10
122.944177
 20
77.337386
 40
0.375000
 50
0.000000
 51
56.861369
  0
LINE
  8
WHITE
 62
     7
  6
CONTINUOUS
 10
123.319177
 20
77.337392
 11
123.319177
 21
75.698392
  0
ARC
  8
WHITE
 62
     7
  6
CONTINUOUS
 10
122.744177
 20
75.698392
 40
0.575000
 50
180.000000
 51
0.000000
  0
LINE
  8
WHITE
 62
     7
  6
CONTINUOUS
 10
122.169177
 20
75.698392
 11
122.169177
 21
81.048392
  0
ARC
  8
WHITE
 62
     7
  6
CONTINUOUS
 10
122.744177
 20
81.048392
 40
0.575000
 50
0.000000
 51
180.000000
  0
LINE
  8
WHITE
 62
     7
  6
CONTINUOUS
 10
123.319177
 20
81.048392
 11
123.319177
 21
79.409392
  0
ARC
  8
WHITE
 62
     7
  6
CONTINUOUS
 10
122.803832
 20
79.484142
 40
0.520738
 50
311.543162
 51
351.746915
  0
ARC
  8
WHITE
 62
     7
  6
CONTINUOUS
 10
123.242170
 20
78.946115
 40
0.175026
 50
122.094175
 51
327.836440
  0
ARC
  8
WHITE
 62
     7
  6
CONTINUOUS
 10
123.705177
 20
78.647392
 40
0.376000
 50
90.000000
 51
146.860836
  0
LINE
  8
WHITE
 62
     7
  6
CONTINUOUS
 10
123.705177
 20
79.023392
 11
127.826926
 21
79.023392
  0
ARC
  8
WHITE
 62
     7
  6
CONTINUOUS
 10
127.826926
 20
78.623392
 40
0.400000
 50
43.264269
 51
90.000000
  0
ARC
  8
WHITE
 62
     7
  6
CONTINUOUS
 10
128.358177
 20
79.123392
 40
0.329539
 50
223.264269
 51
136.731586
  0
ARC
  8
WHITE
 62
     7
  6
CONTINUOUS
 10
127.826963
 20
79.623431
 40
0.400000
 50
270.003970
 51
316.731586
  0
LINE
  8
WHITE
 62
     7
  6
CONTINUOUS
 10
127.826990
 20
79.223431
 11
127.271177
 21
79.223392
  0
ARC
  8
WHITE
 62
     7
  6
CONTINUOUS
 10
127.335631
 20
79.670722
 40
0.451949
 50
195.046782
 51
261.800960
  0
ARC
  8
WHITE
 62
     7
  6
CONTINUOUS
 10
117.044177
 20
78.375876
 40
9.925098
 50
6.813637
 51
173.185677
  0
ARC
  8
WHITE
 62
     7
  6
CONTINUOUS
 10
106.816886
 20
79.598390
 40
0.375000
 50
270.197188
 51
353.126408
  0
LINE
  8
WHITE
 62
     7
  6
CONTINUOUS
 10
106.818177
 20
79.223392
 11
106.277610
 21
79.223392
  0
ARC
  8
WHITE
 62
     7
  6
CONTINUOUS
 10
106.277610
 20
79.623392
 40
0.400000
 50
219.551774
 51
270.000000
  0
ARC
  8
WHITE
 62
     7
  6
CONTINUOUS
 10
105.672177
 20
79.123392
 40
0.385206
 50
39.551774
 51
320.448226
  0
ARC
  8
WHITE
 62
     7
  6
CONTINUOUS
 10
106.277610
 20
78.623392
 40
0.400000
 50
90.000000
 51
140.448226
  0
LINE
  8
WHITE
 62
     7
  6
CONTINUOUS
 10
106.277610
 20
79.023392
 11
110.383177
 21
79.023392
  0
ARC
  8
WHITE
 62
     7
  6
CONTINUOUS
 10
110.349274
 20
78.585308
 40
0.439394
 50
37.433975
 51
85.574748
  0
ARC
  8
WHITE
 62
     7
  6
CONTINUOUS
 10
110.846456
 20
78.945383
 40
0.175026
 50
212.093172
 51
57.837350
  0
ARC
  8
WHITE
 62
     7
  6
CONTINUOUS
 10
111.145177
 20
79.408392
 40
0.376001
 50
179.847618
 51
236.860836
  0
LINE
  8
WHITE
 62
     7
  6
CONTINUOUS
 10
110.769177
 20
79.409392
 11
110.769177
 21
81.048392
  0
ARC
  8
WHITE
 62
     7
  6
CONTINUOUS
 10
111.344177
 20
81.048392
 40
0.575000
 50
0.000000
 51
180.000000
  0
LINE
  8
WHITE
 62
     7
  6
CONTINUOUS
 10
111.919177
 20
81.048392
 11
111.919177
 21
78.923392
  0
LINE
  8
WHITE
 62
     7
  6
CONTINUOUS
 10
105.289000
 20
248.788000
 11
109.697000
 21
248.161000
  0
LINE
  8
WHITE
 62
     7
  6
CONTINUOUS
 10
109.697000
 20
248.161000
 11
110.688005
 21
255.114072
  0
ARC
  8
WHITE
 62
     7
  6
CONTINUOUS
 10
111.226000
 20
255.075000
 40
0.539412
 50
85.853841
 51
175.846147
  0
LINE
  8
WHITE
 62
     7
  6
CONTINUOUS
 10
111.265000
 20
255.613000
 11
112.327000
 21
255.462000
  0
ARC
  8
WHITE
 62
     7
  6
CONTINUOUS
 10
112.214000
 20
254.935000
 40
0.538979
 50
347.897818
 51
77.897818
  0
LINE
  8
WHITE
 62
     7
  6
CONTINUOUS
 10
112.741000
 20
254.822000
 11
111.990000
 21
249.550000
  0
ARC
  8
WHITE
 62
     7
  6
CONTINUOUS
 10
112.163000
 20
249.525000
 40
0.174797
 50
171.777186
 51
352.146687
  0
LINE
  8
WHITE
 62
     7
  6
CONTINUOUS
 10
112.336158
 20
249.501116
 11
113.129934
 21
255.070004
  0
ARC
  8
WHITE
 62
     7
  6
CONTINUOUS
 10
113.455000
 20
255.049000
 40
0.325744
 50
86.127424
 51
176.302951
  0
LINE
  8
WHITE
 62
     7
  6
CONTINUOUS
 10
113.477000
 20
255.374000
 11
118.460800
 21
254.663647
  0
ARC
  8
WHITE
 62
     7
  6
CONTINUOUS
 10
118.418469
 20
254.366649
 40
0.300000
 50
13.912448
 51
81.888135
  0
ARC
  8
WHITE
 62
     7
  6
CONTINUOUS
 10
119.195000
 20
254.559000
 40
0.500000
 50
193.912448
 51
59.870748
  0
ARC
  8
WHITE
 62
     7
  6
CONTINUOUS
 10
119.596562
 20
255.250916
 40
0.300000
 50
171.895060
 51
239.870748
  0
LINE
  8
WHITE
 62
     7
  6
CONTINUOUS
 10
119.299558
 20
255.293212
 11
119.289283
 21
255.220780
  0
ARC
  8
WHITE
 62
     7
  6
CONTINUOUS
 10
119.586287
 20
255.178484
 40
0.300000
 50
103.919373
 51
171.895060
  0
ARC
  8
WHITE
 62
     7
  6
CONTINUOUS
 10
119.393842
 20
255.954992
 40
0.500000
 50
283.919373
 51
149.867992
  0
ARC
  8
WHITE
 62
     7
  6
CONTINUOUS
 10
118.701945
 20
256.356587
 40
0.300000
 50
261.892305
 51
329.867992
  0
LINE
  8
WHITE
 62
     7
  6
CONTINUOUS
 10
118.659634
 20
256.059586
 11
114.739842
 21
256.617992
  0
ARC
  8
WHITE
 62
     7
  6
CONTINUOUS
 10
114.781701
 20
256.914012
 40
0.298965
 50
171.734350
 51
261.951341
  0
LINE
  8
WHITE
 62
     7
  6
CONTINUOUS
 10
114.485842
 20
256.956992
 11
116.483626
 21
271.036610
  0
ARC
  8
WHITE
 62
     7
  6
CONTINUOUS
 10
118.990596
 20
270.382066
 40
2.591009
 50
6.922232
 51
165.367339
  0
ARC
  8
WHITE
 62
     7
  6
CONTINUOUS
 10
121.266031
 20
270.657503
 40
0.298965
 50
261.924104
 51
7.077684
  0
LINE
  8
WHITE
 62
     7
  6
CONTINUOUS
 10
121.224031
 20
270.361503
 11
119.330142
 21
270.631194
  0
ARC
  8
WHITE
 62
     7
  6
CONTINUOUS
 10
119.287848
 20
270.334191
 40
0.300000
 50
81.895527
 51
171.916195
  0
LINE
  8
WHITE
 62
     7
  6
CONTINUOUS
 10
118.990829
 20
270.376377
 11
118.625150
 21
267.801761
  0
ARC
  8
WHITE
 62
     7
  6
CONTINUOUS
 10
118.922169
 20
267.759574
 40
0.300000
 50
171.916195
 51
261.866333
  0
LINE
  8
WHITE
 62
     7
  6
CONTINUOUS
 10
118.879724
 20
267.462592
 11
120.835861
 21
267.183020
  0
ARC
  8
WHITE
 62
     7
  6
CONTINUOUS
 10
120.794000
 20
266.887000
 40
0.298965
 50
351.924104
 51
81.950938
  0
LINE
  8
WHITE
 62
     7
  6
CONTINUOUS
 10
121.090000
 20
266.845000
 11
120.928261
 21
265.709105
  0
ARC
  8
WHITE
 62
     7
  6
CONTINUOUS
 10
120.731000
 20
265.737000
 40
0.199223
 50
288.434949
 51
351.950938
  0
ARC
  8
WHITE
 62
     7
  6
CONTINUOUS
 10
120.873000
 20
265.311000
 40
0.249820
 50
108.434949
 51
325.420712
  0
ARC
  8
WHITE
 62
     7
  6
CONTINUOUS
 10
121.242473
 20
265.056223
 40
0.198980
 50
81.466150
 51
145.398938
  0
LINE
  8
WHITE
 62
     7
  6
CONTINUOUS
 10
121.272000
 20
265.253000
 11
140.570861
 21
262.504020
  0
ARC
  8
WHITE
 62
     7
  6
CONTINUOUS
 10
140.501000
 20
262.010000
 40
0.498935
 50
351.934859
 51
81.950938
  0
LINE
  8
WHITE
 62
     7
  6
CONTINUOUS
 10
140.995000
 20
261.940000
 11
138.936000
 21
247.467000
  0
ARC
  8
WHITE
 62
     7
  6
CONTINUOUS
 10
139.232860
 20
247.424020
 40
0.299955
 50
171.761799
 51
261.977997
  0
LINE
  8
WHITE
 62
     7
  6
CONTINUOUS
 10
139.191000
 20
247.127000
 11
140.135000
 21
246.993000
  0
ARC
  8
WHITE
 62
     7
  6
CONTINUOUS
 10
140.149000
 20
247.092000
 40
0.099985
 50
261.950938
 51
81.950938
  0
LINE
  8
WHITE
 62
     7
  6
CONTINUOUS
 10
140.163000
 20
247.191000
 11
139.272000
 21
247.318000
  0
ARC
  8
WHITE
 62
     7
  6
CONTINUOUS
 10
139.314000
 20
247.615000
 40
0.299955
 50
171.950938
 51
261.950938
  0
LINE
  8
WHITE
 62
     7
  6
CONTINUOUS
 10
139.017000
 20
247.657000
 11
141.036679
 21
261.849049
  0
ARC
  8
WHITE
 62
     7
  6
CONTINUOUS
 10
141.611000
 20
261.761000
 40
0.581031
 50
89.408326
 51
171.283843
  0
LINE
  8
WHITE
 62
     7
  6
CONTINUOUS
 10
141.617000
 20
262.342000
 11
159.823000
 21
262.353000
  0
ARC
  8
WHITE
 62
     7
  6
CONTINUOUS
 10
159.816994
 20
261.846173
 40
0.506862
 50
8.718100
 51
89.321065
  0
LINE
  8
WHITE
 62
     7
  6
CONTINUOUS
 10
160.318000
 20
261.923000
 11
162.350000
 21
247.657000
  0
ARC
  8
WHITE
 62
     7
  6
CONTINUOUS
 10
162.053000
 20
247.615000
 40
0.299955
 50
278.049062
 51
8.049062
  0
LINE
  8
WHITE
 62
     7
  6
CONTINUOUS
 10
162.095000
 20
247.318000
 11
161.204000
 21
247.191000
  0
ARC
  8
WHITE
 62
     7
  6
CONTINUOUS
 10
161.218000
 20
247.092000
 40
0.099985
 50
98.049062
 51
278.049062
  0
LINE
  8
WHITE
 62
     7
  6
CONTINUOUS
 10
161.232000
 20
246.993000
 11
162.247000
 21
247.138000
  0
ARC
  8
WHITE
 62
     7
  6
CONTINUOUS
 10
162.171812
 20
247.392652
 40
0.265520
 50
286.449712
 51
16.036046
  0
LINE
  8
WHITE
 62
     7
  6
CONTINUOUS
 10
162.427000
 20
247.466000
 11
160.365020
 21
261.938861
  0
ARC
  8
WHITE
 62
     7
  6
CONTINUOUS
 10
160.861000
 20
262.009000
 40
0.500915
 50
98.033046
 51
188.049062
  0
LINE
  8
WHITE
 62
     7
  6
CONTINUOUS
 10
160.791000
 20
262.505000
 11
180.019919
 21
265.253576
  0
ARC
  8
WHITE
 62
     7
  6
CONTINUOUS
 10
180.048000
 20
265.055000
 40
0.200552
 50
34.640948
 51
98.049062
  0
ARC
  8
WHITE
 62
     7
  6
CONTINUOUS
 10
180.419591
 20
265.310139
 40
0.250200
 50
214.340179
 51
71.973021
  0
ARC
  8
WHITE
 62
     7
  6
CONTINUOUS
 10
180.560000
 20
265.738000
 40
0.200112
 50
188.332560
 51
251.655566
  0
LINE
  8
WHITE
 62
     7
  6
CONTINUOUS
 10
180.362000
 20
265.709000
 11
180.201000
 21
266.845000
  0
ARC
  8
WHITE
 62
     7
  6
CONTINUOUS
 10
180.498000
 20
266.887000
 40
0.299955
 50
98.049062
 51
188.049062
  0
LINE
  8
WHITE
 62
     7
  6
CONTINUOUS
 10
180.456000
 20
267.184000
 11
182.411243
 21
267.462700
  0
ARC
  8
WHITE
 62
     7
  6
CONTINUOUS
 10
182.368909
 20
267.759698
 40
0.300000
 50
278.112292
 51
8.065797
  0
LINE
  8
WHITE
 62
     7
  6
CONTINUOUS
 10
182.665941
 20
267.801791
 11
182.300698
 21
270.379602
  0
ARC
  8
WHITE
 62
     7
  6
CONTINUOUS
 10
182.004087
 20
270.334100
 40
0.300081
 50
8.721672
 51
98.104638
  0
LINE
  8
WHITE
 62
     7
  6
CONTINUOUS
 10
181.961781
 20
270.631183
 11
180.067986
 21
270.361506
  0
ARC
  8
WHITE
 62
     7
  6
CONTINUOUS
 10
180.026012
 20
270.658723
 40
0.300167
 50
173.153544
 51
278.038301
  0
ARC
  8
WHITE
 62
     7
  6
CONTINUOUS
 10
182.300698
 20
270.379602
 40
2.591913
 50
14.681367
 51
173.021638
  0
LINE
  8
WHITE
 62
     7
  6
CONTINUOUS
 10
184.807986
 20
271.036506
 11
186.806011
 21
256.956968
  0
ARC
  8
WHITE
 62
     7
  6
CONTINUOUS
 10
186.515170
 20
256.908994
 40
0.294771
 50
279.174727
 51
9.366510
  0
LINE
  8
WHITE
 62
     7
  6
CONTINUOUS
 10
186.562170
 20
256.617994
 11
182.643374
 21
256.059610
  0
ARC
  8
WHITE
 62
     7
  6
CONTINUOUS
 10
182.601055
 20
256.356610
 40
0.300000
 50
210.133727
 51
278.109414
  0
ARC
  8
WHITE
 62
     7
  6
CONTINUOUS
 10
181.909170
 20
255.954994
 40
0.500000
 50
30.133727
 51
256.045393
  0
ARC
  8
WHITE
 62
     7
  6
CONTINUOUS
 10
181.716248
 20
255.178604
 40
0.300000
 50
8.069706
 51
76.045393
  0
LINE
  8
WHITE
 62
     7
  6
CONTINUOUS
 10
182.013277
 20
255.220717
 11
182.002893
 21
255.293276
  0
ARC
  8
WHITE
 62
     7
  6
CONTINUOUS
 10
181.705864
 20
255.251163
 40
0.300000
 50
300.094019
 51
8.069706
  0
ARC
  8
WHITE
 62
     7
  6
CONTINUOUS
 10
182.107000
 20
254.559000
 40
0.500000
 50
120.094019
 51
346.096021
  0
ARC
  8
WHITE
 62
     7
  6
CONTINUOUS
 10
182.883560
 20
254.366764
 40
0.300000
 50
98.120333
 51
166.096020
  0
LINE
  8
WHITE
 62
     7
  6
CONTINUOUS
 10
182.841184
 20
254.663756
 11
187.825936
 21
255.374996
  0
ARC
  8
WHITE
 62
     7
  6
CONTINUOUS
 10
187.847000
 20
255.049000
 40
0.326676
 50
3.685740
 51
93.697049
  0
LINE
  8
WHITE
 62
     7
  6
CONTINUOUS
 10
188.173000
 20
255.070000
 11
188.966000
 21
249.501000
  0
ARC
  8
WHITE
 62
     7
  6
CONTINUOUS
 10
189.139000
 20
249.525500
 40
0.174726
 50
188.060541
 51
8.060541
  0
LINE
  8
WHITE
 62
     7
  6
CONTINUOUS
 10
189.312000
 20
249.550000
 11
188.561000
 21
254.822000
  0
ARC
  8
WHITE
 62
     7
  6
CONTINUOUS
 10
189.088000
 20
254.935000
 40
0.538979
 50
102.102182
 51
192.102182
  0
LINE
  8
WHITE
 62
     7
  6
CONTINUOUS
 10
188.975000
 20
255.462000
 11
190.038000
 21
255.613000
  0
ARC
  8
WHITE
 62
     7
  6
CONTINUOUS
 10
190.076995
 20
255.076071
 40
0.538343
 50
4.040092
 51
94.153868
  0
LINE
  8
WHITE
 62
     7
  6
CONTINUOUS
 10
190.614000
 20
255.114000
 11
191.882957
 21
246.204502
  0
ARC
  8
WHITE
 62
     7
  6
CONTINUOUS
 10
191.386977
 20
246.134362
 40
0.500915
 50
278.146303
 51
8.049142
  0
LINE
  8
WHITE
 62
     7
  6
CONTINUOUS
 10
191.457957
 20
245.638502
 11
188.814960
 21
245.262487
  0
ARC
  8
WHITE
 62
     7
  6
CONTINUOUS
 10
188.786957
 20
245.460502
 40
0.199985
 50
214.405234
 51
278.049062
  0
ARC
  8
WHITE
 62
     7
  6
CONTINUOUS
 10
188.469080
 20
245.275243
 40
0.169095
 50
25.298112
 51
242.459275
  0
ARC
  8
WHITE
 62
     7
  6
CONTINUOUS
 10
188.327957
 20
244.935502
 40
0.199970
 50
8.049062
 51
71.655566
  0
LINE
  8
WHITE
 62
     7
  6
CONTINUOUS
 10
188.525957
 20
244.963502
 11
189.964000
 21
234.781000
  0
ARC
  8
WHITE
 62
     7
  6
CONTINUOUS
 10
189.450016
 20
234.715875
 40
0.518094
 50
277.317032
 51
7.221298
  0
LINE
  8
WHITE
 62
     7
  6
CONTINUOUS
 10
189.516000
 20
234.202000
 11
165.114000
 21
230.728000
  0
ARC
  8
WHITE
 62
     7
  6
CONTINUOUS
 10
165.072000
 20
231.025000
 40
0.299955
 50
188.049062
 51
278.049062
  0
LINE
  8
WHITE
 62
     7
  6
CONTINUOUS
 10
164.775000
 20
230.983000
 11
162.815000
 21
244.744000
  0
ARC
  8
WHITE
 62
     7
  6
CONTINUOUS
 10
162.550000
 20
244.744000
 40
0.265000
 50
0.000000
 51
90.000000
  0
LINE
  8
WHITE
 62
     7
  6
CONTINUOUS
 10
162.550000
 20
245.009000
 11
161.535000
 21
244.865000
  0
ARC
  8
WHITE
 62
     7
  6
CONTINUOUS
 10
161.549000
 20
244.766000
 40
0.099985
 50
98.049062
 51
278.049062
  0
LINE
  8
WHITE
 62
     7
  6
CONTINUOUS
 10
161.563000
 20
244.667000
 11
162.453842
 21
244.794120
  0
ARC
  8
WHITE
 62
     7
  6
CONTINUOUS
 10
162.496000
 20
244.496000
 40
0.301086
 50
8.210838
 51
98.049062
  0
LINE
  8
WHITE
 62
     7
  6
CONTINUOUS
 10
162.794000
 20
244.539000
 11
164.755000
 21
230.763000
  0
ARC
  8
WHITE
 62
     7
  6
CONTINUOUS
 10
140.059023
 20
225.444680
 40
25.262142
 50
4.052572
 51
12.153138
  0
LINE
  8
WHITE
 62
     7
  6
CONTINUOUS
 10
165.258000
 20
227.230000
 11
165.258000
 21
220.642000
  0
ARC
  8
WHITE
 62
     7
  6
CONTINUOUS
 10
164.923448
 20
220.676552
 40
0.336332
 50
275.896538
 51
354.103462
  0
LINE
  8
WHITE
 62
     7
  6
CONTINUOUS
 10
164.958000
 20
220.342000
 11
136.411000
 21
220.342000
  0
ARC
  8
WHITE
 62
     7
  6
CONTINUOUS
 10
136.414279
 20
220.645279
 40
0.303296
 50
180.619404
 51
269.380596
  0
LINE
  8
WHITE
 62
     7
  6
CONTINUOUS
 10
136.111000
 20
220.642000
 11
136.097903
 21
227.151000
  0
ARC
  8
WHITE
 62
     7
  6
CONTINUOUS
 10
136.398000
 20
227.151000
 40
0.300097
 50
171.761894
 51
180.000000
  0
LINE
  8
WHITE
 62
     7
  6
CONTINUOUS
 10
136.101000
 20
227.194000
 11
138.573000
 21
244.539000
  0
ARC
  8
WHITE
 62
     7
  6
CONTINUOUS
 10
138.869161
 20
244.497123
 40
0.299107
 50
81.572007
 51
171.951782
  0
LINE
  8
WHITE
 62
     7
  6
CONTINUOUS
 10
138.913000
 20
244.793000
 11
139.804000
 21
244.666000
  0
ARC
  8
WHITE
 62
     7
  6
CONTINUOUS
 10
139.818000
 20
244.765000
 40
0.099985
 50
261.950938
 51
81.950938
  0
LINE
  8
WHITE
 62
     7
  6
CONTINUOUS
 10
139.832000
 20
244.864000
 11
138.815000
 21
245.009000
  0
ARC
  8
WHITE
 62
     7
  6
CONTINUOUS
 10
138.782000
 20
244.786000
 40
0.225428
 50
81.582343
 51
171.833930
  0
LINE
  8
WHITE
 62
     7
  6
CONTINUOUS
 10
138.558857
 20
244.818020
 11
136.589000
 21
230.983000
  0
ARC
  8
WHITE
 62
     7
  6
CONTINUOUS
 10
136.292000
 20
231.025000
 40
0.299955
 50
261.950938
 51
351.950938
  0
LINE
  8
WHITE
 62
     7
  6
CONTINUOUS
 10
136.250000
 20
230.728000
 11
111.750000
 21
234.217000
  0
ARC
  8
WHITE
 62
     7
  6
CONTINUOUS
 10
111.819879
 20
234.711160
 40
0.499076
 50
171.723739
 51
261.951242
  0
LINE
  8
WHITE
 62
     7
  6
CONTINUOUS
 10
111.326000
 20
234.783000
 11
112.776839
 21
244.963530
  0
ARC
  8
WHITE
 62
     7
  6
CONTINUOUS
 10
112.975040
 20
244.935502
 40
0.200172
 50
108.344434
 51
171.950938
  0
ARC
  8
WHITE
 62
     7
  6
CONTINUOUS
 10
112.833979
 20
245.275470
 40
0.169068
 50
297.497595
 51
154.779640
  0
ARC
  8
WHITE
 62
     7
  6
CONTINUOUS
 10
112.516040
 20
245.460502
 40
0.199970
 50
261.950938
 51
325.594766
  0
LINE
  8
WHITE
 62
     7
  6
CONTINUOUS
 10
112.488040
 20
245.262502
 11
109.844040
 21
245.638502
  0
ARC
  8
WHITE
 62
     7
  6
CONTINUOUS
 10
109.913918
 20
246.132662
 40
0.499076
 50
171.723739
 51
261.951242
  0
LINE
  8
WHITE
 62
     7
  6
CONTINUOUS
 10
109.420040
 20
246.204502
 11
109.584000
 21
247.369000
  0
ARC
  8
WHITE
 62
     7
  6
CONTINUOUS
 10
141.959634
 20
21.068000
 40
13.998442
 50
227.428958
 51
224.756879
  0
LINE
  8
WHITE
 62
     7
  6
CONTINUOUS
 10
132.019328
 20
11.211697
 11
128.736634
 21
7.070000
  0
LINE
  8
WHITE
 62
     7
  6
CONTINUOUS
 10
151.182000
 20
273.391000
 11
159.013000
 21
273.391000
  0
ARC
  8
WHITE
 62
     7
  6
CONTINUOUS
 10
159.039678
 20
272.417678
 40
0.973687
 50
358.429945
 51
91.570055
  0
LINE
  8
WHITE
 62
     7
  6
CONTINUOUS
 10
160.013000
 20
272.391000
 11
160.011905
 21
271.794000
  0
ARC
  8
WHITE
 62
     7
  6
CONTINUOUS
 10
159.812000
 20
271.794000
 40
0.199905
 50
296.436873
 51
0.000000
  0
ARC
  8
WHITE
 62
     7
  6
CONTINUOUS
 10
160.012000
 20
271.391000
 40
0.249994
 50
116.360058
 51
333.639942
  0
ARC
  8
WHITE
 62
     7
  6
CONTINUOUS
 10
160.400720
 20
271.214199
 40
0.177376
 50
85.382263
 51
158.224811
  0
LINE
  8
WHITE
 62
     7
  6
CONTINUOUS
 10
160.415000
 20
271.391000
 11
166.739000
 21
271.391000
  0
ARC
  8
WHITE
 62
     7
  6
CONTINUOUS
 10
166.738967
 20
271.891000
 40
0.500000
 50
270.003837
 51
296.619730
  0
LINE
  8
WHITE
 62
     7
  6
CONTINUOUS
 10
166.963000
 20
271.444000
 11
168.568000
 21
272.246000
  0
ARC
  8
WHITE
 62
     7
  6
CONTINUOUS
 10
168.658026
 20
272.068551
 40
0.198980
 50
359.553434
 51
116.900310
  0
LINE
  8
WHITE
 62
     7
  6
CONTINUOUS
 10
168.857000
 20
272.067000
 11
168.857000
 21
271.591000
  0
ARC
  8
WHITE
 62
     7
  6
CONTINUOUS
 10
169.057000
 20
271.591000
 40
0.200000
 50
180.000000
 51
270.000000
  0
LINE
  8
WHITE
 62
     7
  6
CONTINUOUS
 10
169.057000
 20
271.391000
 11
170.207000
 21
271.391000
  0
ARC
  8
WHITE
 62
     7
  6
CONTINUOUS
 10
170.205825
 20
271.189825
 40
0.201178
 50
0.334549
 51
89.665451
  0
LINE
  8
WHITE
 62
     7
  6
CONTINUOUS
 10
170.407000
 20
271.191000
 11
170.407000
 21
269.441000
  0
ARC
  8
WHITE
 62
     7
  6
CONTINUOUS
 10
170.606077
 20
269.440077
 40
0.199079
 50
179.734227
 51
270.265773
  0
LINE
  8
WHITE
 62
     7
  6
CONTINUOUS
 10
170.607000
 20
269.241000
 11
171.557000
 21
269.241000
  0
ARC
  8
WHITE
 62
     7
  6
CONTINUOUS
 10
171.551506
 20
269.446494
 40
0.205567
 50
271.531419
 51
358.468581
  0
LINE
  8
WHITE
 62
     7
  6
CONTINUOUS
 10
171.757000
 20
269.441000
 11
171.757000
 21
271.191000
  0
ARC
  8
WHITE
 62
     7
  6
CONTINUOUS
 10
171.969633
 20
271.178367
 40
0.213008
 50
93.399997
 51
176.600003
  0
LINE
  8
WHITE
 62
     7
  6
CONTINUOUS
 10
171.957000
 20
271.391000
 11
172.557000
 21
271.391000
  0
ARC
  8
WHITE
 62
     7
  6
CONTINUOUS
 10
172.549348
 20
271.183348
 40
0.207793
 50
2.110386
 51
87.889614
  0
LINE
  8
WHITE
 62
     7
  6
CONTINUOUS
 10
172.757000
 20
271.191000
 11
172.757000
 21
266.741000
  0
ARC
  8
WHITE
 62
     7
  6
CONTINUOUS
 10
172.236941
 20
266.761059
 40
0.520446
 50
272.208886
 51
357.791114
  0
LINE
  8
WHITE
 62
     7
  6
CONTINUOUS
 10
172.257000
 20
266.241000
 11
169.056971
 21
266.241000
  0
ARC
  8
WHITE
 62
     7
  6
CONTINUOUS
 10
169.056971
 20
266.041000
 40
0.200000
 50
90.000000
 51
179.991747
  0
LINE
  8
WHITE
 62
     7
  6
CONTINUOUS
 10
168.856971
 20
266.041029
 11
168.856902
 21
265.564000
  0
ARC
  8
WHITE
 62
     7
  6
CONTINUOUS
 10
168.657000
 20
265.565000
 40
0.199905
 50
243.563127
 51
359.713524
  0
LINE
  8
WHITE
 62
     7
  6
CONTINUOUS
 10
168.568000
 20
265.386000
 11
166.963000
 21
266.188000
  0
ARC
  8
WHITE
 62
     7
  6
CONTINUOUS
 10
166.749541
 20
265.785694
 40
0.455428
 50
62.050132
 51
91.326301
  0
LINE
  8
WHITE
 62
     7
  6
CONTINUOUS
 10
166.739000
 20
266.241000
 11
134.625000
 21
266.241000
  0
ARC
  8
WHITE
 62
     7
  6
CONTINUOUS
 10
134.625000
 20
265.741000
 40
0.500000
 50
90.000000
 51
116.616300
  0
LINE
  8
WHITE
 62
     7
  6
CONTINUOUS
 10
134.400993
 20
266.188013
 11
132.796000
 21
265.386000
  0
ARC
  8
WHITE
 62
     7
  6
CONTINUOUS
 10
132.702902
 20
265.558456
 40
0.195980
 50
178.378999
 51
298.361761
  0
LINE
  8
WHITE
 62
     7
  6
CONTINUOUS
 10
132.507000
 20
265.564000
 11
132.507000
 21
266.041000
  0
ARC
  8
WHITE
 62
     7
  6
CONTINUOUS
 10
132.307000
 20
266.041000
 40
0.200000
 50
0.000000
 51
90.000000
  0
LINE
  8
WHITE
 62
     7
  6
CONTINUOUS
 10
132.307000
 20
266.241000
 11
129.107000
 21
266.241000
  0
ARC
  8
WHITE
 62
     7
  6
CONTINUOUS
 10
129.093978
 20
266.727978
 40
0.487152
 50
178.468293
 51
271.531707
  0
LINE
  8
WHITE
 62
     7
  6
CONTINUOUS
 10
128.607000
 20
266.741000
 11
128.607000
 21
271.191000
  0
ARC
  8
WHITE
 62
     7
  6
CONTINUOUS
 10
128.810077
 20
271.187923
 40
0.203101
 50
90.868132
 51
179.131868
  0
LINE
  8
WHITE
 62
     7
  6
CONTINUOUS
 10
128.807000
 20
271.391000
 11
129.407000
 21
271.391000
  0
ARC
  8
WHITE
 62
     7
  6
CONTINUOUS
 10
129.394326
 20
271.178326
 40
0.213051
 50
3.410357
 51
86.589643
  0
LINE
  8
WHITE
 62
     7
  6
CONTINUOUS
 10
129.607000
 20
271.191000
 11
129.607000
 21
269.441000
  0
ARC
  8
WHITE
 62
     7
  6
CONTINUOUS
 10
129.819427
 20
269.453427
 40
0.212790
 50
183.347980
 51
266.652020
  0
LINE
  8
WHITE
 62
     7
  6
CONTINUOUS
 10
129.807000
 20
269.241000
 11
130.757000
 21
269.241000
  0
ARC
  8
WHITE
 62
     7
  6
CONTINUOUS
 10
130.746542
 20
269.451458
 40
0.210717
 50
272.844672
 51
357.155328
  0
LINE
  8
WHITE
 62
     7
  6
CONTINUOUS
 10
130.957000
 20
269.441000
 11
130.957000
 21
271.191000
  0
ARC
  8
WHITE
 62
     7
  6
CONTINUOUS
 10
131.159906
 20
271.188094
 40
0.202927
 50
90.820532
 51
179.179468
  0
LINE
  8
WHITE
 62
     7
  6
CONTINUOUS
 10
131.157000
 20
271.391000
 11
132.307000
 21
271.391000
  0
ARC
  8
WHITE
 62
     7
  6
CONTINUOUS
 10
132.307000
 20
271.591000
 40
0.200000
 50
270.000000
 51
0.000000
  0
LINE
  8
WHITE
 62
     7
  6
CONTINUOUS
 10
132.507000
 20
271.591000
 11
132.507000
 21
272.067000
  0
ARC
  8
WHITE
 62
     7
  6
CONTINUOUS
 10
132.706905
 20
272.067047
 40
0.199905
 50
63.532706
 51
180.013551
  0
LINE
  8
WHITE
 62
     7
  6
CONTINUOUS
 10
132.796000
 20
272.246000
 11
134.401000
 21
271.444000
  0
ARC
  8
WHITE
 62
     7
  6
CONTINUOUS
 10
134.633944
 20
271.928660
 40
0.537734
 50
244.329471
 51
269.046962
  0
LINE
  8
WHITE
 62
     7
  6
CONTINUOUS
 10
134.625000
 20
271.391000
 11
140.949000
 21
271.390905
  0
ARC
  8
WHITE
 62
     7
  6
CONTINUOUS
 10
140.949000
 20
271.191000
 40
0.199905
 50
26.436873
 51
90.000000
  0
ARC
  8
WHITE
 62
     7
  6
CONTINUOUS
 10
141.352000
 20
271.391000
 40
0.249994
 50
206.360058
 51
63.639942
  0
ARC
  8
WHITE
 62
     7
  6
CONTINUOUS
 10
141.589824
 20
271.817561
 40
0.238988
 50
185.657780
 51
237.949294
  0
LINE
  8
WHITE
 62
     7
  6
CONTINUOUS
 10
141.352000
 20
271.794000
 11
141.352000
 21
272.391000
  0
ARC
  8
WHITE
 62
     7
  6
CONTINUOUS
 10
142.328744
 20
272.414256
 40
0.977021
 50
88.636059
 51
181.363941
  0
LINE
  8
WHITE
 62
     7
  6
CONTINUOUS
 10
142.352000
 20
273.391000
 11
150.682000
 21
273.391000
  0
LINE
  8
WHITE
 62
     7
  6
CONTINUOUS
 10
150.682000
 20
273.391000
 11
150.682000
 21
277.278000
  0
LINE
  8
WHITE
 62
     7
  6
CONTINUOUS
 10
134.300883
 20
73.765329
 11
137.483287
 21
76.947733
  0
ARC
  8
WHITE
 62
     7
  6
CONTINUOUS
 10
137.341866
 20
77.089154
 40
0.200000
 50
315.000000
 51
44.192964
  0
ARC
  8
WHITE
 62
     7
  6
CONTINUOUS
 10
147.522883
 20
86.987329
 40
13.999541
 50
227.660513
 51
224.192964
  0
LINE
  8
WHITE
 62
     7
  6
CONTINUOUS
 10
147.124000
 20
173.538000
 11
138.301000
 21
173.538000
  0
ARC
  8
WHITE
 62
     7
  6
CONTINUOUS
 10
138.305071
 20
173.233929
 40
0.304098
 50
90.766979
 51
179.233021
  0
LINE
  8
WHITE
 62
     7
  6
CONTINUOUS
 10
138.001000
 20
173.238000
 11
138.001000
 21
171.263000
  0
ARC
  8
WHITE
 62
     7
  6
CONTINUOUS
 10
137.701000
 20
171.263000
 40
0.300000
 50
270.000000
 51
0.000000
  0
LINE
  8
WHITE
 62
     7
  6
CONTINUOUS
 10
137.701000
 20
170.963000
 11
136.951000
 21
170.963000
  0
ARC
  8
WHITE
 62
     7
  6
CONTINUOUS
 10
136.951000
 20
171.263000
 40
0.300000
 50
180.000000
 51
270.000000
  0
LINE
  8
WHITE
 62
     7
  6
CONTINUOUS
 10
136.651000
 20
171.263000
 11
136.651000
 21
173.238000
  0
ARC
  8
WHITE
 62
     7
  6
CONTINUOUS
 10
136.359313
 20
173.246313
 40
0.291806
 50
358.367557
 51
91.632443
  0
LINE
  8
WHITE
 62
     7
  6
CONTINUOUS
 10
136.351000
 20
173.538000
 11
134.376000
 21
173.538000
  0
ARC
  8
WHITE
 62
     7
  6
CONTINUOUS
 10
134.336531
 20
173.077469
 40
0.462219
 50
85.101526
 51
184.898474
  0
LINE
  8
WHITE
 62
     7
  6
CONTINUOUS
 10
133.876000
 20
173.038000
 11
133.876000
 21
168.888000
  0
ARC
  8
WHITE
 62
     7
  6
CONTINUOUS
 10
134.371014
 20
168.883014
 40
0.495039
 50
179.422945
 51
270.577055
  0
LINE
  8
WHITE
 62
     7
  6
CONTINUOUS
 10
134.376000
 20
168.388000
 11
135.720000
 21
168.388000
  0
ARC
  8
WHITE
 62
     7
  6
CONTINUOUS
 10
135.719896
 20
168.237917
 40
0.150083
 50
308.829780
 51
89.960466
  0
ARC
  8
WHITE
 62
     7
  6
CONTINUOUS
 10
138.000000
 20
165.388000
 40
3.499698
 50
128.654695
 51
51.332523
  0
ARC
  8
WHITE
 62
     7
  6
CONTINUOUS
 10
140.282610
 20
168.237034
 40
0.150975
 50
90.611080
 51
230.515375
  0
LINE
  8
WHITE
 62
     7
  6
CONTINUOUS
 10
140.281000
 20
168.388000
 11
152.620000
 21
168.388000
  0
ARC
  8
WHITE
 62
     7
  6
CONTINUOUS
 10
152.619896
 20
168.237917
 40
0.150083
 50
308.829780
 51
89.960466
  0
ARC
  8
WHITE
 62
     7
  6
CONTINUOUS
 10
154.900000
 20
165.388000
 40
3.499698
 50
128.654695
 51
51.332523
  0
ARC
  8
WHITE
 62
     7
  6
CONTINUOUS
 10
157.182300
 20
168.237143
 40
0.150862
 50
90.493878
 51
230.632577
  0
LINE
  8
WHITE
 62
     7
  6
CONTINUOUS
 10
157.181000
 20
168.388000
 11
158.526000
 21
168.388000
  0
ARC
  8
WHITE
 62
     7
  6
CONTINUOUS
 10
158.429513
 20
168.984487
 40
0.604241
 50
279.188519
 51
350.811481
  0
LINE
  8
WHITE
 62
     7
  6
CONTINUOUS
 10
159.026000
 20
168.888000
 11
159.026000
 21
173.038000
  0
ARC
  8
WHITE
 62
     7
  6
CONTINUOUS
 10
158.494999
 20
173.006999
 40
0.531905
 50
3.341248
 51
86.658752
  0
LINE
  8
WHITE
 62
     7
  6
CONTINUOUS
 10
158.526000
 20
173.538000
 11
156.551000
 21
173.538000
  0
ARC
  8
WHITE
 62
     7
  6
CONTINUOUS
 10
156.550779
 20
173.238221
 40
0.299779
 50
89.957776
 51
180.042224
  0
LINE
  8
WHITE
 62
     7
  6
CONTINUOUS
 10
156.251000
 20
173.238000
 11
156.251000
 21
171.263000
  0
ARC
  8
WHITE
 62
     7
  6
CONTINUOUS
 10
155.951000
 20
171.263000
 40
0.300000
 50
270.000000
 51
0.000000
  0
LINE
  8
WHITE
 62
     7
  6
CONTINUOUS
 10
155.951000
 20
170.963000
 11
155.201000
 21
170.963000
  0
ARC
  8
WHITE
 62
     7
  6
CONTINUOUS
 10
155.201000
 20
171.263000
 40
0.300000
 50
180.000000
 51
270.000000
  0
LINE
  8
WHITE
 62
     7
  6
CONTINUOUS
 10
154.901000
 20
171.263000
 11
154.901000
 21
173.238000
  0
ARC
  8
WHITE
 62
     7
  6
CONTINUOUS
 10
154.599428
 20
173.236428
 40
0.301576
 50
0.298601
 51
89.701399
  0
LINE
  8
WHITE
 62
     7
  6
CONTINUOUS
 10
154.601000
 20
173.538000
 11
147.824000
 21
173.538000
  0
LINE
  8
WHITE
 62
     7
  6
CONTINUOUS
 10
147.824000
 20
173.538000
 11
147.838000
 21
177.841000
  0
LINE
  8
WHITE
 62
     7
  6
CONTINUOUS
 10
147.138000
 20
133.620000
 11
140.361000
 21
133.620000
  0
ARC
  8
WHITE
 62
     7
  6
CONTINUOUS
 10
140.355469
 20
133.914469
 40
0.294521
 50
178.923884
 51
271.076116
  0
LINE
  8
WHITE
 62
     7
  6
CONTINUOUS
 10
140.061000
 20
133.920000
 11
140.061000
 21
136.195000
  0
LINE
  8
WHITE
 62
     7
  6
CONTINUOUS
 10
140.061000
 20
136.195000
 11
138.711000
 21
136.195000
  0
LINE
  8
WHITE
 62
     7
  6
CONTINUOUS
 10
138.711000
 20
136.195000
 11
138.711000
 21
133.920000
  0
ARC
  8
WHITE
 62
     7
  6
CONTINUOUS
 10
138.403516
 20
133.927484
 40
0.307575
 50
271.394333
 51
358.605667
  0
LINE
  8
WHITE
 62
     7
  6
CONTINUOUS
 10
138.411000
 20
133.620000
 11
136.436000
 21
133.620000
  0
ARC
  8
WHITE
 62
     7
  6
CONTINUOUS
 10
136.493446
 20
134.177446
 40
0.560398
 50
185.883710
 51
264.116290
  0
LINE
  8
WHITE
 62
     7
  6
CONTINUOUS
 10
135.936000
 20
134.120000
 11
135.936000
 21
138.270000
  0
ARC
  8
WHITE
 62
     7
  6
CONTINUOUS
 10
136.397363
 20
138.308637
 40
0.462978
 50
85.212850
 51
184.787150
  0
LINE
  8
WHITE
 62
     7
  6
CONTINUOUS
 10
136.436000
 20
138.770000
 11
137.781000
 21
138.770000
  0
ARC
  8
WHITE
 62
     7
  6
CONTINUOUS
 10
137.778899
 20
138.919989
 40
0.150003
 50
270.802459
 51
50.895358
  0
ARC
  8
WHITE
 62
     7
  6
CONTINUOUS
 10
140.035999
 20
141.769002
 40
3.484755
 50
128.346547
 51
231.643223
  0
ARC
  8
WHITE
 62
     7
  6
CONTINUOUS
 10
137.762003
 20
144.613272
 40
0.157875
 50
315.185997
 51
83.089077
  0
LINE
  8
WHITE
 62
     7
  6
CONTINUOUS
 10
137.781000
 20
144.770000
 11
136.436000
 21
144.770000
  0
ARC
  8
WHITE
 62
     7
  6
CONTINUOUS
 10
136.463485
 20
145.297485
 40
0.528201
 50
182.982751
 51
267.017249
  0
LINE
  8
WHITE
 62
     7
  6
CONTINUOUS
 10
135.936000
 20
145.270000
 11
135.936000
 21
149.270000
  0
ARC
  8
WHITE
 62
     7
  6
CONTINUOUS
 10
136.439214
 20
149.266786
 40
0.503224
 50
90.365888
 51
179.634112
  0
LINE
  8
WHITE
 62
     7
  6
CONTINUOUS
 10
136.436000
 20
149.770000
 11
136.517000
 21
149.770000
  0
ARC
  8
WHITE
 62
     7
  6
CONTINUOUS
 10
136.517000
 20
149.920000
 40
0.150000
 50
270.000000
 51
61.725135
  0
ARC
  8
WHITE
 62
     7
  6
CONTINUOUS
 10
138.710985
 20
154.019991
 40
4.500108
 50
300.485771
 51
241.851987
  0
ARC
  8
WHITE
 62
     7
  6
CONTINUOUS
 10
141.116297
 20
149.975549
 40
0.206549
 50
126.305901
 51
264.360669
  0
LINE
  8
WHITE
 62
     7
  6
CONTINUOUS
 10
141.096000
 20
149.770000
 11
155.926000
 21
149.770000
  0
ARC
  8
WHITE
 62
     7
  6
CONTINUOUS
 10
155.925676
 20
149.970002
 40
0.200002
 50
270.092858
 51
59.250757
  0
ARC
  8
WHITE
 62
     7
  6
CONTINUOUS
 10
158.311000
 20
154.020000
 40
4.500239
 50
298.148128
 51
239.514443
  0
ARC
  8
WHITE
 62
     7
  6
CONTINUOUS
 10
160.484111
 20
149.914679
 40
0.146179
 50
110.047816
 51
278.215816
  0
LINE
  8
WHITE
 62
     7
  6
CONTINUOUS
 10
160.505000
 20
149.770000
 11
160.586000
 21
149.770000
  0
ARC
  8
WHITE
 62
     7
  6
CONTINUOUS
 10
160.539520
 20
149.223520
 40
0.548453
 50
4.861503
 51
85.138497
  0
LINE
  8
WHITE
 62
     7
  6
CONTINUOUS
 10
161.086000
 20
149.270000
 11
161.086000
 21
145.270000
  0
ARC
  8
WHITE
 62
     7
  6
CONTINUOUS
 10
160.605092
 20
145.250908
 40
0.481286
 50
267.726515
 51
2.273485
  0
LINE
  8
WHITE
 62
     7
  6
CONTINUOUS
 10
160.586000
 20
144.770000
 11
159.241000
 21
144.770000
  0
ARC
  8
WHITE
 62
     7
  6
CONTINUOUS
 10
159.242000
 20
144.619000
 40
0.151003
 50
90.379437
 51
231.220950
  0
ARC
  8
WHITE
 62
     7
  6
CONTINUOUS
 10
156.959325
 20
141.768911
 40
3.500519
 50
308.700020
 51
51.312064
  0
ARC
  8
WHITE
 62
     7
  6
CONTINUOUS
 10
159.221912
 20
138.913048
 40
0.144316
 50
120.807482
 51
277.600465
  0
LINE
  8
WHITE
 62
     7
  6
CONTINUOUS
 10
159.241000
 20
138.770000
 11
160.586000
 21
138.770000
  0
ARC
  8
WHITE
 62
     7
  6
CONTINUOUS
 10
160.598695
 20
138.282695
 40
0.487471
 50
358.507754
 51
91.492246
  0
LINE
  8
WHITE
 62
     7
  6
CONTINUOUS
 10
161.086000
 20
138.270000
 11
161.086000
 21
134.120000
  0
ARC
  8
WHITE
 62
     7
  6
CONTINUOUS
 10
160.536380
 20
134.169620
 40
0.551855
 50
275.158721
 51
354.841279
  0
LINE
  8
WHITE
 62
     7
  6
CONTINUOUS
 10
160.586000
 20
133.620000
 11
158.611000
 21
133.620000
  0
ARC
  8
WHITE
 62
     7
  6
CONTINUOUS
 10
158.611464
 20
133.920464
 40
0.300465
 50
180.088568
 51
269.911432
  0
LINE
  8
WHITE
 62
     7
  6
CONTINUOUS
 10
158.311000
 20
133.920000
 11
158.311000
 21
136.195000
  0
LINE
  8
WHITE
 62
     7
  6
CONTINUOUS
 10
158.311000
 20
136.195000
 11
156.961000
 21
136.195000
  0
LINE
  8
WHITE
 62
     7
  6
CONTINUOUS
 10
156.961000
 20
136.195000
 11
156.961000
 21
133.920000
  0
ARC
  8
WHITE
 62
     7
  6
CONTINUOUS
 10
156.707042
 20
133.873958
 40
0.258098
 50
259.723976
 51
10.276024
  0
LINE
  8
WHITE
 62
     7
  6
CONTINUOUS
 10
156.661000
 20
133.620000
 11
147.838000
 21
133.620000
  0
LINE
  8
WHITE
 62
     7
  6
CONTINUOUS
 10
147.838000
 20
133.620000
 11
147.838000
 21
127.501000
  0
ARC
  8
WHITE
 62
     7
  6
CONTINUOUS
 10
148.935752
 20
52.217212
 40
13.999834
 50
227.660485
 51
225.000028
  0
LINE
  8
WHITE
 62
     7
  6
CONTINUOUS
 10
139.036379
 20
42.317830
 11
135.712549
 21
38.995000
  0
LINE
  8
WHITE
 62
     7
  6
CONTINUOUS
 10
147.297883
 20
87.138329
 11
143.047883
 21
87.138329
  0
ARC
  8
WHITE
 62
     7
  6
CONTINUOUS
 10
143.063529
 20
86.972683
 40
0.166383
 50
95.395708
 51
174.604292
  0
LINE
  8
WHITE
 62
     7
  6
CONTINUOUS
 10
142.897883
 20
86.988329
 11
142.897883
 21
84.313329
  0
ARC
  8
WHITE
 62
     7
  6
CONTINUOUS
 10
142.322883
 20
84.313329
 40
0.575000
 50
180.000000
 51
0.000000
  0
LINE
  8
WHITE
 62
     7
  6
CONTINUOUS
 10
141.747883
 20
84.313329
 11
141.747883
 21
85.952329
  0
ARC
  8
WHITE
 62
     7
  6
CONTINUOUS
 10
142.120014
 20
85.953234
 40
0.372132
 50
122.716498
 51
180.139318
  0
ARC
  8
WHITE
 62
     7
  6
CONTINUOUS
 10
141.823883
 20
86.413329
 40
0.175026
 50
302.872909
 51
147.127091
  0
ARC
  8
WHITE
 62
     7
  6
CONTINUOUS
 10
141.362875
 20
86.713329
 40
0.375001
 50
269.848426
 51
326.861497
  0
LINE
  8
WHITE
 62
     7
  6
CONTINUOUS
 10
141.361883
 20
86.338329
 11
137.240134
 21
86.338329
  0
ARC
  8
WHITE
 62
     7
  6
CONTINUOUS
 10
137.240134
 20
86.738329
 40
0.400000
 50
223.264260
 51
270.000000
  0
ARC
  8
WHITE
 62
     7
  6
CONTINUOUS
 10
136.708883
 20
86.238329
 40
0.329539
 50
43.264260
 51
316.735740
  0
ARC
  8
WHITE
 62
     7
  6
CONTINUOUS
 10
137.240134
 20
85.738329
 40
0.400000
 50
90.000000
 51
136.735740
  0
LINE
  8
WHITE
 62
     7
  6
CONTINUOUS
 10
137.240134
 20
86.138329
 11
137.796883
 21
86.138329
  0
ARC
  8
WHITE
 62
     7
  6
CONTINUOUS
 10
137.792245
 20
85.758577
 40
0.379780
 50
7.375270
 51
89.300317
  0
ARC
  8
WHITE
 62
     7
  6
CONTINUOUS
 10
148.022734
 20
86.989569
 40
9.924519
 50
186.841499
 51
353.159400
  0
ARC
  8
WHITE
 62
     7
  6
CONTINUOUS
 10
158.249883
 20
85.762329
 40
0.376000
 50
90.000000
 51
173.102572
  0
LINE
  8
WHITE
 62
     7
  6
CONTINUOUS
 10
158.249883
 20
86.138329
 11
158.789450
 21
86.138329
  0
ARC
  8
WHITE
 62
     7
  6
CONTINUOUS
 10
158.789450
 20
85.738329
 40
0.400000
 50
39.551772
 51
90.000000
  0
ARC
  8
WHITE
 62
     7
  6
CONTINUOUS
 10
159.394883
 20
86.238329
 40
0.385206
 50
219.551772
 51
140.448226
  0
ARC
  8
WHITE
 62
     7
  6
CONTINUOUS
 10
158.789450
 20
86.738329
 40
0.400000
 50
270.000000
 51
320.448226
  0
LINE
  8
WHITE
 62
     7
  6
CONTINUOUS
 10
158.789450
 20
86.338329
 11
154.683883
 21
86.338329
  0
ARC
  8
WHITE
 62
     7
  6
CONTINUOUS
 10
154.703430
 20
86.749422
 40
0.411557
 50
215.859969
 51
267.277689
  0
ARC
  8
WHITE
 62
     7
  6
CONTINUOUS
 10
154.222883
 20
86.413329
 40
0.175026
 50
32.872909
 51
237.127091
  0
ARC
  8
WHITE
 62
     7
  6
CONTINUOUS
 10
153.922883
 20
85.952322
 40
0.375000
 50
0.000000
 51
56.861368
  0
LINE
  8
WHITE
 62
     7
  6
CONTINUOUS
 10
154.297883
 20
85.952329
 11
154.297883
 21
84.313329
  0
ARC
  8
WHITE
 62
     7
  6
CONTINUOUS
 10
153.722883
 20
84.313329
 40
0.575000
 50
180.000000
 51
0.000000
  0
LINE
  8
WHITE
 62
     7
  6
CONTINUOUS
 10
153.147883
 20
84.313329
 11
153.147883
 21
89.663329
  0
ARC
  8
WHITE
 62
     7
  6
CONTINUOUS
 10
153.722883
 20
89.663329
 40
0.575000
 50
0.000000
 51
180.000000
  0
LINE
  8
WHITE
 62
     7
  6
CONTINUOUS
 10
154.297883
 20
89.663329
 11
154.297883
 21
88.024329
  0
ARC
  8
WHITE
 62
     7
  6
CONTINUOUS
 10
153.782538
 20
88.099079
 40
0.520738
 50
311.543162
 51
351.746914
  0
ARC
  8
WHITE
 62
     7
  6
CONTINUOUS
 10
154.220876
 20
87.561051
 40
0.175026
 50
122.094175
 51
327.836440
  0
ARC
  8
WHITE
 62
     7
  6
CONTINUOUS
 10
154.683883
 20
87.262329
 40
0.376000
 50
90.000000
 51
146.860836
  0
LINE
  8
WHITE
 62
     7
  6
CONTINUOUS
 10
154.683883
 20
87.638329
 11
158.805632
 21
87.638329
  0
ARC
  8
WHITE
 62
     7
  6
CONTINUOUS
 10
158.805632
 20
87.238329
 40
0.400000
 50
43.264269
 51
90.000000
  0
ARC
  8
WHITE
 62
     7
  6
CONTINUOUS
 10
159.336883
 20
87.738329
 40
0.329539
 50
223.264269
 51
136.731586
  0
ARC
  8
WHITE
 62
     7
  6
CONTINUOUS
 10
158.805669
 20
88.238367
 40
0.400000
 50
270.003970
 51
316.731586
  0
LINE
  8
WHITE
 62
     7
  6
CONTINUOUS
 10
158.805696
 20
87.838367
 11
158.249883
 21
87.838329
  0
ARC
  8
WHITE
 62
     7
  6
CONTINUOUS
 10
158.314336
 20
88.285658
 40
0.451949
 50
195.046782
 51
261.800961
  0
ARC
  8
WHITE
 62
     7
  6
CONTINUOUS
 10
148.022883
 20
86.990812
 40
9.925098
 50
6.813637
 51
173.185677
  0
ARC
  8
WHITE
 62
     7
  6
CONTINUOUS
 10
137.795592
 20
88.213327
 40
0.375000
 50
270.197188
 51
353.126408
  0
LINE
  8
WHITE
 62
     7
  6
CONTINUOUS
 10
137.796883
 20
87.838329
 11
137.256316
 21
87.838329
  0
ARC
  8
WHITE
 62
     7
  6
CONTINUOUS
 10
137.256316
 20
88.238329
 40
0.400000
 50
219.551774
 51
270.000000
  0
ARC
  8
WHITE
 62
     7
  6
CONTINUOUS
 10
136.650883
 20
87.738329
 40
0.385206
 50
39.551774
 51
320.448226
  0
ARC
  8
WHITE
 62
     7
  6
CONTINUOUS
 10
137.256316
 20
87.238329
 40
0.400000
 50
90.000000
 51
140.448226
  0
LINE
  8
WHITE
 62
     7
  6
CONTINUOUS
 10
137.256316
 20
87.638329
 11
141.361883
 21
87.638329
  0
ARC
  8
WHITE
 62
     7
  6
CONTINUOUS
 10
141.327980
 20
87.200244
 40
0.439394
 50
37.433975
 51
85.574748
  0
ARC
  8
WHITE
 62
     7
  6
CONTINUOUS
 10
141.825162
 20
87.560319
 40
0.175026
 50
212.093173
 51
57.837350
  0
ARC
  8
WHITE
 62
     7
  6
CONTINUOUS
 10
142.123883
 20
88.023329
 40
0.376001
 50
179.847618
 51
236.860836
  0
LINE
  8
WHITE
 62
     7
  6
CONTINUOUS
 10
141.747883
 20
88.024329
 11
141.747883
 21
89.663329
  0
ARC
  8
WHITE
 62
     7
  6
CONTINUOUS
 10
142.322883
 20
89.663329
 40
0.575000
 50
0.000000
 51
180.000000
  0
LINE
  8
WHITE
 62
     7
  6
CONTINUOUS
 10
142.897883
 20
89.663329
 11
142.897883
 21
87.538329
  0
LINE
  8
WHITE
 62
     7
  6
CONTINUOUS
 10
154.971000
 20
202.354935
 11
154.971000
 21
205.525000
  0
ARC
  8
WHITE
 62
     7
  6
CONTINUOUS
 10
155.268610
 20
205.527390
 40
0.297620
 50
89.539977
 51
180.460023
  0
LINE
  8
WHITE
 62
     7
  6
CONTINUOUS
 10
155.271000
 20
205.825000
 11
156.821000
 21
205.825000
  0
ARC
  8
WHITE
 62
     7
  6
CONTINUOUS
 10
156.783502
 20
205.487502
 40
0.339575
 50
6.339927
 51
83.660073
  0
LINE
  8
WHITE
 62
     7
  6
CONTINUOUS
 10
157.121000
 20
205.525000
 11
157.121000
 21
203.562882
  0
ARC
  8
WHITE
 62
     7
  6
CONTINUOUS
 10
156.821000
 20
203.562882
 40
0.300000
 50
319.812074
 51
0.000000
  0
ARC
  8
WHITE
 62
     7
  6
CONTINUOUS
 10
157.221000
 20
203.225000
 40
0.223607
 50
139.812073
 51
40.187927
  0
ARC
  8
WHITE
 62
     7
  6
CONTINUOUS
 10
157.621000
 20
203.562882
 40
0.300000
 50
180.000000
 51
220.187926
  0
LINE
  8
WHITE
 62
     7
  6
CONTINUOUS
 10
157.321000
 20
203.562882
 11
157.321000
 21
205.725000
  0
ARC
  8
WHITE
 62
     7
  6
CONTINUOUS
 10
157.524016
 20
205.721984
 40
0.203039
 50
90.851197
 51
179.148803
  0
LINE
  8
WHITE
 62
     7
  6
CONTINUOUS
 10
157.521000
 20
205.925000
 11
158.068000
 21
205.924905
  0
ARC
  8
WHITE
 62
     7
  6
CONTINUOUS
 10
158.068000
 20
205.725000
 40
0.199905
 50
26.436873
 51
90.000000
  0
ARC
  8
WHITE
 62
     7
  6
CONTINUOUS
 10
158.472000
 20
205.925000
 40
0.250890
 50
206.258660
 51
63.639942
  0
ARC
  8
WHITE
 62
     7
  6
CONTINUOUS
 10
158.672906
 20
206.330807
 40
0.201926
 50
180.796429
 51
243.687110
  0
LINE
  8
WHITE
 62
     7
  6
CONTINUOUS
 10
158.471000
 20
206.328000
 11
158.471000
 21
210.100000
  0
ARC
  8
WHITE
 62
     7
  6
CONTINUOUS
 10
158.758514
 20
210.112486
 40
0.287785
 50
87.513281
 51
182.486719
  0
LINE
  8
WHITE
 62
     7
  6
CONTINUOUS
 10
158.771000
 20
210.400000
 11
163.171000
 21
210.400000
  0
ARC
  8
WHITE
 62
     7
  6
CONTINUOUS
 10
163.171000
 20
210.700000
 40
0.300000
 50
270.000000
 51
0.000000
  0
LINE
  8
WHITE
 62
     7
  6
CONTINUOUS
 10
163.471000
 20
210.700000
 11
163.471000
 21
211.700000
  0
ARC
  8
WHITE
 62
     7
  6
CONTINUOUS
 10
163.773646
 20
211.697354
 40
0.302657
 50
90.500859
 51
179.499141
  0
LINE
  8
WHITE
 62
     7
  6
CONTINUOUS
 10
163.771000
 20
212.000000
 11
185.121000
 21
212.000000
  0
ARC
  8
WHITE
 62
     7
  6
CONTINUOUS
 10
185.160454
 20
211.039454
 40
0.961356
 50
357.647926
 51
92.352074
  0
LINE
  8
WHITE
 62
     7
  6
CONTINUOUS
 10
186.121000
 20
211.000000
 11
186.121000
 21
205.441318
  0
ARC
  8
WHITE
 62
     7
  6
CONTINUOUS
 10
187.121000
 20
205.441318
 40
1.000000
 50
180.000000
 51
226.759387
  0
LINE
  8
WHITE
 62
     7
  6
CONTINUOUS
 10
186.435936
 20
204.712835
 11
188.090269
 21
203.157104
  0
ARC
  8
WHITE
 62
     7
  6
CONTINUOUS
 10
188.775333
 20
203.885588
 40
1.000000
 50
226.759387
 51
348.610298
  0
LINE
  8
WHITE
 62
     7
  6
CONTINUOUS
 10
189.755640
 20
203.688106
 11
190.021763
 21
205.009158
  0
ARC
  8
WHITE
 62
     7
  6
CONTINUOUS
 10
190.791465
 20
204.791076
 40
0.800000
 50
90.000000
 51
164.180806
  0
LINE
  8
WHITE
 62
     7
  6
CONTINUOUS
 10
190.791465
 20
205.591076
 11
191.100819
 21
205.591112
  0
ARC
  8
WHITE
 62
     7
  6
CONTINUOUS
 10
191.100782
 20
205.291076
 40
0.300036
 50
12.223619
 51
89.992901
  0
LINE
  8
WHITE
 62
     7
  6
CONTINUOUS
 10
191.394016
 20
205.354602
 11
191.275146
 21
203.641234
  0
ARC
  8
WHITE
 62
     7
  6
CONTINUOUS
 10
191.574427
 20
203.620470
 40
0.300000
 50
176.031296
 51
264.915191
  0
ARC
  8
WHITE
 62
     7
  6
CONTINUOUS
 10
191.380969
 20
201.446305
 40
1.882756
 50
32.838568
 51
84.915191
  0
ARC
  8
WHITE
 62
     7
  6
CONTINUOUS
 10
192.122662
 20
201.925000
 40
1.000000
 50
327.161432
 51
32.838568
  0
ARC
  8
WHITE
 62
     7
  6
CONTINUOUS
 10
191.380969
 20
202.403695
 40
1.882756
 50
275.084809
 51
327.161432
  0
ARC
  8
WHITE
 62
     7
  6
CONTINUOUS
 10
191.574427
 20
200.229530
 40
0.300000
 50
95.084809
 51
183.968704
  0
LINE
  8
WHITE
 62
     7
  6
CONTINUOUS
 10
191.275146
 20
200.208766
 11
191.394016
 21
198.495398
  0
ARC
  8
WHITE
 62
     7
  6
CONTINUOUS
 10
191.100782
 20
198.558924
 40
0.300036
 50
270.007099
 51
347.776381
  0
LINE
  8
WHITE
 62
     7
  6
CONTINUOUS
 10
191.100819
 20
198.258888
 11
190.791465
 21
198.258924
  0
ARC
  8
WHITE
 62
     7
  6
CONTINUOUS
 10
190.791465
 20
199.058924
 40
0.800000
 50
195.819194
 51
270.000000
  0
LINE
  8
WHITE
 62
     7
  6
CONTINUOUS
 10
190.021763
 20
198.840842
 11
189.755707
 21
200.161558
  0
ARC
  8
WHITE
 62
     7
  6
CONTINUOUS
 10
188.775401
 20
199.964077
 40
1.000000
 50
11.389702
 51
133.249884
  0
LINE
  8
WHITE
 62
     7
  6
CONTINUOUS
 10
188.090219
 20
200.692449
 11
186.435818
 21
199.136150
  0
ARC
  8
WHITE
 62
     7
  6
CONTINUOUS
 10
187.121000
 20
198.407778
 40
1.000000
 50
133.249884
 51
180.000000
  0
LINE
  8
WHITE
 62
     7
  6
CONTINUOUS
 10
186.121000
 20
198.407778
 11
186.121000
 21
192.850000
  0
ARC
  8
WHITE
 62
     7
  6
CONTINUOUS
 10
185.115206
 20
192.855794
 40
1.005811
 50
270.330063
 51
359.669937
  0
LINE
  8
WHITE
 62
     7
  6
CONTINUOUS
 10
185.121000
 20
191.850000
 11
163.771000
 21
191.850000
  0
ARC
  8
WHITE
 62
     7
  6
CONTINUOUS
 10
163.789627
 20
192.168627
 40
0.319171
 50
183.345683
 51
266.654317
  0
LINE
  8
WHITE
 62
     7
  6
CONTINUOUS
 10
163.471000
 20
192.150000
 11
163.471000
 21
193.150000
  0
ARC
  8
WHITE
 62
     7
  6
CONTINUOUS
 10
163.171000
 20
193.150000
 40
0.300000
 50
0.000000
 51
90.000000
  0
LINE
  8
WHITE
 62
     7
  6
CONTINUOUS
 10
163.171000
 20
193.450000
 11
158.771000
 21
193.450000
  0
ARC
  8
WHITE
 62
     7
  6
CONTINUOUS
 10
158.817531
 20
193.796531
 40
0.349641
 50
187.647703
 51
262.352297
  0
LINE
  8
WHITE
 62
     7
  6
CONTINUOUS
 10
158.471000
 20
193.750000
 11
158.471000
 21
197.522000
  0
ARC
  8
WHITE
 62
     7
  6
CONTINUOUS
 10
158.670904
 20
197.521459
 40
0.199905
 50
116.086665
 51
179.845043
  0
ARC
  8
WHITE
 62
     7
  6
CONTINUOUS
 10
158.471000
 20
197.925000
 40
0.250440
 50
296.565051
 51
153.639942
  0
ARC
  8
WHITE
 62
     7
  6
CONTINUOUS
 10
158.046356
 20
198.158792
 40
0.234792
 50
275.289173
 51
328.524098
  0
LINE
  8
WHITE
 62
     7
  6
CONTINUOUS
 10
158.068000
 20
197.925000
 11
157.521000
 21
197.925000
  0
ARC
  8
WHITE
 62
     7
  6
CONTINUOUS
 10
157.534157
 20
198.138157
 40
0.213563
 50
183.532148
 51
266.467852
  0
LINE
  8
WHITE
 62
     7
  6
CONTINUOUS
 10
157.321000
 20
198.125000
 11
157.321000
 21
200.256239
  0
ARC
  8
WHITE
 62
     7
  6
CONTINUOUS
 10
157.621000
 20
200.256239
 40
0.300000
 50
130.474581
 51
180.000000
  0
ARC
  8
WHITE
 62
     7
  6
CONTINUOUS
 10
157.221000
 20
200.725000
 40
0.316228
 50
310.474582
 51
229.525418
  0
ARC
  8
WHITE
 62
     7
  6
CONTINUOUS
 10
156.821000
 20
200.256239
 40
0.300000
 50
0.000000
 51
49.525419
  0
LINE
  8
WHITE
 62
     7
  6
CONTINUOUS
 10
157.121000
 20
200.256239
 11
157.121000
 21
198.325000
  0
ARC
  8
WHITE
 62
     7
  6
CONTINUOUS
 10
156.803266
 20
198.342734
 40
0.318229
 50
273.194648
 51
356.805352
  0
LINE
  8
WHITE
 62
     7
  6
CONTINUOUS
 10
156.821000
 20
198.025000
 11
155.271000
 21
198.025000
  0
ARC
  8
WHITE
 62
     7
  6
CONTINUOUS
 10
155.282730
 20
198.336730
 40
0.311950
 50
182.154884
 51
267.845116
  0
LINE
  8
WHITE
 62
     7
  6
CONTINUOUS
 10
154.971000
 20
198.325000
 11
154.971000
 21
201.625000
  0
ARC
  8
WHITE
 62
     7
  6
CONTINUOUS
 10
154.671000
 20
201.625000
 40
0.300000
 50
0.000000
 51
90.000000
  0
LINE
  8
WHITE
 62
     7
  6
CONTINUOUS
 10
154.671000
 20
201.925000
 11
150.719000
 21
201.925000
  0
LINE
  8
WHITE
 62
     7
  6
CONTINUOUS
 10
175.121000
 20
201.925000
 11
175.121000
 21
203.125000
  0
ARC
  8
WHITE
 62
     7
  6
CONTINUOUS
 10
175.934848
 20
203.111152
 40
0.813965
 50
90.974786
 51
179.025214
  0
LINE
  8
WHITE
 62
     7
  6
CONTINUOUS
 10
175.921000
 20
203.925000
 11
176.121000
 21
203.925000
  0
ARC
  8
WHITE
 62
     7
  6
CONTINUOUS
 10
176.066749
 20
202.870749
 40
1.055646
 50
2.945810
 51
87.054190
  0
LINE
  8
WHITE
 62
     7
  6
CONTINUOUS
 10
177.121000
 20
202.925000
 11
177.121000
 21
200.925000
  0
ARC
  8
WHITE
 62
     7
  6
CONTINUOUS
 10
176.137638
 20
200.908362
 40
0.983502
 50
269.030651
 51
0.969349
  0
LINE
  8
WHITE
 62
     7
  6
CONTINUOUS
 10
176.121000
 20
199.925000
 11
174.121000
 21
199.925000
  0
ARC
  8
WHITE
 62
     7
  6
CONTINUOUS
 10
174.201386
 20
201.005386
 40
1.083373
 50
184.255265
 51
265.744735
  0
LINE
  8
WHITE
 62
     7
  6
CONTINUOUS
 10
173.121000
 20
200.925000
 11
173.121000
 21
204.925000
  0
ARC
  8
WHITE
 62
     7
  6
CONTINUOUS
 10
174.061286
 20
204.984714
 40
0.942180
 50
86.366251
 51
183.633749
  0
LINE
  8
WHITE
 62
     7
  6
CONTINUOUS
 10
174.121000
 20
205.925000
 11
178.121000
 21
205.925000
  0
ARC
  8
WHITE
 62
     7
  6
CONTINUOUS
 10
178.125028
 20
204.929028
 40
0.995980
 50
359.768255
 51
90.231745
  0
LINE
  8
WHITE
 62
     7
  6
CONTINUOUS
 10
179.121000
 20
204.925000
 11
179.121000
 21
198.925000
  0
ARC
  8
WHITE
 62
     7
  6
CONTINUOUS
 10
178.118184
 20
198.927816
 40
1.002820
 50
270.160918
 51
359.839082
  0
LINE
  8
WHITE
 62
     7
  6
CONTINUOUS
 10
178.121000
 20
197.925000
 11
172.121000
 21
197.925000
  0
ARC
  8
WHITE
 62
     7
  6
CONTINUOUS
 10
172.140390
 20
198.944390
 40
1.019574
 50
181.089674
 51
268.910326
  0
LINE
  8
WHITE
 62
     7
  6
CONTINUOUS
 10
171.121000
 20
198.925000
 11
171.121000
 21
206.925000
  0
ARC
  8
WHITE
 62
     7
  6
CONTINUOUS
 10
172.118439
 20
206.927561
 40
0.997442
 50
89.852882
 51
180.147118
  0
LINE
  8
WHITE
 62
     7
  6
CONTINUOUS
 10
172.121000
 20
207.925000
 11
180.121000
 21
207.925000
  0
ARC
  8
WHITE
 62
     7
  6
CONTINUOUS
 10
180.186894
 20
206.990894
 40
0.936427
 50
355.964903
 51
94.035097
  0
LINE
  8
WHITE
 62
     7
  6
CONTINUOUS
 10
181.121000
 20
206.925000
 11
181.121000
 21
196.925000
  0
ARC
  8
WHITE
 62
     7
  6
CONTINUOUS
 10
180.171089
 20
196.874911
 40
0.951231
 50
266.981601
 51
3.018399
  0
LINE
  8
WHITE
 62
     7
  6
CONTINUOUS
 10
180.121000
 20
195.925000
 11
170.121000
 21
195.925000
  0
ARC
  8
WHITE
 62
     7
  6
CONTINUOUS
 10
170.192625
 20
196.996625
 40
1.074016
 50
183.823828
 51
266.176172
  0
LINE
  8
WHITE
 62
     7
  6
CONTINUOUS
 10
169.121000
 20
196.925000
 11
169.121000
 21
208.925000
  0
ARC
  8
WHITE
 62
     7
  6
CONTINUOUS
 10
170.054970
 20
208.991030
 40
0.936301
 50
85.956003
 51
184.043997
  0
LINE
  8
WHITE
 62
     7
  6
CONTINUOUS
 10
170.121000
 20
209.925000
 11
182.596000
 21
209.925000
  0
ARC
  8
WHITE
 62
     7
  6
CONTINUOUS
 10
182.581676
 20
208.910676
 40
1.014425
 50
0.809047
 51
89.190953
  0
LINE
  8
WHITE
 62
     7
  6
CONTINUOUS
 10
183.596000
 20
208.925000
 11
183.596000
 21
194.925000
  0
ARC
  8
WHITE
 62
     7
  6
CONTINUOUS
 10
182.678577
 20
194.842423
 40
0.921132
 50
264.856661
 51
5.143339
  0
LINE
  8
WHITE
 62
     7
  6
CONTINUOUS
 10
182.596000
 20
193.925000
 11
167.646000
 21
193.925000
  0
ARC
  8
WHITE
 62
     7
  6
CONTINUOUS
 10
167.636377
 20
194.915377
 40
0.990423
 50
179.443274
 51
270.556726
  0
LINE
  8
WHITE
 62
     7
  6
CONTINUOUS
 10
166.646000
 20
194.925000
 11
166.646000
 21
200.925000
  0
ARC
  8
WHITE
 62
     7
  6
CONTINUOUS
 10
165.718862
 20
200.997862
 40
0.929997
 50
355.506490
 51
94.493510
  0
LINE
  8
WHITE
 62
     7
  6
CONTINUOUS
 10
165.646000
 20
201.925000
 11
162.043263
 21
201.925000
  0
LINE
  8
WHITE
 62
     7
  6
CONTINUOUS
 10
179.504000
 20
146.060000
 11
179.504000
 21
150.263000
  0
LINE
  8
WHITE
 62
     7
  6
CONTINUOUS
 10
179.504000
 20
150.263000
 11
192.079000
 21
150.263000
  0
ARC
  8
WHITE
 62
     7
  6
CONTINUOUS
 10
192.075775
 20
150.766225
 40
0.503236
 50
270.367221
 51
359.632779
  0
LINE
  8
WHITE
 62
     7
  6
CONTINUOUS
 10
192.579000
 20
150.763000
 11
192.579000
 21
173.860000
  0
ARC
  8
WHITE
 62
     7
  6
CONTINUOUS
 10
192.379000
 20
173.859894
 40
0.200000
 50
0.000000
 51
63.576670
  0
ARC
  8
WHITE
 62
     7
  6
CONTINUOUS
 10
192.579000
 20
174.263000
 40
0.249994
 50
26.360058
 51
243.639942
  0
ARC
  8
WHITE
 62
     7
  6
CONTINUOUS
 10
193.015005
 20
174.516053
 40
0.255196
 50
213.823906
 51
262.569020
  0
LINE
  8
WHITE
 62
     7
  6
CONTINUOUS
 10
192.982000
 20
174.263000
 11
193.639000
 21
174.263000
  0
ARC
  8
WHITE
 62
     7
  6
CONTINUOUS
 10
193.639000
 20
173.963000
 40
0.300000
 50
0.000000
 51
90.000000
  0
LINE
  8
WHITE
 62
     7
  6
CONTINUOUS
 10
193.939000
 20
173.963000
 11
193.939000
 21
171.063000
  0
ARC
  8
WHITE
 62
     7
  6
CONTINUOUS
 10
194.261915
 20
171.085915
 40
0.323727
 50
184.059008
 51
265.940992
  0
LINE
  8
WHITE
 62
     7
  6
CONTINUOUS
 10
194.239000
 20
170.763000
 11
194.729000
 21
170.763000
  0
ARC
  8
WHITE
 62
     7
  6
CONTINUOUS
 10
194.710841
 20
171.281159
 40
0.518477
 50
272.007120
 51
357.992880
  0
LINE
  8
WHITE
 62
     7
  6
CONTINUOUS
 10
195.229000
 20
171.263000
 11
195.229000
 21
182.563000
  0
ARC
  8
WHITE
 62
     7
  6
CONTINUOUS
 10
192.605000
 20
182.421000
 40
2.627839
 50
3.097589
 51
85.790168
  0
LINE
  8
WHITE
 62
     7
  6
CONTINUOUS
 10
192.797908
 20
185.041749
 11
179.823000
 21
186.722000
  0
ARC
  8
WHITE
 62
     7
  6
CONTINUOUS
 10
179.504000
 20
184.242000
 40
2.500432
 50
82.670347
 51
97.306925
  0
LINE
  8
WHITE
 62
     7
  6
CONTINUOUS
 10
179.185984
 20
186.722126
 11
166.211000
 21
185.043000
  0
ARC
  8
WHITE
 62
     7
  6
CONTINUOUS
 10
166.404000
 20
182.421000
 40
2.629094
 50
94.209832
 51
176.903589
  0
LINE
  8
WHITE
 62
     7
  6
CONTINUOUS
 10
163.778745
 20
182.563014
 11
163.779000
 21
171.263000
  0
ARC
  8
WHITE
 62
     7
  6
CONTINUOUS
 10
164.271238
 20
171.255238
 40
0.492299
 50
179.096561
 51
270.903439
  0
LINE
  8
WHITE
 62
     7
  6
CONTINUOUS
 10
164.279000
 20
170.763000
 11
164.769000
 21
170.763000
  0
ARC
  8
WHITE
 62
     7
  6
CONTINUOUS
 10
164.775549
 20
171.056451
 40
0.293524
 50
268.721460
 51
1.278540
  0
LINE
  8
WHITE
 62
     7
  6
CONTINUOUS
 10
165.069000
 20
171.063000
 11
165.069000
 21
173.963000
  0
ARC
  8
WHITE
 62
     7
  6
CONTINUOUS
 10
165.369000
 20
173.963000
 40
0.300000
 50
90.000000
 51
180.000000
  0
LINE
  8
WHITE
 62
     7
  6
CONTINUOUS
 10
165.369000
 20
174.263000
 11
166.026000
 21
174.263000
  0
ARC
  8
WHITE
 62
     7
  6
CONTINUOUS
 10
166.025894
 20
174.463000
 40
0.200000
 50
270.030403
 51
333.576670
  0
ARC
  8
WHITE
 62
     7
  6
CONTINUOUS
 10
166.429000
 20
174.263000
 40
0.249994
 50
296.360058
 51
153.639942
  0
ARC
  8
WHITE
 62
     7
  6
CONTINUOUS
 10
166.651701
 20
173.845817
 40
0.223152
 50
120.037057
 51
176.355869
  0
LINE
  8
WHITE
 62
     7
  6
CONTINUOUS
 10
166.429000
 20
173.860000
 11
166.429000
 21
150.763000
  0
ARC
  8
WHITE
 62
     7
  6
CONTINUOUS
 10
166.915746
 20
150.749746
 40
0.486926
 50
178.440237
 51
271.559763
  0
LINE
  8
WHITE
 62
     7
  6
CONTINUOUS
 10
166.929000
 20
150.263000
 11
178.804000
 21
150.263000
  0
ARC
  8
WHITE
 62
     7
  6
CONTINUOUS
 10
178.718902
 20
21.068000
 40
13.998442
 50
227.428958
 51
224.756879
  0
LINE
  8
WHITE
 62
     7
  6
CONTINUOUS
 10
168.778596
 20
11.211697
 11
165.495902
 21
7.070000
  0
LINE
  8
WHITE
 62
     7
  6
CONTINUOUS
 10
180.201000
 20
102.805000
 11
184.100000
 21
102.805000
  0
ARC
  8
WHITE
 62
     7
  6
CONTINUOUS
 10
184.100000
 20
103.305000
 40
0.500000
 50
270.000000
 51
0.114591
  0
LINE
  8
WHITE
 62
     7
  6
CONTINUOUS
 10
184.600000
 20
103.306000
 11
184.596000
 21
105.902000
  0
ARC
  8
WHITE
 62
     7
  6
CONTINUOUS
 10
184.395004
 20
105.900776
 40
0.201000
 50
0.348886
 51
63.719406
  0
ARC
  8
WHITE
 62
     7
  6
CONTINUOUS
 10
184.595000
 20
106.305000
 40
0.249994
 50
26.360058
 51
243.639942
  0
ARC
  8
WHITE
 62
     7
  6
CONTINUOUS
 10
185.014200
 20
106.530953
 40
0.226533
 50
210.493727
 51
265.899199
  0
LINE
  8
WHITE
 62
     7
  6
CONTINUOUS
 10
184.998000
 20
106.305000
 11
192.094000
 21
106.305000
  0
ARC
  8
WHITE
 62
     7
  6
CONTINUOUS
 10
192.094000
 20
106.805000
 40
0.500000
 50
270.000000
 51
0.114591
  0
LINE
  8
WHITE
 62
     7
  6
CONTINUOUS
 10
192.594000
 20
106.806000
 11
192.579000
 21
118.806000
  0
ARC
  8
WHITE
 62
     7
  6
CONTINUOUS
 10
192.051818
 20
118.777762
 40
0.527938
 50
3.066053
 51
87.048654
  0
LINE
  8
WHITE
 62
     7
  6
CONTINUOUS
 10
192.079000
 20
119.305000
 11
180.879000
 21
119.305000
  0
ARC
  8
WHITE
 62
     7
  6
CONTINUOUS
 10
180.878998
 20
119.605000
 40
0.300000
 50
179.809014
 51
270.000318
  0
LINE
  8
WHITE
 62
     7
  6
CONTINUOUS
 10
180.579000
 20
119.606000
 11
180.581000
 21
120.805000
  0
ARC
  8
WHITE
 62
     7
  6
CONTINUOUS
 10
180.681000
 20
121.105000
 40
0.316228
 50
288.434949
 51
251.565051
  0
LINE
  8
WHITE
 62
     7
  6
CONTINUOUS
 10
180.781000
 20
120.805000
 11
180.780000
 21
120.106000
  0
ARC
  8
WHITE
 62
     7
  6
CONTINUOUS
 10
181.084405
 20
120.109392
 40
0.304423
 50
180.638355
 51
269.170977
  0
LINE
  8
WHITE
 62
     7
  6
CONTINUOUS
 10
181.080000
 20
119.805000
 11
192.077000
 21
119.805000
  0
ARC
  8
WHITE
 62
     7
  6
CONTINUOUS
 10
192.077000
 20
120.305000
 40
0.500000
 50
270.000000
 51
0.114591
  0
LINE
  8
WHITE
 62
     7
  6
CONTINUOUS
 10
192.577000
 20
120.306000
 11
192.562000
 21
130.306000
  0
ARC
  8
WHITE
 62
     7
  6
CONTINUOUS
 10
192.064281
 20
130.307284
 40
0.497721
 50
359.852163
 51
90.262543
  0
LINE
  8
WHITE
 62
     7
  6
CONTINUOUS
 10
192.062000
 20
130.805000
 11
181.062000
 21
130.805000
  0
ARC
  8
WHITE
 62
     7
  6
CONTINUOUS
 10
181.062000
 20
130.505000
 40
0.300000
 50
90.000000
 51
180.000000
  0
LINE
  8
WHITE
 62
     7
  6
CONTINUOUS
 10
180.762000
 20
130.505000
 11
180.763000
 21
129.805000
  0
ARC
  8
WHITE
 62
     7
  6
CONTINUOUS
 10
180.663000
 20
129.505000
 40
0.316228
 50
108.434949
 51
71.565051
  0
LINE
  8
WHITE
 62
     7
  6
CONTINUOUS
 10
180.563000
 20
129.805000
 11
180.561000
 21
131.005000
  0
ARC
  8
WHITE
 62
     7
  6
CONTINUOUS
 10
180.890837
 20
130.975163
 40
0.331184
 50
95.168860
 51
174.831140
  0
LINE
  8
WHITE
 62
     7
  6
CONTINUOUS
 10
180.861000
 20
131.305000
 11
192.060000
 21
131.305000
  0
ARC
  8
WHITE
 62
     7
  6
CONTINUOUS
 10
192.060000
 20
131.805000
 40
0.500000
 50
270.000000
 51
0.114591
  0
LINE
  8
WHITE
 62
     7
  6
CONTINUOUS
 10
192.560000
 20
131.806000
 11
192.545000
 21
140.877000
  0
ARC
  8
WHITE
 62
     7
  6
CONTINUOUS
 10
192.045000
 20
140.875809
 40
0.500001
 50
0.136515
 51
81.257219
  0
LINE
  8
WHITE
 62
     7
  6
CONTINUOUS
 10
192.121000
 20
141.370000
 11
179.617000
 21
143.293000
  0
ARC
  8
WHITE
 62
     7
  6
CONTINUOUS
 10
179.541000
 20
142.799000
 40
0.499812
 50
81.253838
 51
98.746162
  0
LINE
  8
WHITE
 62
     7
  6
CONTINUOUS
 10
179.465000
 20
143.293000
 11
166.969000
 21
141.370000
  0
ARC
  8
WHITE
 62
     7
  6
CONTINUOUS
 10
167.044811
 20
140.875971
 40
0.499812
 50
98.724245
 51
180.111306
  0
LINE
  8
WHITE
 62
     7
  6
CONTINUOUS
 10
166.545000
 20
140.875000
 11
166.560000
 21
131.804000
  0
ARC
  8
WHITE
 62
     7
  6
CONTINUOUS
 10
167.034522
 20
131.779472
 40
0.475155
 50
177.040970
 51
273.073736
  0
LINE
  8
WHITE
 62
     7
  6
CONTINUOUS
 10
167.060000
 20
131.305000
 11
178.261000
 21
131.305000
  0
ARC
  8
WHITE
 62
     7
  6
CONTINUOUS
 10
178.261002
 20
131.005000
 40
0.300000
 50
0.190986
 51
90.000318
  0
LINE
  8
WHITE
 62
     7
  6
CONTINUOUS
 10
178.561000
 20
131.006000
 11
178.563000
 21
129.805000
  0
ARC
  8
WHITE
 62
     7
  6
CONTINUOUS
 10
178.463000
 20
129.505000
 40
0.316228
 50
108.434949
 51
71.565051
  0
LINE
  8
WHITE
 62
     7
  6
CONTINUOUS
 10
178.363000
 20
129.805000
 11
178.362000
 21
130.506000
  0
ARC
  8
WHITE
 62
     7
  6
CONTINUOUS
 10
178.016414
 20
130.459260
 40
0.348732
 50
7.702391
 51
82.488914
  0
LINE
  8
WHITE
 62
     7
  6
CONTINUOUS
 10
178.062000
 20
130.805000
 11
167.062000
 21
130.805000
  0
ARC
  8
WHITE
 62
     7
  6
CONTINUOUS
 10
167.062000
 20
130.305000
 40
0.500000
 50
90.000000
 51
180.114591
  0
LINE
  8
WHITE
 62
     7
  6
CONTINUOUS
 10
166.562000
 20
130.304000
 11
166.577000
 21
120.304000
  0
ARC
  8
WHITE
 62
     7
  6
CONTINUOUS
 10
167.104657
 20
120.332714
 40
0.528438
 50
183.114830
 51
266.999877
  0
LINE
  8
WHITE
 62
     7
  6
CONTINUOUS
 10
167.077000
 20
119.805000
 11
178.080000
 21
119.805000
  0
ARC
  8
WHITE
 62
     7
  6
CONTINUOUS
 10
178.080000
 20
120.105000
 40
0.300000
 50
270.000000
 51
0.000000
  0
LINE
  8
WHITE
 62
     7
  6
CONTINUOUS
 10
178.380000
 20
120.105000
 11
178.381000
 21
120.805000
  0
ARC
  8
WHITE
 62
     7
  6
CONTINUOUS
 10
178.481000
 20
121.105000
 40
0.316228
 50
288.434949
 51
251.565051
  0
LINE
  8
WHITE
 62
     7
  6
CONTINUOUS
 10
178.581000
 20
120.805000
 11
178.579000
 21
119.605000
  0
ARC
  8
WHITE
 62
     7
  6
CONTINUOUS
 10
178.325172
 20
119.558828
 40
0.257993
 50
259.690548
 51
10.309452
  0
LINE
  8
WHITE
 62
     7
  6
CONTINUOUS
 10
178.279000
 20
119.305000
 11
167.079000
 21
119.305000
  0
ARC
  8
WHITE
 62
     7
  6
CONTINUOUS
 10
167.079000
 20
118.805000
 40
0.500000
 50
90.000000
 51
180.114591
  0
LINE
  8
WHITE
 62
     7
  6
CONTINUOUS
 10
166.579000
 20
118.804000
 11
166.594000
 21
106.804000
  0
ARC
  8
WHITE
 62
     7
  6
CONTINUOUS
 10
167.112336
 20
106.823374
 40
0.518698
 50
182.140522
 51
267.974184
  0
LINE
  8
WHITE
 62
     7
  6
CONTINUOUS
 10
167.094000
 20
106.305000
 11
174.192000
 21
106.305000
  0
ARC
  8
WHITE
 62
     7
  6
CONTINUOUS
 10
174.192000
 20
106.505000
 40
0.200000
 50
270.000000
 51
333.563127
  0
ARC
  8
WHITE
 62
     7
  6
CONTINUOUS
 10
174.594811
 20
106.304407
 40
0.249994
 50
296.664491
 51
153.499011
  0
ARC
  8
WHITE
 62
     7
  6
CONTINUOUS
 10
174.795905
 20
105.901953
 40
0.199905
 50
116.406460
 51
179.986467
  0
LINE
  8
WHITE
 62
     7
  6
CONTINUOUS
 10
174.596000
 20
105.902000
 11
174.597000
 21
105.355000
  0
ARC
  8
WHITE
 62
     7
  6
CONTINUOUS
 10
174.797000
 20
105.355000
 40
0.200000
 50
180.000000
 51
270.000000
  0
LINE
  8
WHITE
 62
     7
  6
CONTINUOUS
 10
174.797000
 20
105.155000
 11
180.597000
 21
105.155000
  0
ARC
  8
WHITE
 62
     7
  6
CONTINUOUS
 10
180.597000
 20
105.055000
 40
0.100000
 50
270.000000
 51
90.000000
  0
LINE
  8
WHITE
 62
     7
  6
CONTINUOUS
 10
180.597000
 20
104.955000
 11
174.998000
 21
104.955000
  0
ARC
  8
WHITE
 62
     7
  6
CONTINUOUS
 10
174.998000
 20
104.655000
 40
0.300000
 50
90.000000
 51
180.000000
  0
LINE
  8
WHITE
 62
     7
  6
CONTINUOUS
 10
174.698000
 20
104.655000
 11
174.700000
 21
103.304000
  0
ARC
  8
WHITE
 62
     7
  6
CONTINUOUS
 10
175.237650
 20
103.342726
 40
0.539043
 50
184.119821
 51
265.994885
  0
LINE
  8
WHITE
 62
     7
  6
CONTINUOUS
 10
175.200000
 20
102.805000
 11
179.601000
 21
102.805000
  0
LINE
  8
WHITE
 62
     7
  6
CONTINUOUS
 10
179.601000
 20
102.805000
 11
179.608000
 21
100.293000
  0
LINE
  8
WHITE
 62
     7
  6
CONTINUOUS
 10
179.811000
 20
55.672000
 11
179.803000
 21
60.183000
  0
LINE
  8
WHITE
 62
     7
  6
CONTINUOUS
 10
179.803000
 20
60.183000
 11
175.402000
 21
60.183000
  0
ARC
  8
WHITE
 62
     7
  6
CONTINUOUS
 10
175.433514
 20
60.714579
 40
0.532512
 50
183.507492
 51
266.607215
  0
LINE
  8
WHITE
 62
     7
  6
CONTINUOUS
 10
174.902000
 20
60.682000
 11
174.900000
 21
62.033000
  0
ARC
  8
WHITE
 62
     7
  6
CONTINUOUS
 10
175.200000
 20
62.033000
 40
0.300000
 50
90.000000
 51
180.000000
  0
LINE
  8
WHITE
 62
     7
  6
CONTINUOUS
 10
175.200000
 20
62.333000
 11
180.800000
 21
62.333000
  0
ARC
  8
WHITE
 62
     7
  6
CONTINUOUS
 10
180.800000
 20
62.433000
 40
0.100000
 50
270.000000
 51
90.572939
  0
LINE
  8
WHITE
 62
     7
  6
CONTINUOUS
 10
180.799000
 20
62.532995
 11
174.999000
 21
62.533000
  0
ARC
  8
WHITE
 62
     7
  6
CONTINUOUS
 10
174.999000
 20
62.733000
 40
0.200000
 50
180.000000
 51
270.000000
  0
LINE
  8
WHITE
 62
     7
  6
CONTINUOUS
 10
174.799000
 20
62.733000
 11
174.798000
 21
63.280000
  0
ARC
  8
WHITE
 62
     7
  6
CONTINUOUS
 10
174.997905
 20
63.279953
 40
0.199905
 50
116.406460
 51
179.986467
  0
ARC
  8
WHITE
 62
     7
  6
CONTINUOUS
 10
174.796811
 20
63.682407
 40
0.249994
 50
296.664491
 51
153.499011
  0
ARC
  8
WHITE
 62
     7
  6
CONTINUOUS
 10
174.394000
 20
63.883000
 40
0.200000
 50
270.000000
 51
333.563127
  0
LINE
  8
WHITE
 62
     7
  6
CONTINUOUS
 10
174.394000
 20
63.683000
 11
167.297000
 21
63.683000
  0
ARC
  8
WHITE
 62
     7
  6
CONTINUOUS
 10
167.302453
 20
64.188465
 40
0.505495
 50
180.732832
 51
269.381875
  0
LINE
  8
WHITE
 62
     7
  6
CONTINUOUS
 10
166.797000
 20
64.182000
 11
166.782000
 21
73.182000
  0
ARC
  8
WHITE
 62
     7
  6
CONTINUOUS
 10
167.282000
 20
73.183000
 40
0.500001
 50
90.000000
 51
180.114591
  0
LINE
  8
WHITE
 62
     7
  6
CONTINUOUS
 10
167.282000
 20
73.683000
 11
178.481000
 21
73.683000
  0
ARC
  8
WHITE
 62
     7
  6
CONTINUOUS
 10
178.481008
 20
73.982992
 40
0.299992
 50
269.998523
 51
0.000000
  0
LINE
  8
WHITE
 62
     7
  6
CONTINUOUS
 10
178.781000
 20
73.983000
 11
178.782719
 21
75.014499
  0
ARC
  8
WHITE
 62
     7
  6
CONTINUOUS
 10
179.082719
 20
75.013999
 40
0.300000
 50
130.440213
 51
179.904507
  0
ARC
  8
WHITE
 62
     7
  6
CONTINUOUS
 10
178.683000
 20
75.483000
 40
0.316228
 50
310.440214
 51
229.495943
  0
ARC
  8
WHITE
 62
     7
  6
CONTINUOUS
 10
178.282759
 20
75.014445
 40
0.300000
 50
359.918149
 51
49.495943
  0
LINE
  8
WHITE
 62
     7
  6
CONTINUOUS
 10
178.582759
 20
75.014016
 11
178.582000
 21
74.483000
  0
ARC
  8
WHITE
 62
     7
  6
CONTINUOUS
 10
178.282000
 20
74.483000
 40
0.300000
 50
270.000000
 51
0.000000
  0
LINE
  8
WHITE
 62
     7
  6
CONTINUOUS
 10
178.282000
 20
74.183000
 11
167.279000
 21
74.183000
  0
ARC
  8
WHITE
 62
     7
  6
CONTINUOUS
 10
167.272254
 20
74.676241
 40
0.493287
 50
179.331102
 51
270.783604
  0
LINE
  8
WHITE
 62
     7
  6
CONTINUOUS
 10
166.779000
 20
74.682000
 11
166.765000
 21
83.682000
  0
ARC
  8
WHITE
 62
     7
  6
CONTINUOUS
 10
167.265000
 20
83.683000
 40
0.500001
 50
90.000000
 51
180.114591
  0
LINE
  8
WHITE
 62
     7
  6
CONTINUOUS
 10
167.265000
 20
84.183000
 11
178.264000
 21
84.183000
  0
ARC
  8
WHITE
 62
     7
  6
CONTINUOUS
 10
178.275650
 20
83.894688
 40
0.288548
 50
357.877306
 51
92.313999
  0
LINE
  8
WHITE
 62
     7
  6
CONTINUOUS
 10
178.564000
 20
83.884000
 11
178.564759
 21
83.351983
  0
ARC
  8
WHITE
 62
     7
  6
CONTINUOUS
 10
178.264759
 20
83.351555
 40
0.300000
 50
310.504015
 51
0.081734
  0
ARC
  8
WHITE
 62
     7
  6
CONTINUOUS
 10
178.665000
 20
82.883000
 40
0.316228
 50
130.504015
 51
49.559758
  0
ARC
  8
WHITE
 62
     7
  6
CONTINUOUS
 10
179.064719
 20
83.352000
 40
0.300000
 50
180.095413
 51
229.559758
  0
LINE
  8
WHITE
 62
     7
  6
CONTINUOUS
 10
178.764719
 20
83.351501
 11
178.763000
 21
84.384000
  0
ARC
  8
WHITE
 62
     7
  6
CONTINUOUS
 10
178.463002
 20
84.383000
 40
0.300000
 50
0.190986
 51
90.000318
  0
LINE
  8
WHITE
 62
     7
  6
CONTINUOUS
 10
178.463000
 20
84.683000
 11
167.262000
 21
84.683000
  0
ARC
  8
WHITE
 62
     7
  6
CONTINUOUS
 10
167.267159
 20
85.188170
 40
0.505196
 50
180.699777
 51
269.414929
  0
LINE
  8
WHITE
 62
     7
  6
CONTINUOUS
 10
166.762000
 20
85.182000
 11
166.747000
 21
94.254000
  0
ARC
  8
WHITE
 62
     7
  6
CONTINUOUS
 10
167.246811
 20
94.254971
 40
0.499812
 50
98.724245
 51
180.111306
  0
LINE
  8
WHITE
 62
     7
  6
CONTINUOUS
 10
167.171000
 20
94.749000
 11
179.667000
 21
96.671000
  0
ARC
  8
WHITE
 62
     7
  6
CONTINUOUS
 10
179.743000
 20
96.177000
 40
0.499812
 50
81.253838
 51
98.746162
  0
LINE
  8
WHITE
 62
     7
  6
CONTINUOUS
 10
179.819000
 20
96.671000
 11
192.323000
 21
94.748000
  0
ARC
  8
WHITE
 62
     7
  6
CONTINUOUS
 10
192.247000
 20
94.253809
 40
0.500001
 50
0.136515
 51
81.257219
  0
LINE
  8
WHITE
 62
     7
  6
CONTINUOUS
 10
192.747000
 20
94.255000
 11
192.762000
 21
85.184000
  0
ARC
  8
WHITE
 62
     7
  6
CONTINUOUS
 10
192.262000
 20
85.183000
 40
0.500001
 50
270.000000
 51
0.114591
  0
LINE
  8
WHITE
 62
     7
  6
CONTINUOUS
 10
192.262000
 20
84.683000
 11
181.063000
 21
84.683000
  0
ARC
  8
WHITE
 62
     7
  6
CONTINUOUS
 10
181.027231
 20
84.418769
 40
0.266641
 50
82.290691
 51
187.709309
  0
LINE
  8
WHITE
 62
     7
  6
CONTINUOUS
 10
180.763000
 20
84.383000
 11
180.764718
 21
83.352021
  0
ARC
  8
WHITE
 62
     7
  6
CONTINUOUS
 10
180.464719
 20
83.351521
 40
0.300000
 50
310.508971
 51
0.095493
  0
ARC
  8
WHITE
 62
     7
  6
CONTINUOUS
 10
180.865000
 20
82.883000
 40
0.316228
 50
130.508971
 51
49.554878
  0
ARC
  8
WHITE
 62
     7
  6
CONTINUOUS
 10
181.264759
 20
83.351966
 40
0.300000
 50
180.081851
 51
229.554878
  0
LINE
  8
WHITE
 62
     7
  6
CONTINUOUS
 10
180.964759
 20
83.351538
 11
180.964000
 21
83.883000
  0
ARC
  8
WHITE
 62
     7
  6
CONTINUOUS
 10
181.264000
 20
83.883000
 40
0.300000
 50
90.000000
 51
180.000000
  0
LINE
  8
WHITE
 62
     7
  6
CONTINUOUS
 10
181.264000
 20
84.183000
 11
192.265000
 21
84.183000
  0
ARC
  8
WHITE
 62
     7
  6
CONTINUOUS
 10
192.220161
 20
83.638070
 40
0.546772
 50
4.818644
 51
85.296062
  0
LINE
  8
WHITE
 62
     7
  6
CONTINUOUS
 10
192.765000
 20
83.684000
 11
192.779000
 21
74.684000
  0
ARC
  8
WHITE
 62
     7
  6
CONTINUOUS
 10
192.279000
 20
74.683000
 40
0.500001
 50
270.000000
 51
0.114591
  0
LINE
  8
WHITE
 62
     7
  6
CONTINUOUS
 10
192.279000
 20
74.183000
 11
181.282000
 21
74.183000
  0
ARC
  8
WHITE
 62
     7
  6
CONTINUOUS
 10
181.307105
 20
74.508023
 40
0.325991
 50
184.226045
 51
265.583286
  0
LINE
  8
WHITE
 62
     7
  6
CONTINUOUS
 10
180.982000
 20
74.484000
 11
180.982759
 21
75.014463
  0
ARC
  8
WHITE
 62
     7
  6
CONTINUOUS
 10
181.282759
 20
75.014033
 40
0.300000
 50
130.445080
 51
179.918032
  0
ARC
  8
WHITE
 62
     7
  6
CONTINUOUS
 10
180.883000
 20
75.483000
 40
0.316228
 50
310.445080
 51
229.491000
  0
ARC
  8
WHITE
 62
     7
  6
CONTINUOUS
 10
180.482718
 20
75.014480
 40
0.300000
 50
359.904428
 51
49.491000
  0
LINE
  8
WHITE
 62
     7
  6
CONTINUOUS
 10
180.782718
 20
75.013979
 11
180.781000
 21
73.984000
  0
ARC
  8
WHITE
 62
     7
  6
CONTINUOUS
 10
181.080998
 20
73.983000
 40
0.300000
 50
179.809014
 51
270.000318
  0
LINE
  8
WHITE
 62
     7
  6
CONTINUOUS
 10
181.081000
 20
73.683000
 11
192.282000
 21
73.683000
  0
ARC
  8
WHITE
 62
     7
  6
CONTINUOUS
 10
192.243008
 20
73.143929
 40
0.540479
 50
4.251785
 51
85.862921
  0
LINE
  8
WHITE
 62
     7
  6
CONTINUOUS
 10
192.782000
 20
73.184000
 11
192.797000
 21
64.184000
  0
ARC
  8
WHITE
 62
     7
  6
CONTINUOUS
 10
192.297000
 20
64.183000
 40
0.500001
 50
270.000000
 51
0.114591
  0
LINE
  8
WHITE
 62
     7
  6
CONTINUOUS
 10
192.297000
 20
63.683000
 11
185.201000
 21
63.683000
  0
ARC
  8
WHITE
 62
     7
  6
CONTINUOUS
 10
185.205175
 20
63.891216
 40
0.208258
 50
207.827173
 51
268.851325
  0
ARC
  8
WHITE
 62
     7
  6
CONTINUOUS
 10
184.797000
 20
63.683000
 40
0.249994
 50
26.360058
 51
243.845664
  0
ARC
  8
WHITE
 62
     7
  6
CONTINUOUS
 10
184.598001
 20
63.279400
 40
0.200000
 50
0.172012
 51
63.639315
  0
LINE
  8
WHITE
 62
     7
  6
CONTINUOUS
 10
184.798000
 20
63.280000
 11
184.802000
 21
60.684000
  0
ARC
  8
WHITE
 62
     7
  6
CONTINUOUS
 10
184.302000
 20
60.683000
 40
0.500001
 50
270.000000
 51
0.114591
  0
LINE
  8
WHITE
 62
     7
  6
CONTINUOUS
 10
184.302000
 20
60.183000
 11
180.403000
 21
60.183000
  0
ARC
  8
WHITE
 62
     7
  6
CONTINUOUS
 10
186.605191
 20
160.505644
 40
3.366503
 50
259.621131
 51
62.670292
  0
ARC
  8
WHITE
 62
     7
  6
CONTINUOUS
 10
188.493902
 20
164.049743
 40
0.651109
 50
58.199039
 51
238.199039
  0
ARC
  8
WHITE
 62
     7
  6
CONTINUOUS
 10
186.534119
 20
160.477887
 40
4.724490
 50
104.052015
 51
60.827645
  0
ARC
  8
WHITE
 62
     7
  6
CONTINUOUS
 10
185.284000
 20
165.473000
 40
0.424680
 50
284.036243
 51
0.000000
  0
LINE
  8
WHITE
 62
     7
  6
CONTINUOUS
 10
185.708680
 20
165.473000
 11
185.708993
 21
174.071582
  0
ARC
  8
WHITE
 62
     7
  6
CONTINUOUS
 10
186.008993
 20
174.071571
 40
0.300000
 50
123.539061
 51
179.997913
  0
ARC
  8
WHITE
 62
     7
  6
CONTINUOUS
 10
185.609000
 20
174.675000
 40
0.423962
 50
303.539061
 51
236.460277
  0
ARC
  8
WHITE
 62
     7
  6
CONTINUOUS
 10
185.209000
 20
174.071575
 40
0.300000
 50
0.000000
 51
56.460277
  0
LINE
  8
WHITE
 62
     7
  6
CONTINUOUS
 10
185.509000
 20
174.071575
 11
185.509000
 21
165.739000
  0
ARC
  8
WHITE
 62
     7
  6
CONTINUOUS
 10
184.949985
 20
165.727356
 40
0.559136
 50
285.669372
 51
1.193237
  0
ARC
  8
WHITE
 62
     7
  6
CONTINUOUS
 10
186.533647
 20
160.477314
 40
4.924679
 50
106.912553
 51
73.079594
  0
ARC
  8
WHITE
 62
     7
  6
CONTINUOUS
 10
188.134000
 20
165.739000
 40
0.575000
 50
180.000000
 51
253.109802
  0
LINE
  8
WHITE
 62
     7
  6
CONTINUOUS
 10
187.559000
 20
165.739000
 11
187.559000
 21
174.052796
  0
ARC
  8
WHITE
 62
     7
  6
CONTINUOUS
 10
187.859000
 20
174.052796
 40
0.300000
 50
117.752202
 51
180.000000
  0
ARC
  8
WHITE
 62
     7
  6
CONTINUOUS
 10
187.459000
 20
174.813000
 40
0.559017
 50
297.752202
 51
242.247798
  0
ARC
  8
WHITE
 62
     7
  6
CONTINUOUS
 10
187.059000
 20
174.052796
 40
0.300000
 50
0.000000
 51
62.247798
  0
LINE
  8
WHITE
 62
     7
  6
CONTINUOUS
 10
187.359000
 20
174.052796
 11
187.359000
 21
164.469000
  0
ARC
  8
WHITE
 62
     7
  6
CONTINUOUS
 10
186.770503
 20
164.483239
 40
0.588670
 50
267.809258
 51
358.613940
  0
ARC
  8
WHITE
 62
     7
  6
CONTINUOUS
 10
186.532827
 20
160.477564
 40
3.424204
 50
86.397224
 51
230.728963
  0
ARC
  8
WHITE
 62
     7
  6
CONTINUOUS
 10
185.226798
 20
158.879057
 40
1.360000
 50
230.696844
 51
1.894028
  0
LINE
  8
WHITE
 62
     7
  6
CONTINUOUS
 10
186.586055
 20
158.924006
 11
186.532827
 21
160.477564
  0
ENDSEC
  0
EOF
