  0
SECTION
  2
HEADER
  9
$ACADVER
  1
AC1009
  9
$DWGCODEPAGE
  3
ansi_1252
  9
$INSBASE
 10
0.0
 20
0.0
 30
0.0
  9
$EXTMIN
 10
-2.343164367796853
 20
0.8348580301571928
 30
0.0
  9
$EXTMAX
 10
109.7602765270423
 20
140.3309466791652
 30
0.0000000000011653
  9
$LIMMIN
 10
0.0
 20
0.0
  9
$LIMMAX
 10
12.0
 20
9.0
  9
$ORTHOMODE
 70
     0
  9
$REGENMODE
 70
     1
  9
$FILLMODE
 70
     1
  9
$QTEXTMODE
 70
     0
  9
$MIRRTEXT
 70
     1
  9
$DRAGMODE
 70
     2
  9
$LTSCALE
 40
1.0
  9
$OSMODE
 70
    37
  9
$ATTMODE
 70
     1
  9
$TEXTSIZE
 40
0.2
  9
$TRACEWID
 40
0.05
  9
$TEXTSTYLE
  7
STANDARD
  9
$CLAYER
  8
DEFAULT
  9
$CELTYPE
  6
BYLAYER
  9
$CECOLOR
 62
   256
  9
$DIMSCALE
 40
1.0
  9
$DIMASZ
 40
0.18
  9
$DIMEXO
 40
0.0625
  9
$DIMDLI
 40
0.38
  9
$DIMRND
 40
0.0
  9
$DIMDLE
 40
0.0
  9
$DIMEXE
 40
0.18
  9
$DIMTP
 40
0.0
  9
$DIMTM
 40
0.0
  9
$DIMTXT
 40
0.18
  9
$DIMCEN
 40
0.09
  9
$DIMTSZ
 40
0.0
  9
$DIMTOL
 70
     0
  9
$DIMLIM
 70
     0
  9
$DIMTIH
 70
     1
  9
$DIMTOH
 70
     1
  9
$DIMSE1
 70
     0
  9
$DIMSE2
 70
     0
  9
$DIMTAD
 70
     0
  9
$DIMZIN
 70
     0
  9
$DIMBLK
  1

  9
$DIMASO
 70
     1
  9
$DIMSHO
 70
     1
  9
$DIMPOST
  1

  9
$DIMAPOST
  1

  9
$DIMALT
 70
     0
  9
$DIMALTD
 70
     2
  9
$DIMALTF
 40
25.4
  9
$DIMLFAC
 40
1.0
  9
$DIMTOFL
 70
     0
  9
$DIMTVP
 40
0.0
  9
$DIMTIX
 70
     0
  9
$DIMSOXD
 70
     0
  9
$DIMSAH
 70
     0
  9
$DIMBLK1
  1

  9
$DIMBLK2
  1

  9
$DIMSTYLE
  2
STANDARD
  9
$DIMCLRD
 70
     0
  9
$DIMCLRE
 70
     0
  9
$DIMCLRT
 70
     0
  9
$DIMTFAC
 40
1.0
  9
$DIMGAP
 40
0.09
  9
$LUNITS
 70
     2
  9
$LUPREC
 70
     2
  9
$SKETCHINC
 40
0.1
  9
$FILLETRAD
 40
0.5
  9
$AUNITS
 70
     0
  9
$AUPREC
 70
     0
  9
$MENU
  1
.
  9
$ELEVATION
 40
0.0
  9
$PELEVATION
 40
0.0
  9
$THICKNESS
 40
0.0
  9
$LIMCHECK
 70
     0
  9
$CHAMFERA
 40
0.5
  9
$CHAMFERB
 40
0.5
  9
$SKPOLY
 70
     0
  9
$TDCREATE
 40
2456088.798696644
  9
$TDUPDATE
 40
2456088.798696655
  9
$TDINDWG
 40
0.0000000116
  9
$TDUSRTIMER
 40
0.0000000116
  9
$USRTIMER
 70
     1
  9
$ANGBASE
 50
0.0
  9
$ANGDIR
 70
     0
  9
$PDMODE
 70
     0
  9
$PDSIZE
 40
0.0
  9
$PLINEWID
 40
0.0
  9
$COORDS
 70
     1
  9
$SPLFRAME
 70
     0
  9
$SPLINETYPE
 70
     6
  9
$SPLINESEGS
 70
     8
  9
$ATTDIA
 70
     0
  9
$ATTREQ
 70
     1
  9
$HANDLING
 70
     1
  9
$HANDSEED
  5
61
  9
$SURFTAB1
 70
     6
  9
$SURFTAB2
 70
     6
  9
$SURFTYPE
 70
     6
  9
$SURFU
 70
     6
  9
$SURFV
 70
     6
  9
$UCSNAME
  2

  9
$UCSORG
 10
0.0
 20
0.0
 30
0.0
  9
$UCSXDIR
 10
1.0
 20
0.0
 30
0.0
  9
$UCSYDIR
 10
0.0
 20
1.0
 30
0.0
  9
$PUCSNAME
  2

  9
$PUCSORG
 10
0.0
 20
0.0
 30
0.0
  9
$PUCSXDIR
 10
1.0
 20
0.0
 30
0.0
  9
$PUCSYDIR
 10
0.0
 20
1.0
 30
0.0
  9
$USERI1
 70
     0
  9
$USERI2
 70
     0
  9
$USERI3
 70
     0
  9
$USERI4
 70
     0
  9
$USERI5
 70
     0
  9
$USERR1
 40
0.0
  9
$USERR2
 40
0.0
  9
$USERR3
 40
0.0
  9
$USERR4
 40
0.0
  9
$USERR5
 40
0.0
  9
$WORLDVIEW
 70
     1
  9
$SHADEDGE
 70
     3
  9
$SHADEDIF
 70
    70
  9
$TILEMODE
 70
     1
  9
$MAXACTVP
 70
    64
  9
$PLIMCHECK
 70
     0
  9
$PEXTMIN
 10
1.000000000000000E+20
 20
1.000000000000000E+20
 30
1.000000000000000E+20
  9
$PEXTMAX
 10
-1.000000000000000E+20
 20
-1.000000000000000E+20
 30
-1.000000000000000E+20
  9
$PLIMMIN
 10
0.0
 20
0.0
  9
$PLIMMAX
 10
12.0
 20
9.0
  9
$UNITMODE
 70
     0
  9
$VISRETAIN
 70
     1
  9
$PLINEGEN
 70
     0
  9
$PSLTSCALE
 70
     1
  0
ENDSEC
  0
SECTION
  2
TABLES
  0
TABLE
  2
VPORT
 70
     1
  0
VPORT
  2
*ACTIVE
 70
     0
 10
0.0
 20
0.0
 11
1.0
 21
1.0
 12
0.0
 22
0.0
 13
0.0
 23
0.0
 14
0.5
 24
0.5
 15
0.5
 25
0.5
 16
0.0
 26
0.0
 36
1.0
 17
53.7085560796227
 27
70.58290235466117
 37
0.0
 40
142.2860104219881
 41
0.8036314278094732
 42
50.0
 43
0.0
 44
0.0
 50
0.0
 51
0.0
 71
     0
 72
   100
 73
     1
 74
     3
 75
     0
 76
     0
 77
     0
 78
     0
  0
ENDTAB
  0
TABLE
  2
LTYPE
 70
     1
  0
LTYPE
  2
CONTINUOUS
 70
     0
  3
Solid line
 72
    65
 73
     0
 40
0.0
  0
ENDTAB
  0
TABLE
  2
LAYER
 70
     2
  0
LAYER
  2
0
 70
     0
 62
     7
  6
CONTINUOUS
  0
LAYER
  2
DEFAULT
 70
     0
 62
     7
  6
CONTINUOUS
  0
ENDTAB
  0
TABLE
  2
STYLE
 70
     1
  0
STYLE
  2
STANDARD
 70
     0
 40
0.0
 41
1.0
 50
0.0
 71
     0
 42
0.2
  3
txt
  4

  0
ENDTAB
  0
TABLE
  2
VIEW
 70
     0
  0
ENDTAB
  0
TABLE
  2
UCS
 70
     0
  0
ENDTAB
  0
TABLE
  2
APPID
 70
     1
  0
APPID
  2
ACAD
 70
     0
  0
ENDTAB
  0
TABLE
  2
DIMSTYLE
 70
     1
  0
DIMSTYLE
  2
STANDARD
 70
     0
  3

  4

  5

  6

  7

 40
1.0
 41
0.18
 42
0.0625
 43
0.38
 44
0.18
 45
0.0
 46
0.0
 47
0.0
 48
0.0
140
0.18
141
0.09
142
0.0
143
25.4
144
1.0
145
0.0
146
1.0
147
0.09
 71
     0
 72
     0
 73
     1
 74
     1
 75
     0
 76
     0
 77
     0
 78
     0
170
     0
171
     2
172
     0
173
     0
174
     0
175
     0
176
     0
177
     0
178
     0
  0
ENDTAB
  0
ENDSEC
  0
SECTION
  2
BLOCKS
  0
BLOCK
  8
0
  2
$MODEL_SPACE
 70
     0
 10
0.0
 20
0.0
 30
0.0
  3
$MODEL_SPACE
  1

  0
ENDBLK
  5
21
  8
0
  0
BLOCK
 67
     1
  8
0
  2
$PAPER_SPACE
 70
     0
 10
0.0
 20
0.0
 30
0.0
  3
$PAPER_SPACE
  1

  0
ENDBLK
  5
1D
 67
     1
  8
0
  0
ENDSEC
  0
SECTION
  2
ENTITIES
  0
CIRCLE
  5
2B
  8
DEFAULT
 10
53.65683563220318
 20
21.33094667916512
 30
0.00000000000108
 40
1.999999999999986
  0
CIRCLE
  5
2C
  8
DEFAULT
 10
101.602971463584
 20
56.69394433724463
 30
0.0000000000011084
 40
3.17499999999999
  0
CIRCLE
  5
2D
  8
DEFAULT
 10
21.65683563220312
 20
135.330946679165
 30
0.0000000000011084
 40
2.000000000000043
  0
CIRCLE
  5
2E
  8
DEFAULT
 10
4.656835632203133
 20
133.3309466791652
 30
0.0000000000011084
 40
2.000000000000028
  0
POLYLINE
  5
2F
  8
DEFAULT
 66
     1
 10
0.0
 20
0.0
 30
0.0
  0
VERTEX
  5
31
  8
DEFAULT
 10
-2.343164367796678
 20
110.5138530649278
 30
0.0
 42
-0.4597079616318143
  0
VERTEX
  5
32
  8
DEFAULT
 10
-2.343164367796839
 20
49.83240212952825
 30
0.0
  0
VERTEX
  5
33
  8
DEFAULT
 10
-2.343164367796839
 20
8.834858030157243
 30
0.0
 42
0.414208908050791
  0
VERTEX
  5
34
  8
DEFAULT
 10
5.656835632203161
 20
0.8348580301572355
 30
0.0
  0
VERTEX
  5
35
  8
DEFAULT
 10
24.35630042503104
 20
0.8348580301572142
 30
0.0
 42
0.4142089080507801
  0
VERTEX
  5
36
  8
DEFAULT
 10
32.35630042503099
 20
8.83485803015725
 30
0.0
  0
VERTEX
  5
37
  8
DEFAULT
 10
32.35630042503099
 20
10.55981670829534
 30
0.0
  0
VERTEX
  5
38
  8
DEFAULT
 10
49.35630042503099
 20
10.55981670829534
 30
0.0
  0
VERTEX
  5
39
  8
DEFAULT
 10
49.35630042503098
 20
8.83485803015725
 30
0.0
 42
0.4142089080507784
  0
VERTEX
  5
3A
  8
DEFAULT
 10
57.3563004250309
 20
0.8348580301572213
 30
0.0
  0
VERTEX
  5
3B
  8
DEFAULT
 10
74.05683563148156
 20
0.8348580301571928
 30
0.0
  0
VERTEX
  5
3C
  8
DEFAULT
 10
74.05683563148156
 20
12.53158353464555
 30
0.0
  0
VERTEX
  5
3D
  8
DEFAULT
 10
71.40683563209492
 20
12.53158353476634
 30
0.0
  0
VERTEX
  5
3E
  8
DEFAULT
 10
71.40683563209492
 20
21.33158353476634
 30
0.0
  0
VERTEX
  5
3F
  8
DEFAULT
 10
73.85683563184236
 20
21.33158353471664
 30
0.0
  0
VERTEX
  5
40
  8
DEFAULT
 10
73.85683563184236
 20
30.33158353471664
 30
0.0
  0
VERTEX
  5
41
  8
DEFAULT
 10
80.55683563732813
 20
30.33158353457445
 30
0.0
  0
VERTEX
  5
42
  8
DEFAULT
 10
80.55683563732813
 20
21.33158353457445
 30
0.0
  0
VERTEX
  5
43
  8
DEFAULT
 10
83.00683563707562
 20
21.33158353452484
 30
0.0
  0
VERTEX
  5
44
  8
DEFAULT
 10
83.00683563707562
 20
12.53158353452484
 30
0.0
  0
VERTEX
  5
45
  8
DEFAULT
 10
80.35683563768896
 20
12.53158353464555
 30
0.0
  0
VERTEX
  5
46
  8
DEFAULT
 10
80.35683563768899
 20
0.8348580301572923
 30
0.0
  0
VERTEX
  5
47
  8
DEFAULT
 10
101.760276527042
 20
0.834858030157239
 30
0.0
 42
0.4142089080507863
  0
VERTEX
  5
48
  8
DEFAULT
 10
109.7602765270422
 20
8.83485803015715
 30
0.0
  0
VERTEX
  5
49
  8
DEFAULT
 10
109.7602765270423
 20
132.3309466791651
 30
0.0
 42
0.4142089080507821
  0
VERTEX
  5
4A
  8
DEFAULT
 10
101.7602765270422
 20
140.3309466791651
 30
0.0
  0
VERTEX
  5
4B
  8
DEFAULT
 10
85.48054451202037
 20
140.3309466791652
 30
0.0
  0
VERTEX
  5
4C
  8
DEFAULT
 10
85.48054451202037
 20
132.3723300332119
 30
0.0
  0
VERTEX
  5
4D
  8
DEFAULT
 10
88.13054451140701
 20
132.3723300330911
 30
0.0
  0
VERTEX
  5
4E
  8
DEFAULT
 10
88.13054451140701
 20
123.5723300330911
 30
0.0
  0
VERTEX
  5
4F
  8
DEFAULT
 10
85.68054451165958
 20
123.5723300331407
 30
0.0
  0
VERTEX
  5
50
  8
DEFAULT
 10
85.68054451165958
 20
114.5723300331407
 30
0.0
  0
VERTEX
  5
51
  8
DEFAULT
 10
78.9805445061738
 20
114.572330033283
 30
0.0
  0
VERTEX
  5
52
  8
DEFAULT
 10
78.98054450617374
 20
123.572330033283
 30
0.0
  0
VERTEX
  5
53
  8
DEFAULT
 10
76.53054450642625
 20
123.5723300333326
 30
0.0
  0
VERTEX
  5
54
  8
DEFAULT
 10
76.53054450642631
 20
132.3723300333326
 30
0.0
  0
VERTEX
  5
55
  8
DEFAULT
 10
79.180544505813
 20
132.3723300332119
 30
0.0
  0
VERTEX
  5
56
  8
DEFAULT
 10
79.18054450581295
 20
140.3309466791652
 30
0.0
  0
VERTEX
  5
57
  8
DEFAULT
 10
5.656835632203154
 20
140.3309466791652
 30
0.0
 42
0.4142089080507989
  0
VERTEX
  5
58
  8
DEFAULT
 10
-2.343164367796853
 20
132.3309466791652
 30
0.0
  0
VERTEX
  5
59
  8
DEFAULT
 10
-2.343164367796839
 20
110.513853064928
 30
0.0
  0
SEQEND
  5
30
  8
DEFAULT
  0
CIRCLE
  5
5A
  8
DEFAULT
 10
65.65683563220313
 20
133.330946679165
 30
0.00000000000108
 40
2.000000000000018
  0
CIRCLE
  5
5B
  8
DEFAULT
 10
34.1302230037631
 20
80.17358983632533
 30
0.00000000000108
 40
9.250000000000028
  0
CIRCLE
  5
5C
  8
DEFAULT
 10
20.65683563220316
 20
21.33094667916514
 30
0.00000000000108
 40
2.0
  0
CIRCLE
  5
5D
  8
DEFAULT
 10
98.65683563220314
 20
21.33094667916504
 30
0.0000000000011084
 40
2.000000000000014
  0
CIRCLE
  5
5E
  8
DEFAULT
 10
92.65683563220315
 20
115.330946679165
 30
0.00000000000108
 40
1.999999999999998
  0
CIRCLE
  5
5F
  8
DEFAULT
 10
87.65683563220315
 20
49.33094667916515
 30
0.0000000000011084
 40
2.0
  0
CIRCLE
  5
60
  8
DEFAULT
 10
4.656835632203189
 20
21.33094667916514
 30
0.00000000000108
 40
1.999999999999972
  0
ENDSEC
  0
EOF
