  0
SECTION
  2
HEADER
  9
$ACADVER
  1
AC1015
  9
$ACADMAINTVER
 70
     6
  9
$DWGCODEPAGE
  3
ANSI_1252
  9
$INSBASE
 10
0.0
 20
0.0
 30
0.0
  9
$EXTMIN
 10
1.000000000000000E+20
 20
1.000000000000000E+20
 30
1.000000000000000E+20
  9
$EXTMAX
 10
-1.000000000000000E+20
 20
-1.000000000000000E+20
 30
-1.000000000000000E+20
  9
$LIMMIN
 10
0.0
 20
0.0
  9
$LIMMAX
 10
12.0
 20
9.0
  9
$ORTHOMODE
 70
     0
  9
$REGENMODE
 70
     1
  9
$FILLMODE
 70
     1
  9
$QTEXTMODE
 70
     0
  9
$MIRRTEXT
 70
     1
  9
$LTSCALE
 40
1.0
  9
$ATTMODE
 70
     1
  9
$TEXTSIZE
 40
0.2
  9
$TRACEWID
 40
0.05
  9
$TEXTSTYLE
  7
Standard
  9
$CLAYER
  8
0
  9
$CELTYPE
  6
ByLayer
  9
$CECOLOR
 62
   256
  9
$CELTSCALE
 40
1.0
  9
$DISPSILH
 70
     0
  9
$DIMSCALE
 40
1.0
  9
$DIMASZ
 40
0.18
  9
$DIMEXO
 40
0.0625
  9
$DIMDLI
 40
0.38
  9
$DIMRND
 40
0.0
  9
$DIMDLE
 40
0.0
  9
$DIMEXE
 40
0.18
  9
$DIMTP
 40
0.0
  9
$DIMTM
 40
0.0
  9
$DIMTXT
 40
0.18
  9
$DIMCEN
 40
0.09
  9
$DIMTSZ
 40
0.0
  9
$DIMTOL
 70
     0
  9
$DIMLIM
 70
     0
  9
$DIMTIH
 70
     1
  9
$DIMTOH
 70
     1
  9
$DIMSE1
 70
     0
  9
$DIMSE2
 70
     0
  9
$DIMTAD
 70
     0
  9
$DIMZIN
 70
     0
  9
$DIMBLK
  1

  9
$DIMASO
 70
     1
  9
$DIMSHO
 70
     1
  9
$DIMPOST
  1

  9
$DIMAPOST
  1

  9
$DIMALT
 70
     0
  9
$DIMALTD
 70
     2
  9
$DIMALTF
 40
25.4
  9
$DIMLFAC
 40
1.0
  9
$DIMTOFL
 70
     0
  9
$DIMTVP
 40
0.0
  9
$DIMTIX
 70
     0
  9
$DIMSOXD
 70
     0
  9
$DIMSAH
 70
     0
  9
$DIMBLK1
  1

  9
$DIMBLK2
  1

  9
$DIMSTYLE
  2
Standard
  9
$DIMCLRD
 70
     0
  9
$DIMCLRE
 70
     0
  9
$DIMCLRT
 70
     0
  9
$DIMTFAC
 40
1.0
  9
$DIMGAP
 40
0.09
  9
$DIMJUST
 70
     0
  9
$DIMSD1
 70
     0
  9
$DIMSD2
 70
     0
  9
$DIMTOLJ
 70
     1
  9
$DIMTZIN
 70
     0
  9
$DIMALTZ
 70
     0
  9
$DIMALTTZ
 70
     0
  9
$DIMUPT
 70
     0
  9
$DIMDEC
 70
     4
  9
$DIMTDEC
 70
     4
  9
$DIMALTU
 70
     2
  9
$DIMALTTD
 70
     2
  9
$DIMTXSTY
  7
Standard
  9
$DIMAUNIT
 70
     0
  9
$DIMADEC
 70
     0
  9
$DIMALTRND
 40
0.0
  9
$DIMAZIN
 70
     0
  9
$DIMDSEP
 70
    46
  9
$DIMATFIT
 70
     3
  9
$DIMFRAC
 70
     0
  9
$DIMLDRBLK
  1

  9
$DIMLUNIT
 70
     2
  9
$DIMLWD
 70
    -2
  9
$DIMLWE
 70
    -2
  9
$DIMTMOVE
 70
     0
  9
$LUNITS
 70
     2
  9
$LUPREC
 70
     4
  9
$SKETCHINC
 40
0.1
  9
$FILLETRAD
 40
0.5
  9
$AUNITS
 70
     0
  9
$AUPREC
 70
     0
  9
$MENU
  1
.
  9
$ELEVATION
 40
0.0
  9
$PELEVATION
 40
0.0
  9
$THICKNESS
 40
0.0
  9
$LIMCHECK
 70
     0
  9
$CHAMFERA
 40
0.5
  9
$CHAMFERB
 40
0.5
  9
$CHAMFERC
 40
1.0
  9
$CHAMFERD
 40
0.0
  9
$SKPOLY
 70
     0
  9
$TDCREATE
 40
2456631.567833009
  9
$TDUCREATE
 40
2456631.901166343
  9
$TDUPDATE
 40
2456631.567833021
  9
$TDUUPDATE
 40
2456631.901166354
  9
$TDINDWG
 40
0.0000000116
  9
$TDUSRTIMER
 40
0.0000000116
  9
$USRTIMER
 70
     1
  9
$ANGBASE
 50
0.0
  9
$ANGDIR
 70
     0
  9
$PDMODE
 70
     0
  9
$PDSIZE
 40
0.0
  9
$PLINEWID
 40
0.0
  9
$SPLFRAME
 70
     0
  9
$SPLINETYPE
 70
     6
  9
$SPLINESEGS
 70
     8
  9
$HANDSEED
  5
4D
  9
$SURFTAB1
 70
     6
  9
$SURFTAB2
 70
     6
  9
$SURFTYPE
 70
     6
  9
$SURFU
 70
     6
  9
$SURFV
 70
     6
  9
$UCSBASE
  2

  9
$UCSNAME
  2

  9
$UCSORG
 10
0.0
 20
0.0
 30
0.0
  9
$UCSXDIR
 10
1.0
 20
0.0
 30
0.0
  9
$UCSYDIR
 10
0.0
 20
1.0
 30
0.0
  9
$UCSORTHOREF
  2

  9
$UCSORTHOVIEW
 70
     0
  9
$UCSORGTOP
 10
0.0
 20
0.0
 30
0.0
  9
$UCSORGBOTTOM
 10
0.0
 20
0.0
 30
0.0
  9
$UCSORGLEFT
 10
0.0
 20
0.0
 30
0.0
  9
$UCSORGRIGHT
 10
0.0
 20
0.0
 30
0.0
  9
$UCSORGFRONT
 10
0.0
 20
0.0
 30
0.0
  9
$UCSORGBACK
 10
0.0
 20
0.0
 30
0.0
  9
$PUCSBASE
  2

  9
$PUCSNAME
  2

  9
$PUCSORG
 10
0.0
 20
0.0
 30
0.0
  9
$PUCSXDIR
 10
1.0
 20
0.0
 30
0.0
  9
$PUCSYDIR
 10
0.0
 20
1.0
 30
0.0
  9
$PUCSORTHOREF
  2

  9
$PUCSORTHOVIEW
 70
     0
  9
$PUCSORGTOP
 10
0.0
 20
0.0
 30
0.0
  9
$PUCSORGBOTTOM
 10
0.0
 20
0.0
 30
0.0
  9
$PUCSORGLEFT
 10
0.0
 20
0.0
 30
0.0
  9
$PUCSORGRIGHT
 10
0.0
 20
0.0
 30
0.0
  9
$PUCSORGFRONT
 10
0.0
 20
0.0
 30
0.0
  9
$PUCSORGBACK
 10
0.0
 20
0.0
 30
0.0
  9
$USERI1
 70
     0
  9
$USERI2
 70
     0
  9
$USERI3
 70
     0
  9
$USERI4
 70
     0
  9
$USERI5
 70
     0
  9
$USERR1
 40
0.0
  9
$USERR2
 40
0.0
  9
$USERR3
 40
0.0
  9
$USERR4
 40
0.0
  9
$USERR5
 40
0.0
  9
$WORLDVIEW
 70
     1
  9
$SHADEDGE
 70
     3
  9
$SHADEDIF
 70
    70
  9
$TILEMODE
 70
     1
  9
$MAXACTVP
 70
    64
  9
$PINSBASE
 10
0.0
 20
0.0
 30
0.0
  9
$PLIMCHECK
 70
     0
  9
$PEXTMIN
 10
1.000000000000000E+20
 20
1.000000000000000E+20
 30
1.000000000000000E+20
  9
$PEXTMAX
 10
-1.000000000000000E+20
 20
-1.000000000000000E+20
 30
-1.000000000000000E+20
  9
$PLIMMIN
 10
0.0
 20
0.0
  9
$PLIMMAX
 10
12.0
 20
9.0
  9
$UNITMODE
 70
     0
  9
$VISRETAIN
 70
     1
  9
$PLINEGEN
 70
     0
  9
$PSLTSCALE
 70
     1
  9
$TREEDEPTH
 70
  3020
  9
$CMLSTYLE
  2
Standard
  9
$CMLJUST
 70
     0
  9
$CMLSCALE
 40
1.0
  9
$PROXYGRAPHICS
 70
     1
  9
$MEASUREMENT
 70
     0
  9
$CELWEIGHT
370
    -1
  9
$ENDCAPS
280
     0
  9
$JOINSTYLE
280
     0
  9
$LWDISPLAY
290
     1
  9
$INSUNITS
 70
     1
  9
$HYPERLINKBASE
  1

  9
$STYLESHEET
  1

  9
$XEDIT
290
     1
  9
$CEPSNTYPE
380
     0
  9
$PSTYLEMODE
290
     1
  9
$FINGERPRINTGUID
  2
{605DBFDF-2640-4B2B-80CF-5FB7807970D8}
  9
$VERSIONGUID
  2
{FAEB1C32-E019-11D5-929B-00C0DF256EC4}
  9
$EXTNAMES
290
     1
  9
$PSVPSCALE
 40
0.0
  9
$OLESTARTUP
290
     0
  0
ENDSEC
  0
SECTION
  2
CLASSES
  0
CLASS
  1
ACDBDICTIONARYWDFLT
  2
AcDbDictionaryWithDefault
  3
ObjectDBX Classes
 90
        0
280
     0
281
     0
  0
CLASS
  1
VISUALSTYLE
  2
AcDbVisualStyle
  3
ObjectDBX Classes
 90
     4095
280
     0
281
     0
  0
CLASS
  1
ACDBPLACEHOLDER
  2
AcDbPlaceHolder
  3
ObjectDBX Classes
 90
        0
280
     0
281
     0
  0
CLASS
  1
LAYOUT
  2
AcDbLayout
  3
ObjectDBX Classes
 90
        0
280
     0
281
     0
  0
ENDSEC
  0
SECTION
  2
TABLES
  0
TABLE
  2
VPORT
  5
8
330
0
100
AcDbSymbolTable
 70
     1
  0
VPORT
  5
29
330
8
100
AcDbSymbolTableRecord
100
AcDbViewportTableRecord
  2
*Active
 70
     0
 10
0.0
 20
0.0
 11
1.0
 21
1.0
 12
0.0
 22
0.0
 13
0.0
 23
0.0
 14
0.5
 24
0.5
 15
0.5
 25
0.5
 16
0.0
 26
0.0
 36
1.0
 17
73.37777775943334
 27
677.4602849326315
 37
0.0
 40
245.0816812538337
 41
0.5988026308945971
 42
50.0
 43
0.0
 44
0.0
 50
0.0
 51
0.0
 71
     0
 72
   100
 73
     1
 74
     3
 75
     0
 76
     0
 77
     0
 78
     0
281
     0
 65
     1
110
0.0
120
0.0
130
0.0
111
1.0
121
0.0
131
0.0
112
0.0
122
1.0
132
0.0
 79
     0
146
0.0
  0
ENDTAB
  0
TABLE
  2
LTYPE
  5
5
330
0
100
AcDbSymbolTable
 70
     1
  0
LTYPE
  5
14
330
5
100
AcDbSymbolTableRecord
100
AcDbLinetypeTableRecord
  2
ByBlock
 70
     0
  3

 72
    65
 73
     0
 40
0.0
  0
LTYPE
  5
15
330
5
100
AcDbSymbolTableRecord
100
AcDbLinetypeTableRecord
  2
ByLayer
 70
     0
  3

 72
    65
 73
     0
 40
0.0
  0
LTYPE
  5
16
330
5
100
AcDbSymbolTableRecord
100
AcDbLinetypeTableRecord
  2
Continuous
 70
     0
  3
Solid line
 72
    65
 73
     0
 40
0.0
  0
ENDTAB
  0
TABLE
  2
LAYER
  5
2
330
0
100
AcDbSymbolTable
 70
     2
  0
LAYER
  5
10
330
2
100
AcDbSymbolTableRecord
100
AcDbLayerTableRecord
  2
0
 70
     0
 62
     7
  6
Continuous
370
    -3
390
F
  0
LAYER
  5
3B
330
2
100
AcDbSymbolTableRecord
100
AcDbLayerTableRecord
  2
Layer 1
 70
     0
 62
     7
  6
Continuous
370
    -3
390
F
  0
ENDTAB
  0
TABLE
  2
STYLE
  5
3
330
0
100
AcDbSymbolTable
 70
     1
  0
STYLE
  5
11
330
3
100
AcDbSymbolTableRecord
100
AcDbTextStyleTableRecord
  2
Standard
 70
     0
 40
0.0
 41
1.0
 50
0.0
 71
     0
 42
0.2
  3
txt
  4

  0
ENDTAB
  0
TABLE
  2
VIEW
  5
6
330
0
100
AcDbSymbolTable
 70
     0
  0
ENDTAB
  0
TABLE
  2
UCS
  5
7
330
0
100
AcDbSymbolTable
 70
     0
  0
ENDTAB
  0
TABLE
  2
APPID
  5
9
330
0
100
AcDbSymbolTable
 70
     1
  0
APPID
  5
12
330
9
100
AcDbSymbolTableRecord
100
AcDbRegAppTableRecord
  2
ACAD
 70
     0
  0
ENDTAB
  0
TABLE
  2
DIMSTYLE
  5
A
330
0
100
AcDbSymbolTable
 70
     1
100
AcDbDimStyleTable
  0
DIMSTYLE
105
27
330
A
100
AcDbSymbolTableRecord
100
AcDbDimStyleTableRecord
  2
Standard
 70
     0
340
11
  0
ENDTAB
  0
TABLE
  2
BLOCK_RECORD
  5
1
330
0
100
AcDbSymbolTable
 70
     3
  0
BLOCK_RECORD
  5
1F
330
1
100
AcDbSymbolTableRecord
100
AcDbBlockTableRecord
  2
*Model_Space
340
22
  0
BLOCK_RECORD
  5
1B
330
1
100
AcDbSymbolTableRecord
100
AcDbBlockTableRecord
  2
*Paper_Space
340
1E
  0
BLOCK_RECORD
  5
23
330
1
100
AcDbSymbolTableRecord
100
AcDbBlockTableRecord
  2
*Paper_Space0
340
26
  0
BLOCK_RECORD
  5
3C
330
1
100
AcDbSymbolTableRecord
100
AcDbBlockTableRecord
  2
block 2
340
0
102
{BLKREFS
331
3D
102
}
  0
BLOCK_RECORD
  5
42
330
1
100
AcDbSymbolTableRecord
100
AcDbBlockTableRecord
  2
block 3
340
0
102
{BLKREFS
331
43
102
}
  0
ENDTAB
  0
ENDSEC
  0
SECTION
  2
BLOCKS
  0
BLOCK
  5
20
330
1F
100
AcDbEntity
  8
0
100
AcDbBlockBegin
  2
*Model_Space
 70
     0
 71
     0
 10
0.0
 20
0.0
 30
0.0
  3
*Model_Space
  1

  0
ENDBLK
  5
21
330
1F
100
AcDbEntity
  8
0
100
AcDbBlockEnd
  0
BLOCK
  5
1C
330
1B
100
AcDbEntity
 67
     1
  8
0
100
AcDbBlockBegin
  2
*Paper_Space
 70
     0
 71
     0
 10
0.0
 20
0.0
 30
0.0
  3
*Paper_Space
  1

  0
ENDBLK
  5
1D
330
1B
100
AcDbEntity
 67
     1
  8
0
100
AcDbBlockEnd
  0
BLOCK
  5
24
330
23
100
AcDbEntity
  8
0
100
AcDbBlockBegin
  2
*Paper_Space0
 70
     0
 71
     0
 10
0.0
 20
0.0
 30
0.0
  3
*Paper_Space0
  1

  0
ENDBLK
  5
25
330
23
100
AcDbEntity
  8
0
100
AcDbBlockEnd
  0
BLOCK
  5
3E
330
3C
100
AcDbEntity
  8
0
100
AcDbBlockBegin
  2
block 2
 70
     0
 71
     0
 10
0.0
 20
0.0
 30
0.0
  3
block 2
  1

  0
SPLINE
  5
40
330
3C
100
AcDbEntity
  8
Layer 1
370
     0
100
AcDbSpline
210
0.0
220
0.0
230
1.0
 70
    11
 71
     3
 72
   152
 73
   148
 74
     0
 42
0.0000000001
 43
0.0000000001
 40
0.0
 40
0.0
 40
0.0
 40
0.0
 40
1.0
 40
1.0
 40
1.0
 40
2.0
 40
2.0
 40
2.0
 40
3.0
 40
3.0
 40
3.0
 40
4.0
 40
4.0
 40
4.0
 40
5.0
 40
5.0
 40
5.0
 40
6.0
 40
6.0
 40
6.0
 40
7.0
 40
7.0
 40
7.0
 40
8.0
 40
8.0
 40
8.0
 40
9.0
 40
9.0
 40
9.0
 40
10.0
 40
10.0
 40
10.0
 40
11.0
 40
11.0
 40
11.0
 40
12.0
 40
12.0
 40
12.0
 40
13.0
 40
13.0
 40
13.0
 40
14.0
 40
14.0
 40
14.0
 40
15.0
 40
15.0
 40
15.0
 40
16.0
 40
16.0
 40
16.0
 40
17.0
 40
17.0
 40
17.0
 40
18.0
 40
18.0
 40
18.0
 40
19.0
 40
19.0
 40
19.0
 40
20.0
 40
20.0
 40
20.0
 40
21.0
 40
21.0
 40
21.0
 40
22.0
 40
22.0
 40
22.0
 40
23.0
 40
23.0
 40
23.0
 40
24.0
 40
24.0
 40
24.0
 40
25.0
 40
25.0
 40
25.0
 40
26.0
 40
26.0
 40
26.0
 40
27.0
 40
27.0
 40
27.0
 40
28.0
 40
28.0
 40
28.0
 40
29.0
 40
29.0
 40
29.0
 40
30.0
 40
30.0
 40
30.0
 40
31.0
 40
31.0
 40
31.0
 40
32.0
 40
32.0
 40
32.0
 40
33.0
 40
33.0
 40
33.0
 40
34.0
 40
34.0
 40
34.0
 40
35.0
 40
35.0
 40
35.0
 40
36.0
 40
36.0
 40
36.0
 40
37.0
 40
37.0
 40
37.0
 40
38.0
 40
38.0
 40
38.0
 40
39.0
 40
39.0
 40
39.0
 40
40.0
 40
40.0
 40
40.0
 40
41.0
 40
41.0
 40
41.0
 40
42.0
 40
42.0
 40
42.0
 40
43.0
 40
43.0
 40
43.0
 40
44.0
 40
44.0
 40
44.0
 40
45.0
 40
45.0
 40
45.0
 40
46.0
 40
46.0
 40
46.0
 40
47.0
 40
47.0
 40
47.0
 40
48.0
 40
48.0
 40
48.0
 40
49.0
 40
49.0
 40
49.0
 40
49.0
 10
77.47778589642917
 20
671.2082979007744
 30
0.0
 10
77.47778589642917
 20
672.4016789768649
 30
0.0
 10
77.58441160169765
 20
673.5700831106874
 30
0.0
 10
77.78474390416493
 20
674.7061033469485
 30
0.0
 10
77.80524222230217
 20
674.8178966954449
 30
0.0
 10
77.82849661682761
 20
674.9286565152956
 30
0.0
 10
77.85071748270747
 20
675.0397608446949
 30
0.0
 10
77.88275687072029
 20
675.2056421923097
 30
0.0
 10
77.91875811854115
 20
675.3699732469562
 30
0.0
 10
77.95544838545906
 20
675.5346488111511
 30
0.0
 10
78.53336315310972
 20
678.0955605401116
 30
0.0
 10
79.602548536957
 20
680.47009260332
 30
0.0
 10
81.05913490812064
 20
682.5543753718962
 30
0.0
 10
82.55844046330137
 20
683.0869871339158
 30
0.0
 10
84.00279674549236
 20
683.7360431233368
 30
0.0
 10
85.37859562752688
 20
684.4939641300919
 30
0.0
 10
85.37859562752688
 20
684.4939641300919
 30
0.0
 10
85.39306502856493
 20
687.0614215404743
 30
0.0
 10
85.39306502856493
 20
687.0614215404743
 30
0.0
 10
86.31101072060976
 20
687.7564695546234
 30
0.0
 10
87.28924558364645
 20
688.3752087037743
 30
0.0
 10
88.32070717193024
 20
688.9064424275998
 30
0.0
 10
88.32070717193024
 20
688.9064424275998
 30
0.0
 10
88.28728974572331
 20
688.9706934583998
 30
0.0
 10
88.28728974572331
 20
688.9706934583998
 30
0.0
 10
95.73903128031871
 20
694.2926769640137
 30
0.0
 10
100.6019558125231
 20
703.0065292296304
 30
0.0
 10
100.6019558125231
 20
712.862258393833
 30
0.0
 10
100.6019558125231
 20
728.9120969857407
 30
0.0
 10
71.83058537700764
 20
747.6566892662108
 30
0.0
 10
71.26782902949208
 20
766.5051511755612
 30
0.0
 10
71.26782902949208
 20
766.5051511755612
 30
0.0
 10
71.26782902949208
 20
767.0632566441717
 30
0.0
 10
71.26782902949208
 20
767.0632566441717
 30
0.0
 10
71.26782902949208
 20
766.9705835756185
 30
0.0
 10
71.26248913148994
 20
766.877738252291
 30
0.0
 10
71.26111109329584
 20
766.785237438512
 30
0.0
 10
71.25973305510173
 20
766.877738252291
 30
0.0
 10
71.2543931570996
 20
766.9705835756185
 30
0.0
 10
71.2543931570996
 20
767.0632566441717
 30
0.0
 10
71.2543931570996
 20
767.0632566441717
 30
0.0
 10
71.2543931570996
 20
766.5051511755612
 30
0.0
 10
71.2543931570996
 20
766.5051511755612
 30
0.0
 10
70.69215357390682
 20
747.6563447566623
 30
0.0
 10
41.92026637406855
 20
728.9117524761922
 30
0.0
 10
41.92026637406855
 20
712.8619138842846
 30
0.0
 10
41.92026637406855
 20
703.0061847200818
 30
0.0
 10
46.78336316104722
 20
694.2923324544652
 30
0.0
 10
54.23510469564261
 20
688.9703489488512
 30
0.0
 10
54.23510469564261
 20
688.9703489488512
 30
0.0
 10
54.20151501466143
 20
688.9064424275998
 30
0.0
 10
54.20151501466143
 20
688.9064424275998
 30
0.0
 10
55.23297660294523
 20
688.3752087037743
 30
0.0
 10
56.21155597553044
 20
687.7564695546234
 30
0.0
 10
57.12881264847822
 20
687.0614215404743
 30
0.0
 10
57.12881264847822
 20
687.0614215404743
 30
0.0
 10
57.14397106861332
 20
684.4939641300919
 30
0.0
 10
57.14397106861332
 20
684.4939641300919
 30
0.0
 10
58.5199422054221
 20
683.7360431233368
 30
0.0
 10
59.96378172329031
 20
683.0869871339158
 30
0.0
 10
61.46308727847104
 20
682.5543753718962
 30
0.0
 10
62.91967364963467
 20
680.4697480937715
 30
0.0
 10
63.98937579780474
 20
678.0955605401116
 30
0.0
 10
64.56711831068114
 20
675.5346488111511
 30
0.0
 10
64.60346406805053
 20
675.3699732469562
 30
0.0
 10
64.63946531587139
 20
675.2052976827612
 30
0.0
 10
64.67202146820699
 20
675.0394163351464
 30
0.0
 10
64.69389782453834
 20
674.9283120057471
 30
0.0
 10
64.71749672861229
 20
674.8175521858964
 30
0.0
 10
64.737650537201
 20
674.7057588374
 30
0.0
 10
64.9383273492168
 20
673.5700831106874
 30
0.0
 10
65.04478079971103
 20
672.4016789768649
 30
0.0
 10
65.04478079971103
 20
671.2082979007744
 30
0.0
 10
65.04478079971103
 20
670.0145723151353
 30
0.0
 10
64.9383273492168
 20
668.8459959265385
 30
0.0
 10
64.737650537201
 20
667.7104924546002
 30
0.0
 10
64.71749672861229
 20
667.5986991061038
 30
0.0
 10
64.69389782453834
 20
667.4879392862531
 30
0.0
 10
64.67202146820699
 20
667.3766627020794
 30
0.0
 10
64.63946531587139
 20
667.2109536092389
 30
0.0
 10
64.60346406805053
 20
667.046278045044
 30
0.0
 10
64.56711831068114
 20
666.8814302260748
 30
0.0
 10
63.98937579780474
 20
664.3206907518886
 30
0.0
 10
62.91967364963467
 20
661.9465031982287
 30
0.0
 10
61.46308727847104
 20
659.861875920104
 30
0.0
 10
59.96378172329031
 20
659.3292641580844
 30
0.0
 10
58.5199422054221
 20
658.680035913889
 30
0.0
 10
57.14397106861332
 20
657.9222871619083
 30
0.0
 10
57.14397106861332
 20
657.9222871619083
 30
0.0
 10
57.12881264847822
 20
655.3551742610745
 30
0.0
 10
57.12881264847822
 20
655.3551742610745
 30
0.0
 10
56.21155597553044
 20
654.6597817373768
 30
0.0
 10
55.23297660294523
 20
654.0410425882259
 30
0.0
 10
54.20151501466143
 20
653.5098088644004
 30
0.0
 10
54.20151501466143
 20
653.5098088644004
 30
0.0
 10
54.23510469564261
 20
653.445902343149
 30
0.0
 10
54.23510469564261
 20
653.445902343149
 30
0.0
 10
46.78336316104722
 20
648.123918837535
 30
0.0
 10
41.92026637406855
 20
639.4098943171441
 30
0.0
 10
41.92026637406855
 20
629.5543374077156
 30
0.0
 10
41.92026637406855
 20
613.5043265610336
 30
0.0
 10
70.69215357390682
 20
594.7599065353378
 30
0.0
 10
71.2543931570996
 20
575.9111001164389
 30
0.0
 10
71.2543931570996
 20
575.9111001164389
 30
0.0
 10
71.2543931570996
 20
575.3529946478285
 30
0.0
 10
71.2543931570996
 20
575.3529946478285
 30
0.0
 10
71.2543931570996
 20
575.4456677163816
 30
0.0
 10
71.25973305510173
 20
575.5385130397092
 30
0.0
 10
71.26111109329584
 20
575.6308415987138
 30
0.0
 10
71.26248913148994
 20
575.5385130397092
 30
0.0
 10
71.26782902949208
 20
575.4456677163816
 30
0.0
 10
71.26782902949208
 20
575.3529946478285
 30
0.0
 10
71.26782902949208
 20
575.3529946478285
 30
0.0
 10
71.26782902949208
 20
575.9111001164389
 30
0.0
 10
71.26782902949208
 20
575.9111001164389
 30
0.0
 10
71.83058537700764
 20
594.7595620257893
 30
0.0
 10
100.6019558125231
 20
613.5039820514852
 30
0.0
 10
100.6019558125231
 20
629.553992898167
 30
0.0
 10
100.6019558125231
 20
639.4095498075956
 30
0.0
 10
95.73903128031871
 20
648.1235743279865
 30
0.0
 10
88.28728974572331
 20
653.4455578336004
 30
0.0
 10
88.28728974572331
 20
653.4455578336004
 30
0.0
 10
88.32070717193024
 20
653.5098088644004
 30
0.0
 10
88.32070717193024
 20
653.5098088644004
 30
0.0
 10
87.28924558364645
 20
654.0410425882259
 30
0.0
 10
86.31101072060976
 20
654.6597817373768
 30
0.0
 10
85.39306502856493
 20
655.3551742610745
 30
0.0
 10
85.39306502856493
 20
655.3551742610745
 30
0.0
 10
85.37859562752688
 20
657.9222871619083
 30
0.0
 10
85.37859562752688
 20
657.9222871619083
 30
0.0
 10
84.00279674549236
 20
658.680035913889
 30
0.0
 10
82.55844046330137
 20
659.3292641580844
 30
0.0
 10
81.05913490812064
 20
659.861875920104
 30
0.0
 10
79.602548536957
 20
661.9461586886802
 30
0.0
 10
78.53336315310972
 20
664.3206907518886
 30
0.0
 10
77.95544838545906
 20
666.8814302260748
 30
0.0
 10
77.91875811854115
 20
667.046278045044
 30
0.0
 10
77.88275687072029
 20
667.2106090996905
 30
0.0
 10
77.85071748270747
 20
667.3763181925309
 30
0.0
 10
77.82849661682761
 20
667.4875947767046
 30
0.0
 10
77.80524222230217
 20
667.5983545965553
 30
0.0
 10
77.78474390416493
 20
667.7101479450516
 30
0.0
 10
77.58441160169765
 20
668.8459959265385
 30
0.0
 10
77.47778589642917
 20
670.0145723151353
 30
0.0
 10
77.47778589642917
 20
671.2079533912258
 30
0.0
 10
77.47778589642917
 20
671.2079533912258
 30
0.0
 10
77.47778589642917
 20
671.2082979007744
 30
0.0
 10
77.47778589642917
 20
671.2082979007744
 30
0.0
  0
SPLINE
  5
41
330
3C
100
AcDbEntity
  8
Layer 1
370
     0
100
AcDbSpline
210
0.0
220
0.0
230
1.0
 70
    11
 71
     3
 72
    32
 73
    28
 74
     0
 42
0.0000000001
 43
0.0000000001
 40
0.0
 40
0.0
 40
0.0
 40
0.0
 40
1.0
 40
1.0
 40
1.0
 40
2.0
 40
2.0
 40
2.0
 40
3.0
 40
3.0
 40
3.0
 40
4.0
 40
4.0
 40
4.0
 40
5.0
 40
5.0
 40
5.0
 40
6.0
 40
6.0
 40
6.0
 40
7.0
 40
7.0
 40
7.0
 40
8.0
 40
8.0
 40
8.0
 40
9.0
 40
9.0
 40
9.0
 40
9.0
 10
124.3486544828017
 20
762.4208182230233
 30
0.0
 10
118.4399712160497
 20
759.8922903916242
 30
0.0
 10
111.4429822855073
 20
758.428124810393
 30
0.0
 10
103.940770102053
 20
758.428124810393
 30
0.0
 10
93.26820879829754
 20
758.428124810393
 30
0.0
 10
83.61660154159586
 20
761.3898733990623
 30
0.0
 10
76.67042776946087
 20
766.1671873084582
 30
0.0
 10
83.17769637677502
 20
752.0159408384717
 30
0.0
 10
103.554230388608
 20
736.2561792864221
 30
0.0
 10
104.0268974891843
 20
720.4228649457624
 30
0.0
 10
104.0268974891843
 20
720.4228649457624
 30
0.0
 10
104.0268974891843
 20
719.8647594771519
 30
0.0
 10
104.0268974891843
 20
719.8647594771519
 30
0.0
 10
104.0268974891843
 20
719.9572602909309
 30
0.0
 10
104.0322373871864
 20
720.0501056142583
 30
0.0
 10
104.0336154253805
 20
720.1427786828116
 30
0.0
 10
104.0346489540261
 20
720.0501056142583
 30
0.0
 10
104.0399888520282
 20
719.9572602909309
 30
0.0
 10
104.0399888520282
 20
719.8647594771519
 30
0.0
 10
104.0399888520282
 20
719.8647594771519
 30
0.0
 10
104.0399888520282
 20
720.4228649457624
 30
0.0
 10
104.0399888520282
 20
720.4228649457624
 30
0.0
 10
104.5147230098956
 20
736.3274927629668
 30
0.0
 10
125.0743638467696
 20
752.1577065176898
 30
0.0
 10
131.485342035271
 20
766.3577010887925
 30
0.0
 10
129.3524834203529
 20
764.860462590903
 30
0.0
 10
126.9567640199101
 20
763.53685690547
 30
0.0
 10
124.3486544828017
 20
762.4208182230233
 30
0.0
  0
ENDBLK
  5
3F
330
3C
100
AcDbEntity
  8
0
100
AcDbBlockEnd
  0
BLOCK
  5
44
330
42
100
AcDbEntity
  8
0
100
AcDbBlockBegin
  2
block 3
 70
     0
 71
     0
 10
0.0
 20
0.0
 30
0.0
  3
block 3
  1

  0
SPLINE
  5
46
330
42
100
AcDbEntity
  8
Layer 1
370
     0
100
AcDbSpline
210
0.0
220
0.0
230
1.0
 70
    11
 71
     3
 72
    17
 73
    13
 74
     0
 42
0.0000000001
 43
0.0000000001
 40
0.0
 40
0.0
 40
0.0
 40
0.0
 40
1.0
 40
1.0
 40
1.0
 40
2.0
 40
2.0
 40
2.0
 40
3.0
 40
3.0
 40
3.0
 40
4.0
 40
4.0
 40
4.0
 40
4.0
 10
74.05783960822166
 20
627.552392421237
 30
0.0
 10
74.05783960822166
 20
626.1715981507488
 30
0.0
 10
72.93852808506398
 20
625.0522866275911
 30
0.0
 10
71.55773381457585
 20
625.0522866275911
 30
0.0
 10
70.17728405363624
 20
625.0522866275911
 30
0.0
 10
69.05797253047857
 20
626.1715981507488
 30
0.0
 10
69.05797253047857
 20
627.552392421237
 30
0.0
 10
69.05797253047857
 20
628.933186691725
 30
0.0
 10
70.17728405363624
 20
630.0521537053343
 30
0.0
 10
71.55773381457585
 20
630.0521537053343
 30
0.0
 10
72.93852808506398
 20
630.0521537053343
 30
0.0
 10
74.05783960822166
 20
628.933186691725
 30
0.0
 10
74.05783960822166
 20
627.552392421237
 30
0.0
  0
SPLINE
  5
47
330
42
100
AcDbEntity
  8
Layer 1
370
     0
100
AcDbSpline
210
0.0
220
0.0
230
1.0
 70
     8
 71
     3
 72
    23
 73
    19
 74
     0
 42
0.0000000001
 43
0.0000000001
 40
0.0
 40
0.0
 40
0.0
 40
0.0
 40
1.0
 40
1.0
 40
1.0
 40
2.0
 40
2.0
 40
2.0
 40
3.0
 40
3.0
 40
3.0
 40
4.0
 40
4.0
 40
4.0
 40
5.0
 40
5.0
 40
5.0
 40
6.0
 40
6.0
 40
6.0
 40
6.0
 10
64.05724417886417
 20
627.5522201664627
 30
0.0
 10
64.05724417886417
 20
627.5522201664627
 30
0.0
 10
47.31476913964701
 20
627.5522201664627
 30
0.0
 10
47.31476913964701
 20
627.5522201664627
 30
0.0
 10
47.31476913964701
 20
627.5522201664627
 30
0.0
 10
45.00724418362666
 20
637.8416868522584
 30
0.0
 10
51.23976642599214
 20
645.132197918144
 30
0.0
 10
57.4719441588091
 20
652.4230534935783
 30
0.0
 10
63.11638860184243
 20
653.3639090706
 30
0.0
 10
65.11557751193291
 20
656.5389090698063
 30
0.0
 10
67.1147664220234
 20
659.7139090690125
 30
0.0
 10
71.32450085022444
 20
666.4840384618512
 30
0.0
 10
67.43791637853982
 20
680.1453923538352
 30
0.0
 10
64.52749971260077
 20
690.3759479068332
 30
0.0
 10
57.99301485095314
 20
694.9065929794851
 30
0.0
 10
51.71002195972875
 20
699.930575725625
 30
0.0
 10
37.62819416377004
 20
711.1898367905186
 30
0.0
 10
53.12854002578037
 20
733.013655415705
 30
0.0
 10
69.2695013932729
 20
739.8156519417822
 30
0.0
  0
SPLINE
  5
48
330
42
100
AcDbEntity
  8
Layer 1
370
     0
100
AcDbSpline
210
0.0
220
0.0
230
1.0
 70
     8
 71
     3
 72
    14
 73
    10
 74
     0
 42
0.0000000001
 43
0.0000000001
 40
0.0
 40
0.0
 40
0.0
 40
0.0
 40
1.0
 40
1.0
 40
1.0
 40
2.0
 40
2.0
 40
2.0
 40
3.0
 40
3.0
 40
3.0
 40
3.0
 10
78.23622366750692
 20
627.5522201664627
 30
0.0
 10
78.23622366750692
 20
627.5522201664627
 30
0.0
 10
93.21480981827617
 20
627.5522201664627
 30
0.0
 10
93.21480981827617
 20
627.5522201664627
 30
0.0
 10
93.21480981827617
 20
627.5522201664627
 30
0.0
 10
93.02791338820136
 20
616.8856877798064
 30
0.0
 10
87.98739418373232
 20
610.770643293488
 30
0.0
 10
82.60753307396618
 20
604.2442544062307
 30
0.0
 10
78.63878307495837
 20
602.4460868177044
 30
0.0
 10
73.61772865998098
 20
601.5991100926558
 30
0.0
  0
SPLINE
  5
49
330
42
100
AcDbEntity
  8
Layer 1
370
     0
100
AcDbSpline
210
0.0
220
0.0
230
1.0
 70
    11
 71
     3
 72
    17
 73
    13
 74
     0
 42
0.0000000001
 43
0.0000000001
 40
0.0
 40
0.0
 40
0.0
 40
0.0
 40
1.0
 40
1.0
 40
1.0
 40
2.0
 40
2.0
 40
2.0
 40
3.0
 40
3.0
 40
3.0
 40
4.0
 40
4.0
 40
4.0
 40
4.0
 10
68.7611775544243
 20
741.322192197482
 30
0.0
 10
68.7611775544243
 20
742.7029864679702
 30
0.0
 10
69.88048907758197
 20
743.8222979911278
 30
0.0
 10
71.2612833480701
 20
743.8222979911278
 30
0.0
 10
72.6417331090097
 20
743.8222979911278
 30
0.0
 10
73.76104463216738
 20
742.7029864679702
 30
0.0
 10
73.76104463216738
 20
741.322192197482
 30
0.0
 10
73.76104463216738
 20
739.9413979269939
 30
0.0
 10
72.6417331090097
 20
738.8224309133847
 30
0.0
 10
71.2612833480701
 20
738.8224309133847
 30
0.0
 10
69.88048907758197
 20
738.8224309133847
 30
0.0
 10
68.7611775544243
 20
739.9413979269939
 30
0.0
 10
68.7611775544243
 20
741.322192197482
 30
0.0
  0
SPLINE
  5
4A
330
42
100
AcDbEntity
  8
Layer 1
370
     0
100
AcDbSpline
210
0.0
220
0.0
230
1.0
 70
    11
 71
     3
 72
    17
 73
    13
 74
     0
 42
0.0000000001
 43
0.0000000001
 40
0.0
 40
0.0
 40
0.0
 40
0.0
 40
1.0
 40
1.0
 40
1.0
 40
2.0
 40
2.0
 40
2.0
 40
3.0
 40
3.0
 40
3.0
 40
4.0
 40
4.0
 40
4.0
 40
4.0
 10
68.7611775544243
 20
600.7705646284533
 30
0.0
 10
68.7611775544243
 20
602.1513588989413
 30
0.0
 10
69.88048907758197
 20
603.270670422099
 30
0.0
 10
71.2612833480701
 20
603.270670422099
 30
0.0
 10
72.6417331090097
 20
603.270670422099
 30
0.0
 10
73.76104463216738
 20
602.1513588989413
 30
0.0
 10
73.76104463216738
 20
600.7705646284533
 30
0.0
 10
73.76104463216738
 20
599.3897703579651
 30
0.0
 10
72.6417331090097
 20
598.270803344356
 30
0.0
 10
71.2612833480701
 20
598.270803344356
 30
0.0
 10
69.88048907758197
 20
598.270803344356
 30
0.0
 10
68.7611775544243
 20
599.3897703579651
 30
0.0
 10
68.7611775544243
 20
600.7705646284533
 30
0.0
  0
SPLINE
  5
4B
330
42
100
AcDbEntity
  8
Layer 1
370
     0
100
AcDbSpline
210
0.0
220
0.0
230
1.0
 70
    11
 71
     3
 72
    17
 73
    13
 74
     0
 42
0.0000000001
 43
0.0000000001
 40
0.0
 40
0.0
 40
0.0
 40
0.0
 40
1.0
 40
1.0
 40
1.0
 40
2.0
 40
2.0
 40
2.0
 40
3.0
 40
3.0
 40
3.0
 40
4.0
 40
4.0
 40
4.0
 40
4.0
 10
106.5333767094778
 20
745.6058239238416
 30
0.0
 10
106.5333767094778
 20
744.2250296533535
 30
0.0
 10
105.4140651863201
 20
743.1057181301958
 30
0.0
 10
104.033270915832
 20
743.1057181301958
 30
0.0
 10
102.6528211548924
 20
743.1057181301958
 30
0.0
 10
101.5335096317347
 20
744.2250296533535
 30
0.0
 10
101.5335096317347
 20
745.6058239238416
 30
0.0
 10
101.5335096317347
 20
746.9866181943298
 30
0.0
 10
102.6528211548924
 20
748.1055852079389
 30
0.0
 10
104.033270915832
 20
748.1055852079389
 30
0.0
 10
105.4140651863201
 20
748.1055852079389
 30
0.0
 10
106.5333767094778
 20
746.9866181943298
 30
0.0
 10
106.5333767094778
 20
745.6058239238416
 30
0.0
  0
ENDBLK
  5
45
330
42
100
AcDbEntity
  8
0
100
AcDbBlockEnd
  0
ENDSEC
  0
SECTION
  2
ENTITIES
  0
INSERT
  5
3D
330
1F
100
AcDbEntity
  8
Layer 1
100
AcDbBlockReference
  2
block 2
 10
0.0
 20
0.0
 30
0.0
  0
INSERT
  5
43
330
1F
100
AcDbEntity
  8
Layer 1
100
AcDbBlockReference
  2
block 3
 10
0.0
 20
0.0
 30
0.0
  0
ENDSEC
  0
SECTION
  2
OBJECTS
  0
DICTIONARY
  5
C
330
0
100
AcDbDictionary
281
     1
  3
ACAD_GROUP
350
D
  3
ACAD_LAYOUT
350
1A
  3
ACAD_MLINESTYLE
350
17
  3
ACAD_PLOTSETTINGS
350
19
  3
ACAD_PLOTSTYLENAME
350
E
  3
ACAD_TABLESTYLE
350
4C
  3
ACAD_VISUALSTYLE
350
2A
  0
DICTIONARY
  5
D
102
{ACAD_REACTORS
330
C
102
}
330
C
100
AcDbDictionary
281
     1
  0
DICTIONARY
  5
1A
102
{ACAD_REACTORS
330
C
102
}
330
C
100
AcDbDictionary
281
     1
  3
Layout1
350
1E
  3
Layout2
350
26
  3
Model
350
22
  0
DICTIONARY
  5
17
102
{ACAD_REACTORS
330
C
102
}
330
C
100
AcDbDictionary
281
     1
  3
Standard
350
18
  0
DICTIONARY
  5
19
102
{ACAD_REACTORS
330
C
102
}
330
C
100
AcDbDictionary
281
     1
  0
ACDBDICTIONARYWDFLT
  5
E
102
{ACAD_REACTORS
330
C
102
}
330
C
100
AcDbDictionary
281
     1
  3
Normal
350
F
100
AcDbDictionaryWithDefault
340
F
  0
DICTIONARY
  5
4C
102
{ACAD_REACTORS
330
C
102
}
330
C
100
AcDbDictionary
281
     1
  0
DICTIONARY
  5
2A
102
{ACAD_REACTORS
330
C
102
}
330
C
100
AcDbDictionary
281
     1
  3
2dWireframe
350
2F
  3
3D Hidden
350
31
  3
3dWireframe
350
30
  3
Basic
350
32
  3
Brighten
350
36
  3
ColorChange
350
3A
  3
Conceptual
350
34
  3
Dim
350
35
  3
Facepattern
350
39
  3
Flat
350
2B
  3
FlatWithEdges
350
2C
  3
Gouraud
350
2D
  3
GouraudWithEdges
350
2E
  3
Linepattern
350
38
  3
Realistic
350
33
  3
Thicken
350
37
  0
LAYOUT
  5
1E
102
{ACAD_REACTORS
330
1A
102
}
330
1A
100
AcDbPlotSettings
  1

  2
none_device
  4

  6

 40
0.0
 41
0.0
 42
0.0
 43
0.0
 44
0.0
 45
0.0
 46
0.0
 47
0.0
 48
0.0
 49
0.0
140
0.0
141
0.0
142
1.0
143
1.0
 70
   688
 72
     0
 73
     0
 74
     5
  7

 75
    16
147
1.0
148
0.0
149
0.0
100
AcDbLayout
  1
Layout1
 70
     1
 71
     1
 10
0.0
 20
0.0
 11
12.0
 21
9.0
 12
0.0
 22
0.0
 32
0.0
 14
1.000000000000000E+20
 24
1.000000000000000E+20
 34
1.000000000000000E+20
 15
-1.000000000000000E+20
 25
-1.000000000000000E+20
 35
-1.000000000000000E+20
146
0.0
 13
0.0
 23
0.0
 33
0.0
 16
1.0
 26
0.0
 36
0.0
 17
0.0
 27
1.0
 37
0.0
 76
     0
330
1B
  0
LAYOUT
  5
26
102
{ACAD_REACTORS
330
1A
102
}
330
1A
100
AcDbPlotSettings
  1

  2
none_device
  4

  6

 40
0.0
 41
0.0
 42
0.0
 43
0.0
 44
0.0
 45
0.0
 46
0.0
 47
0.0
 48
0.0
 49
0.0
140
0.0
141
0.0
142
1.0
143
1.0
 70
   688
 72
     0
 73
     0
 74
     5
  7

 75
    16
147
1.0
148
0.0
149
0.0
100
AcDbLayout
  1
Layout2
 70
     1
 71
     2
 10
0.0
 20
0.0
 11
0.0
 21
0.0
 12
0.0
 22
0.0
 32
0.0
 14
0.0
 24
0.0
 34
0.0
 15
0.0
 25
0.0
 35
0.0
146
0.0
 13
0.0
 23
0.0
 33
0.0
 16
1.0
 26
0.0
 36
0.0
 17
0.0
 27
1.0
 37
0.0
 76
     0
330
23
  0
LAYOUT
  5
22
102
{ACAD_REACTORS
330
1A
102
}
330
1A
100
AcDbPlotSettings
  1

  2
none_device
  4

  6

 40
0.0
 41
0.0
 42
0.0
 43
0.0
 44
0.0
 45
0.0
 46
0.0
 47
0.0
 48
0.0
 49
0.0
140
0.0
141
0.0
142
1.0
143
1.0
 70
  1712
 72
     0
 73
     0
 74
     0
  7

 75
     0
147
1.0
148
0.0
149
0.0
100
AcDbLayout
  1
Model
 70
     1
 71
     0
 10
0.0
 20
0.0
 11
12.0
 21
9.0
 12
0.0
 22
0.0
 32
0.0
 14
1.000000000000000E+20
 24
1.000000000000000E+20
 34
1.000000000000000E+20
 15
-1.000000000000000E+20
 25
-1.000000000000000E+20
 35
-1.000000000000000E+20
146
0.0
 13
0.0
 23
0.0
 33
0.0
 16
1.0
 26
0.0
 36
0.0
 17
0.0
 27
1.0
 37
0.0
 76
     0
330
1F
331
29
  0
MLINESTYLE
  5
18
102
{ACAD_REACTORS
330
17
102
}
330
17
100
AcDbMlineStyle
  2
Standard
 70
     0
  3

 62
   256
 51
90.0
 52
90.0
 71
     2
 49
0.5
 62
   256
  6
BYLAYER
 49
-0.5
 62
   256
  6
BYLAYER
  0
ACDBPLACEHOLDER
  5
F
102
{ACAD_REACTORS
330
E
102
}
330
E
  0
VISUALSTYLE
  5
2F
102
{ACAD_REACTORS
330
2A
102
}
330
2A
100
AcDbVisualStyle
  2
2dWireframe
 70
     4
 71
     0
 72
     2
 73
     0
 90
        0
 40
-0.6
 41
-30.0
 62
     5
 63
     7
 74
     1
 91
        4
 64
     7
 65
   257
 75
     1
175
     1
 42
1.0
 92
        0
 66
   257
 43
1.0
 76
     1
 77
     6
 78
     2
 67
     7
 79
     5
170
     0
171
     0
290
     0
174
     0
 93
        1
 44
0.0
173
     0
291
     0
 45
0.0
1001
ACAD
1000
AcDbSavedByObjectVersion
1070
     0
  0
VISUALSTYLE
  5
31
102
{ACAD_REACTORS
330
2A
102
}
330
2A
100
AcDbVisualStyle
  2
3D Hidden
 70
     6
 71
     1
 72
     2
 73
     2
 90
        0
 40
-0.6
 41
-30.0
 62
     5
 63
     7
 74
     2
 91
        2
 64
     7
 65
   257
 75
     2
175
     1
 42
40.0
 92
        0
 66
   257
 43
1.0
 76
     1
 77
     6
 78
     2
 67
     7
 79
     3
170
     0
171
     0
290
     0
174
     0
 93
        1
 44
0.0
173
     0
291
     0
 45
0.0
1001
ACAD
1000
AcDbSavedByObjectVersion
1070
     0
  0
VISUALSTYLE
  5
30
102
{ACAD_REACTORS
330
2A
102
}
330
2A
100
AcDbVisualStyle
  2
3dWireframe
 70
     5
 71
     0
 72
     2
 73
     0
 90
        0
 40
-0.6
 41
-30.0
 62
     5
 63
     7
 74
     1
 91
        4
 64
     7
 65
   257
 75
     1
175
     1
 42
1.0
 92
        0
 66
   257
 43
1.0
 76
     1
 77
     6
 78
     2
 67
     7
 79
     5
170
     0
171
     0
290
     0
174
     0
 93
        1
 44
0.0
173
     0
291
     0
 45
0.0
1001
ACAD
1000
AcDbSavedByObjectVersion
1070
     0
  0
VISUALSTYLE
  5
32
102
{ACAD_REACTORS
330
2A
102
}
330
2A
100
AcDbVisualStyle
  2
Basic
 70
     7
 71
     1
 72
     0
 73
     1
 90
        0
 40
-0.6
 41
-30.0
 62
     5
 63
     7
 74
     0
 91
        4
 64
     7
 65
   257
 75
     1
175
     1
 42
1.0
 92
        8
 66
     7
 43
1.0
 76
     1
 77
     6
 78
     2
 67
     7
 79
     5
170
     0
171
     0
290
     0
174
     0
 93
        1
 44
0.0
173
     0
291
     1
 45
0.0
1001
ACAD
1000
AcDbSavedByObjectVersion
1070
     0
  0
VISUALSTYLE
  5
36
102
{ACAD_REACTORS
330
2A
102
}
330
2A
100
AcDbVisualStyle
  2
Brighten
 70
    12
 71
     2
 72
     2
 73
     0
 90
        0
 40
-0.6
 41
-30.0
 62
     5
 63
     7
 74
     1
 91
        4
 64
     7
 65
   257
 75
     1
175
     1
 42
1.0
 92
        8
 66
     7
 43
1.0
 76
     1
 77
     6
 78
     2
 67
     7
 79
     5
170
     0
171
     0
290
     0
174
     0
 93
        1
 44
50.0
173
     0
291
     1
 45
0.0
1001
ACAD
1000
AcDbSavedByObjectVersion
1070
     0
  0
VISUALSTYLE
  5
3A
102
{ACAD_REACTORS
330
2A
102
}
330
2A
100
AcDbVisualStyle
  2
ColorChange
 70
    16
 71
     2
 72
     2
 73
     3
 90
        0
 40
-0.6
 41
-30.0
 62
     5
 63
     8
 74
     1
 91
        4
 64
     7
 65
   257
 75
     1
175
     1
 42
1.0
 92
        8
 66
     8
 43
1.0
 76
     1
 77
     6
 78
     2
 67
     7
 79
     5
170
     0
171
     0
290
     0
174
     0
 93
        1
 44
0.0
173
     0
291
     1
 45
0.0
1001
ACAD
1000
AcDbSavedByObjectVersion
1070
     0
  0
VISUALSTYLE
  5
34
102
{ACAD_REACTORS
330
2A
102
}
330
2A
100
AcDbVisualStyle
  2
Conceptual
 70
     9
 71
     3
 72
     2
 73
     0
 90
        0
 40
-0.6
 41
-30.0
 62
     5
 63
     7
 74
     2
 91
        2
 64
     7
 65
   257
 75
     1
175
     1
 42
40.0
 92
        8
 66
     7
 43
1.0
 76
     1
 77
     6
 78
     2
 67
     7
 79
     3
170
     0
171
     0
290
     0
174
     0
 93
        1
 44
0.0
173
     0
291
     0
 45
0.0
1001
ACAD
1000
AcDbSavedByObjectVersion
1070
     0
  0
VISUALSTYLE
  5
35
102
{ACAD_REACTORS
330
2A
102
}
330
2A
100
AcDbVisualStyle
  2
Dim
 70
    11
 71
     2
 72
     2
 73
     0
 90
        0
 40
-0.6
 41
-30.0
 62
     5
 63
     7
 74
     1
 91
        4
 64
     7
 65
   257
 75
     1
175
     1
 42
1.0
 92
        8
 66
     7
 43
1.0
 76
     1
 77
     6
 78
     2
 67
     7
 79
     5
170
     0
171
     0
290
     0
174
     0
 93
        1
 44
-50.0
173
     0
291
     1
 45
0.0
1001
ACAD
1000
AcDbSavedByObjectVersion
1070
     0
  0
VISUALSTYLE
  5
39
102
{ACAD_REACTORS
330
2A
102
}
330
2A
100
AcDbVisualStyle
  2
Facepattern
 70
    15
 71
     2
 72
     2
 73
     0
 90
        0
 40
-0.6
 41
-30.0
 62
     5
 63
     7
 74
     1
 91
        4
 64
     7
 65
   257
 75
     1
175
     1
 42
1.0
 92
        8
 66
     7
 43
1.0
 76
     1
 77
     6
 78
     2
 67
     7
 79
     5
170
     0
171
     0
290
     0
174
     0
 93
        1
 44
0.0
173
     0
291
     1
 45
0.0
1001
ACAD
1000
AcDbSavedByObjectVersion
1070
     0
  0
VISUALSTYLE
  5
2B
102
{ACAD_REACTORS
330
2A
102
}
330
2A
100
AcDbVisualStyle
  2
Flat
 70
     0
 71
     2
 72
     1
 73
     1
 90
        2
 40
-0.6
 41
30.0
 62
     5
 63
     7
 74
     0
 91
        4
 64
     7
 65
   257
 75
     1
175
     1
 42
1.0
 92
        8
 66
     7
 43
1.0
 76
     1
 77
     6
 78
     2
 67
     7
 79
     5
170
     0
171
     0
290
     0
174
     0
 93
       13
 44
0.0
173
     0
291
     1
 45
0.0
1001
ACAD
1000
AcDbSavedByObjectVersion
1070
     0
  0
VISUALSTYLE
  5
2C
102
{ACAD_REACTORS
330
2A
102
}
330
2A
100
AcDbVisualStyle
  2
FlatWithEdges
 70
     1
 71
     2
 72
     1
 73
     1
 90
        2
 40
-0.6
 41
30.0
 62
     5
 63
     7
 74
     1
 91
        4
 64
     7
 65
   257
 75
     1
175
     1
 42
1.0
 92
        0
 66
   257
 43
1.0
 76
     1
 77
     6
 78
     2
 67
     7
 79
     5
170
     0
171
     0
290
     0
174
     0
 93
       13
 44
0.0
173
     0
291
     1
 45
0.0
1001
ACAD
1000
AcDbSavedByObjectVersion
1070
     0
  0
VISUALSTYLE
  5
2D
102
{ACAD_REACTORS
330
2A
102
}
330
2A
100
AcDbVisualStyle
  2
Gouraud
 70
     2
 71
     2
 72
     2
 73
     1
 90
        2
 40
-0.6
 41
30.0
 62
     5
 63
     7
 74
     0
 91
        4
 64
     7
 65
   257
 75
     1
175
     1
 42
1.0
 92
        0
 66
     7
 43
1.0
 76
     1
 77
     6
 78
     2
 67
     7
 79
     5
170
     0
171
     0
290
     0
174
     0
 93
       13
 44
0.0
173
     0
291
     1
 45
0.0
1001
ACAD
1000
AcDbSavedByObjectVersion
1070
     0
  0
VISUALSTYLE
  5
2E
102
{ACAD_REACTORS
330
2A
102
}
330
2A
100
AcDbVisualStyle
  2
GouraudWithEdges
 70
     3
 71
     2
 72
     2
 73
     1
 90
        2
 40
-0.6
 41
30.0
 62
     5
 63
     7
 74
     1
 91
        4
 64
     7
 65
   257
 75
     1
175
     1
 42
1.0
 92
        0
 66
   257
 43
1.0
 76
     1
 77
     6
 78
     2
 67
     7
 79
     5
170
     0
171
     0
290
     0
174
     0
 93
       13
 44
0.0
173
     0
291
     1
 45
0.0
1001
ACAD
1000
AcDbSavedByObjectVersion
1070
     0
  0
VISUALSTYLE
  5
38
102
{ACAD_REACTORS
330
2A
102
}
330
2A
100
AcDbVisualStyle
  2
Linepattern
 70
    14
 71
     2
 72
     2
 73
     0
 90
        0
 40
-0.6
 41
-30.0
 62
     5
 63
     7
 74
     1
 91
        4
 64
     7
 65
   257
 75
     7
175
     7
 42
1.0
 92
        8
 66
     7
 43
1.0
 76
     1
 77
     6
 78
     2
 67
     7
 79
     5
170
     0
171
     0
290
     0
174
     0
 93
        1
 44
0.0
173
     0
291
     1
 45
0.0
1001
ACAD
1000
AcDbSavedByObjectVersion
1070
     0
  0
VISUALSTYLE
  5
33
102
{ACAD_REACTORS
330
2A
102
}
330
2A
100
AcDbVisualStyle
  2
Realistic
 70
     8
 71
     2
 72
     2
 73
     0
 90
        0
 40
-0.6
 41
-30.0
 62
     5
 63
     7
 74
     1
 91
        0
 64
     7
 65
   257
 75
     1
175
     1
 42
1.0
 92
        8
 66
     8
 43
1.0
 76
     1
 77
     6
 78
     2
 67
     7
 79
     5
170
     0
171
     0
290
     0
174
     0
 93
       13
 44
0.0
173
     0
291
     0
 45
0.0
1001
ACAD
1000
AcDbSavedByObjectVersion
1070
     0
  0
VISUALSTYLE
  5
37
102
{ACAD_REACTORS
330
2A
102
}
330
2A
100
AcDbVisualStyle
  2
Thicken
 70
    13
 71
     2
 72
     2
 73
     0
 90
        0
 40
-0.6
 41
-30.0
 62
     5
 63
     7
 74
     1
 91
        4
 64
     7
 65
   257
 75
     1
175
     1
 42
1.0
 92
       12
 66
     7
 43
1.0
 76
     1
 77
     6
 78
     2
 67
     7
 79
     5
170
     0
171
     0
290
     0
174
     0
 93
        1
 44
0.0
173
     0
291
     1
 45
0.0
1001
ACAD
1000
AcDbSavedByObjectVersion
1070
     0
  0
ENDSEC
  0
EOF
