ISO-10303-21;
HEADER;
/* Generated by software containing ST-Developer
 * from STEP Tools, Inc. (www.steptools.com) 
 */

FILE_DESCRIPTION(
/* description */ (''),
/* implementation_level */ '2;1');

FILE_NAME(
/* name */ 'C:/Users/Tomas/Documents/Cat Feeder/3D Files/ShroudV2.step',

/* time_stamp */ '2022-07-12T14:58:05-07:00',
/* author */ (''),
/* organization */ (''),
/* preprocessor_version */ 'ST-DEVELOPER v19',
/* originating_system */ 'Autodesk Translation Framework v11.7.0.108',
/* authorisation */ '');

FILE_SCHEMA (('AUTOMOTIVE_DESIGN { 1 0 10303 214 3 1 1 }'));
ENDSEC;

DATA;
#10=MECHANICAL_DESIGN_GEOMETRIC_PRESENTATION_REPRESENTATION('',(#13),#453);
#11=SHAPE_REPRESENTATION_RELATIONSHIP('SRR','None',#460,#12);
#12=ADVANCED_BREP_SHAPE_REPRESENTATION('',(#14),#452);
#13=STYLED_ITEM('',(#469),#14);
#14=MANIFOLD_SOLID_BREP('Body1',#229);
#15=PLANE('',#243);
#16=PLANE('',#244);
#17=PLANE('',#245);
#18=PLANE('',#246);
#19=PLANE('',#247);
#20=PLANE('',#248);
#21=PLANE('',#249);
#22=PLANE('',#250);
#23=PLANE('',#251);
#24=PLANE('',#252);
#25=FACE_OUTER_BOUND('',#37,.T.);
#26=FACE_OUTER_BOUND('',#38,.T.);
#27=FACE_OUTER_BOUND('',#39,.T.);
#28=FACE_OUTER_BOUND('',#40,.T.);
#29=FACE_OUTER_BOUND('',#41,.T.);
#30=FACE_OUTER_BOUND('',#42,.T.);
#31=FACE_OUTER_BOUND('',#43,.T.);
#32=FACE_OUTER_BOUND('',#44,.T.);
#33=FACE_OUTER_BOUND('',#45,.T.);
#34=FACE_OUTER_BOUND('',#46,.T.);
#35=FACE_OUTER_BOUND('',#47,.T.);
#36=FACE_OUTER_BOUND('',#48,.T.);
#37=EDGE_LOOP('',(#155,#156,#157,#158));
#38=EDGE_LOOP('',(#159,#160,#161,#162));
#39=EDGE_LOOP('',(#163,#164,#165,#166));
#40=EDGE_LOOP('',(#167,#168,#169,#170));
#41=EDGE_LOOP('',(#171,#172,#173,#174,#175,#176,#177,#178,#179,#180));
#42=EDGE_LOOP('',(#181,#182,#183,#184));
#43=EDGE_LOOP('',(#185,#186,#187,#188));
#44=EDGE_LOOP('',(#189,#190,#191,#192));
#45=EDGE_LOOP('',(#193,#194,#195,#196));
#46=EDGE_LOOP('',(#197,#198,#199,#200));
#47=EDGE_LOOP('',(#201,#202,#203,#204));
#48=EDGE_LOOP('',(#205,#206,#207,#208,#209,#210,#211,#212,#213,#214));
#49=LINE('',#335,#75);
#50=LINE('',#347,#76);
#51=LINE('',#350,#77);
#52=LINE('',#352,#78);
#53=LINE('',#353,#79);
#54=LINE('',#356,#80);
#55=LINE('',#358,#81);
#56=LINE('',#359,#82);
#57=LINE('',#362,#83);
#58=LINE('',#364,#84);
#59=LINE('',#365,#85);
#60=LINE('',#368,#86);
#61=LINE('',#370,#87);
#62=LINE('',#372,#88);
#63=LINE('',#374,#89);
#64=LINE('',#389,#90);
#65=LINE('',#392,#91);
#66=LINE('',#393,#92);
#67=LINE('',#396,#93);
#68=LINE('',#397,#94);
#69=LINE('',#425,#95);
#70=LINE('',#441,#96);
#71=LINE('',#442,#97);
#72=LINE('',#445,#98);
#73=LINE('',#446,#99);
#74=LINE('',#448,#100);
#75=VECTOR('',#255,1.);
#76=VECTOR('',#256,1.);
#77=VECTOR('',#259,1.);
#78=VECTOR('',#260,1.);
#79=VECTOR('',#261,1.);
#80=VECTOR('',#264,1.);
#81=VECTOR('',#265,1.);
#82=VECTOR('',#266,1.);
#83=VECTOR('',#269,1.);
#84=VECTOR('',#270,1.);
#85=VECTOR('',#271,1.);
#86=VECTOR('',#274,1.);
#87=VECTOR('',#275,1.);
#88=VECTOR('',#276,1.);
#89=VECTOR('',#277,1.);
#90=VECTOR('',#278,1.);
#91=VECTOR('',#281,1.);
#92=VECTOR('',#282,1.);
#93=VECTOR('',#285,1.);
#94=VECTOR('',#286,1.);
#95=VECTOR('',#287,1.);
#96=VECTOR('',#290,1.);
#97=VECTOR('',#291,1.);
#98=VECTOR('',#294,1.);
#99=VECTOR('',#295,1.);
#100=VECTOR('',#298,1.);
#101=B_SPLINE_CURVE_WITH_KNOTS('',3,(#324,#325,#326,#327,#328,#329,#330,
#331,#332,#333),.UNSPECIFIED.,.F.,.F.,(4,3,3,4),(-1.,-0.5,-0.0396164564653483,
0.),.UNSPECIFIED.);
#102=B_SPLINE_CURVE_WITH_KNOTS('',3,(#337,#338,#339,#340,#341,#342,#343,
#344,#345,#346),.UNSPECIFIED.,.F.,.F.,(4,3,3,4),(0.,0.0396164564653483,
0.5,1.),.UNSPECIFIED.);
#103=B_SPLINE_CURVE_WITH_KNOTS('',3,(#376,#377,#378,#379,#380,#381,#382,
#383,#384,#385,#386,#387,#388),.UNSPECIFIED.,.F.,.F.,(4,3,3,3,4),(0.,0.663166121310389,
1.22185506249983,1.73809428891378,2.11720864192521),.UNSPECIFIED.);
#104=B_SPLINE_CURVE_WITH_KNOTS('',3,(#426,#427,#428,#429,#430,#431,#432,
#433,#434,#435,#436,#437,#438),.UNSPECIFIED.,.F.,.F.,(4,3,3,3,4),(-1.,-0.686773373120486,
-0.422893408658685,-0.179063293765271,0.),.UNSPECIFIED.);
#105=VERTEX_POINT('',#322);
#106=VERTEX_POINT('',#323);
#107=VERTEX_POINT('',#334);
#108=VERTEX_POINT('',#336);
#109=VERTEX_POINT('',#349);
#110=VERTEX_POINT('',#351);
#111=VERTEX_POINT('',#355);
#112=VERTEX_POINT('',#357);
#113=VERTEX_POINT('',#361);
#114=VERTEX_POINT('',#363);
#115=VERTEX_POINT('',#367);
#116=VERTEX_POINT('',#369);
#117=VERTEX_POINT('',#371);
#118=VERTEX_POINT('',#373);
#119=VERTEX_POINT('',#375);
#120=VERTEX_POINT('',#391);
#121=VERTEX_POINT('',#395);
#122=VERTEX_POINT('',#424);
#123=VERTEX_POINT('',#440);
#124=VERTEX_POINT('',#444);
#125=EDGE_CURVE('',#105,#106,#101,.T.);
#126=EDGE_CURVE('',#107,#105,#49,.T.);
#127=EDGE_CURVE('',#108,#107,#102,.T.);
#128=EDGE_CURVE('',#108,#106,#50,.T.);
#129=EDGE_CURVE('',#106,#109,#51,.T.);
#130=EDGE_CURVE('',#110,#108,#52,.T.);
#131=EDGE_CURVE('',#110,#109,#53,.T.);
#132=EDGE_CURVE('',#109,#111,#54,.T.);
#133=EDGE_CURVE('',#112,#110,#55,.T.);
#134=EDGE_CURVE('',#112,#111,#56,.T.);
#135=EDGE_CURVE('',#111,#113,#57,.T.);
#136=EDGE_CURVE('',#114,#112,#58,.T.);
#137=EDGE_CURVE('',#113,#114,#59,.T.);
#138=EDGE_CURVE('',#115,#113,#60,.T.);
#139=EDGE_CURVE('',#116,#115,#61,.T.);
#140=EDGE_CURVE('',#117,#116,#62,.T.);
#141=EDGE_CURVE('',#118,#117,#63,.T.);
#142=EDGE_CURVE('',#119,#118,#103,.T.);
#143=EDGE_CURVE('',#105,#119,#64,.T.);
#144=EDGE_CURVE('',#120,#114,#65,.T.);
#145=EDGE_CURVE('',#120,#115,#66,.T.);
#146=EDGE_CURVE('',#121,#119,#67,.T.);
#147=EDGE_CURVE('',#121,#107,#68,.T.);
#148=EDGE_CURVE('',#122,#118,#69,.T.);
#149=EDGE_CURVE('',#121,#122,#104,.T.);
#150=EDGE_CURVE('',#123,#117,#70,.T.);
#151=EDGE_CURVE('',#122,#123,#71,.T.);
#152=EDGE_CURVE('',#124,#116,#72,.T.);
#153=EDGE_CURVE('',#123,#124,#73,.T.);
#154=EDGE_CURVE('',#124,#120,#74,.T.);
#155=ORIENTED_EDGE('',*,*,#125,.F.);
#156=ORIENTED_EDGE('',*,*,#126,.F.);
#157=ORIENTED_EDGE('',*,*,#127,.F.);
#158=ORIENTED_EDGE('',*,*,#128,.T.);
#159=ORIENTED_EDGE('',*,*,#129,.F.);
#160=ORIENTED_EDGE('',*,*,#128,.F.);
#161=ORIENTED_EDGE('',*,*,#130,.F.);
#162=ORIENTED_EDGE('',*,*,#131,.T.);
#163=ORIENTED_EDGE('',*,*,#132,.F.);
#164=ORIENTED_EDGE('',*,*,#131,.F.);
#165=ORIENTED_EDGE('',*,*,#133,.F.);
#166=ORIENTED_EDGE('',*,*,#134,.T.);
#167=ORIENTED_EDGE('',*,*,#135,.F.);
#168=ORIENTED_EDGE('',*,*,#134,.F.);
#169=ORIENTED_EDGE('',*,*,#136,.F.);
#170=ORIENTED_EDGE('',*,*,#137,.F.);
#171=ORIENTED_EDGE('',*,*,#125,.T.);
#172=ORIENTED_EDGE('',*,*,#129,.T.);
#173=ORIENTED_EDGE('',*,*,#132,.T.);
#174=ORIENTED_EDGE('',*,*,#135,.T.);
#175=ORIENTED_EDGE('',*,*,#138,.F.);
#176=ORIENTED_EDGE('',*,*,#139,.F.);
#177=ORIENTED_EDGE('',*,*,#140,.F.);
#178=ORIENTED_EDGE('',*,*,#141,.F.);
#179=ORIENTED_EDGE('',*,*,#142,.F.);
#180=ORIENTED_EDGE('',*,*,#143,.F.);
#181=ORIENTED_EDGE('',*,*,#137,.T.);
#182=ORIENTED_EDGE('',*,*,#144,.F.);
#183=ORIENTED_EDGE('',*,*,#145,.T.);
#184=ORIENTED_EDGE('',*,*,#138,.T.);
#185=ORIENTED_EDGE('',*,*,#126,.T.);
#186=ORIENTED_EDGE('',*,*,#143,.T.);
#187=ORIENTED_EDGE('',*,*,#146,.F.);
#188=ORIENTED_EDGE('',*,*,#147,.T.);
#189=ORIENTED_EDGE('',*,*,#142,.T.);
#190=ORIENTED_EDGE('',*,*,#148,.F.);
#191=ORIENTED_EDGE('',*,*,#149,.F.);
#192=ORIENTED_EDGE('',*,*,#146,.T.);
#193=ORIENTED_EDGE('',*,*,#141,.T.);
#194=ORIENTED_EDGE('',*,*,#150,.F.);
#195=ORIENTED_EDGE('',*,*,#151,.F.);
#196=ORIENTED_EDGE('',*,*,#148,.T.);
#197=ORIENTED_EDGE('',*,*,#140,.T.);
#198=ORIENTED_EDGE('',*,*,#152,.F.);
#199=ORIENTED_EDGE('',*,*,#153,.F.);
#200=ORIENTED_EDGE('',*,*,#150,.T.);
#201=ORIENTED_EDGE('',*,*,#139,.T.);
#202=ORIENTED_EDGE('',*,*,#145,.F.);
#203=ORIENTED_EDGE('',*,*,#154,.F.);
#204=ORIENTED_EDGE('',*,*,#152,.T.);
#205=ORIENTED_EDGE('',*,*,#127,.T.);
#206=ORIENTED_EDGE('',*,*,#147,.F.);
#207=ORIENTED_EDGE('',*,*,#149,.T.);
#208=ORIENTED_EDGE('',*,*,#151,.T.);
#209=ORIENTED_EDGE('',*,*,#153,.T.);
#210=ORIENTED_EDGE('',*,*,#154,.T.);
#211=ORIENTED_EDGE('',*,*,#144,.T.);
#212=ORIENTED_EDGE('',*,*,#136,.T.);
#213=ORIENTED_EDGE('',*,*,#133,.T.);
#214=ORIENTED_EDGE('',*,*,#130,.T.);
#215=B_SPLINE_SURFACE_WITH_KNOTS('',3,1,((#302,#303),(#304,#305),(#306,
#307),(#308,#309),(#310,#311),(#312,#313),(#314,#315),(#316,#317),(#318,
#319),(#320,#321)),.UNSPECIFIED.,.F.,.F.,.F.,(4,3,3,4),(2,2),(0.,0.0396164564653483,
0.5,1.),(0.,6.996),.UNSPECIFIED.);
#216=B_SPLINE_SURFACE_WITH_KNOTS('',3,1,((#398,#399),(#400,#401),(#402,
#403),(#404,#405),(#406,#407),(#408,#409),(#410,#411),(#412,#413),(#414,
#415),(#416,#417),(#418,#419),(#420,#421),(#422,#423)),.UNSPECIFIED.,.F.,
 .F.,.F.,(4,3,3,3,4),(2,2),(0.,0.179063293765271,0.422893408658685,0.686773373120486,
1.),(0.,6.996),.UNSPECIFIED.);
#217=ADVANCED_FACE('',(#25),#215,.F.);
#218=ADVANCED_FACE('',(#26),#15,.F.);
#219=ADVANCED_FACE('',(#27),#16,.F.);
#220=ADVANCED_FACE('',(#28),#17,.F.);
#221=ADVANCED_FACE('',(#29),#18,.T.);
#222=ADVANCED_FACE('',(#30),#19,.T.);
#223=ADVANCED_FACE('',(#31),#20,.T.);
#224=ADVANCED_FACE('',(#32),#216,.T.);
#225=ADVANCED_FACE('',(#33),#21,.T.);
#226=ADVANCED_FACE('',(#34),#22,.T.);
#227=ADVANCED_FACE('',(#35),#23,.T.);
#228=ADVANCED_FACE('',(#36),#24,.T.);
#229=CLOSED_SHELL('',(#217,#218,#219,#220,#221,#222,#223,#224,#225,#226,
#227,#228));
#230=DERIVED_UNIT_ELEMENT(#232,1.);
#231=DERIVED_UNIT_ELEMENT(#455,-3.);
#232=(
MASS_UNIT()
NAMED_UNIT(*)
SI_UNIT(.KILO.,.GRAM.)
);
#233=DERIVED_UNIT((#230,#231));
#234=MEASURE_REPRESENTATION_ITEM('density measure',
POSITIVE_RATIO_MEASURE(7850.),#233);
#235=PROPERTY_DEFINITION_REPRESENTATION(#240,#237);
#236=PROPERTY_DEFINITION_REPRESENTATION(#241,#238);
#237=REPRESENTATION('material name',(#239),#452);
#238=REPRESENTATION('density',(#234),#452);
#239=DESCRIPTIVE_REPRESENTATION_ITEM('Steel','Steel');
#240=PROPERTY_DEFINITION('material property','material name',#462);
#241=PROPERTY_DEFINITION('material property','density of part',#462);
#242=AXIS2_PLACEMENT_3D('placement',#301,#253,#254);
#243=AXIS2_PLACEMENT_3D('',#348,#257,#258);
#244=AXIS2_PLACEMENT_3D('',#354,#262,#263);
#245=AXIS2_PLACEMENT_3D('',#360,#267,#268);
#246=AXIS2_PLACEMENT_3D('',#366,#272,#273);
#247=AXIS2_PLACEMENT_3D('',#390,#279,#280);
#248=AXIS2_PLACEMENT_3D('',#394,#283,#284);
#249=AXIS2_PLACEMENT_3D('',#439,#288,#289);
#250=AXIS2_PLACEMENT_3D('',#443,#292,#293);
#251=AXIS2_PLACEMENT_3D('',#447,#296,#297);
#252=AXIS2_PLACEMENT_3D('',#449,#299,#300);
#253=DIRECTION('axis',(0.,0.,1.));
#254=DIRECTION('refdir',(1.,0.,0.));
#255=DIRECTION('',(1.,0.,0.));
#256=DIRECTION('',(1.,0.,0.));
#257=DIRECTION('center_axis',(0.,-7.45058771821173E-9,-1.));
#258=DIRECTION('ref_axis',(0.,1.,-7.45058771821173E-9));
#259=DIRECTION('',(0.,-1.,7.45058771821173E-9));
#260=DIRECTION('',(0.,1.,-7.45058771821173E-9));
#261=DIRECTION('',(1.,0.,0.));
#262=DIRECTION('center_axis',(0.,0.,-1.));
#263=DIRECTION('ref_axis',(0.,1.,0.));
#264=DIRECTION('',(0.,-1.,0.));
#265=DIRECTION('',(0.,1.,0.));
#266=DIRECTION('',(1.,0.,0.));
#267=DIRECTION('center_axis',(0.,-1.,0.));
#268=DIRECTION('ref_axis',(0.,0.,-1.));
#269=DIRECTION('',(0.,0.,1.));
#270=DIRECTION('',(0.,0.,-1.));
#271=DIRECTION('',(-1.,0.,0.));
#272=DIRECTION('center_axis',(1.,0.,0.));
#273=DIRECTION('ref_axis',(0.,0.,-1.));
#274=DIRECTION('',(0.,1.,0.));
#275=DIRECTION('',(0.,0.,1.));
#276=DIRECTION('',(0.,-1.,-2.96059467519252E-16));
#277=DIRECTION('',(0.,-1.,7.45058771821171E-9));
#278=DIRECTION('',(0.,1.,0.));
#279=DIRECTION('center_axis',(0.,0.,1.));
#280=DIRECTION('ref_axis',(0.,-1.,0.));
#281=DIRECTION('',(0.,1.,0.));
#282=DIRECTION('',(1.,0.,0.));
#283=DIRECTION('center_axis',(0.,0.,1.));
#284=DIRECTION('ref_axis',(0.,-1.,0.));
#285=DIRECTION('',(1.,0.,0.));
#286=DIRECTION('',(0.,-1.,0.));
#287=DIRECTION('',(1.,0.,0.));
#288=DIRECTION('center_axis',(0.,-7.45058771821171E-9,-1.));
#289=DIRECTION('ref_axis',(0.,1.,-7.45058771821171E-9));
#290=DIRECTION('',(1.,0.,0.));
#291=DIRECTION('',(0.,-1.,7.45058771821171E-9));
#292=DIRECTION('center_axis',(0.,2.96059467519252E-16,-1.));
#293=DIRECTION('ref_axis',(0.,1.,2.96059467519252E-16));
#294=DIRECTION('',(1.,0.,0.));
#295=DIRECTION('',(0.,-1.,-2.96059467519252E-16));
#296=DIRECTION('center_axis',(0.,-1.,0.));
#297=DIRECTION('ref_axis',(0.,0.,-1.));
#298=DIRECTION('',(0.,0.,1.));
#299=DIRECTION('center_axis',(-1.,0.,0.));
#300=DIRECTION('ref_axis',(0.,0.,1.));
#301=CARTESIAN_POINT('',(0.,0.,0.));
#302=CARTESIAN_POINT('Ctrl Pts',(5.82000000000003,6.00000001467766,-0.929999994412059));
#303=CARTESIAN_POINT('Ctrl Pts',(12.816,6.00000001467766,-0.929999994412059));
#304=CARTESIAN_POINT('Ctrl Pts',(5.82000000000003,6.02952447299532,-0.929999994632033));
#305=CARTESIAN_POINT('Ctrl Pts',(12.816,6.02952447299532,-0.929999994632033));
#306=CARTESIAN_POINT('Ctrl Pts',(5.82000000000003,6.05821006484467,-0.928847119840141));
#307=CARTESIAN_POINT('Ctrl Pts',(12.816,6.05821006484467,-0.928847119840141));
#308=CARTESIAN_POINT('Ctrl Pts',(5.82000000000003,6.08605755090757,-0.926543151023017));
#309=CARTESIAN_POINT('Ctrl Pts',(12.816,6.08605755090757,-0.926543151023017));
#310=CARTESIAN_POINT('Ctrl Pts',(5.82000000000003,6.40967368056782,-0.899768688517801));
#311=CARTESIAN_POINT('Ctrl Pts',(12.816,6.40967368056782,-0.899768688517801));
#312=CARTESIAN_POINT('Ctrl Pts',(5.82000000000003,6.61230694569626,-0.711338940953554));
#313=CARTESIAN_POINT('Ctrl Pts',(12.816,6.61230694569626,-0.711338940953554));
#314=CARTESIAN_POINT('Ctrl Pts',(5.82000000000003,6.77353803576457,-0.476275816037336));
#315=CARTESIAN_POINT('Ctrl Pts',(12.816,6.77353803576457,-0.476275816037336));
#316=CARTESIAN_POINT('Ctrl Pts',(5.82000000000003,6.94864321961893,-0.22098527816158));
#317=CARTESIAN_POINT('Ctrl Pts',(12.816,6.94864321961893,-0.22098527816158));
#318=CARTESIAN_POINT('Ctrl Pts',(5.82000000000003,7.08,0.0930366823416168));
#319=CARTESIAN_POINT('Ctrl Pts',(12.816,7.08,0.0930366823416168));
#320=CARTESIAN_POINT('Ctrl Pts',(5.82000000000003,7.08,0.5));
#321=CARTESIAN_POINT('Ctrl Pts',(12.816,7.08,0.5));
#322=CARTESIAN_POINT('',(12.18,7.08,0.5));
#323=CARTESIAN_POINT('',(12.18,6.00000001467766,-0.929999994412059));
#324=CARTESIAN_POINT('Ctrl Pts',(12.18,7.08,0.5));
#325=CARTESIAN_POINT('Ctrl Pts',(12.18,7.08,0.0930366823416168));
#326=CARTESIAN_POINT('Ctrl Pts',(12.18,6.94864321961893,-0.22098527816158));
#327=CARTESIAN_POINT('Ctrl Pts',(12.18,6.77353803576457,-0.476275816037336));
#328=CARTESIAN_POINT('Ctrl Pts',(12.18,6.61230694569626,-0.711338940953554));
#329=CARTESIAN_POINT('Ctrl Pts',(12.18,6.40967368056782,-0.899768688517801));
#330=CARTESIAN_POINT('Ctrl Pts',(12.18,6.08605755090757,-0.926543151023017));
#331=CARTESIAN_POINT('Ctrl Pts',(12.18,6.05821006484467,-0.928847119840141));
#332=CARTESIAN_POINT('Ctrl Pts',(12.18,6.02952447299532,-0.929999994632033));
#333=CARTESIAN_POINT('Ctrl Pts',(12.18,6.00000001467766,-0.929999994412059));
#334=CARTESIAN_POINT('',(5.82000000000003,7.08,0.5));
#335=CARTESIAN_POINT('',(5.82000000000003,7.08,0.5));
#336=CARTESIAN_POINT('',(5.82000000000003,6.00000001467766,-0.929999994412059));
#337=CARTESIAN_POINT('Ctrl Pts',(5.82000000000003,6.00000001467766,-0.929999994412059));
#338=CARTESIAN_POINT('Ctrl Pts',(5.82000000000003,6.02952447299532,-0.929999994632033));
#339=CARTESIAN_POINT('Ctrl Pts',(5.82000000000003,6.05821006484467,-0.928847119840141));
#340=CARTESIAN_POINT('Ctrl Pts',(5.82000000000003,6.08605755090757,-0.926543151023017));
#341=CARTESIAN_POINT('Ctrl Pts',(5.82000000000003,6.40967368056782,-0.899768688517801));
#342=CARTESIAN_POINT('Ctrl Pts',(5.82000000000003,6.61230694569626,-0.711338940953554));
#343=CARTESIAN_POINT('Ctrl Pts',(5.82000000000003,6.77353803576457,-0.476275816037336));
#344=CARTESIAN_POINT('Ctrl Pts',(5.82000000000003,6.94864321961893,-0.22098527816158));
#345=CARTESIAN_POINT('Ctrl Pts',(5.82000000000003,7.08,0.0930366823416168));
#346=CARTESIAN_POINT('Ctrl Pts',(5.82000000000003,7.08,0.5));
#347=CARTESIAN_POINT('',(5.82000000000003,6.00000001467766,-0.929999994412059));
#348=CARTESIAN_POINT('Origin',(5.82000000000003,5.50000001574205,-0.929999990686765));
#349=CARTESIAN_POINT('',(12.18,5.50000001574205,-0.929999990686765));
#350=CARTESIAN_POINT('',(12.18,5.75000000552409,-0.929999992549412));
#351=CARTESIAN_POINT('',(5.82000000000003,5.50000001574205,-0.929999990686765));
#352=CARTESIAN_POINT('',(5.82000000000003,5.75000000552409,-0.929999992549412));
#353=CARTESIAN_POINT('',(5.82000000000003,5.50000001574205,-0.929999990686765));
#354=CARTESIAN_POINT('Origin',(5.82000000000003,4.92,-0.929999990686765));
#355=CARTESIAN_POINT('',(12.18,4.92,-0.929999990686765));
#356=CARTESIAN_POINT('',(12.18,5.46,-0.929999990686765));
#357=CARTESIAN_POINT('',(5.82000000000003,4.92,-0.929999990686765));
#358=CARTESIAN_POINT('',(5.82000000000003,5.46,-0.929999990686765));
#359=CARTESIAN_POINT('',(5.82000000000003,4.92,-0.929999990686765));
#360=CARTESIAN_POINT('Origin',(5.82000000000003,4.92,0.));
#361=CARTESIAN_POINT('',(12.18,4.92,0.));
#362=CARTESIAN_POINT('',(12.18,4.92,-0.149999998888771));
#363=CARTESIAN_POINT('',(5.82000000000003,4.92,0.));
#364=CARTESIAN_POINT('',(5.82000000000003,4.92,-0.149999998888771));
#365=CARTESIAN_POINT('',(5.82000000000003,4.92,0.));
#366=CARTESIAN_POINT('Origin',(12.18,6.,-0.299999997777541));
#367=CARTESIAN_POINT('',(12.18,4.75,0.));
#368=CARTESIAN_POINT('',(12.18,5.475,0.));
#369=CARTESIAN_POINT('',(12.18,4.75,-1.09999999068676));
#370=CARTESIAN_POINT('',(12.18,4.75,-0.149999998888771));
#371=CARTESIAN_POINT('',(12.18,5.50000001447544,-1.09999999068676));
#372=CARTESIAN_POINT('',(12.18,5.375,-1.09999999068676));
#373=CARTESIAN_POINT('',(12.18,6.00000001341106,-1.09999999441206));
#374=CARTESIAN_POINT('',(12.18,5.75000000425749,-1.09999999254941));
#375=CARTESIAN_POINT('',(12.18,7.25,0.5));
#376=CARTESIAN_POINT('Ctrl Pts',(12.18,7.25,0.5));
#377=CARTESIAN_POINT('Ctrl Pts',(12.18,7.25,0.223265698271436));
#378=CARTESIAN_POINT('Ctrl Pts',(12.18,7.19214672283266,-0.0214727417409485));
#379=CARTESIAN_POINT('Ctrl Pts',(12.18,7.1023830732077,-0.230356337157434));
#380=CARTESIAN_POINT('Ctrl Pts',(12.18,7.02676105821818,-0.406331784341744));
#381=CARTESIAN_POINT('Ctrl Pts',(12.18,6.93347026571617,-0.559729024262789));
#382=CARTESIAN_POINT('Ctrl Pts',(12.18,6.81971377616609,-0.69764937886062));
#383=CARTESIAN_POINT('Ctrl Pts',(12.18,6.71460061240833,-0.825090414318988));
#384=CARTESIAN_POINT('Ctrl Pts',(12.18,6.5865793538203,-0.941695384936147));
#385=CARTESIAN_POINT('Ctrl Pts',(12.18,6.41889760201844,-1.01633084705093));
#386=CARTESIAN_POINT('Ctrl Pts',(12.18,6.29575593514477,-1.07114143385563));
#387=CARTESIAN_POINT('Ctrl Pts',(12.18,6.15341396852033,-1.09999999555508));
#388=CARTESIAN_POINT('Ctrl Pts',(12.18,6.00000001341106,-1.09999999441206));
#389=CARTESIAN_POINT('',(12.18,6.625,0.5));
#390=CARTESIAN_POINT('Origin',(5.82000000000003,4.95,0.));
#391=CARTESIAN_POINT('',(5.82000000000003,4.75,0.));
#392=CARTESIAN_POINT('',(5.82000000000003,4.75,0.));
#393=CARTESIAN_POINT('',(5.82000000000003,4.75,0.));
#394=CARTESIAN_POINT('Origin',(5.82000000000003,7.25,0.5));
#395=CARTESIAN_POINT('',(5.82000000000003,7.25,0.5));
#396=CARTESIAN_POINT('',(5.82000000000003,7.25,0.5));
#397=CARTESIAN_POINT('',(5.82000000000003,7.25,0.5));
#398=CARTESIAN_POINT('Ctrl Pts',(5.82000000000003,6.00000001341106,-1.09999999441206));
#399=CARTESIAN_POINT('Ctrl Pts',(12.816,6.00000001341106,-1.09999999441206));
#400=CARTESIAN_POINT('Ctrl Pts',(5.82000000000003,6.15341396852033,-1.09999999555508));
#401=CARTESIAN_POINT('Ctrl Pts',(12.816,6.15341396852033,-1.09999999555508));
#402=CARTESIAN_POINT('Ctrl Pts',(5.82000000000003,6.29575593514477,-1.07114143385563));
#403=CARTESIAN_POINT('Ctrl Pts',(12.816,6.29575593514477,-1.07114143385563));
#404=CARTESIAN_POINT('Ctrl Pts',(5.82000000000003,6.41889760201844,-1.01633084705093));
#405=CARTESIAN_POINT('Ctrl Pts',(12.816,6.41889760201844,-1.01633084705093));
#406=CARTESIAN_POINT('Ctrl Pts',(5.82000000000003,6.5865793538203,-0.941695384936147));
#407=CARTESIAN_POINT('Ctrl Pts',(12.816,6.5865793538203,-0.941695384936147));
#408=CARTESIAN_POINT('Ctrl Pts',(5.82000000000003,6.71460061240833,-0.825090414318988));
#409=CARTESIAN_POINT('Ctrl Pts',(12.816,6.71460061240833,-0.825090414318988));
#410=CARTESIAN_POINT('Ctrl Pts',(5.82000000000003,6.81971377616609,-0.69764937886062));
#411=CARTESIAN_POINT('Ctrl Pts',(12.816,6.81971377616609,-0.69764937886062));
#412=CARTESIAN_POINT('Ctrl Pts',(5.82000000000003,6.93347026571617,-0.559729024262789));
#413=CARTESIAN_POINT('Ctrl Pts',(12.816,6.93347026571617,-0.559729024262789));
#414=CARTESIAN_POINT('Ctrl Pts',(5.82000000000003,7.02676105821818,-0.406331784341744));
#415=CARTESIAN_POINT('Ctrl Pts',(12.816,7.02676105821818,-0.406331784341744));
#416=CARTESIAN_POINT('Ctrl Pts',(5.82000000000003,7.1023830732077,-0.230356337157434));
#417=CARTESIAN_POINT('Ctrl Pts',(12.816,7.1023830732077,-0.230356337157434));
#418=CARTESIAN_POINT('Ctrl Pts',(5.82000000000003,7.19214672283266,-0.0214727417409485));
#419=CARTESIAN_POINT('Ctrl Pts',(12.816,7.19214672283266,-0.0214727417409485));
#420=CARTESIAN_POINT('Ctrl Pts',(5.82000000000003,7.25,0.223265698271436));
#421=CARTESIAN_POINT('Ctrl Pts',(12.816,7.25,0.223265698271436));
#422=CARTESIAN_POINT('Ctrl Pts',(5.82000000000003,7.25,0.5));
#423=CARTESIAN_POINT('Ctrl Pts',(12.816,7.25,0.5));
#424=CARTESIAN_POINT('',(5.82000000000003,6.00000001341106,-1.09999999441206));
#425=CARTESIAN_POINT('',(5.82000000000003,6.00000001341106,-1.09999999441206));
#426=CARTESIAN_POINT('Ctrl Pts',(5.82000000000003,7.25,0.5));
#427=CARTESIAN_POINT('Ctrl Pts',(5.82000000000003,7.25,0.223265698271436));
#428=CARTESIAN_POINT('Ctrl Pts',(5.82000000000003,7.19214672283266,-0.0214727417409485));
#429=CARTESIAN_POINT('Ctrl Pts',(5.82000000000003,7.1023830732077,-0.230356337157434));
#430=CARTESIAN_POINT('Ctrl Pts',(5.82000000000003,7.02676105821818,-0.406331784341744));
#431=CARTESIAN_POINT('Ctrl Pts',(5.82000000000003,6.93347026571617,-0.559729024262789));
#432=CARTESIAN_POINT('Ctrl Pts',(5.82000000000003,6.81971377616609,-0.69764937886062));
#433=CARTESIAN_POINT('Ctrl Pts',(5.82000000000003,6.71460061240833,-0.825090414318988));
#434=CARTESIAN_POINT('Ctrl Pts',(5.82000000000003,6.5865793538203,-0.941695384936147));
#435=CARTESIAN_POINT('Ctrl Pts',(5.82000000000003,6.41889760201844,-1.01633084705093));
#436=CARTESIAN_POINT('Ctrl Pts',(5.82000000000003,6.29575593514477,-1.07114143385563));
#437=CARTESIAN_POINT('Ctrl Pts',(5.82000000000003,6.15341396852033,-1.09999999555508));
#438=CARTESIAN_POINT('Ctrl Pts',(5.82000000000003,6.00000001341106,-1.09999999441206));
#439=CARTESIAN_POINT('Origin',(5.82000000000003,5.50000001447544,-1.09999999068676));
#440=CARTESIAN_POINT('',(5.82000000000003,5.50000001447544,-1.09999999068676));
#441=CARTESIAN_POINT('',(5.82000000000003,5.50000001447544,-1.09999999068676));
#442=CARTESIAN_POINT('',(5.82000000000003,6.00000001341106,-1.09999999441206));
#443=CARTESIAN_POINT('Origin',(5.82000000000003,4.75,-1.09999999068676));
#444=CARTESIAN_POINT('',(5.82000000000003,4.75,-1.09999999068676));
#445=CARTESIAN_POINT('',(5.82000000000003,4.75,-1.09999999068676));
#446=CARTESIAN_POINT('',(5.82000000000003,5.50000001447544,-1.09999999068676));
#447=CARTESIAN_POINT('Origin',(5.82000000000003,4.75,0.));
#448=CARTESIAN_POINT('',(5.82000000000003,4.75,-1.09999999068676));
#449=CARTESIAN_POINT('Origin',(5.82000000000003,6.,-0.299999997777541));
#450=UNCERTAINTY_MEASURE_WITH_UNIT(LENGTH_MEASURE(0.001),#454,
'DISTANCE_ACCURACY_VALUE',
'Maximum model space distance between geometric entities at asserted c
onnectivities');
#451=UNCERTAINTY_MEASURE_WITH_UNIT(LENGTH_MEASURE(0.001),#454,
'DISTANCE_ACCURACY_VALUE',
'Maximum model space distance between geometric entities at asserted c
onnectivities');
#452=(
GEOMETRIC_REPRESENTATION_CONTEXT(3)
GLOBAL_UNCERTAINTY_ASSIGNED_CONTEXT((#450))
GLOBAL_UNIT_ASSIGNED_CONTEXT((#454,#456,#457))
REPRESENTATION_CONTEXT('','3D')
);
#453=(
GEOMETRIC_REPRESENTATION_CONTEXT(3)
GLOBAL_UNCERTAINTY_ASSIGNED_CONTEXT((#451))
GLOBAL_UNIT_ASSIGNED_CONTEXT((#454,#456,#457))
REPRESENTATION_CONTEXT('','3D')
);
#454=(
LENGTH_UNIT()
NAMED_UNIT(*)
SI_UNIT(.CENTI.,.METRE.)
);
#455=(
LENGTH_UNIT()
NAMED_UNIT(*)
SI_UNIT($,.METRE.)
);
#456=(
NAMED_UNIT(*)
PLANE_ANGLE_UNIT()
SI_UNIT($,.RADIAN.)
);
#457=(
NAMED_UNIT(*)
SI_UNIT($,.STERADIAN.)
SOLID_ANGLE_UNIT()
);
#458=SHAPE_DEFINITION_REPRESENTATION(#459,#460);
#459=PRODUCT_DEFINITION_SHAPE('',$,#462);
#460=SHAPE_REPRESENTATION('',(#242),#452);
#461=PRODUCT_DEFINITION_CONTEXT('part definition',#466,'design');
#462=PRODUCT_DEFINITION('ShroudV2','ShroudV2',#463,#461);
#463=PRODUCT_DEFINITION_FORMATION('',$,#468);
#464=PRODUCT_RELATED_PRODUCT_CATEGORY('ShroudV2','ShroudV2',(#468));
#465=APPLICATION_PROTOCOL_DEFINITION('international standard',
'automotive_design',2009,#466);
#466=APPLICATION_CONTEXT(
'Core Data for Automotive Mechanical Design Process');
#467=PRODUCT_CONTEXT('part definition',#466,'mechanical');
#468=PRODUCT('ShroudV2','ShroudV2',$,(#467));
#469=PRESENTATION_STYLE_ASSIGNMENT((#470));
#470=SURFACE_STYLE_USAGE(.BOTH.,#471);
#471=SURFACE_SIDE_STYLE('',(#472));
#472=SURFACE_STYLE_FILL_AREA(#473);
#473=FILL_AREA_STYLE('Steel - Satin',(#474));
#474=FILL_AREA_STYLE_COLOUR('Steel - Satin',#475);
#475=COLOUR_RGB('Steel - Satin',0.627450980392157,0.627450980392157,0.627450980392157);
ENDSEC;
END-ISO-10303-21;
