  0
SECTION
  2
HEADER
  9
$ACADVER
  1
AC1015
  9
$ACADMAINTVER
 70
     6
  9
$DWGCODEPAGE
  3
ANSI_932
  9
$INSBASE
 10
0.0
 20
0.0
 30
0.0
  9
$EXTMIN
 10
1.000000000000000E+20
 20
1.000000000000000E+20
 30
1.000000000000000E+20
  9
$EXTMAX
 10
-1.000000000000000E+20
 20
-1.000000000000000E+20
 30
-1.000000000000000E+20
  9
$LIMMIN
 10
0.0
 20
0.0
  9
$LIMMAX
 10
12.0
 20
9.0
  9
$ORTHOMODE
 70
     0
  9
$REGENMODE
 70
     1
  9
$FILLMODE
 70
     1
  9
$QTEXTMODE
 70
     0
  9
$MIRRTEXT
 70
     1
  9
$LTSCALE
 40
1.0
  9
$ATTMODE
 70
     1
  9
$TEXTSIZE
 40
0.2
  9
$TRACEWID
 40
0.05
  9
$TEXTSTYLE
  7
Standard
  9
$CLAYER
  8
0
  9
$CELTYPE
  6
ByLayer
  9
$CECOLOR
 62
   256
  9
$CELTSCALE
 40
1.0
  9
$DISPSILH
 70
     0
  9
$DIMSCALE
 40
1.0
  9
$DIMASZ
 40
0.18
  9
$DIMEXO
 40
0.0625
  9
$DIMDLI
 40
0.38
  9
$DIMRND
 40
0.0
  9
$DIMDLE
 40
0.0
  9
$DIMEXE
 40
0.18
  9
$DIMTP
 40
0.0
  9
$DIMTM
 40
0.0
  9
$DIMTXT
 40
0.18
  9
$DIMCEN
 40
0.09
  9
$DIMTSZ
 40
0.0
  9
$DIMTOL
 70
     0
  9
$DIMLIM
 70
     0
  9
$DIMTIH
 70
     1
  9
$DIMTOH
 70
     1
  9
$DIMSE1
 70
     0
  9
$DIMSE2
 70
     0
  9
$DIMTAD
 70
     0
  9
$DIMZIN
 70
     0
  9
$DIMBLK
  1

  9
$DIMASO
 70
     1
  9
$DIMSHO
 70
     1
  9
$DIMPOST
  1

  9
$DIMAPOST
  1

  9
$DIMALT
 70
     0
  9
$DIMALTD
 70
     2
  9
$DIMALTF
 40
25.4
  9
$DIMLFAC
 40
1.0
  9
$DIMTOFL
 70
     0
  9
$DIMTVP
 40
0.0
  9
$DIMTIX
 70
     0
  9
$DIMSOXD
 70
     0
  9
$DIMSAH
 70
     0
  9
$DIMBLK1
  1

  9
$DIMBLK2
  1

  9
$DIMSTYLE
  2
Standard
  9
$DIMCLRD
 70
     0
  9
$DIMCLRE
 70
     0
  9
$DIMCLRT
 70
     0
  9
$DIMTFAC
 40
1.0
  9
$DIMGAP
 40
0.09
  9
$DIMJUST
 70
     0
  9
$DIMSD1
 70
     0
  9
$DIMSD2
 70
     0
  9
$DIMTOLJ
 70
     1
  9
$DIMTZIN
 70
     0
  9
$DIMALTZ
 70
     0
  9
$DIMALTTZ
 70
     0
  9
$DIMUPT
 70
     0
  9
$DIMDEC
 70
     4
  9
$DIMTDEC
 70
     4
  9
$DIMALTU
 70
     2
  9
$DIMALTTD
 70
     2
  9
$DIMTXSTY
  7
Standard
  9
$DIMAUNIT
 70
     0
  9
$DIMADEC
 70
     0
  9
$DIMALTRND
 40
0.0
  9
$DIMAZIN
 70
     0
  9
$DIMDSEP
 70
    46
  9
$DIMATFIT
 70
     3
  9
$DIMFRAC
 70
     0
  9
$DIMLDRBLK
  1

  9
$DIMLUNIT
 70
     2
  9
$DIMLWD
 70
    -2
  9
$DIMLWE
 70
    -2
  9
$DIMTMOVE
 70
     0
  9
$LUNITS
 70
     2
  9
$LUPREC
 70
     4
  9
$SKETCHINC
 40
0.1
  9
$FILLETRAD
 40
0.5
  9
$AUNITS
 70
     0
  9
$AUPREC
 70
     0
  9
$MENU
  1
.
  9
$ELEVATION
 40
0.0
  9
$PELEVATION
 40
0.0
  9
$THICKNESS
 40
0.0
  9
$LIMCHECK
 70
     0
  9
$CHAMFERA
 40
0.5
  9
$CHAMFERB
 40
0.5
  9
$CHAMFERC
 40
1.0
  9
$CHAMFERD
 40
0.0
  9
$SKPOLY
 70
     0
  9
$TDCREATE
 40
2458821.404548611
  9
$TDUCREATE
 40
2458821.362881945
  9
$TDUPDATE
 40
2458821.404548623
  9
$TDUUPDATE
 40
2458821.362881956
  9
$TDINDWG
 40
0.0000000116
  9
$TDUSRTIMER
 40
0.0000000116
  9
$USRTIMER
 70
     1
  9
$ANGBASE
 50
0.0
  9
$ANGDIR
 70
     0
  9
$PDMODE
 70
     0
  9
$PDSIZE
 40
0.0
  9
$PLINEWID
 40
0.0
  9
$SPLFRAME
 70
     0
  9
$SPLINETYPE
 70
     6
  9
$SPLINESEGS
 70
     8
  9
$HANDSEED
  5
20A
  9
$SURFTAB1
 70
     6
  9
$SURFTAB2
 70
     6
  9
$SURFTYPE
 70
     6
  9
$SURFU
 70
     6
  9
$SURFV
 70
     6
  9
$UCSBASE
  2

  9
$UCSNAME
  2

  9
$UCSORG
 10
0.0
 20
0.0
 30
0.0
  9
$UCSXDIR
 10
1.0
 20
0.0
 30
0.0
  9
$UCSYDIR
 10
0.0
 20
1.0
 30
0.0
  9
$UCSORTHOREF
  2

  9
$UCSORTHOVIEW
 70
     0
  9
$UCSORGTOP
 10
0.0
 20
0.0
 30
0.0
  9
$UCSORGBOTTOM
 10
0.0
 20
0.0
 30
0.0
  9
$UCSORGLEFT
 10
0.0
 20
0.0
 30
0.0
  9
$UCSORGRIGHT
 10
0.0
 20
0.0
 30
0.0
  9
$UCSORGFRONT
 10
0.0
 20
0.0
 30
0.0
  9
$UCSORGBACK
 10
0.0
 20
0.0
 30
0.0
  9
$PUCSBASE
  2

  9
$PUCSNAME
  2

  9
$PUCSORG
 10
0.0
 20
0.0
 30
0.0
  9
$PUCSXDIR
 10
1.0
 20
0.0
 30
0.0
  9
$PUCSYDIR
 10
0.0
 20
1.0
 30
0.0
  9
$PUCSORTHOREF
  2

  9
$PUCSORTHOVIEW
 70
     0
  9
$PUCSORGTOP
 10
0.0
 20
0.0
 30
0.0
  9
$PUCSORGBOTTOM
 10
0.0
 20
0.0
 30
0.0
  9
$PUCSORGLEFT
 10
0.0
 20
0.0
 30
0.0
  9
$PUCSORGRIGHT
 10
0.0
 20
0.0
 30
0.0
  9
$PUCSORGFRONT
 10
0.0
 20
0.0
 30
0.0
  9
$PUCSORGBACK
 10
0.0
 20
0.0
 30
0.0
  9
$USERI1
 70
     0
  9
$USERI2
 70
     0
  9
$USERI3
 70
     0
  9
$USERI4
 70
     0
  9
$USERI5
 70
     0
  9
$USERR1
 40
0.0
  9
$USERR2
 40
0.0
  9
$USERR3
 40
0.0
  9
$USERR4
 40
0.0
  9
$USERR5
 40
0.0
  9
$WORLDVIEW
 70
     1
  9
$SHADEDGE
 70
     3
  9
$SHADEDIF
 70
    70
  9
$TILEMODE
 70
     1
  9
$MAXACTVP
 70
    64
  9
$PINSBASE
 10
0.0
 20
0.0
 30
0.0
  9
$PLIMCHECK
 70
     0
  9
$PEXTMIN
 10
1.000000000000000E+20
 20
1.000000000000000E+20
 30
1.000000000000000E+20
  9
$PEXTMAX
 10
-1.000000000000000E+20
 20
-1.000000000000000E+20
 30
-1.000000000000000E+20
  9
$PLIMMIN
 10
0.0
 20
0.0
  9
$PLIMMAX
 10
12.0
 20
9.0
  9
$UNITMODE
 70
     0
  9
$VISRETAIN
 70
     1
  9
$PLINEGEN
 70
     0
  9
$PSLTSCALE
 70
     1
  9
$TREEDEPTH
 70
  3020
  9
$CMLSTYLE
  2
Standard
  9
$CMLJUST
 70
     0
  9
$CMLSCALE
 40
1.0
  9
$PROXYGRAPHICS
 70
     1
  9
$MEASUREMENT
 70
     0
  9
$CELWEIGHT
370
    -1
  9
$ENDCAPS
280
     0
  9
$JOINSTYLE
280
     0
  9
$LWDISPLAY
290
     1
  9
$INSUNITS
 70
     1
  9
$HYPERLINKBASE
  1

  9
$STYLESHEET
  1

  9
$XEDIT
290
     1
  9
$CEPSNTYPE
380
     0
  9
$PSTYLEMODE
290
     1
  9
$FINGERPRINTGUID
  2
{FCEADE78-6037-6C93-2667-859CE7409238}
  9
$VERSIONGUID
  2
{FAEB1C32-E019-11D5-929B-00C0DF256EC4}
  9
$EXTNAMES
290
     1
  9
$PSVPSCALE
 40
0.0
  9
$OLESTARTUP
290
     0
  0
ENDSEC
  0
SECTION
  2
CLASSES
  0
CLASS
  1
ACDBDICTIONARYWDFLT
  2
AcDbDictionaryWithDefault
  3
ObjectDBX Classes
 90
        0
280
     0
281
     0
  0
CLASS
  1
VISUALSTYLE
  2
AcDbVisualStyle
  3
ObjectDBX Classes
 90
     4095
280
     0
281
     0
  0
CLASS
  1
ACDBPLACEHOLDER
  2
AcDbPlaceHolder
  3
ObjectDBX Classes
 90
        0
280
     0
281
     0
  0
CLASS
  1
LAYOUT
  2
AcDbLayout
  3
ObjectDBX Classes
 90
        0
280
     0
281
     0
  0
ENDSEC
  0
SECTION
  2
TABLES
  0
TABLE
  2
VPORT
  5
8
330
0
100
AcDbSymbolTable
 70
     1
  0
VPORT
  5
29
330
8
100
AcDbSymbolTableRecord
100
AcDbViewportTableRecord
  2
*Active
 70
     0
 10
0.0
 20
0.0
 11
1.0
 21
1.0
 12
0.0
 22
0.0
 13
0.0
 23
0.0
 14
0.5
 24
0.5
 15
0.5
 25
0.5
 16
0.0
 26
0.0
 36
1.0
 17
210.079252741534
 27
-148.8287278545029
 37
0.0
 40
280.2593789989456
 41
0.6609955101551623
 42
50.0
 43
0.0
 44
0.0
 50
0.0
 51
0.0
 71
     0
 72
   100
 73
     1
 74
     3
 75
     0
 76
     0
 77
     0
 78
     0
281
     0
 65
     1
110
0.0
120
0.0
130
0.0
111
1.0
121
0.0
131
0.0
112
0.0
122
1.0
132
0.0
 79
     0
146
0.0
  0
ENDTAB
  0
TABLE
  2
LTYPE
  5
5
330
0
100
AcDbSymbolTable
 70
     1
  0
LTYPE
  5
14
330
5
100
AcDbSymbolTableRecord
100
AcDbLinetypeTableRecord
  2
ByBlock
 70
     0
  3

 72
    65
 73
     0
 40
0.0
  0
LTYPE
  5
15
330
5
100
AcDbSymbolTableRecord
100
AcDbLinetypeTableRecord
  2
ByLayer
 70
     0
  3

 72
    65
 73
     0
 40
0.0
  0
LTYPE
  5
16
330
5
100
AcDbSymbolTableRecord
100
AcDbLinetypeTableRecord
  2
Continuous
 70
     0
  3
Solid line
 72
    65
 73
     0
 40
0.0
  0
ENDTAB
  0
TABLE
  2
LAYER
  5
2
330
0
100
AcDbSymbolTable
 70
     3
  0
LAYER
  5
10
330
2
100
AcDbSymbolTableRecord
100
AcDbLayerTableRecord
  2
0
 70
     0
 62
     7
  6
Continuous
370
    -3
390
F
  0
LAYER
  5
3B
330
2
100
AcDbSymbolTableRecord
100
AcDbLayerTableRecord
  2
Schneiden
 70
     0
 62
     7
  6
Continuous
370
    -3
390
F
  0
LAYER
  5
157
330
2
100
AcDbSymbolTableRecord
100
AcDbLayerTableRecord
  2
Gravieren
 70
     0
 62
     7
  6
Continuous
370
    -3
390
F
  0
ENDTAB
  0
TABLE
  2
STYLE
  5
3
330
0
100
AcDbSymbolTable
 70
     1
  0
STYLE
  5
11
330
3
100
AcDbSymbolTableRecord
100
AcDbTextStyleTableRecord
  2
Standard
 70
     0
 40
0.0
 41
1.0
 50
0.0
 71
     0
 42
0.2
  3
txt
  4

  0
ENDTAB
  0
TABLE
  2
VIEW
  5
6
330
0
100
AcDbSymbolTable
 70
     0
  0
ENDTAB
  0
TABLE
  2
UCS
  5
7
330
0
100
AcDbSymbolTable
 70
     0
  0
ENDTAB
  0
TABLE
  2
APPID
  5
9
330
0
100
AcDbSymbolTable
 70
     1
  0
APPID
  5
12
330
9
100
AcDbSymbolTableRecord
100
AcDbRegAppTableRecord
  2
ACAD
 70
     0
  0
ENDTAB
  0
TABLE
  2
DIMSTYLE
  5
A
330
0
100
AcDbSymbolTable
 70
     1
100
AcDbDimStyleTable
  0
DIMSTYLE
105
27
330
A
100
AcDbSymbolTableRecord
100
AcDbDimStyleTableRecord
  2
Standard
 70
     0
340
11
  0
ENDTAB
  0
TABLE
  2
BLOCK_RECORD
  5
1
330
0
100
AcDbSymbolTable
 70
    52
  0
BLOCK_RECORD
  5
1F
330
1
100
AcDbSymbolTableRecord
100
AcDbBlockTableRecord
  2
*Model_Space
340
22
  0
BLOCK_RECORD
  5
1B
330
1
100
AcDbSymbolTableRecord
100
AcDbBlockTableRecord
  2
*Paper_Space
340
1E
  0
BLOCK_RECORD
  5
23
330
1
100
AcDbSymbolTableRecord
100
AcDbBlockTableRecord
  2
*Paper_Space0
340
26
  0
BLOCK_RECORD
  5
3C
330
1
100
AcDbSymbolTableRecord
100
AcDbBlockTableRecord
  2
block 2
340
0
102
{BLKREFS
331
3D
102
}
  0
BLOCK_RECORD
  5
47
330
1
100
AcDbSymbolTableRecord
100
AcDbBlockTableRecord
  2
block 3
340
0
102
{BLKREFS
331
48
102
}
  0
BLOCK_RECORD
  5
52
330
1
100
AcDbSymbolTableRecord
100
AcDbBlockTableRecord
  2
block 4
340
0
102
{BLKREFS
331
53
102
}
  0
BLOCK_RECORD
  5
5D
330
1
100
AcDbSymbolTableRecord
100
AcDbBlockTableRecord
  2
block 5
340
0
102
{BLKREFS
331
5E
102
}
  0
BLOCK_RECORD
  5
68
330
1
100
AcDbSymbolTableRecord
100
AcDbBlockTableRecord
  2
block 6
340
0
102
{BLKREFS
331
69
102
}
  0
BLOCK_RECORD
  5
73
330
1
100
AcDbSymbolTableRecord
100
AcDbBlockTableRecord
  2
block 7
340
0
102
{BLKREFS
331
74
102
}
  0
BLOCK_RECORD
  5
7E
330
1
100
AcDbSymbolTableRecord
100
AcDbBlockTableRecord
  2
block 8
340
0
102
{BLKREFS
331
7F
102
}
  0
BLOCK_RECORD
  5
89
330
1
100
AcDbSymbolTableRecord
100
AcDbBlockTableRecord
  2
block 9
340
0
102
{BLKREFS
331
8A
102
}
  0
BLOCK_RECORD
  5
94
330
1
100
AcDbSymbolTableRecord
100
AcDbBlockTableRecord
  2
block 10
340
0
102
{BLKREFS
331
95
102
}
  0
BLOCK_RECORD
  5
9F
330
1
100
AcDbSymbolTableRecord
100
AcDbBlockTableRecord
  2
block 11
340
0
102
{BLKREFS
331
A0
102
}
  0
BLOCK_RECORD
  5
AA
330
1
100
AcDbSymbolTableRecord
100
AcDbBlockTableRecord
  2
block 12
340
0
102
{BLKREFS
331
AB
102
}
  0
BLOCK_RECORD
  5
B5
330
1
100
AcDbSymbolTableRecord
100
AcDbBlockTableRecord
  2
block 13
340
0
102
{BLKREFS
331
B6
102
}
  0
BLOCK_RECORD
  5
C0
330
1
100
AcDbSymbolTableRecord
100
AcDbBlockTableRecord
  2
block 14
340
0
102
{BLKREFS
331
C1
102
}
  0
BLOCK_RECORD
  5
CB
330
1
100
AcDbSymbolTableRecord
100
AcDbBlockTableRecord
  2
block 15
340
0
102
{BLKREFS
331
CC
102
}
  0
BLOCK_RECORD
  5
D6
330
1
100
AcDbSymbolTableRecord
100
AcDbBlockTableRecord
  2
block 16
340
0
102
{BLKREFS
331
D7
102
}
  0
BLOCK_RECORD
  5
E1
330
1
100
AcDbSymbolTableRecord
100
AcDbBlockTableRecord
  2
block 17
340
0
102
{BLKREFS
331
E2
102
}
  0
BLOCK_RECORD
  5
EC
330
1
100
AcDbSymbolTableRecord
100
AcDbBlockTableRecord
  2
block 18
340
0
102
{BLKREFS
331
ED
102
}
  0
BLOCK_RECORD
  5
F7
330
1
100
AcDbSymbolTableRecord
100
AcDbBlockTableRecord
  2
block 19
340
0
102
{BLKREFS
331
F8
102
}
  0
BLOCK_RECORD
  5
102
330
1
100
AcDbSymbolTableRecord
100
AcDbBlockTableRecord
  2
block 20
340
0
102
{BLKREFS
331
103
102
}
  0
BLOCK_RECORD
  5
10D
330
1
100
AcDbSymbolTableRecord
100
AcDbBlockTableRecord
  2
block 21
340
0
102
{BLKREFS
331
10E
102
}
  0
BLOCK_RECORD
  5
112
330
1
100
AcDbSymbolTableRecord
100
AcDbBlockTableRecord
  2
block 22
340
0
102
{BLKREFS
331
113
102
}
  0
BLOCK_RECORD
  5
117
330
1
100
AcDbSymbolTableRecord
100
AcDbBlockTableRecord
  2
block 23
340
0
102
{BLKREFS
331
118
102
}
  0
BLOCK_RECORD
  5
11C
330
1
100
AcDbSymbolTableRecord
100
AcDbBlockTableRecord
  2
block 24
340
0
102
{BLKREFS
331
11D
102
}
  0
BLOCK_RECORD
  5
121
330
1
100
AcDbSymbolTableRecord
100
AcDbBlockTableRecord
  2
block 25
340
0
102
{BLKREFS
331
122
102
}
  0
BLOCK_RECORD
  5
12C
330
1
100
AcDbSymbolTableRecord
100
AcDbBlockTableRecord
  2
block 26
340
0
102
{BLKREFS
331
12D
102
}
  0
BLOCK_RECORD
  5
137
330
1
100
AcDbSymbolTableRecord
100
AcDbBlockTableRecord
  2
block 27
340
0
102
{BLKREFS
331
138
102
}
  0
BLOCK_RECORD
  5
142
330
1
100
AcDbSymbolTableRecord
100
AcDbBlockTableRecord
  2
block 28
340
0
102
{BLKREFS
331
143
102
}
  0
BLOCK_RECORD
  5
14D
330
1
100
AcDbSymbolTableRecord
100
AcDbBlockTableRecord
  2
block 29
340
0
102
{BLKREFS
331
14E
102
}
  0
BLOCK_RECORD
  5
152
330
1
100
AcDbSymbolTableRecord
100
AcDbBlockTableRecord
  2
block 30
340
0
102
{BLKREFS
331
153
102
}
  0
BLOCK_RECORD
  5
158
330
1
100
AcDbSymbolTableRecord
100
AcDbBlockTableRecord
  2
block 31
340
0
102
{BLKREFS
331
159
102
}
  0
BLOCK_RECORD
  5
160
330
1
100
AcDbSymbolTableRecord
100
AcDbBlockTableRecord
  2
block 32
340
0
102
{BLKREFS
331
161
102
}
  0
BLOCK_RECORD
  5
168
330
1
100
AcDbSymbolTableRecord
100
AcDbBlockTableRecord
  2
block 33
340
0
102
{BLKREFS
331
169
102
}
  0
BLOCK_RECORD
  5
170
330
1
100
AcDbSymbolTableRecord
100
AcDbBlockTableRecord
  2
block 34
340
0
102
{BLKREFS
331
171
102
}
  0
BLOCK_RECORD
  5
178
330
1
100
AcDbSymbolTableRecord
100
AcDbBlockTableRecord
  2
block 35
340
0
102
{BLKREFS
331
179
102
}
  0
BLOCK_RECORD
  5
180
330
1
100
AcDbSymbolTableRecord
100
AcDbBlockTableRecord
  2
block 36
340
0
102
{BLKREFS
331
181
102
}
  0
BLOCK_RECORD
  5
188
330
1
100
AcDbSymbolTableRecord
100
AcDbBlockTableRecord
  2
block 37
340
0
102
{BLKREFS
331
189
102
}
  0
BLOCK_RECORD
  5
190
330
1
100
AcDbSymbolTableRecord
100
AcDbBlockTableRecord
  2
block 38
340
0
102
{BLKREFS
331
191
102
}
  0
BLOCK_RECORD
  5
198
330
1
100
AcDbSymbolTableRecord
100
AcDbBlockTableRecord
  2
block 39
340
0
102
{BLKREFS
331
199
102
}
  0
BLOCK_RECORD
  5
1A0
330
1
100
AcDbSymbolTableRecord
100
AcDbBlockTableRecord
  2
block 40
340
0
102
{BLKREFS
331
1A1
102
}
  0
BLOCK_RECORD
  5
1A8
330
1
100
AcDbSymbolTableRecord
100
AcDbBlockTableRecord
  2
block 41
340
0
102
{BLKREFS
331
1A9
102
}
  0
BLOCK_RECORD
  5
1B0
330
1
100
AcDbSymbolTableRecord
100
AcDbBlockTableRecord
  2
block 42
340
0
102
{BLKREFS
331
1B1
102
}
  0
BLOCK_RECORD
  5
1B8
330
1
100
AcDbSymbolTableRecord
100
AcDbBlockTableRecord
  2
block 43
340
0
102
{BLKREFS
331
1B9
102
}
  0
BLOCK_RECORD
  5
1C0
330
1
100
AcDbSymbolTableRecord
100
AcDbBlockTableRecord
  2
block 44
340
0
102
{BLKREFS
331
1C1
102
}
  0
BLOCK_RECORD
  5
1C8
330
1
100
AcDbSymbolTableRecord
100
AcDbBlockTableRecord
  2
block 45
340
0
102
{BLKREFS
331
1C9
102
}
  0
BLOCK_RECORD
  5
1D0
330
1
100
AcDbSymbolTableRecord
100
AcDbBlockTableRecord
  2
block 46
340
0
102
{BLKREFS
331
1D1
102
}
  0
BLOCK_RECORD
  5
1D8
330
1
100
AcDbSymbolTableRecord
100
AcDbBlockTableRecord
  2
block 47
340
0
102
{BLKREFS
331
1D9
102
}
  0
BLOCK_RECORD
  5
1E0
330
1
100
AcDbSymbolTableRecord
100
AcDbBlockTableRecord
  2
block 48
340
0
102
{BLKREFS
331
1E1
102
}
  0
BLOCK_RECORD
  5
1E8
330
1
100
AcDbSymbolTableRecord
100
AcDbBlockTableRecord
  2
block 49
340
0
102
{BLKREFS
331
1E9
102
}
  0
BLOCK_RECORD
  5
1F0
330
1
100
AcDbSymbolTableRecord
100
AcDbBlockTableRecord
  2
block 50
340
0
102
{BLKREFS
331
1F1
102
}
  0
BLOCK_RECORD
  5
1F8
330
1
100
AcDbSymbolTableRecord
100
AcDbBlockTableRecord
  2
block 51
340
0
102
{BLKREFS
331
1F9
102
}
  0
BLOCK_RECORD
  5
200
330
1
100
AcDbSymbolTableRecord
100
AcDbBlockTableRecord
  2
block 52
340
0
102
{BLKREFS
331
201
102
}
  0
ENDTAB
  0
ENDSEC
  0
SECTION
  2
BLOCKS
  0
BLOCK
  5
20
330
1F
100
AcDbEntity
  8
0
100
AcDbBlockBegin
  2
*Model_Space
 70
     0
 71
     0
 10
0.0
 20
0.0
 30
0.0
  3
*Model_Space
  1

  0
ENDBLK
  5
21
330
1F
100
AcDbEntity
  8
0
100
AcDbBlockEnd
  0
BLOCK
  5
1C
330
1B
100
AcDbEntity
 67
     1
  8
0
100
AcDbBlockBegin
  2
*Paper_Space
 70
     0
 71
     0
 10
0.0
 20
0.0
 30
0.0
  3
*Paper_Space
  1

  0
ENDBLK
  5
1D
330
1B
100
AcDbEntity
 67
     1
  8
0
100
AcDbBlockEnd
  0
BLOCK
  5
24
330
23
100
AcDbEntity
  8
0
100
AcDbBlockBegin
  2
*Paper_Space0
 70
     0
 71
     0
 10
0.0
 20
0.0
 30
0.0
  3
*Paper_Space0
  1

  0
ENDBLK
  5
25
330
23
100
AcDbEntity
  8
0
100
AcDbBlockEnd
  0
BLOCK
  5
3E
330
3C
100
AcDbEntity
  8
0
100
AcDbBlockBegin
  2
block 2
 70
     0
 71
     0
 10
0.0
 20
0.0
 30
0.0
  3
block 2
  1

  0
POLYLINE
  5
40
330
3C
100
AcDbEntity
  8
Schneiden
 62
     7
370
    25
100
AcDb2dPolyline
 66
     1
 10
0.0
 20
0.0
 30
0.0
  0
VERTEX
  5
41
330
40
100
AcDbEntity
  8
Schneiden
 62
     7
370
    25
100
AcDbVertex
100
AcDb2dVertex
 10
170.0791964635566
 20
-282.9835882539069
 30
0.0
  0
VERTEX
  5
42
330
40
100
AcDbEntity
  8
Schneiden
 62
     7
370
    25
100
AcDbVertex
100
AcDb2dVertex
 10
170.0791964635566
 20
-285.8333712393056
 30
0.0
  0
VERTEX
  5
43
330
40
100
AcDbEntity
  8
Schneiden
 62
     7
370
    25
100
AcDbVertex
100
AcDb2dVertex
 10
180.079102873817
 20
-285.8333712393056
 30
0.0
  0
VERTEX
  5
44
330
40
100
AcDbEntity
  8
Schneiden
 62
     7
370
    25
100
AcDbVertex
100
AcDb2dVertex
 10
180.079102873817
 20
-282.9835882539069
 30
0.0
  0
VERTEX
  5
45
330
40
100
AcDbEntity
  8
Schneiden
 62
     7
370
    25
100
AcDbVertex
100
AcDb2dVertex
 10
170.0791964635566
 20
-282.9835882539069
 30
0.0
  0
SEQEND
  5
46
330
40
100
AcDbEntity
  8
Schneiden
370
    25
  0
ENDBLK
  5
3F
330
3C
100
AcDbEntity
  8
0
100
AcDbBlockEnd
  0
BLOCK
  5
49
330
47
100
AcDbEntity
  8
0
100
AcDbBlockBegin
  2
block 3
 70
     0
 71
     0
 10
0.0
 20
0.0
 30
0.0
  3
block 3
  1

  0
POLYLINE
  5
4B
330
47
100
AcDbEntity
  8
Schneiden
 62
     7
370
    25
100
AcDb2dPolyline
 66
     1
 10
0.0
 20
0.0
 30
0.0
  0
VERTEX
  5
4C
330
4B
100
AcDbEntity
  8
Schneiden
 62
     7
370
    25
100
AcDbVertex
100
AcDb2dVertex
 10
122.5792534415774
 20
-282.9835882539069
 30
0.0
  0
VERTEX
  5
4D
330
4B
100
AcDbEntity
  8
Schneiden
 62
     7
370
    25
100
AcDbVertex
100
AcDb2dVertex
 10
122.5792534415774
 20
-285.8333712393056
 30
0.0
  0
VERTEX
  5
4E
330
4B
100
AcDbEntity
  8
Schneiden
 62
     7
370
    25
100
AcDbVertex
100
AcDb2dVertex
 10
132.5791598518379
 20
-285.8333712393056
 30
0.0
  0
VERTEX
  5
4F
330
4B
100
AcDbEntity
  8
Schneiden
 62
     7
370
    25
100
AcDbVertex
100
AcDb2dVertex
 10
132.5791598518379
 20
-282.9835882539069
 30
0.0
  0
VERTEX
  5
50
330
4B
100
AcDbEntity
  8
Schneiden
 62
     7
370
    25
100
AcDbVertex
100
AcDb2dVertex
 10
122.5792534415774
 20
-282.9835882539069
 30
0.0
  0
SEQEND
  5
51
330
4B
100
AcDbEntity
  8
Schneiden
370
    25
  0
ENDBLK
  5
4A
330
47
100
AcDbEntity
  8
0
100
AcDbBlockEnd
  0
BLOCK
  5
54
330
52
100
AcDbEntity
  8
0
100
AcDbBlockBegin
  2
block 4
 70
     0
 71
     0
 10
0.0
 20
0.0
 30
0.0
  3
block 4
  1

  0
POLYLINE
  5
56
330
52
100
AcDbEntity
  8
Schneiden
 62
     7
370
    25
100
AcDb2dPolyline
 66
     1
 10
0.0
 20
0.0
 30
0.0
  0
VERTEX
  5
57
330
56
100
AcDbEntity
  8
Schneiden
 62
     7
370
    25
100
AcDbVertex
100
AcDb2dVertex
 10
146.329224952567
 20
-282.9835882539069
 30
0.0
  0
VERTEX
  5
58
330
56
100
AcDbEntity
  8
Schneiden
 62
     7
370
    25
100
AcDbVertex
100
AcDb2dVertex
 10
146.329224952567
 20
-285.8333712393056
 30
0.0
  0
VERTEX
  5
59
330
56
100
AcDbEntity
  8
Schneiden
 62
     7
370
    25
100
AcDbVertex
100
AcDb2dVertex
 10
156.3291313628274
 20
-285.8333712393056
 30
0.0
  0
VERTEX
  5
5A
330
56
100
AcDbEntity
  8
Schneiden
 62
     7
370
    25
100
AcDbVertex
100
AcDb2dVertex
 10
156.3291313628274
 20
-282.9835882539069
 30
0.0
  0
VERTEX
  5
5B
330
56
100
AcDbEntity
  8
Schneiden
 62
     7
370
    25
100
AcDbVertex
100
AcDb2dVertex
 10
146.329224952567
 20
-282.9835882539069
 30
0.0
  0
SEQEND
  5
5C
330
56
100
AcDbEntity
  8
Schneiden
370
    25
  0
ENDBLK
  5
55
330
52
100
AcDbEntity
  8
0
100
AcDbBlockEnd
  0
BLOCK
  5
5F
330
5D
100
AcDbEntity
  8
0
100
AcDbBlockBegin
  2
block 5
 70
     0
 71
     0
 10
0.0
 20
0.0
 30
0.0
  3
block 5
  1

  0
POLYLINE
  5
61
330
5D
100
AcDbEntity
  8
Schneiden
 62
     7
370
    25
100
AcDb2dPolyline
 66
     1
 10
0.0
 20
0.0
 30
0.0
  0
VERTEX
  5
62
330
61
100
AcDbEntity
  8
Schneiden
 62
     7
370
    25
100
AcDbVertex
100
AcDb2dVertex
 10
277.5792669661955
 20
-253.6582464643632
 30
0.0
  0
VERTEX
  5
63
330
61
100
AcDbEntity
  8
Schneiden
 62
     7
370
    25
100
AcDbVertex
100
AcDb2dVertex
 10
277.5792669661955
 20
-256.5087184688589
 30
0.0
  0
VERTEX
  5
64
330
61
100
AcDbEntity
  8
Schneiden
 62
     7
370
    25
100
AcDbVertex
100
AcDb2dVertex
 10
287.5793456312302
 20
-256.5087184688589
 30
0.0
  0
VERTEX
  5
65
330
61
100
AcDbEntity
  8
Schneiden
 62
     7
370
    25
100
AcDbVertex
100
AcDb2dVertex
 10
287.5793456312302
 20
-253.6582464643632
 30
0.0
  0
VERTEX
  5
66
330
61
100
AcDbEntity
  8
Schneiden
 62
     7
370
    25
100
AcDbVertex
100
AcDb2dVertex
 10
277.5792669661955
 20
-253.6582464643632
 30
0.0
  0
SEQEND
  5
67
330
61
100
AcDbEntity
  8
Schneiden
370
    25
  0
ENDBLK
  5
60
330
5D
100
AcDbEntity
  8
0
100
AcDbBlockEnd
  0
BLOCK
  5
6A
330
68
100
AcDbEntity
  8
0
100
AcDbBlockBegin
  2
block 6
 70
     0
 71
     0
 10
0.0
 20
0.0
 30
0.0
  3
block 6
  1

  0
POLYLINE
  5
6C
330
68
100
AcDbEntity
  8
Schneiden
 62
     7
370
    25
100
AcDb2dPolyline
 66
     1
 10
0.0
 20
0.0
 30
0.0
  0
VERTEX
  5
6D
330
6C
100
AcDbEntity
  8
Schneiden
 62
     7
370
    25
100
AcDbVertex
100
AcDb2dVertex
 10
230.0793239442163
 20
-253.6582464643632
 30
0.0
  0
VERTEX
  5
6E
330
6C
100
AcDbEntity
  8
Schneiden
 62
     7
370
    25
100
AcDbVertex
100
AcDb2dVertex
 10
230.0793239442163
 20
-256.5087184688589
 30
0.0
  0
VERTEX
  5
6F
330
6C
100
AcDbEntity
  8
Schneiden
 62
     7
370
    25
100
AcDbVertex
100
AcDb2dVertex
 10
240.0790580997025
 20
-256.5087184688589
 30
0.0
  0
VERTEX
  5
70
330
6C
100
AcDbEntity
  8
Schneiden
 62
     7
370
    25
100
AcDbVertex
100
AcDb2dVertex
 10
240.0790580997025
 20
-253.6582464643632
 30
0.0
  0
VERTEX
  5
71
330
6C
100
AcDbEntity
  8
Schneiden
 62
     7
370
    25
100
AcDbVertex
100
AcDb2dVertex
 10
230.0793239442163
 20
-253.6582464643632
 30
0.0
  0
SEQEND
  5
72
330
6C
100
AcDbEntity
  8
Schneiden
370
    25
  0
ENDBLK
  5
6B
330
68
100
AcDbEntity
  8
0
100
AcDbBlockEnd
  0
BLOCK
  5
75
330
73
100
AcDbEntity
  8
0
100
AcDbBlockBegin
  2
block 7
 70
     0
 71
     0
 10
0.0
 20
0.0
 30
0.0
  3
block 7
  1

  0
POLYLINE
  5
77
330
73
100
AcDbEntity
  8
Schneiden
 62
     7
370
    25
100
AcDb2dPolyline
 66
     1
 10
0.0
 20
0.0
 30
0.0
  0
VERTEX
  5
78
330
77
100
AcDbEntity
  8
Schneiden
 62
     7
370
    25
100
AcDbVertex
100
AcDb2dVertex
 10
200.0790879491122
 20
-253.6582464643632
 30
0.0
  0
VERTEX
  5
79
330
77
100
AcDbEntity
  8
Schneiden
 62
     7
370
    25
100
AcDbVertex
100
AcDb2dVertex
 10
200.0790879491122
 20
-256.5087184688589
 30
0.0
  0
VERTEX
  5
7A
330
77
100
AcDbEntity
  8
Schneiden
 62
     7
370
    25
100
AcDbVertex
100
AcDb2dVertex
 10
210.0791666141469
 20
-256.5087184688589
 30
0.0
  0
VERTEX
  5
7B
330
77
100
AcDbEntity
  8
Schneiden
 62
     7
370
    25
100
AcDbVertex
100
AcDb2dVertex
 10
210.0791666141469
 20
-253.6582464643632
 30
0.0
  0
VERTEX
  5
7C
330
77
100
AcDbEntity
  8
Schneiden
 62
     7
370
    25
100
AcDbVertex
100
AcDb2dVertex
 10
200.0790879491122
 20
-253.6582464643632
 30
0.0
  0
SEQEND
  5
7D
330
77
100
AcDbEntity
  8
Schneiden
370
    25
  0
ENDBLK
  5
76
330
73
100
AcDbEntity
  8
0
100
AcDbBlockEnd
  0
BLOCK
  5
80
330
7E
100
AcDbEntity
  8
0
100
AcDbBlockBegin
  2
block 8
 70
     0
 71
     0
 10
0.0
 20
0.0
 30
0.0
  3
block 8
  1

  0
POLYLINE
  5
82
330
7E
100
AcDbEntity
  8
Schneiden
 62
     7
370
    25
100
AcDb2dPolyline
 66
     1
 10
0.0
 20
0.0
 30
0.0
  0
VERTEX
  5
83
330
82
100
AcDbEntity
  8
Schneiden
 62
     7
370
    25
100
AcDbVertex
100
AcDb2dVertex
 10
122.5792534415774
 20
-253.6582464643632
 30
0.0
  0
VERTEX
  5
84
330
82
100
AcDbEntity
  8
Schneiden
 62
     7
370
    25
100
AcDbVertex
100
AcDb2dVertex
 10
122.5792534415774
 20
-256.5087184688589
 30
0.0
  0
VERTEX
  5
85
330
82
100
AcDbEntity
  8
Schneiden
 62
     7
370
    25
100
AcDbVertex
100
AcDb2dVertex
 10
132.5791598518379
 20
-256.5087184688589
 30
0.0
  0
VERTEX
  5
86
330
82
100
AcDbEntity
  8
Schneiden
 62
     7
370
    25
100
AcDbVertex
100
AcDb2dVertex
 10
132.5791598518379
 20
-253.6582464643632
 30
0.0
  0
VERTEX
  5
87
330
82
100
AcDbEntity
  8
Schneiden
 62
     7
370
    25
100
AcDbVertex
100
AcDb2dVertex
 10
122.5792534415774
 20
-253.6582464643632
 30
0.0
  0
SEQEND
  5
88
330
82
100
AcDbEntity
  8
Schneiden
370
    25
  0
ENDBLK
  5
81
330
7E
100
AcDbEntity
  8
0
100
AcDbBlockEnd
  0
BLOCK
  5
8B
330
89
100
AcDbEntity
  8
0
100
AcDbBlockBegin
  2
block 9
 70
     0
 71
     0
 10
0.0
 20
0.0
 30
0.0
  3
block 9
  1

  0
POLYLINE
  5
8D
330
89
100
AcDbEntity
  8
Schneiden
 62
     7
370
    25
100
AcDb2dPolyline
 66
     1
 10
0.0
 20
0.0
 30
0.0
  0
VERTEX
  5
8E
330
8D
100
AcDbEntity
  8
Schneiden
 62
     7
370
    25
100
AcDbVertex
100
AcDb2dVertex
 10
170.0791964635566
 20
-253.6582464643632
 30
0.0
  0
VERTEX
  5
8F
330
8D
100
AcDbEntity
  8
Schneiden
 62
     7
370
    25
100
AcDbVertex
100
AcDb2dVertex
 10
170.0791964635566
 20
-256.5087184688589
 30
0.0
  0
VERTEX
  5
90
330
8D
100
AcDbEntity
  8
Schneiden
 62
     7
370
    25
100
AcDbVertex
100
AcDb2dVertex
 10
180.079102873817
 20
-256.5087184688589
 30
0.0
  0
VERTEX
  5
91
330
8D
100
AcDbEntity
  8
Schneiden
 62
     7
370
    25
100
AcDbVertex
100
AcDb2dVertex
 10
180.079102873817
 20
-253.6582464643632
 30
0.0
  0
VERTEX
  5
92
330
8D
100
AcDbEntity
  8
Schneiden
 62
     7
370
    25
100
AcDbVertex
100
AcDb2dVertex
 10
170.0791964635566
 20
-253.6582464643632
 30
0.0
  0
SEQEND
  5
93
330
8D
100
AcDbEntity
  8
Schneiden
370
    25
  0
ENDBLK
  5
8C
330
89
100
AcDbEntity
  8
0
100
AcDbBlockEnd
  0
BLOCK
  5
96
330
94
100
AcDbEntity
  8
0
100
AcDbBlockBegin
  2
block 10
 70
     0
 71
     0
 10
0.0
 20
0.0
 30
0.0
  3
block 10
  1

  0
POLYLINE
  5
98
330
94
100
AcDbEntity
  8
Schneiden
 62
     7
370
    25
100
AcDb2dPolyline
 66
     1
 10
0.0
 20
0.0
 30
0.0
  0
VERTEX
  5
99
330
98
100
AcDbEntity
  8
Schneiden
 62
     7
370
    25
100
AcDbVertex
100
AcDb2dVertex
 10
250.2289984183455
 20
-93.33349335774302
 30
0.0
  0
VERTEX
  5
9A
330
98
100
AcDbEntity
  8
Schneiden
 62
     7
370
    25
100
AcDbVertex
100
AcDb2dVertex
 10
250.2289984183455
 20
-103.3333997680035
 30
0.0
  0
VERTEX
  5
9B
330
98
100
AcDbEntity
  8
Schneiden
 62
     7
370
    25
100
AcDbVertex
100
AcDb2dVertex
 10
253.0791259132927
 20
-103.3333997680035
 30
0.0
  0
VERTEX
  5
9C
330
98
100
AcDbEntity
  8
Schneiden
 62
     7
370
    25
100
AcDbVertex
100
AcDb2dVertex
 10
253.0791259132927
 20
-93.33349335774302
 30
0.0
  0
VERTEX
  5
9D
330
98
100
AcDbEntity
  8
Schneiden
 62
     7
370
    25
100
AcDbVertex
100
AcDb2dVertex
 10
250.2289984183455
 20
-93.33349335774302
 30
0.0
  0
SEQEND
  5
9E
330
98
100
AcDbEntity
  8
Schneiden
370
    25
  0
ENDBLK
  5
97
330
94
100
AcDbEntity
  8
0
100
AcDbBlockEnd
  0
BLOCK
  5
A1
330
9F
100
AcDbEntity
  8
0
100
AcDbBlockBegin
  2
block 11
 70
     0
 71
     0
 10
0.0
 20
0.0
 30
0.0
  3
block 11
  1

  0
POLYLINE
  5
A3
330
9F
100
AcDbEntity
  8
Schneiden
 62
     7
370
    25
100
AcDb2dPolyline
 66
     1
 10
0.0
 20
0.0
 30
0.0
  0
VERTEX
  5
A4
330
A3
100
AcDbEntity
  8
Schneiden
 62
     7
370
    25
100
AcDbVertex
100
AcDb2dVertex
 10
250.2289984183455
 20
-221.3336045453611
 30
0.0
  0
VERTEX
  5
A5
330
A3
100
AcDbEntity
  8
Schneiden
 62
     7
370
    25
100
AcDbVertex
100
AcDb2dVertex
 10
250.2289984183455
 20
-231.3333387008472
 30
0.0
  0
VERTEX
  5
A6
330
A3
100
AcDbEntity
  8
Schneiden
 62
     7
370
    25
100
AcDbVertex
100
AcDb2dVertex
 10
253.0791259132927
 20
-231.3333387008472
 30
0.0
  0
VERTEX
  5
A7
330
A3
100
AcDbEntity
  8
Schneiden
 62
     7
370
    25
100
AcDbVertex
100
AcDb2dVertex
 10
253.0791259132927
 20
-221.3336045453611
 30
0.0
  0
VERTEX
  5
A8
330
A3
100
AcDbEntity
  8
Schneiden
 62
     7
370
    25
100
AcDbVertex
100
AcDb2dVertex
 10
250.2289984183455
 20
-221.3336045453611
 30
0.0
  0
SEQEND
  5
A9
330
A3
100
AcDbEntity
  8
Schneiden
370
    25
  0
ENDBLK
  5
A2
330
9F
100
AcDbEntity
  8
0
100
AcDbBlockEnd
  0
BLOCK
  5
AC
330
AA
100
AcDbEntity
  8
0
100
AcDbBlockBegin
  2
block 12
 70
     0
 71
     0
 10
0.0
 20
0.0
 30
0.0
  3
block 12
  1

  0
POLYLINE
  5
AE
330
AA
100
AcDbEntity
  8
Schneiden
 62
     7
370
    25
100
AcDb2dPolyline
 66
     1
 10
0.0
 20
0.0
 30
0.0
  0
VERTEX
  5
AF
330
AE
100
AcDbEntity
  8
Schneiden
 62
     7
370
    25
100
AcDbVertex
100
AcDb2dVertex
 10
272.0791720239941
 20
-221.3336045453611
 30
0.0
  0
VERTEX
  5
B0
330
AE
100
AcDbEntity
  8
Schneiden
 62
     7
370
    25
100
AcDbVertex
100
AcDb2dVertex
 10
272.0791720239941
 20
-231.3333387008472
 30
0.0
  0
VERTEX
  5
B1
330
AE
100
AcDbEntity
  8
Schneiden
 62
     7
370
    25
100
AcDbVertex
100
AcDb2dVertex
 10
274.9292995189413
 20
-231.3333387008472
 30
0.0
  0
VERTEX
  5
B2
330
AE
100
AcDbEntity
  8
Schneiden
 62
     7
370
    25
100
AcDbVertex
100
AcDb2dVertex
 10
274.9292995189413
 20
-221.3336045453611
 30
0.0
  0
VERTEX
  5
B3
330
AE
100
AcDbEntity
  8
Schneiden
 62
     7
370
    25
100
AcDbVertex
100
AcDb2dVertex
 10
272.0791720239941
 20
-221.3336045453611
 30
0.0
  0
SEQEND
  5
B4
330
AE
100
AcDbEntity
  8
Schneiden
370
    25
  0
ENDBLK
  5
AD
330
AA
100
AcDbEntity
  8
0
100
AcDbBlockEnd
  0
BLOCK
  5
B7
330
B5
100
AcDbEntity
  8
0
100
AcDbBlockBegin
  2
block 13
 70
     0
 71
     0
 10
0.0
 20
0.0
 30
0.0
  3
block 13
  1

  0
POLYLINE
  5
B9
330
B5
100
AcDbEntity
  8
Schneiden
 62
     7
370
    25
100
AcDb2dPolyline
 66
     1
 10
0.0
 20
0.0
 30
0.0
  0
VERTEX
  5
BA
330
B9
100
AcDbEntity
  8
Schneiden
 62
     7
370
    25
100
AcDbVertex
100
AcDb2dVertex
 10
272.0791720239941
 20
-93.33349335774302
 30
0.0
  0
VERTEX
  5
BB
330
B9
100
AcDbEntity
  8
Schneiden
 62
     7
370
    25
100
AcDbVertex
100
AcDb2dVertex
 10
272.0791720239941
 20
-103.3333997680035
 30
0.0
  0
VERTEX
  5
BC
330
B9
100
AcDbEntity
  8
Schneiden
 62
     7
370
    25
100
AcDbVertex
100
AcDb2dVertex
 10
274.9292995189413
 20
-103.3333997680035
 30
0.0
  0
VERTEX
  5
BD
330
B9
100
AcDbEntity
  8
Schneiden
 62
     7
370
    25
100
AcDbVertex
100
AcDb2dVertex
 10
274.9292995189413
 20
-93.33349335774302
 30
0.0
  0
VERTEX
  5
BE
330
B9
100
AcDbEntity
  8
Schneiden
 62
     7
370
    25
100
AcDbVertex
100
AcDb2dVertex
 10
272.0791720239941
 20
-93.33349335774302
 30
0.0
  0
SEQEND
  5
BF
330
B9
100
AcDbEntity
  8
Schneiden
370
    25
  0
ENDBLK
  5
B8
330
B5
100
AcDbEntity
  8
0
100
AcDbBlockEnd
  0
BLOCK
  5
C2
330
C0
100
AcDbEntity
  8
0
100
AcDbBlockBegin
  2
block 14
 70
     0
 71
     0
 10
0.0
 20
0.0
 30
0.0
  3
block 14
  1

  0
POLYLINE
  5
C4
330
C0
100
AcDbEntity
  8
Schneiden
 62
     7
370
    25
100
AcDb2dPolyline
 66
     1
 10
0.0
 20
0.0
 30
0.0
  0
VERTEX
  5
C5
330
C4
100
AcDbEntity
  8
Schneiden
 62
     7
370
    25
100
AcDbVertex
100
AcDb2dVertex
 10
267.5791883011608
 20
-16.83342556002776
 30
0.0
  0
VERTEX
  5
C6
330
C4
100
AcDbEntity
  8
Schneiden
 62
     7
370
    25
100
AcDbVertex
100
AcDb2dVertex
 10
267.5791883011608
 20
-19.68338080020068
 30
0.0
  0
VERTEX
  5
C7
330
C4
100
AcDbEntity
  8
Schneiden
 62
     7
370
    25
100
AcDbVertex
100
AcDb2dVertex
 10
277.5792669661955
 20
-19.68338080020068
 30
0.0
  0
VERTEX
  5
C8
330
C4
100
AcDbEntity
  8
Schneiden
 62
     7
370
    25
100
AcDbVertex
100
AcDb2dVertex
 10
277.5792669661955
 20
-16.83342556002776
 30
0.0
  0
VERTEX
  5
C9
330
C4
100
AcDbEntity
  8
Schneiden
 62
     7
370
    25
100
AcDbVertex
100
AcDb2dVertex
 10
267.5791883011608
 20
-16.83342556002776
 30
0.0
  0
SEQEND
  5
CA
330
C4
100
AcDbEntity
  8
Schneiden
370
    25
  0
ENDBLK
  5
C3
330
C0
100
AcDbEntity
  8
0
100
AcDbBlockEnd
  0
BLOCK
  5
CD
330
CB
100
AcDbEntity
  8
0
100
AcDbBlockBegin
  2
block 15
 70
     0
 71
     0
 10
0.0
 20
0.0
 30
0.0
  3
block 15
  1

  0
POLYLINE
  5
CF
330
CB
100
AcDbEntity
  8
Schneiden
 62
     7
370
    25
100
AcDb2dPolyline
 66
     1
 10
0.0
 20
0.0
 30
0.0
  0
VERTEX
  5
D0
330
CF
100
AcDbEntity
  8
Schneiden
 62
     7
370
    25
100
AcDbVertex
100
AcDb2dVertex
 10
200.2291218574948
 20
-78.33337536019097
 30
0.0
  0
VERTEX
  5
D1
330
CF
100
AcDbEntity
  8
Schneiden
 62
     7
370
    25
100
AcDbVertex
100
AcDb2dVertex
 10
200.2291218574948
 20
-88.33345402522566
 30
0.0
  0
VERTEX
  5
D2
330
CF
100
AcDbEntity
  8
Schneiden
 62
     7
370
    25
100
AcDbVertex
100
AcDb2dVertex
 10
203.0790770976677
 20
-88.33345402522566
 30
0.0
  0
VERTEX
  5
D3
330
CF
100
AcDbEntity
  8
Schneiden
 62
     7
370
    25
100
AcDbVertex
100
AcDb2dVertex
 10
203.0790770976677
 20
-78.33337536019097
 30
0.0
  0
VERTEX
  5
D4
330
CF
100
AcDbEntity
  8
Schneiden
 62
     7
370
    25
100
AcDbVertex
100
AcDb2dVertex
 10
200.2291218574948
 20
-78.33337536019097
 30
0.0
  0
SEQEND
  5
D5
330
CF
100
AcDbEntity
  8
Schneiden
370
    25
  0
ENDBLK
  5
CE
330
CB
100
AcDbEntity
  8
0
100
AcDbBlockEnd
  0
BLOCK
  5
D8
330
D6
100
AcDbEntity
  8
0
100
AcDbBlockBegin
  2
block 16
 70
     0
 71
     0
 10
0.0
 20
0.0
 30
0.0
  3
block 16
  1

  0
POLYLINE
  5
DA
330
D6
100
AcDbEntity
  8
Schneiden
 62
     7
370
    25
100
AcDb2dPolyline
 66
     1
 10
0.0
 20
0.0
 30
0.0
  0
VERTEX
  5
DB
330
DA
100
AcDbEntity
  8
Schneiden
 62
     7
370
    25
100
AcDbVertex
100
AcDb2dVertex
 10
132.5791598518379
 20
-16.83342556002776
 30
0.0
  0
VERTEX
  5
DC
330
DA
100
AcDbEntity
  8
Schneiden
 62
     7
370
    25
100
AcDbVertex
100
AcDb2dVertex
 10
132.5791598518379
 20
-19.68338080020068
 30
0.0
  0
VERTEX
  5
DD
330
DA
100
AcDbEntity
  8
Schneiden
 62
     7
370
    25
100
AcDbVertex
100
AcDb2dVertex
 10
142.5792385168726
 20
-19.68338080020068
 30
0.0
  0
VERTEX
  5
DE
330
DA
100
AcDbEntity
  8
Schneiden
 62
     7
370
    25
100
AcDbVertex
100
AcDb2dVertex
 10
142.5792385168726
 20
-16.83342556002776
 30
0.0
  0
VERTEX
  5
DF
330
DA
100
AcDbEntity
  8
Schneiden
 62
     7
370
    25
100
AcDbVertex
100
AcDb2dVertex
 10
132.5791598518379
 20
-16.83342556002776
 30
0.0
  0
SEQEND
  5
E0
330
DA
100
AcDbEntity
  8
Schneiden
370
    25
  0
ENDBLK
  5
D9
330
D6
100
AcDbEntity
  8
0
100
AcDbBlockEnd
  0
BLOCK
  5
E3
330
E1
100
AcDbEntity
  8
0
100
AcDbBlockBegin
  2
block 17
 70
     0
 71
     0
 10
0.0
 20
0.0
 30
0.0
  3
block 17
  1

  0
POLYLINE
  5
E5
330
E1
100
AcDbEntity
  8
Schneiden
 62
     7
370
    25
100
AcDb2dPolyline
 66
     1
 10
0.0
 20
0.0
 30
0.0
  0
VERTEX
  5
E6
330
E5
100
AcDbEntity
  8
Schneiden
 62
     7
370
    25
100
AcDbVertex
100
AcDb2dVertex
 10
207.0791774655913
 20
-197.3336913569166
 30
0.0
  0
VERTEX
  5
E7
330
E5
100
AcDbEntity
  8
Schneiden
 62
     7
370
    25
100
AcDbVertex
100
AcDb2dVertex
 10
207.0791774655913
 20
-207.3334255124028
 30
0.0
  0
VERTEX
  5
E8
330
E5
100
AcDbEntity
  8
Schneiden
 62
     7
370
    25
100
AcDbVertex
100
AcDb2dVertex
 10
209.9291327057643
 20
-207.3334255124028
 30
0.0
  0
VERTEX
  5
E9
330
E5
100
AcDbEntity
  8
Schneiden
 62
     7
370
    25
100
AcDbVertex
100
AcDb2dVertex
 10
209.9291327057643
 20
-197.3336913569166
 30
0.0
  0
VERTEX
  5
EA
330
E5
100
AcDbEntity
  8
Schneiden
 62
     7
370
    25
100
AcDbVertex
100
AcDb2dVertex
 10
207.0791774655913
 20
-197.3336913569166
 30
0.0
  0
SEQEND
  5
EB
330
E5
100
AcDbEntity
  8
Schneiden
370
    25
  0
ENDBLK
  5
E4
330
E1
100
AcDbEntity
  8
0
100
AcDbBlockEnd
  0
BLOCK
  5
EE
330
EC
100
AcDbEntity
  8
0
100
AcDbBlockBegin
  2
block 18
 70
     0
 71
     0
 10
0.0
 20
0.0
 30
0.0
  3
block 18
  1

  0
POLYLINE
  5
F0
330
EC
100
AcDbEntity
  8
Schneiden
 62
     7
370
    25
100
AcDb2dPolyline
 66
     1
 10
0.0
 20
0.0
 30
0.0
  0
VERTEX
  5
F1
330
F0
100
AcDbEntity
  8
Schneiden
 62
     7
370
    25
100
AcDbVertex
100
AcDb2dVertex
 10
157.0791286499663
 20
-221.3336045453611
 30
0.0
  0
VERTEX
  5
F2
330
F0
100
AcDbEntity
  8
Schneiden
 62
     7
370
    25
100
AcDbVertex
100
AcDb2dVertex
 10
157.0791286499663
 20
-231.3333387008472
 30
0.0
  0
VERTEX
  5
F3
330
F0
100
AcDbEntity
  8
Schneiden
 62
     7
370
    25
100
AcDbVertex
100
AcDb2dVertex
 10
159.9292561449135
 20
-231.3333387008472
 30
0.0
  0
VERTEX
  5
F4
330
F0
100
AcDbEntity
  8
Schneiden
 62
     7
370
    25
100
AcDbVertex
100
AcDb2dVertex
 10
159.9292561449135
 20
-221.3336045453611
 30
0.0
  0
VERTEX
  5
F5
330
F0
100
AcDbEntity
  8
Schneiden
 62
     7
370
    25
100
AcDbVertex
100
AcDb2dVertex
 10
157.0791286499663
 20
-221.3336045453611
 30
0.0
  0
SEQEND
  5
F6
330
F0
100
AcDbEntity
  8
Schneiden
370
    25
  0
ENDBLK
  5
EF
330
EC
100
AcDbEntity
  8
0
100
AcDbBlockEnd
  0
BLOCK
  5
F9
330
F7
100
AcDbEntity
  8
0
100
AcDbBlockBegin
  2
block 19
 70
     0
 71
     0
 10
0.0
 20
0.0
 30
0.0
  3
block 19
  1

  0
POLYLINE
  5
FB
330
F7
100
AcDbEntity
  8
Schneiden
 62
     7
370
    25
100
AcDb2dPolyline
 66
     1
 10
0.0
 20
0.0
 30
0.0
  0
VERTEX
  5
FC
330
FB
100
AcDbEntity
  8
Schneiden
 62
     7
370
    25
100
AcDbVertex
100
AcDb2dVertex
 10
135.229127299092
 20
-221.3336045453611
 30
0.0
  0
VERTEX
  5
FD
330
FB
100
AcDbEntity
  8
Schneiden
 62
     7
370
    25
100
AcDbVertex
100
AcDb2dVertex
 10
135.229127299092
 20
-231.3333387008472
 30
0.0
  0
VERTEX
  5
FE
330
FB
100
AcDbEntity
  8
Schneiden
 62
     7
370
    25
100
AcDbVertex
100
AcDb2dVertex
 10
138.079082539265
 20
-231.3333387008472
 30
0.0
  0
VERTEX
  5
FF
330
FB
100
AcDbEntity
  8
Schneiden
 62
     7
370
    25
100
AcDbVertex
100
AcDb2dVertex
 10
138.079082539265
 20
-221.3336045453611
 30
0.0
  0
VERTEX
  5
100
330
FB
100
AcDbEntity
  8
Schneiden
 62
     7
370
    25
100
AcDbVertex
100
AcDb2dVertex
 10
135.229127299092
 20
-221.3336045453611
 30
0.0
  0
SEQEND
  5
101
330
FB
100
AcDbEntity
  8
Schneiden
370
    25
  0
ENDBLK
  5
FA
330
F7
100
AcDbEntity
  8
0
100
AcDbBlockEnd
  0
BLOCK
  5
104
330
102
100
AcDbEntity
  8
0
100
AcDbBlockBegin
  2
block 20
 70
     0
 71
     0
 10
0.0
 20
0.0
 30
0.0
  3
block 20
  1

  0
POLYLINE
  5
106
330
102
100
AcDbEntity
  8
Schneiden
 62
     7
370
    25
100
AcDb2dPolyline
 66
     1
 10
0.0
 20
0.0
 30
0.0
  0
VERTEX
  5
107
330
106
100
AcDbEntity
  8
Schneiden
 62
     7
370
    25
100
AcDbVertex
100
AcDb2dVertex
 10
132.5791598518379
 20
-93.33349335774302
 30
0.0
  0
VERTEX
  5
108
330
106
100
AcDbEntity
  8
Schneiden
 62
     7
370
    25
100
AcDbVertex
100
AcDb2dVertex
 10
132.5791598518379
 20
-103.3333997680035
 30
0.0
  0
VERTEX
  5
109
330
106
100
AcDbEntity
  8
Schneiden
 62
     7
370
    25
100
AcDbVertex
100
AcDb2dVertex
 10
135.4291150920108
 20
-103.3333997680035
 30
0.0
  0
VERTEX
  5
10A
330
106
100
AcDbEntity
  8
Schneiden
 62
     7
370
    25
100
AcDbVertex
100
AcDb2dVertex
 10
135.4291150920108
 20
-93.33349335774302
 30
0.0
  0
VERTEX
  5
10B
330
106
100
AcDbEntity
  8
Schneiden
 62
     7
370
    25
100
AcDbVertex
100
AcDb2dVertex
 10
132.5791598518379
 20
-93.33349335774302
 30
0.0
  0
SEQEND
  5
10C
330
106
100
AcDbEntity
  8
Schneiden
370
    25
  0
ENDBLK
  5
105
330
102
100
AcDbEntity
  8
0
100
AcDbBlockEnd
  0
BLOCK
  5
10F
330
10D
100
AcDbEntity
  8
0
100
AcDbBlockBegin
  2
block 21
 70
     0
 71
     0
 10
0.0
 20
0.0
 30
0.0
  3
block 21
  1

  0
SPLINE
  5
111
330
10D
100
AcDbEntity
  8
Schneiden
 62
     7
370
    25
100
AcDbSpline
210
0.0
220
0.0
230
1.0
 70
    11
 71
     3
 72
    29
 73
    25
 74
     0
 42
0.0000000001
 43
0.0000000001
 40
0.0
 40
0.0
 40
0.0
 40
0.0
 40
1.0
 40
1.0
 40
1.0
 40
2.0
 40
2.0
 40
2.0
 40
3.0
 40
3.0
 40
3.0
 40
4.0
 40
4.0
 40
4.0
 40
5.0
 40
5.0
 40
5.0
 40
6.0
 40
6.0
 40
6.0
 40
7.0
 40
7.0
 40
7.0
 40
8.0
 40
8.0
 40
8.0
 40
8.0
 10
199.0791489845184
 20
-117.3334065461875
 30
0.0
 10
198.5269001782329
 20
-117.3334065461875
 30
0.0
 10
198.0792100199247
 20
-116.8857163878793
 30
0.0
 10
198.0792100199247
 20
-116.3334675815937
 30
0.0
 10
198.0792100199247
 20
-116.3334675815937
 30
0.0
 10
198.0792100199247
 20
-112.3335394684444
 30
0.0
 10
198.0792100199247
 20
-112.3335394684444
 30
0.0
 10
198.0792100199247
 20
-111.7811184073846
 30
0.0
 10
198.5269001782329
 20
-111.3334282490764
 30
0.0
 10
199.0791489845184
 20
-111.3334282490764
 30
0.0
 10
199.0791489845184
 20
-111.3334282490764
 30
0.0
 10
211.0792778335149
 20
-111.3334282490764
 30
0.0
 10
211.0792778335149
 20
-111.3334282490764
 30
0.0
 10
211.6315266398005
 20
-111.3334282490764
 30
0.0
 10
212.0790445433344
 20
-111.7811184073846
 30
0.0
 10
212.0790445433344
 20
-112.3335394684444
 30
0.0
 10
212.0790445433344
 20
-112.3335394684444
 30
0.0
 10
212.0790445433344
 20
-116.3334675815937
 30
0.0
 10
212.0790445433344
 20
-116.3334675815937
 30
0.0
 10
212.0790445433344
 20
-116.8857163878793
 30
0.0
 10
211.6315266398005
 20
-117.3334065461875
 30
0.0
 10
211.0792778335149
 20
-117.3334065461875
 30
0.0
 10
211.0792778335149
 20
-117.3334065461875
 30
0.0
 10
199.0791489845184
 20
-117.3334065461875
 30
0.0
 10
199.0791489845184
 20
-117.3334065461875
 30
0.0
  0
ENDBLK
  5
110
330
10D
100
AcDbEntity
  8
0
100
AcDbBlockEnd
  0
BLOCK
  5
114
330
112
100
AcDbEntity
  8
0
100
AcDbBlockBegin
  2
block 22
 70
     0
 71
     0
 10
0.0
 20
0.0
 30
0.0
  3
block 22
  1

  0
SPLINE
  5
116
330
112
100
AcDbEntity
  8
Schneiden
 62
     7
370
    25
100
AcDbSpline
210
0.0
220
0.0
230
1.0
 70
    11
 71
     3
 72
    20
 73
    16
 74
     0
 42
0.0000000001
 43
0.0000000001
 40
0.0
 40
0.0
 40
0.0
 40
0.0
 40
1.0
 40
1.0
 40
1.0
 40
2.0
 40
2.0
 40
2.0
 40
3.0
 40
3.0
 40
3.0
 40
4.0
 40
4.0
 40
4.0
 40
5.0
 40
5.0
 40
5.0
 40
5.0
 10
190.0791815388517
 20
-58.58350421712496
 30
0.0
 10
190.0791815388517
 20
-55.82208793092295
 30
0.0
 10
187.8405584925364
 20
-53.58346488460761
 30
0.0
 10
185.0791422063344
 20
-53.58346488460761
 30
0.0
 10
182.3177259201324
 20
-53.58346488460761
 30
0.0
 10
180.079102873817
 20
-55.82208793092295
 30
0.0
 10
180.079102873817
 20
-58.58350421712496
 30
0.0
 10
180.079102873817
 20
-61.34492050332697
 30
0.0
 10
182.3177259201324
 20
-63.58354354964231
 30
0.0
 10
185.0791422063344
 20
-63.58354354964231
 30
0.0
 10
187.8405584925364
 20
-63.58354354964231
 30
0.0
 10
190.0791815388517
 20
-61.34492050332697
 30
0.0
 10
190.0791815388517
 20
-58.58350421712496
 30
0.0
 10
190.0791815388517
 20
-58.58350421712496
 30
0.0
 10
190.0791815388517
 20
-58.58350421712496
 30
0.0
 10
190.0791815388517
 20
-58.58350421712496
 30
0.0
  0
ENDBLK
  5
115
330
112
100
AcDbEntity
  8
0
100
AcDbBlockEnd
  0
BLOCK
  5
119
330
117
100
AcDbEntity
  8
0
100
AcDbBlockBegin
  2
block 23
 70
     0
 71
     0
 10
0.0
 20
0.0
 30
0.0
  3
block 23
  1

  0
SPLINE
  5
11B
330
117
100
AcDbEntity
  8
Schneiden
 62
     7
370
    25
100
AcDbSpline
210
0.0
220
0.0
230
1.0
 70
    11
 71
     3
 72
    20
 73
    16
 74
     0
 42
0.0000000001
 43
0.0000000001
 40
0.0
 40
0.0
 40
0.0
 40
0.0
 40
1.0
 40
1.0
 40
1.0
 40
2.0
 40
2.0
 40
2.0
 40
3.0
 40
3.0
 40
3.0
 40
4.0
 40
4.0
 40
4.0
 40
5.0
 40
5.0
 40
5.0
 40
5.0
 10
230.0793239442163
 20
-58.58350421712496
 30
0.0
 10
230.0793239442163
 20
-55.82208793092295
 30
0.0
 10
227.8407008979009
 20
-53.58346488460761
 30
0.0
 10
225.0791123569247
 20
-53.58346488460761
 30
0.0
 10
222.3178683254969
 20
-53.58346488460761
 30
0.0
 10
220.0792452791816
 20
-55.82208793092295
 30
0.0
 10
220.0792452791816
 20
-58.58350421712496
 30
0.0
 10
220.0792452791816
 20
-61.34492050332697
 30
0.0
 10
222.3178683254969
 20
-63.58354354964231
 30
0.0
 10
225.0791123569247
 20
-63.58354354964231
 30
0.0
 10
227.8407008979009
 20
-63.58354354964231
 30
0.0
 10
230.0793239442163
 20
-61.34492050332697
 30
0.0
 10
230.0793239442163
 20
-58.58350421712496
 30
0.0
 10
230.0793239442163
 20
-58.58350421712496
 30
0.0
 10
230.0793239442163
 20
-58.58350421712496
 30
0.0
 10
230.0793239442163
 20
-58.58350421712496
 30
0.0
  0
ENDBLK
  5
11A
330
117
100
AcDbEntity
  8
0
100
AcDbBlockEnd
  0
BLOCK
  5
11E
330
11C
100
AcDbEntity
  8
0
100
AcDbBlockBegin
  2
block 24
 70
     0
 71
     0
 10
0.0
 20
0.0
 30
0.0
  3
block 24
  1

  0
SPLINE
  5
120
330
11C
100
AcDbEntity
  8
Schneiden
 62
     7
370
    25
100
AcDbSpline
210
0.0
220
0.0
230
1.0
 70
    11
 71
     3
 72
   128
 73
   124
 74
     0
 42
0.0000000001
 43
0.0000000001
 40
0.0
 40
0.0
 40
0.0
 40
0.0
 40
1.0
 40
1.0
 40
1.0
 40
2.0
 40
2.0
 40
2.0
 40
3.0
 40
3.0
 40
3.0
 40
4.0
 40
4.0
 40
4.0
 40
5.0
 40
5.0
 40
5.0
 40
6.0
 40
6.0
 40
6.0
 40
7.0
 40
7.0
 40
7.0
 40
8.0
 40
8.0
 40
8.0
 40
9.0
 40
9.0
 40
9.0
 40
10.0
 40
10.0
 40
10.0
 40
11.0
 40
11.0
 40
11.0
 40
12.0
 40
12.0
 40
12.0
 40
13.0
 40
13.0
 40
13.0
 40
14.0
 40
14.0
 40
14.0
 40
15.0
 40
15.0
 40
15.0
 40
16.0
 40
16.0
 40
16.0
 40
17.0
 40
17.0
 40
17.0
 40
18.0
 40
18.0
 40
18.0
 40
19.0
 40
19.0
 40
19.0
 40
20.0
 40
20.0
 40
20.0
 40
21.0
 40
21.0
 40
21.0
 40
22.0
 40
22.0
 40
22.0
 40
23.0
 40
23.0
 40
23.0
 40
24.0
 40
24.0
 40
24.0
 40
25.0
 40
25.0
 40
25.0
 40
26.0
 40
26.0
 40
26.0
 40
27.0
 40
27.0
 40
27.0
 40
28.0
 40
28.0
 40
28.0
 40
29.0
 40
29.0
 40
29.0
 40
30.0
 40
30.0
 40
30.0
 40
31.0
 40
31.0
 40
31.0
 40
32.0
 40
32.0
 40
32.0
 40
33.0
 40
33.0
 40
33.0
 40
34.0
 40
34.0
 40
34.0
 40
35.0
 40
35.0
 40
35.0
 40
36.0
 40
36.0
 40
36.0
 40
37.0
 40
37.0
 40
37.0
 40
38.0
 40
38.0
 40
38.0
 40
39.0
 40
39.0
 40
39.0
 40
40.0
 40
40.0
 40
40.0
 40
41.0
 40
41.0
 40
41.0
 40
41.0
 10
185.0791422063344
 20
-279.8333929421945
 30
0.0
 10
185.0791422063344
 20
-279.8333929421945
 30
0.0
 10
185.0791422063344
 20
-288.8333603878611
 30
0.0
 10
185.0791422063344
 20
-288.8333603878611
 30
0.0
 10
185.0791422063344
 20
-288.8333603878611
 30
0.0
 10
117.5792141090601
 20
-288.8333603878611
 30
0.0
 10
117.5792141090601
 20
-288.8333603878611
 30
0.0
 10
117.5792141090601
 20
-288.8333603878611
 30
0.0
 10
117.5792141090601
 20
-8.833397078954846
 30
0.0
 10
117.5792141090601
 20
-8.833397078954846
 30
0.0
 10
117.5792141090601
 20
-8.833397078954846
 30
0.0
 10
160.0791177985219
 20
-8.833397078954846
 30
0.0
 10
160.0791177985219
 20
-8.833397078954846
 30
0.0
 10
160.0791177985219
 20
-8.833397078954846
 30
0.0
 10
160.0791177985219
 20
-23.8335150765069
 30
0.0
 10
160.0791177985219
 20
-23.8335150765069
 30
0.0
 10
160.0791177985219
 20
-23.8335150765069
 30
0.0
 10
260.0792154297719
 20
-23.8335150765069
 30
0.0
 10
260.0792154297719
 20
-23.8335150765069
 30
0.0
 10
260.0792154297719
 20
-23.8335150765069
 30
0.0
 10
260.0792154297719
 20
-8.833397078954846
 30
0.0
 10
260.0792154297719
 20
-8.833397078954846
 30
0.0
 10
260.0792154297719
 20
-8.833397078954846
 30
0.0
 10
302.579291374008
 20
-8.833397078954846
 30
0.0
 10
302.579291374008
 20
-8.833397078954846
 30
0.0
 10
302.579291374008
 20
-8.833397078954846
 30
0.0
 10
302.579291374008
 20
-221.3336045453611
 30
0.0
 10
302.579291374008
 20
-221.3336045453611
 30
0.0
 10
302.579291374008
 20
-221.3336045453611
 30
0.0
 10
292.5792127089733
 20
-221.3336045453611
 30
0.0
 10
292.5792127089733
 20
-221.3336045453611
 30
0.0
 10
292.5792127089733
 20
-221.3336045453611
 30
0.0
 10
292.5792127089733
 20
-236.3335502881388
 30
0.0
 10
292.5792127089733
 20
-236.3335502881388
 30
0.0
 10
292.5792127089733
 20
-236.3335502881388
 30
0.0
 10
270.0792940948066
 20
-236.3335502881388
 30
0.0
 10
270.0792940948066
 20
-236.3335502881388
 30
0.0
 10
268.4222031664014
 20
-236.3335502881388
 30
0.0
 10
267.079304946251
 20
-234.9906520679885
 30
0.0
 10
267.079304946251
 20
-233.3335611395833
 30
0.0
 10
267.079304946251
 20
-233.3335611395833
 30
0.0
 10
267.079304946251
 20
-88.83350963490969
 30
0.0
 10
267.079304946251
 20
-88.83350963490969
 30
0.0
 10
267.079304946251
 20
-83.58680146564845
 30
0.0
 10
262.8259900601616
 20
-79.333486579559
 30
0.0
 10
257.5791096361261
 20
-79.333486579559
 30
0.0
 10
257.5791096361261
 20
-79.333486579559
 30
0.0
 10
211.0792778335149
 20
-79.333486579559
 30
0.0
 10
211.0792778335149
 20
-79.333486579559
 30
0.0
 10
209.422359159884
 20
-79.333486579559
 30
0.0
 10
208.0791164301851
 20
-80.67655705448364
 30
0.0
 10
208.0791164301851
 20
-82.33347572811455
 30
0.0
 10
208.0791164301851
 20
-82.33347572811455
 30
0.0
 10
208.0791164301851
 20
-85.3334648766701
 30
0.0
 10
208.0791164301851
 20
-85.3334648766701
 30
0.0
 10
208.0791164301851
 20
-86.99038355030102
 30
0.0
 10
209.422359159884
 20
-88.33345402522566
 30
0.0
 10
211.0792778335149
 20
-88.33345402522566
 30
0.0
 10
211.0792778335149
 20
-88.33345402522566
 30
0.0
 10
257.5791096361261
 20
-88.33345402522566
 30
0.0
 10
257.5791096361261
 20
-88.33345402522566
 30
0.0
 10
257.8554062940431
 20
-88.33345402522566
 30
0.0
 10
258.0789929910358
 20
-88.5573852317669
 30
0.0
 10
258.0789929910358
 20
-88.83350963490969
 30
0.0
 10
258.0789929910358
 20
-88.83350963490969
 30
0.0
 10
258.0789929910358
 20
-233.3335611395833
 30
0.0
 10
258.0789929910358
 20
-233.3335611395833
 30
0.0
 10
258.0789929910358
 20
-234.9906520679885
 30
0.0
 10
256.7360947708854
 20
-236.3335502881388
 30
0.0
 10
255.0790038424803
 20
-236.3335502881388
 30
0.0
 10
255.0790038424803
 20
-236.3335502881388
 30
0.0
 10
155.0792507207788
 20
-236.3335502881388
 30
0.0
 10
155.0792507207788
 20
-236.3335502881388
 30
0.0
 10
153.4223320471479
 20
-236.3335502881388
 30
0.0
 10
152.079089317449
 20
-234.9906520679885
 30
0.0
 10
152.079089317449
 20
-233.3335611395833
 30
0.0
 10
152.079089317449
 20
-233.3335611395833
 30
0.0
 10
152.079089317449
 20
-207.833653376861
 30
0.0
 10
152.079089317449
 20
-207.833653376861
 30
0.0
 10
152.079089317449
 20
-207.557356718944
 30
0.0
 10
152.3030205239902
 20
-207.3334255124028
 30
0.0
 10
152.579144927133
 20
-207.3334255124028
 30
0.0
 10
152.579144927133
 20
-207.3334255124028
 30
0.0
 10
199.0791489845184
 20
-207.3334255124028
 30
0.0
 10
199.0791489845184
 20
-207.3334255124028
 30
0.0
 10
200.7360676581493
 20
-207.3334255124028
 30
0.0
 10
202.079138133074
 20
-205.9905272922524
 30
0.0
 10
202.079138133074
 20
-204.3334363638472
 30
0.0
 10
202.079138133074
 20
-204.3334363638472
 30
0.0
 10
202.079138133074
 20
-201.3334472152916
 30
0.0
 10
202.079138133074
 20
-201.3334472152916
 30
0.0
 10
202.079138133074
 20
-199.6763562868865
 30
0.0
 10
200.7360676581493
 20
-198.3334580667361
 30
0.0
 10
199.0791489845184
 20
-198.3334580667361
 30
0.0
 10
199.0791489845184
 20
-198.3334580667361
 30
0.0
 10
152.579144927133
 20
-198.3334580667361
 30
0.0
 10
152.579144927133
 20
-198.3334580667361
 30
0.0
 10
147.3324367578718
 20
-198.3334580667361
 30
0.0
 10
143.0791218717823
 20
-202.5867729528255
 30
0.0
 10
143.0791218717823
 20
-207.833653376861
 30
0.0
 10
143.0791218717823
 20
-207.833653376861
 30
0.0
 10
143.0791218717823
 20
-239.8337673011527
 30
0.0
 10
143.0791218717823
 20
-239.8337673011527
 30
0.0
 10
143.0791218717823
 20
-242.8709634809489
 30
0.0
 10
145.5416761246389
 20
-245.3335177338055
 30
0.0
 10
148.5792168139837
 20
-245.3335177338055
 30
0.0
 10
148.5792168139837
 20
-245.3335177338055
 30
0.0
 10
292.5792127089733
 20
-245.3335177338055
 30
0.0
 10
292.5792127089733
 20
-245.3335177338055
 30
0.0
 10
292.5792127089733
 20
-245.3335177338055
 30
0.0
 10
292.5792127089733
 20
-261.8334580508611
 30
0.0
 10
292.5792127089733
 20
-261.8334580508611
 30
0.0
 10
292.5792127089733
 20
-261.8334580508611
 30
0.0
 10
143.0791218717823
 20
-261.8334580508611
 30
0.0
 10
143.0791218717823
 20
-261.8334580508611
 30
0.0
 10
141.4223754529256
 20
-261.8334580508611
 30
0.0
 10
140.0791327232268
 20
-263.1763562710115
 30
0.0
 10
140.0791327232268
 20
-264.8334471994166
 30
0.0
 10
140.0791327232268
 20
-264.8334471994166
 30
0.0
 10
140.0791327232268
 20
-279.8333929421945
 30
0.0
 10
140.0791327232268
 20
-279.8333929421945
 30
0.0
 10
140.0791327232268
 20
-279.8333929421945
 30
0.0
 10
185.0791422063344
 20
-279.8333929421945
 30
0.0
 10
185.0791422063344
 20
-279.8333929421945
 30
0.0
  0
ENDBLK
  5
11F
330
11C
100
AcDbEntity
  8
0
100
AcDbBlockEnd
  0
BLOCK
  5
123
330
121
100
AcDbEntity
  8
0
100
AcDbBlockBegin
  2
block 25
 70
     0
 71
     0
 10
0.0
 20
0.0
 30
0.0
  3
block 25
  1

  0
POLYLINE
  5
125
330
121
100
AcDbEntity
  8
Schneiden
 62
     7
370
    25
100
AcDb2dPolyline
 66
     1
 10
0.0
 20
0.0
 30
0.0
  0
VERTEX
  5
126
330
125
100
AcDbEntity
  8
Schneiden
 62
     7
370
    25
100
AcDbVertex
100
AcDb2dVertex
 10
277.5792669661955
 20
-282.9835882539069
 30
0.0
  0
VERTEX
  5
127
330
125
100
AcDbEntity
  8
Schneiden
 62
     7
370
    25
100
AcDbVertex
100
AcDb2dVertex
 10
277.5792669661955
 20
-285.8333712393056
 30
0.0
  0
VERTEX
  5
128
330
125
100
AcDbEntity
  8
Schneiden
 62
     7
370
    25
100
AcDbVertex
100
AcDb2dVertex
 10
287.5793456312302
 20
-285.8333712393056
 30
0.0
  0
VERTEX
  5
129
330
125
100
AcDbEntity
  8
Schneiden
 62
     7
370
    25
100
AcDbVertex
100
AcDb2dVertex
 10
287.5793456312302
 20
-282.9835882539069
 30
0.0
  0
VERTEX
  5
12A
330
125
100
AcDbEntity
  8
Schneiden
 62
     7
370
    25
100
AcDbVertex
100
AcDb2dVertex
 10
277.5792669661955
 20
-282.9835882539069
 30
0.0
  0
SEQEND
  5
12B
330
125
100
AcDbEntity
  8
Schneiden
370
    25
  0
ENDBLK
  5
124
330
121
100
AcDbEntity
  8
0
100
AcDbBlockEnd
  0
BLOCK
  5
12E
330
12C
100
AcDbEntity
  8
0
100
AcDbBlockBegin
  2
block 26
 70
     0
 71
     0
 10
0.0
 20
0.0
 30
0.0
  3
block 26
  1

  0
POLYLINE
  5
130
330
12C
100
AcDbEntity
  8
Schneiden
 62
     7
370
    25
100
AcDb2dPolyline
 66
     1
 10
0.0
 20
0.0
 30
0.0
  0
VERTEX
  5
131
330
130
100
AcDbEntity
  8
Schneiden
 62
     7
370
    25
100
AcDbVertex
100
AcDb2dVertex
 10
253.8291232004316
 20
-282.9835882539069
 30
0.0
  0
VERTEX
  5
132
330
130
100
AcDbEntity
  8
Schneiden
 62
     7
370
    25
100
AcDbVertex
100
AcDb2dVertex
 10
253.8291232004316
 20
-285.8333712393056
 30
0.0
  0
VERTEX
  5
133
330
130
100
AcDbEntity
  8
Schneiden
 62
     7
370
    25
100
AcDbVertex
100
AcDb2dVertex
 10
263.8292018654663
 20
-285.8333712393056
 30
0.0
  0
VERTEX
  5
134
330
130
100
AcDbEntity
  8
Schneiden
 62
     7
370
    25
100
AcDbVertex
100
AcDb2dVertex
 10
263.8292018654663
 20
-282.9835882539069
 30
0.0
  0
VERTEX
  5
135
330
130
100
AcDbEntity
  8
Schneiden
 62
     7
370
    25
100
AcDbVertex
100
AcDb2dVertex
 10
253.8291232004316
 20
-282.9835882539069
 30
0.0
  0
SEQEND
  5
136
330
130
100
AcDbEntity
  8
Schneiden
370
    25
  0
ENDBLK
  5
12F
330
12C
100
AcDbEntity
  8
0
100
AcDbBlockEnd
  0
BLOCK
  5
139
330
137
100
AcDbEntity
  8
0
100
AcDbBlockBegin
  2
block 27
 70
     0
 71
     0
 10
0.0
 20
0.0
 30
0.0
  3
block 27
  1

  0
POLYLINE
  5
13B
330
137
100
AcDbEntity
  8
Schneiden
 62
     7
370
    25
100
AcDb2dPolyline
 66
     1
 10
0.0
 20
0.0
 30
0.0
  0
VERTEX
  5
13C
330
13B
100
AcDbEntity
  8
Schneiden
 62
     7
370
    25
100
AcDbVertex
100
AcDb2dVertex
 10
230.0793239442163
 20
-282.9835882539069
 30
0.0
  0
VERTEX
  5
13D
330
13B
100
AcDbEntity
  8
Schneiden
 62
     7
370
    25
100
AcDbVertex
100
AcDb2dVertex
 10
230.0793239442163
 20
-285.8333712393056
 30
0.0
  0
VERTEX
  5
13E
330
13B
100
AcDbEntity
  8
Schneiden
 62
     7
370
    25
100
AcDbVertex
100
AcDb2dVertex
 10
240.0790580997025
 20
-285.8333712393056
 30
0.0
  0
VERTEX
  5
13F
330
13B
100
AcDbEntity
  8
Schneiden
 62
     7
370
    25
100
AcDbVertex
100
AcDb2dVertex
 10
240.0790580997025
 20
-282.9835882539069
 30
0.0
  0
VERTEX
  5
140
330
13B
100
AcDbEntity
  8
Schneiden
 62
     7
370
    25
100
AcDbVertex
100
AcDb2dVertex
 10
230.0793239442163
 20
-282.9835882539069
 30
0.0
  0
SEQEND
  5
141
330
13B
100
AcDbEntity
  8
Schneiden
370
    25
  0
ENDBLK
  5
13A
330
137
100
AcDbEntity
  8
0
100
AcDbBlockEnd
  0
BLOCK
  5
144
330
142
100
AcDbEntity
  8
0
100
AcDbBlockBegin
  2
block 28
 70
     0
 71
     0
 10
0.0
 20
0.0
 30
0.0
  3
block 28
  1

  0
POLYLINE
  5
146
330
142
100
AcDbEntity
  8
Schneiden
 62
     7
370
    25
100
AcDb2dPolyline
 66
     1
 10
0.0
 20
0.0
 30
0.0
  0
VERTEX
  5
147
330
146
100
AcDbEntity
  8
Schneiden
 62
     7
370
    25
100
AcDbVertex
100
AcDb2dVertex
 10
225.0791123569247
 20
-288.8333603878611
 30
0.0
  0
VERTEX
  5
148
330
146
100
AcDbEntity
  8
Schneiden
 62
     7
370
    25
100
AcDbVertex
100
AcDb2dVertex
 10
225.0791123569247
 20
-279.8333929421945
 30
0.0
  0
VERTEX
  5
149
330
146
100
AcDbEntity
  8
Schneiden
 62
     7
370
    25
100
AcDbVertex
100
AcDb2dVertex
 10
292.5792127089733
 20
-279.8333929421945
 30
0.0
  0
VERTEX
  5
14A
330
146
100
AcDbEntity
  8
Schneiden
 62
     7
370
    25
100
AcDbVertex
100
AcDb2dVertex
 10
292.5792127089733
 20
-288.8333603878611
 30
0.0
  0
VERTEX
  5
14B
330
146
100
AcDbEntity
  8
Schneiden
 62
     7
370
    25
100
AcDbVertex
100
AcDb2dVertex
 10
225.0791123569247
 20
-288.8333603878611
 30
0.0
  0
SEQEND
  5
14C
330
146
100
AcDbEntity
  8
Schneiden
370
    25
  0
ENDBLK
  5
145
330
142
100
AcDbEntity
  8
0
100
AcDbBlockEnd
  0
BLOCK
  5
14F
330
14D
100
AcDbEntity
  8
0
100
AcDbBlockBegin
  2
block 29
 70
     0
 71
     0
 10
0.0
 20
0.0
 30
0.0
  3
block 29
  1

  0
SPLINE
  5
151
330
14D
100
AcDbEntity
  8
Schneiden
 62
     7
370
    25
100
AcDbSpline
210
0.0
220
0.0
230
1.0
 70
    11
 71
     3
 72
    20
 73
    16
 74
     0
 42
0.0000000001
 43
0.0000000001
 40
0.0
 40
0.0
 40
0.0
 40
0.0
 40
1.0
 40
1.0
 40
1.0
 40
2.0
 40
2.0
 40
2.0
 40
3.0
 40
3.0
 40
3.0
 40
4.0
 40
4.0
 40
4.0
 40
5.0
 40
5.0
 40
5.0
 40
5.0
 10
169.313007227637
 20
-16.33336995034374
 30
0.0
 10
169.313007227637
 20
-15.61541205121767
 30
0.0
 10
168.7309583454041
 20
-15.03353542375898
 30
0.0
 10
168.013000446278
 20
-15.03353542375898
 30
0.0
 10
167.295042547152
 20
-15.03353542375898
 30
0.0
 10
166.712993664919
 20
-15.61541205121767
 30
0.0
 10
166.712993664919
 20
-16.33336995034374
 30
0.0
 10
166.712993664919
 20
-17.05150010424407
 30
0.0
 10
167.295042547152
 20
-17.63354898647703
 30
0.0
 10
168.013000446278
 20
-17.63354898647703
 30
0.0
 10
168.7309583454041
 20
-17.63354898647703
 30
0.0
 10
169.313007227637
 20
-17.05150010424407
 30
0.0
 10
169.313007227637
 20
-16.33336995034374
 30
0.0
 10
169.313007227637
 20
-16.33336995034374
 30
0.0
 10
169.313007227637
 20
-16.33336995034374
 30
0.0
 10
169.313007227637
 20
-16.33336995034374
 30
0.0
  0
ENDBLK
  5
150
330
14D
100
AcDbEntity
  8
0
100
AcDbBlockEnd
  0
BLOCK
  5
154
330
152
100
AcDbEntity
  8
0
100
AcDbBlockBegin
  2
block 30
 70
     0
 71
     0
 10
0.0
 20
0.0
 30
0.0
  3
block 30
  1

  0
SPLINE
  5
156
330
152
100
AcDbEntity
  8
Schneiden
 62
     7
370
    25
100
AcDbSpline
210
0.0
220
0.0
230
1.0
 70
    11
 71
     3
 72
    20
 73
    16
 74
     0
 42
0.0000000001
 43
0.0000000001
 40
0.0
 40
0.0
 40
0.0
 40
0.0
 40
1.0
 40
1.0
 40
1.0
 40
2.0
 40
2.0
 40
2.0
 40
3.0
 40
3.0
 40
3.0
 40
4.0
 40
4.0
 40
4.0
 40
5.0
 40
5.0
 40
5.0
 40
5.0
 10
168.013000446278
 20
-9.083511011183983
 30
0.0
 10
168.013000446278
 20
-9.083511011183983
 30
0.0
 10
240.0790580997025
 20
-9.083511011183983
 30
0.0
 10
240.0790580997025
 20
-9.083511011183983
 30
0.0
 10
240.0790580997025
 20
-9.083511011183983
 30
0.0
 10
240.0790580997025
 20
-23.58340114427776
 30
0.0
 10
240.0790580997025
 20
-23.58340114427776
 30
0.0
 10
240.0790580997025
 20
-23.58340114427776
 30
0.0
 10
168.013000446278
 20
-23.58340114427776
 30
0.0
 10
168.013000446278
 20
-23.58340114427776
 30
0.0
 10
164.0089382185464
 20
-23.58340114427776
 30
0.0
 10
160.762969252344
 20
-20.33760443284963
 30
0.0
 10
160.762969252344
 20
-16.33336995034374
 30
0.0
 10
160.762969252344
 20
-12.32947997738638
 30
0.0
 10
164.0089382185464
 20
-9.083511011183983
 30
0.0
 10
168.013000446278
 20
-9.083511011183983
 30
0.0
  0
ENDBLK
  5
155
330
152
100
AcDbEntity
  8
0
100
AcDbBlockEnd
  0
BLOCK
  5
15A
330
158
100
AcDbEntity
  8
0
100
AcDbBlockBegin
  2
block 31
 70
     0
 71
     0
 10
0.0
 20
0.0
 30
0.0
  3
block 31
  1

  0
POLYLINE
  5
15C
330
158
100
AcDbEntity
  8
Gravieren
 62
     1
370
    25
100
AcDb2dPolyline
 66
     1
 10
0.0
 20
0.0
 30
0.0
  0
VERTEX
  5
15D
330
15C
100
AcDbEntity
  8
Gravieren
 62
     1
370
    25
100
AcDbVertex
100
AcDb2dVertex
 10
247.0987846604475
 20
-40.82403699066205
 30
0.0
  0
VERTEX
  5
15E
330
15C
100
AcDbEntity
  8
Gravieren
 62
     1
370
    25
100
AcDbVertex
100
AcDb2dVertex
 10
163.0989162461177
 20
-40.82403699066205
 30
0.0
  0
SEQEND
  5
15F
330
15C
100
AcDbEntity
  8
Gravieren
370
    25
  0
ENDBLK
  5
15B
330
158
100
AcDbEntity
  8
0
100
AcDbBlockEnd
  0
BLOCK
  5
162
330
160
100
AcDbEntity
  8
0
100
AcDbBlockBegin
  2
block 32
 70
     0
 71
     0
 10
0.0
 20
0.0
 30
0.0
  3
block 32
  1

  0
POLYLINE
  5
164
330
160
100
AcDbEntity
  8
Gravieren
 62
     1
370
    25
100
AcDb2dPolyline
 66
     1
 10
0.0
 20
0.0
 30
0.0
  0
VERTEX
  5
165
330
164
100
AcDbEntity
  8
Gravieren
 62
     1
370
    25
100
AcDbVertex
100
AcDb2dVertex
 10
160.0989270975621
 20
-43.82402613921761
 30
0.0
  0
VERTEX
  5
166
330
164
100
AcDbEntity
  8
Gravieren
 62
     1
370
    25
100
AcDbVertex
100
AcDb2dVertex
 10
160.0989270975621
 20
-73.32403426986343
 30
0.0
  0
SEQEND
  5
167
330
164
100
AcDbEntity
  8
Gravieren
370
    25
  0
ENDBLK
  5
163
330
160
100
AcDbEntity
  8
0
100
AcDbBlockEnd
  0
BLOCK
  5
16A
330
168
100
AcDbEntity
  8
0
100
AcDbBlockBegin
  2
block 33
 70
     0
 71
     0
 10
0.0
 20
0.0
 30
0.0
  3
block 33
  1

  0
POLYLINE
  5
16C
330
168
100
AcDbEntity
  8
Gravieren
 62
     1
370
    25
100
AcDb2dPolyline
 66
     1
 10
0.0
 20
0.0
 30
0.0
  0
VERTEX
  5
16D
330
16C
100
AcDbEntity
  8
Gravieren
 62
     1
370
    25
100
AcDbVertex
100
AcDb2dVertex
 10
163.0989162461177
 20
-76.324023418419
 30
0.0
  0
VERTEX
  5
16E
330
16C
100
AcDbEntity
  8
Gravieren
 62
     1
370
    25
100
AcDbVertex
100
AcDb2dVertex
 10
202.0989474321142
 20
-76.324023418419
 30
0.0
  0
SEQEND
  5
16F
330
16C
100
AcDbEntity
  8
Gravieren
370
    25
  0
ENDBLK
  5
16B
330
168
100
AcDbEntity
  8
0
100
AcDbBlockEnd
  0
BLOCK
  5
172
330
170
100
AcDbEntity
  8
0
100
AcDbBlockBegin
  2
block 34
 70
     0
 71
     0
 10
0.0
 20
0.0
 30
0.0
  3
block 34
  1

  0
POLYLINE
  5
174
330
170
100
AcDbEntity
  8
Gravieren
 62
     1
370
    25
100
AcDb2dPolyline
 66
     1
 10
0.0
 20
0.0
 30
0.0
  0
VERTEX
  5
175
330
174
100
AcDbEntity
  8
Gravieren
 62
     1
370
    25
100
AcDbVertex
100
AcDb2dVertex
 10
205.0989365806697
 20
-79.32401256697456
 30
0.0
  0
VERTEX
  5
176
330
174
100
AcDbEntity
  8
Gravieren
 62
     1
370
    25
100
AcDbVertex
100
AcDb2dVertex
 10
205.0989365806697
 20
-88.32398001264123
 30
0.0
  0
SEQEND
  5
177
330
174
100
AcDbEntity
  8
Gravieren
370
    25
  0
ENDBLK
  5
173
330
170
100
AcDbEntity
  8
0
100
AcDbBlockEnd
  0
BLOCK
  5
17A
330
178
100
AcDbEntity
  8
0
100
AcDbBlockBegin
  2
block 35
 70
     0
 71
     0
 10
0.0
 20
0.0
 30
0.0
  3
block 35
  1

  0
POLYLINE
  5
17C
330
178
100
AcDbEntity
  8
Gravieren
 62
     1
370
    25
100
AcDb2dPolyline
 66
     1
 10
0.0
 20
0.0
 30
0.0
  0
VERTEX
  5
17D
330
17C
100
AcDbEntity
  8
Gravieren
 62
     1
370
    25
100
AcDbVertex
100
AcDb2dVertex
 10
208.0989257292253
 20
-91.32396916119679
 30
0.0
  0
VERTEX
  5
17E
330
17C
100
AcDbEntity
  8
Gravieren
 62
     1
370
    25
100
AcDbVertex
100
AcDb2dVertex
 10
252.0989962477391
 20
-91.32396916119679
 30
0.0
  0
SEQEND
  5
17F
330
17C
100
AcDbEntity
  8
Gravieren
370
    25
  0
ENDBLK
  5
17B
330
178
100
AcDbEntity
  8
0
100
AcDbBlockEnd
  0
BLOCK
  5
182
330
180
100
AcDbEntity
  8
0
100
AcDbBlockBegin
  2
block 36
 70
     0
 71
     0
 10
0.0
 20
0.0
 30
0.0
  3
block 36
  1

  0
POLYLINE
  5
184
330
180
100
AcDbEntity
  8
Gravieren
 62
     1
370
    25
100
AcDb2dPolyline
 66
     1
 10
0.0
 20
0.0
 30
0.0
  0
VERTEX
  5
185
330
184
100
AcDbEntity
  8
Gravieren
 62
     1
370
    25
100
AcDbVertex
100
AcDb2dVertex
 10
255.0989853962947
 20
-94.32413056452661
 30
0.0
  0
VERTEX
  5
186
330
184
100
AcDbEntity
  8
Gravieren
 62
     1
370
    25
100
AcDbVertex
100
AcDb2dVertex
 10
255.0989853962947
 20
-230.323925723669
 30
0.0
  0
SEQEND
  5
187
330
184
100
AcDbEntity
  8
Gravieren
370
    25
  0
ENDBLK
  5
183
330
180
100
AcDbEntity
  8
0
100
AcDbBlockEnd
  0
BLOCK
  5
18A
330
188
100
AcDbEntity
  8
0
100
AcDbBlockBegin
  2
block 37
 70
     0
 71
     0
 10
0.0
 20
0.0
 30
0.0
  3
block 37
  1

  0
POLYLINE
  5
18C
330
188
100
AcDbEntity
  8
Gravieren
 62
     1
370
    25
100
AcDb2dPolyline
 66
     1
 10
0.0
 20
0.0
 30
0.0
  0
VERTEX
  5
18D
330
18C
100
AcDbEntity
  8
Gravieren
 62
     1
370
    25
100
AcDbVertex
100
AcDb2dVertex
 10
257.598746680392
 20
-76.324023418419
 30
0.0
  0
VERTEX
  5
18E
330
18C
100
AcDbEntity
  8
Gravieren
 62
     1
370
    25
100
AcDbVertex
100
AcDb2dVertex
 10
253.0987629575586
 20
-76.324023418419
 30
0.0
  0
SEQEND
  5
18F
330
18C
100
AcDbEntity
  8
Gravieren
370
    25
  0
ENDBLK
  5
18B
330
188
100
AcDbEntity
  8
0
100
AcDbBlockEnd
  0
BLOCK
  5
192
330
190
100
AcDbEntity
  8
0
100
AcDbBlockBegin
  2
block 38
 70
     0
 71
     0
 10
0.0
 20
0.0
 30
0.0
  3
block 38
  1

  0
POLYLINE
  5
194
330
190
100
AcDbEntity
  8
Gravieren
 62
     1
370
    25
100
AcDb2dPolyline
 66
     1
 10
0.0
 20
0.0
 30
0.0
  0
VERTEX
  5
195
330
194
100
AcDbEntity
  8
Gravieren
 62
     1
370
    25
100
AcDbVertex
100
AcDb2dVertex
 10
250.0987738090031
 20
-73.32403426986343
 30
0.0
  0
VERTEX
  5
196
330
194
100
AcDbEntity
  8
Gravieren
 62
     1
370
    25
100
AcDbVertex
100
AcDb2dVertex
 10
250.0987738090031
 20
-43.82402613921761
 30
0.0
  0
SEQEND
  5
197
330
194
100
AcDbEntity
  8
Gravieren
370
    25
  0
ENDBLK
  5
193
330
190
100
AcDbEntity
  8
0
100
AcDbBlockEnd
  0
BLOCK
  5
19A
330
198
100
AcDbEntity
  8
0
100
AcDbBlockBegin
  2
block 39
 70
     0
 71
     0
 10
0.0
 20
0.0
 30
0.0
  3
block 39
  1

  0
POLYLINE
  5
19C
330
198
100
AcDbEntity
  8
Gravieren
 62
     1
370
    25
100
AcDb2dPolyline
 66
     1
 10
0.0
 20
0.0
 30
0.0
  0
VERTEX
  5
19D
330
19C
100
AcDbEntity
  8
Gravieren
 62
     1
370
    25
100
AcDbVertex
100
AcDb2dVertex
 10
270.0989311390725
 20
-230.323925723669
 30
0.0
  0
VERTEX
  5
19E
330
19C
100
AcDbEntity
  8
Gravieren
 62
     1
370
    25
100
AcDbVertex
100
AcDb2dVertex
 10
270.0989311390725
 20
-88.82403562232524
 30
0.0
  0
SEQEND
  5
19F
330
19C
100
AcDbEntity
  8
Gravieren
370
    25
  0
ENDBLK
  5
19B
330
198
100
AcDbEntity
  8
0
100
AcDbBlockEnd
  0
BLOCK
  5
1A2
330
1A0
100
AcDbEntity
  8
0
100
AcDbBlockBegin
  2
block 40
 70
     0
 71
     0
 10
0.0
 20
0.0
 30
0.0
  3
block 40
  1

  0
POLYLINE
  5
1A4
330
1A0
100
AcDbEntity
  8
Gravieren
 62
     1
370
    25
100
AcDb2dPolyline
 66
     1
 10
0.0
 20
0.0
 30
0.0
  0
VERTEX
  5
1A5
330
1A4
100
AcDbEntity
  8
Gravieren
 62
     1
370
    25
100
AcDbVertex
100
AcDb2dVertex
 10
292.5988497532392
 20
-233.3239148722246
 30
0.0
  0
VERTEX
  5
1A6
330
1A4
100
AcDbEntity
  8
Gravieren
 62
     1
370
    25
100
AcDbVertex
100
AcDb2dVertex
 10
273.0989202876281
 20
-233.3239148722246
 30
0.0
  0
SEQEND
  5
1A7
330
1A4
100
AcDbEntity
  8
Gravieren
370
    25
  0
ENDBLK
  5
1A3
330
1A0
100
AcDbEntity
  8
0
100
AcDbBlockEnd
  0
BLOCK
  5
1AA
330
1A8
100
AcDbEntity
  8
0
100
AcDbBlockBegin
  2
block 41
 70
     0
 71
     0
 10
0.0
 20
0.0
 30
0.0
  3
block 41
  1

  0
POLYLINE
  5
1AC
330
1A8
100
AcDbEntity
  8
Gravieren
 62
     1
370
    25
100
AcDb2dPolyline
 66
     1
 10
0.0
 20
0.0
 30
0.0
  0
VERTEX
  5
1AD
330
1AC
100
AcDbEntity
  8
Gravieren
 62
     1
370
    25
100
AcDbVertex
100
AcDb2dVertex
 10
252.0989962477391
 20
-233.3239148722246
 30
0.0
  0
VERTEX
  5
1AE
330
1AC
100
AcDbEntity
  8
Gravieren
 62
     1
370
    25
100
AcDbVertex
100
AcDb2dVertex
 10
158.0988769136003
 20
-233.3239148722246
 30
0.0
  0
SEQEND
  5
1AF
330
1AC
100
AcDbEntity
  8
Gravieren
370
    25
  0
ENDBLK
  5
1AB
330
1A8
100
AcDbEntity
  8
0
100
AcDbBlockEnd
  0
BLOCK
  5
1B2
330
1B0
100
AcDbEntity
  8
0
100
AcDbBlockBegin
  2
block 42
 70
     0
 71
     0
 10
0.0
 20
0.0
 30
0.0
  3
block 42
  1

  0
POLYLINE
  5
1B4
330
1B0
100
AcDbEntity
  8
Gravieren
 62
     1
370
    25
100
AcDb2dPolyline
 66
     1
 10
0.0
 20
0.0
 30
0.0
  0
VERTEX
  5
1B5
330
1B4
100
AcDbEntity
  8
Gravieren
 62
     1
370
    25
100
AcDbVertex
100
AcDb2dVertex
 10
155.0988877650447
 20
-230.323925723669
 30
0.0
  0
VERTEX
  5
1B6
330
1B4
100
AcDbEntity
  8
Gravieren
 62
     1
370
    25
100
AcDbVertex
100
AcDb2dVertex
 10
155.0988877650447
 20
-213.3244465612522
 30
0.0
  0
SEQEND
  5
1B7
330
1B4
100
AcDbEntity
  8
Gravieren
370
    25
  0
ENDBLK
  5
1B3
330
1B0
100
AcDbEntity
  8
0
100
AcDbBlockEnd
  0
BLOCK
  5
1BA
330
1B8
100
AcDbEntity
  8
0
100
AcDbBlockBegin
  2
block 43
 70
     0
 71
     0
 10
0.0
 20
0.0
 30
0.0
  3
block 43
  1

  0
POLYLINE
  5
1BC
330
1B8
100
AcDbEntity
  8
Gravieren
 62
     1
370
    25
100
AcDb2dPolyline
 66
     1
 10
0.0
 20
0.0
 30
0.0
  0
VERTEX
  5
1BD
330
1BC
100
AcDbEntity
  8
Gravieren
 62
     1
370
    25
100
AcDbVertex
100
AcDb2dVertex
 10
158.0988769136003
 20
-210.3244574126967
 30
0.0
  0
VERTEX
  5
1BE
330
1BC
100
AcDbEntity
  8
Gravieren
 62
     1
370
    25
100
AcDbVertex
100
AcDb2dVertex
 10
202.0989474321142
 20
-210.3244574126967
 30
0.0
  0
SEQEND
  5
1BF
330
1BC
100
AcDbEntity
  8
Gravieren
370
    25
  0
ENDBLK
  5
1BB
330
1B8
100
AcDbEntity
  8
0
100
AcDbBlockEnd
  0
BLOCK
  5
1C2
330
1C0
100
AcDbEntity
  8
0
100
AcDbBlockBegin
  2
block 44
 70
     0
 71
     0
 10
0.0
 20
0.0
 30
0.0
  3
block 44
  1

  0
POLYLINE
  5
1C4
330
1C0
100
AcDbEntity
  8
Gravieren
 62
     1
370
    25
100
AcDb2dPolyline
 66
     1
 10
0.0
 20
0.0
 30
0.0
  0
VERTEX
  5
1C5
330
1C4
100
AcDbEntity
  8
Gravieren
 62
     1
370
    25
100
AcDbVertex
100
AcDb2dVertex
 10
205.0989365806697
 20
-207.3244682641411
 30
0.0
  0
VERTEX
  5
1C6
330
1C4
100
AcDbEntity
  8
Gravieren
 62
     1
370
    25
100
AcDbVertex
100
AcDb2dVertex
 10
205.0989365806697
 20
-198.3245008184744
 30
0.0
  0
SEQEND
  5
1C7
330
1C4
100
AcDbEntity
  8
Gravieren
370
    25
  0
ENDBLK
  5
1C3
330
1C0
100
AcDbEntity
  8
0
100
AcDbBlockEnd
  0
BLOCK
  5
1CA
330
1C8
100
AcDbEntity
  8
0
100
AcDbBlockBegin
  2
block 45
 70
     0
 71
     0
 10
0.0
 20
0.0
 30
0.0
  3
block 45
  1

  0
POLYLINE
  5
1CC
330
1C8
100
AcDbEntity
  8
Gravieren
 62
     1
370
    25
100
AcDb2dPolyline
 66
     1
 10
0.0
 20
0.0
 30
0.0
  0
VERTEX
  5
1CD
330
1CC
100
AcDbEntity
  8
Gravieren
 62
     1
370
    25
100
AcDbVertex
100
AcDb2dVertex
 10
208.0989257292253
 20
-195.3245116699189
 30
0.0
  0
VERTEX
  5
1CE
330
1CC
100
AcDbEntity
  8
Gravieren
 62
     1
370
    25
100
AcDbVertex
100
AcDb2dVertex
 10
247.0987846604475
 20
-195.3245116699189
 30
0.0
  0
SEQEND
  5
1CF
330
1CC
100
AcDbEntity
  8
Gravieren
370
    25
  0
ENDBLK
  5
1CB
330
1C8
100
AcDbEntity
  8
0
100
AcDbBlockEnd
  0
BLOCK
  5
1D2
330
1D0
100
AcDbEntity
  8
0
100
AcDbBlockBegin
  2
block 46
 70
     0
 71
     0
 10
0.0
 20
0.0
 30
0.0
  3
block 46
  1

  0
POLYLINE
  5
1D4
330
1D0
100
AcDbEntity
  8
Gravieren
 62
     1
370
    25
100
AcDb2dPolyline
 66
     1
 10
0.0
 20
0.0
 30
0.0
  0
VERTEX
  5
1D5
330
1D4
100
AcDbEntity
  8
Gravieren
 62
     1
370
    25
100
AcDbVertex
100
AcDb2dVertex
 10
250.0987738090031
 20
-192.3245225213633
 30
0.0
  0
VERTEX
  5
1D6
330
1D4
100
AcDbEntity
  8
Gravieren
 62
     1
370
    25
100
AcDbVertex
100
AcDb2dVertex
 10
250.0987738090031
 20
-108.3241373427106
 30
0.0
  0
SEQEND
  5
1D7
330
1D4
100
AcDbEntity
  8
Gravieren
370
    25
  0
ENDBLK
  5
1D3
330
1D0
100
AcDbEntity
  8
0
100
AcDbBlockEnd
  0
BLOCK
  5
1DA
330
1D8
100
AcDbEntity
  8
0
100
AcDbBlockBegin
  2
block 47
 70
     0
 71
     0
 10
0.0
 20
0.0
 30
0.0
  3
block 47
  1

  0
POLYLINE
  5
1DC
330
1D8
100
AcDbEntity
  8
Gravieren
 62
     1
370
    25
100
AcDb2dPolyline
 66
     1
 10
0.0
 20
0.0
 30
0.0
  0
VERTEX
  5
1DD
330
1DC
100
AcDbEntity
  8
Gravieren
 62
     1
370
    25
100
AcDbVertex
100
AcDb2dVertex
 10
247.0987846604475
 20
-105.3241481941551
 30
0.0
  0
VERTEX
  5
1DE
330
1DC
100
AcDbEntity
  8
Gravieren
 62
     1
370
    25
100
AcDbVertex
100
AcDb2dVertex
 10
163.0989162461177
 20
-105.3241481941551
 30
0.0
  0
SEQEND
  5
1DF
330
1DC
100
AcDbEntity
  8
Gravieren
370
    25
  0
ENDBLK
  5
1DB
330
1D8
100
AcDbEntity
  8
0
100
AcDbBlockEnd
  0
BLOCK
  5
1E2
330
1E0
100
AcDbEntity
  8
0
100
AcDbBlockBegin
  2
block 48
 70
     0
 71
     0
 10
0.0
 20
0.0
 30
0.0
  3
block 48
  1

  0
POLYLINE
  5
1E4
330
1E0
100
AcDbEntity
  8
Gravieren
 62
     1
370
    25
100
AcDb2dPolyline
 66
     1
 10
0.0
 20
0.0
 30
0.0
  0
VERTEX
  5
1E5
330
1E4
100
AcDbEntity
  8
Gravieren
 62
     1
370
    25
100
AcDbVertex
100
AcDb2dVertex
 10
160.0989270975621
 20
-108.3241373427106
 30
0.0
  0
VERTEX
  5
1E6
330
1E4
100
AcDbEntity
  8
Gravieren
 62
     1
370
    25
100
AcDbVertex
100
AcDb2dVertex
 10
160.0989270975621
 20
-192.3245225213633
 30
0.0
  0
SEQEND
  5
1E7
330
1E4
100
AcDbEntity
  8
Gravieren
370
    25
  0
ENDBLK
  5
1E3
330
1E0
100
AcDbEntity
  8
0
100
AcDbBlockEnd
  0
BLOCK
  5
1EA
330
1E8
100
AcDbEntity
  8
0
100
AcDbBlockBegin
  2
block 49
 70
     0
 71
     0
 10
0.0
 20
0.0
 30
0.0
  3
block 49
  1

  0
POLYLINE
  5
1EC
330
1E8
100
AcDbEntity
  8
Gravieren
 62
     1
370
    25
100
AcDb2dPolyline
 66
     1
 10
0.0
 20
0.0
 30
0.0
  0
VERTEX
  5
1ED
330
1EC
100
AcDbEntity
  8
Gravieren
 62
     1
370
    25
100
AcDbVertex
100
AcDb2dVertex
 10
157.0989379490065
 20
-195.3245116699189
 30
0.0
  0
VERTEX
  5
1EE
330
1EC
100
AcDbEntity
  8
Gravieren
 62
     1
370
    25
100
AcDbVertex
100
AcDb2dVertex
 10
152.5989542261732
 20
-195.3245116699189
 30
0.0
  0
SEQEND
  5
1EF
330
1EC
100
AcDbEntity
  8
Gravieren
370
    25
  0
ENDBLK
  5
1EB
330
1E8
100
AcDbEntity
  8
0
100
AcDbBlockEnd
  0
BLOCK
  5
1F2
330
1F0
100
AcDbEntity
  8
0
100
AcDbBlockBegin
  2
block 50
 70
     0
 71
     0
 10
0.0
 20
0.0
 30
0.0
  3
block 50
  1

  0
POLYLINE
  5
1F4
330
1F0
100
AcDbEntity
  8
Gravieren
 62
     1
370
    25
100
AcDb2dPolyline
 66
     1
 10
0.0
 20
0.0
 30
0.0
  0
VERTEX
  5
1F5
330
1F4
100
AcDbEntity
  8
Gravieren
 62
     1
370
    25
100
AcDbVertex
100
AcDb2dVertex
 10
140.0989420222669
 20
-207.8240071095023
 30
0.0
  0
VERTEX
  5
1F6
330
1F4
100
AcDbEntity
  8
Gravieren
 62
     1
370
    25
100
AcDbVertex
100
AcDb2dVertex
 10
140.0989420222669
 20
-239.824121033794
 30
0.0
  0
SEQEND
  5
1F7
330
1F4
100
AcDbEntity
  8
Gravieren
370
    25
  0
ENDBLK
  5
1F3
330
1F0
100
AcDbEntity
  8
0
100
AcDbBlockEnd
  0
BLOCK
  5
1FA
330
1F8
100
AcDbEntity
  8
0
100
AcDbBlockBegin
  2
block 51
 70
     0
 71
     0
 10
0.0
 20
0.0
 30
0.0
  3
block 51
  1

  0
POLYLINE
  5
1FC
330
1F8
100
AcDbEntity
  8
Gravieren
 62
     1
370
    25
100
AcDb2dPolyline
 66
     1
 10
0.0
 20
0.0
 30
0.0
  0
VERTEX
  5
1FD
330
1FC
100
AcDbEntity
  8
Gravieren
 62
     1
370
    25
100
AcDbVertex
100
AcDb2dVertex
 10
148.5988538582496
 20
-248.3245496340994
 30
0.0
  0
VERTEX
  5
1FE
330
1FC
100
AcDbEntity
  8
Gravieren
 62
     1
370
    25
100
AcDbVertex
100
AcDb2dVertex
 10
292.5988497532392
 20
-248.3245496340994
 30
0.0
  0
SEQEND
  5
1FF
330
1FC
100
AcDbEntity
  8
Gravieren
370
    25
  0
ENDBLK
  5
1FB
330
1F8
100
AcDbEntity
  8
0
100
AcDbBlockEnd
  0
BLOCK
  5
202
330
200
100
AcDbEntity
  8
0
100
AcDbBlockBegin
  2
block 52
 70
     0
 71
     0
 10
0.0
 20
0.0
 30
0.0
  3
block 52
  1

  0
POLYLINE
  5
204
330
200
100
AcDbEntity
  8
Gravieren
 62
     1
370
    25
100
AcDb2dPolyline
 66
     1
 10
0.0
 20
0.0
 30
0.0
  0
VERTEX
  5
205
330
204
100
AcDbEntity
  8
Gravieren
 62
     1
370
    25
100
AcDbVertex
100
AcDb2dVertex
 10
292.5988497532392
 20
-233.3239148722246
 30
0.0
  0
VERTEX
  5
206
330
204
100
AcDbEntity
  8
Gravieren
 62
     1
370
    25
100
AcDbVertex
100
AcDb2dVertex
 10
292.5988497532392
 20
-8.824095321144672
 30
0.0
  0
SEQEND
  5
207
330
204
100
AcDbEntity
  8
Gravieren
370
    25
  0
ENDBLK
  5
203
330
200
100
AcDbEntity
  8
0
100
AcDbBlockEnd
  0
ENDSEC
  0
SECTION
  2
ENTITIES
  0
INSERT
  5
3D
330
1F
100
AcDbEntity
  8
Schneiden
100
AcDbBlockReference
  2
block 2
 10
0.0
 20
0.0
 30
0.0
  0
INSERT
  5
48
330
1F
100
AcDbEntity
  8
Schneiden
100
AcDbBlockReference
  2
block 3
 10
0.0
 20
0.0
 30
0.0
  0
INSERT
  5
53
330
1F
100
AcDbEntity
  8
Schneiden
100
AcDbBlockReference
  2
block 4
 10
0.0
 20
0.0
 30
0.0
  0
INSERT
  5
5E
330
1F
100
AcDbEntity
  8
Schneiden
100
AcDbBlockReference
  2
block 5
 10
0.0
 20
0.0
 30
0.0
  0
INSERT
  5
69
330
1F
100
AcDbEntity
  8
Schneiden
100
AcDbBlockReference
  2
block 6
 10
0.0
 20
0.0
 30
0.0
  0
INSERT
  5
74
330
1F
100
AcDbEntity
  8
Schneiden
100
AcDbBlockReference
  2
block 7
 10
0.0
 20
0.0
 30
0.0
  0
INSERT
  5
7F
330
1F
100
AcDbEntity
  8
Schneiden
100
AcDbBlockReference
  2
block 8
 10
0.0
 20
0.0
 30
0.0
  0
INSERT
  5
8A
330
1F
100
AcDbEntity
  8
Schneiden
100
AcDbBlockReference
  2
block 9
 10
0.0
 20
0.0
 30
0.0
  0
INSERT
  5
95
330
1F
100
AcDbEntity
  8
Schneiden
100
AcDbBlockReference
  2
block 10
 10
0.0
 20
0.0
 30
0.0
  0
INSERT
  5
A0
330
1F
100
AcDbEntity
  8
Schneiden
100
AcDbBlockReference
  2
block 11
 10
0.0
 20
0.0
 30
0.0
  0
INSERT
  5
AB
330
1F
100
AcDbEntity
  8
Schneiden
100
AcDbBlockReference
  2
block 12
 10
0.0
 20
0.0
 30
0.0
  0
INSERT
  5
B6
330
1F
100
AcDbEntity
  8
Schneiden
100
AcDbBlockReference
  2
block 13
 10
0.0
 20
0.0
 30
0.0
  0
INSERT
  5
C1
330
1F
100
AcDbEntity
  8
Schneiden
100
AcDbBlockReference
  2
block 14
 10
0.0
 20
0.0
 30
0.0
  0
INSERT
  5
CC
330
1F
100
AcDbEntity
  8
Schneiden
100
AcDbBlockReference
  2
block 15
 10
0.0
 20
0.0
 30
0.0
  0
INSERT
  5
D7
330
1F
100
AcDbEntity
  8
Schneiden
100
AcDbBlockReference
  2
block 16
 10
0.0
 20
0.0
 30
0.0
  0
INSERT
  5
E2
330
1F
100
AcDbEntity
  8
Schneiden
100
AcDbBlockReference
  2
block 17
 10
0.0
 20
0.0
 30
0.0
  0
INSERT
  5
ED
330
1F
100
AcDbEntity
  8
Schneiden
100
AcDbBlockReference
  2
block 18
 10
0.0
 20
0.0
 30
0.0
  0
INSERT
  5
F8
330
1F
100
AcDbEntity
  8
Schneiden
100
AcDbBlockReference
  2
block 19
 10
0.0
 20
0.0
 30
0.0
  0
INSERT
  5
103
330
1F
100
AcDbEntity
  8
Schneiden
100
AcDbBlockReference
  2
block 20
 10
0.0
 20
0.0
 30
0.0
  0
INSERT
  5
10E
330
1F
100
AcDbEntity
  8
Schneiden
100
AcDbBlockReference
  2
block 21
 10
0.0
 20
0.0
 30
0.0
  0
INSERT
  5
113
330
1F
100
AcDbEntity
  8
Schneiden
100
AcDbBlockReference
  2
block 22
 10
0.0
 20
0.0
 30
0.0
  0
INSERT
  5
118
330
1F
100
AcDbEntity
  8
Schneiden
100
AcDbBlockReference
  2
block 23
 10
0.0
 20
0.0
 30
0.0
  0
INSERT
  5
11D
330
1F
100
AcDbEntity
  8
Schneiden
100
AcDbBlockReference
  2
block 24
 10
0.0
 20
0.0
 30
0.0
  0
INSERT
  5
122
330
1F
100
AcDbEntity
  8
Schneiden
100
AcDbBlockReference
  2
block 25
 10
0.0
 20
0.0
 30
0.0
  0
INSERT
  5
12D
330
1F
100
AcDbEntity
  8
Schneiden
100
AcDbBlockReference
  2
block 26
 10
0.0
 20
0.0
 30
0.0
  0
INSERT
  5
138
330
1F
100
AcDbEntity
  8
Schneiden
100
AcDbBlockReference
  2
block 27
 10
0.0
 20
0.0
 30
0.0
  0
INSERT
  5
143
330
1F
100
AcDbEntity
  8
Schneiden
100
AcDbBlockReference
  2
block 28
 10
0.0
 20
0.0
 30
0.0
  0
INSERT
  5
14E
330
1F
100
AcDbEntity
  8
Schneiden
100
AcDbBlockReference
  2
block 29
 10
0.0
 20
0.0
 30
0.0
  0
INSERT
  5
153
330
1F
100
AcDbEntity
  8
Schneiden
100
AcDbBlockReference
  2
block 30
 10
0.0
 20
0.0
 30
0.0
  0
INSERT
  5
159
330
1F
100
AcDbEntity
  8
Gravieren
100
AcDbBlockReference
  2
block 31
 10
0.0
 20
0.0
 30
0.0
  0
INSERT
  5
161
330
1F
100
AcDbEntity
  8
Gravieren
100
AcDbBlockReference
  2
block 32
 10
0.0
 20
0.0
 30
0.0
  0
INSERT
  5
169
330
1F
100
AcDbEntity
  8
Gravieren
100
AcDbBlockReference
  2
block 33
 10
0.0
 20
0.0
 30
0.0
  0
INSERT
  5
171
330
1F
100
AcDbEntity
  8
Gravieren
100
AcDbBlockReference
  2
block 34
 10
0.0
 20
0.0
 30
0.0
  0
INSERT
  5
179
330
1F
100
AcDbEntity
  8
Gravieren
100
AcDbBlockReference
  2
block 35
 10
0.0
 20
0.0
 30
0.0
  0
INSERT
  5
181
330
1F
100
AcDbEntity
  8
Gravieren
100
AcDbBlockReference
  2
block 36
 10
0.0
 20
0.0
 30
0.0
  0
INSERT
  5
189
330
1F
100
AcDbEntity
  8
Gravieren
100
AcDbBlockReference
  2
block 37
 10
0.0
 20
0.0
 30
0.0
  0
INSERT
  5
191
330
1F
100
AcDbEntity
  8
Gravieren
100
AcDbBlockReference
  2
block 38
 10
0.0
 20
0.0
 30
0.0
  0
INSERT
  5
199
330
1F
100
AcDbEntity
  8
Gravieren
100
AcDbBlockReference
  2
block 39
 10
0.0
 20
0.0
 30
0.0
  0
INSERT
  5
1A1
330
1F
100
AcDbEntity
  8
Gravieren
100
AcDbBlockReference
  2
block 40
 10
0.0
 20
0.0
 30
0.0
  0
INSERT
  5
1A9
330
1F
100
AcDbEntity
  8
Gravieren
100
AcDbBlockReference
  2
block 41
 10
0.0
 20
0.0
 30
0.0
  0
INSERT
  5
1B1
330
1F
100
AcDbEntity
  8
Gravieren
100
AcDbBlockReference
  2
block 42
 10
0.0
 20
0.0
 30
0.0
  0
INSERT
  5
1B9
330
1F
100
AcDbEntity
  8
Gravieren
100
AcDbBlockReference
  2
block 43
 10
0.0
 20
0.0
 30
0.0
  0
INSERT
  5
1C1
330
1F
100
AcDbEntity
  8
Gravieren
100
AcDbBlockReference
  2
block 44
 10
0.0
 20
0.0
 30
0.0
  0
INSERT
  5
1C9
330
1F
100
AcDbEntity
  8
Gravieren
100
AcDbBlockReference
  2
block 45
 10
0.0
 20
0.0
 30
0.0
  0
INSERT
  5
1D1
330
1F
100
AcDbEntity
  8
Gravieren
100
AcDbBlockReference
  2
block 46
 10
0.0
 20
0.0
 30
0.0
  0
INSERT
  5
1D9
330
1F
100
AcDbEntity
  8
Gravieren
100
AcDbBlockReference
  2
block 47
 10
0.0
 20
0.0
 30
0.0
  0
INSERT
  5
1E1
330
1F
100
AcDbEntity
  8
Gravieren
100
AcDbBlockReference
  2
block 48
 10
0.0
 20
0.0
 30
0.0
  0
INSERT
  5
1E9
330
1F
100
AcDbEntity
  8
Gravieren
100
AcDbBlockReference
  2
block 49
 10
0.0
 20
0.0
 30
0.0
  0
INSERT
  5
1F1
330
1F
100
AcDbEntity
  8
Gravieren
100
AcDbBlockReference
  2
block 50
 10
0.0
 20
0.0
 30
0.0
  0
INSERT
  5
1F9
330
1F
100
AcDbEntity
  8
Gravieren
100
AcDbBlockReference
  2
block 51
 10
0.0
 20
0.0
 30
0.0
  0
INSERT
  5
201
330
1F
100
AcDbEntity
  8
Gravieren
100
AcDbBlockReference
  2
block 52
 10
0.0
 20
0.0
 30
0.0
  0
MTEXT
  5
208
330
1F
100
AcDbEntity
  8
Gravieren
 62
     7
100
AcDbMText
 10
206.0013793430309
 20
-225.4298230773231
 30
0.0
 40
8.635999997841001
 41
0.0
 71
     7
 72
     1
  1
\fMyriad Pro|b0|i0|c0|p34;\W1;4
 73
     1
 44
1.0
  0
ENDSEC
  0
SECTION
  2
OBJECTS
  0
DICTIONARY
  5
C
330
0
100
AcDbDictionary
281
     1
  3
ACAD_GROUP
350
D
  3
ACAD_LAYOUT
350
1A
  3
ACAD_MLINESTYLE
350
17
  3
ACAD_PLOTSETTINGS
350
19
  3
ACAD_PLOTSTYLENAME
350
E
  3
ACAD_TABLESTYLE
350
209
  3
ACAD_VISUALSTYLE
350
2A
  0
DICTIONARY
  5
D
102
{ACAD_REACTORS
330
C
102
}
330
C
100
AcDbDictionary
281
     1
  0
DICTIONARY
  5
1A
102
{ACAD_REACTORS
330
C
102
}
330
C
100
AcDbDictionary
281
     1
  3
Layout1
350
1E
  3
Layout2
350
26
  3
Model
350
22
  0
DICTIONARY
  5
17
102
{ACAD_REACTORS
330
C
102
}
330
C
100
AcDbDictionary
281
     1
  3
Standard
350
18
  0
DICTIONARY
  5
19
102
{ACAD_REACTORS
330
C
102
}
330
C
100
AcDbDictionary
281
     1
  0
ACDBDICTIONARYWDFLT
  5
E
102
{ACAD_REACTORS
330
C
102
}
330
C
100
AcDbDictionary
281
     1
  3
Normal
350
F
100
AcDbDictionaryWithDefault
340
F
  0
DICTIONARY
  5
209
102
{ACAD_REACTORS
330
C
102
}
330
C
100
AcDbDictionary
281
     1
  0
DICTIONARY
  5
2A
102
{ACAD_REACTORS
330
C
102
}
330
C
100
AcDbDictionary
281
     1
  3
2dWireframe
350
2F
  3
3D Hidden
350
31
  3
3dWireframe
350
30
  3
Basic
350
32
  3
Brighten
350
36
  3
ColorChange
350
3A
  3
Conceptual
350
34
  3
Dim
350
35
  3
Facepattern
350
39
  3
Flat
350
2B
  3
FlatWithEdges
350
2C
  3
Gouraud
350
2D
  3
GouraudWithEdges
350
2E
  3
Linepattern
350
38
  3
Realistic
350
33
  3
Thicken
350
37
  0
LAYOUT
  5
1E
102
{ACAD_REACTORS
330
1A
102
}
330
1A
100
AcDbPlotSettings
  1

  2
none_device
  4

  6

 40
0.0
 41
0.0
 42
0.0
 43
0.0
 44
0.0
 45
0.0
 46
0.0
 47
0.0
 48
0.0
 49
0.0
140
0.0
141
0.0
142
1.0
143
1.0
 70
   688
 72
     0
 73
     0
 74
     5
  7

 75
    16
147
1.0
148
0.0
149
0.0
100
AcDbLayout
  1
Layout1
 70
     1
 71
     1
 10
0.0
 20
0.0
 11
12.0
 21
9.0
 12
0.0
 22
0.0
 32
0.0
 14
1.000000000000000E+20
 24
1.000000000000000E+20
 34
1.000000000000000E+20
 15
-1.000000000000000E+20
 25
-1.000000000000000E+20
 35
-1.000000000000000E+20
146
0.0
 13
0.0
 23
0.0
 33
0.0
 16
1.0
 26
0.0
 36
0.0
 17
0.0
 27
1.0
 37
0.0
 76
     0
330
1B
  0
LAYOUT
  5
26
102
{ACAD_REACTORS
330
1A
102
}
330
1A
100
AcDbPlotSettings
  1

  2
none_device
  4

  6

 40
0.0
 41
0.0
 42
0.0
 43
0.0
 44
0.0
 45
0.0
 46
0.0
 47
0.0
 48
0.0
 49
0.0
140
0.0
141
0.0
142
1.0
143
1.0
 70
   688
 72
     0
 73
     0
 74
     5
  7

 75
    16
147
1.0
148
0.0
149
0.0
100
AcDbLayout
  1
Layout2
 70
     1
 71
     2
 10
0.0
 20
0.0
 11
0.0
 21
0.0
 12
0.0
 22
0.0
 32
0.0
 14
0.0
 24
0.0
 34
0.0
 15
0.0
 25
0.0
 35
0.0
146
0.0
 13
0.0
 23
0.0
 33
0.0
 16
1.0
 26
0.0
 36
0.0
 17
0.0
 27
1.0
 37
0.0
 76
     0
330
23
  0
LAYOUT
  5
22
102
{ACAD_REACTORS
330
1A
102
}
330
1A
100
AcDbPlotSettings
  1

  2
none_device
  4

  6

 40
0.0
 41
0.0
 42
0.0
 43
0.0
 44
0.0
 45
0.0
 46
0.0
 47
0.0
 48
0.0
 49
0.0
140
0.0
141
0.0
142
1.0
143
1.0
 70
  1712
 72
     0
 73
     0
 74
     0
  7

 75
     0
147
1.0
148
0.0
149
0.0
100
AcDbLayout
  1
Model
 70
     1
 71
     0
 10
0.0
 20
0.0
 11
12.0
 21
9.0
 12
0.0
 22
0.0
 32
0.0
 14
1.000000000000000E+20
 24
1.000000000000000E+20
 34
1.000000000000000E+20
 15
-1.000000000000000E+20
 25
-1.000000000000000E+20
 35
-1.000000000000000E+20
146
0.0
 13
0.0
 23
0.0
 33
0.0
 16
1.0
 26
0.0
 36
0.0
 17
0.0
 27
1.0
 37
0.0
 76
     0
330
1F
331
29
  0
MLINESTYLE
  5
18
102
{ACAD_REACTORS
330
17
102
}
330
17
100
AcDbMlineStyle
  2
Standard
 70
     0
  3

 62
   256
 51
90.0
 52
90.0
 71
     2
 49
0.5
 62
   256
  6
BYLAYER
 49
-0.5
 62
   256
  6
BYLAYER
  0
ACDBPLACEHOLDER
  5
F
102
{ACAD_REACTORS
330
E
102
}
330
E
  0
VISUALSTYLE
  5
2F
102
{ACAD_REACTORS
330
2A
102
}
330
2A
100
AcDbVisualStyle
  2
2dWireframe
 70
     4
 71
     0
 72
     2
 73
     0
 90
        0
 40
-0.6
 41
-30.0
 62
     5
 63
     7
 74
     1
 91
        4
 64
     7
 65
   257
 75
     1
175
     1
 42
1.0
 92
        0
 66
   257
 43
1.0
 76
     1
 77
     6
 78
     2
 67
     7
 79
     5
170
     0
171
     0
290
     0
174
     0
 93
        1
 44
0.0
173
     0
291
     0
 45
0.0
1001
ACAD
1000
AcDbSavedByObjectVersion
1070
     0
  0
VISUALSTYLE
  5
31
102
{ACAD_REACTORS
330
2A
102
}
330
2A
100
AcDbVisualStyle
  2
3D Hidden
 70
     6
 71
     1
 72
     2
 73
     2
 90
        0
 40
-0.6
 41
-30.0
 62
     5
 63
     7
 74
     2
 91
        2
 64
     7
 65
   257
 75
     2
175
     1
 42
40.0
 92
        0
 66
   257
 43
1.0
 76
     1
 77
     6
 78
     2
 67
     7
 79
     3
170
     0
171
     0
290
     0
174
     0
 93
        1
 44
0.0
173
     0
291
     0
 45
0.0
1001
ACAD
1000
AcDbSavedByObjectVersion
1070
     0
  0
VISUALSTYLE
  5
30
102
{ACAD_REACTORS
330
2A
102
}
330
2A
100
AcDbVisualStyle
  2
3dWireframe
 70
     5
 71
     0
 72
     2
 73
     0
 90
        0
 40
-0.6
 41
-30.0
 62
     5
 63
     7
 74
     1
 91
        4
 64
     7
 65
   257
 75
     1
175
     1
 42
1.0
 92
        0
 66
   257
 43
1.0
 76
     1
 77
     6
 78
     2
 67
     7
 79
     5
170
     0
171
     0
290
     0
174
     0
 93
        1
 44
0.0
173
     0
291
     0
 45
0.0
1001
ACAD
1000
AcDbSavedByObjectVersion
1070
     0
  0
VISUALSTYLE
  5
32
102
{ACAD_REACTORS
330
2A
102
}
330
2A
100
AcDbVisualStyle
  2
Basic
 70
     7
 71
     1
 72
     0
 73
     1
 90
        0
 40
-0.6
 41
-30.0
 62
     5
 63
     7
 74
     0
 91
        4
 64
     7
 65
   257
 75
     1
175
     1
 42
1.0
 92
        8
 66
     7
 43
1.0
 76
     1
 77
     6
 78
     2
 67
     7
 79
     5
170
     0
171
     0
290
     0
174
     0
 93
        1
 44
0.0
173
     0
291
     1
 45
0.0
1001
ACAD
1000
AcDbSavedByObjectVersion
1070
     0
  0
VISUALSTYLE
  5
36
102
{ACAD_REACTORS
330
2A
102
}
330
2A
100
AcDbVisualStyle
  2
Brighten
 70
    12
 71
     2
 72
     2
 73
     0
 90
        0
 40
-0.6
 41
-30.0
 62
     5
 63
     7
 74
     1
 91
        4
 64
     7
 65
   257
 75
     1
175
     1
 42
1.0
 92
        8
 66
     7
 43
1.0
 76
     1
 77
     6
 78
     2
 67
     7
 79
     5
170
     0
171
     0
290
     0
174
     0
 93
        1
 44
50.0
173
     0
291
     1
 45
0.0
1001
ACAD
1000
AcDbSavedByObjectVersion
1070
     0
  0
VISUALSTYLE
  5
3A
102
{ACAD_REACTORS
330
2A
102
}
330
2A
100
AcDbVisualStyle
  2
ColorChange
 70
    16
 71
     2
 72
     2
 73
     3
 90
        0
 40
-0.6
 41
-30.0
 62
     5
 63
     8
 74
     1
 91
        4
 64
     7
 65
   257
 75
     1
175
     1
 42
1.0
 92
        8
 66
     8
 43
1.0
 76
     1
 77
     6
 78
     2
 67
     7
 79
     5
170
     0
171
     0
290
     0
174
     0
 93
        1
 44
0.0
173
     0
291
     1
 45
0.0
1001
ACAD
1000
AcDbSavedByObjectVersion
1070
     0
  0
VISUALSTYLE
  5
34
102
{ACAD_REACTORS
330
2A
102
}
330
2A
100
AcDbVisualStyle
  2
Conceptual
 70
     9
 71
     3
 72
     2
 73
     0
 90
        0
 40
-0.6
 41
-30.0
 62
     5
 63
     7
 74
     2
 91
        2
 64
     7
 65
   257
 75
     1
175
     1
 42
40.0
 92
        8
 66
     7
 43
1.0
 76
     1
 77
     6
 78
     2
 67
     7
 79
     3
170
     0
171
     0
290
     0
174
     0
 93
        1
 44
0.0
173
     0
291
     0
 45
0.0
1001
ACAD
1000
AcDbSavedByObjectVersion
1070
     0
  0
VISUALSTYLE
  5
35
102
{ACAD_REACTORS
330
2A
102
}
330
2A
100
AcDbVisualStyle
  2
Dim
 70
    11
 71
     2
 72
     2
 73
     0
 90
        0
 40
-0.6
 41
-30.0
 62
     5
 63
     7
 74
     1
 91
        4
 64
     7
 65
   257
 75
     1
175
     1
 42
1.0
 92
        8
 66
     7
 43
1.0
 76
     1
 77
     6
 78
     2
 67
     7
 79
     5
170
     0
171
     0
290
     0
174
     0
 93
        1
 44
-50.0
173
     0
291
     1
 45
0.0
1001
ACAD
1000
AcDbSavedByObjectVersion
1070
     0
  0
VISUALSTYLE
  5
39
102
{ACAD_REACTORS
330
2A
102
}
330
2A
100
AcDbVisualStyle
  2
Facepattern
 70
    15
 71
     2
 72
     2
 73
     0
 90
        0
 40
-0.6
 41
-30.0
 62
     5
 63
     7
 74
     1
 91
        4
 64
     7
 65
   257
 75
     1
175
     1
 42
1.0
 92
        8
 66
     7
 43
1.0
 76
     1
 77
     6
 78
     2
 67
     7
 79
     5
170
     0
171
     0
290
     0
174
     0
 93
        1
 44
0.0
173
     0
291
     1
 45
0.0
1001
ACAD
1000
AcDbSavedByObjectVersion
1070
     0
  0
VISUALSTYLE
  5
2B
102
{ACAD_REACTORS
330
2A
102
}
330
2A
100
AcDbVisualStyle
  2
Flat
 70
     0
 71
     2
 72
     1
 73
     1
 90
        2
 40
-0.6
 41
30.0
 62
     5
 63
     7
 74
     0
 91
        4
 64
     7
 65
   257
 75
     1
175
     1
 42
1.0
 92
        8
 66
     7
 43
1.0
 76
     1
 77
     6
 78
     2
 67
     7
 79
     5
170
     0
171
     0
290
     0
174
     0
 93
       13
 44
0.0
173
     0
291
     1
 45
0.0
1001
ACAD
1000
AcDbSavedByObjectVersion
1070
     0
  0
VISUALSTYLE
  5
2C
102
{ACAD_REACTORS
330
2A
102
}
330
2A
100
AcDbVisualStyle
  2
FlatWithEdges
 70
     1
 71
     2
 72
     1
 73
     1
 90
        2
 40
-0.6
 41
30.0
 62
     5
 63
     7
 74
     1
 91
        4
 64
     7
 65
   257
 75
     1
175
     1
 42
1.0
 92
        0
 66
   257
 43
1.0
 76
     1
 77
     6
 78
     2
 67
     7
 79
     5
170
     0
171
     0
290
     0
174
     0
 93
       13
 44
0.0
173
     0
291
     1
 45
0.0
1001
ACAD
1000
AcDbSavedByObjectVersion
1070
     0
  0
VISUALSTYLE
  5
2D
102
{ACAD_REACTORS
330
2A
102
}
330
2A
100
AcDbVisualStyle
  2
Gouraud
 70
     2
 71
     2
 72
     2
 73
     1
 90
        2
 40
-0.6
 41
30.0
 62
     5
 63
     7
 74
     0
 91
        4
 64
     7
 65
   257
 75
     1
175
     1
 42
1.0
 92
        0
 66
     7
 43
1.0
 76
     1
 77
     6
 78
     2
 67
     7
 79
     5
170
     0
171
     0
290
     0
174
     0
 93
       13
 44
0.0
173
     0
291
     1
 45
0.0
1001
ACAD
1000
AcDbSavedByObjectVersion
1070
     0
  0
VISUALSTYLE
  5
2E
102
{ACAD_REACTORS
330
2A
102
}
330
2A
100
AcDbVisualStyle
  2
GouraudWithEdges
 70
     3
 71
     2
 72
     2
 73
     1
 90
        2
 40
-0.6
 41
30.0
 62
     5
 63
     7
 74
     1
 91
        4
 64
     7
 65
   257
 75
     1
175
     1
 42
1.0
 92
        0
 66
   257
 43
1.0
 76
     1
 77
     6
 78
     2
 67
     7
 79
     5
170
     0
171
     0
290
     0
174
     0
 93
       13
 44
0.0
173
     0
291
     1
 45
0.0
1001
ACAD
1000
AcDbSavedByObjectVersion
1070
     0
  0
VISUALSTYLE
  5
38
102
{ACAD_REACTORS
330
2A
102
}
330
2A
100
AcDbVisualStyle
  2
Linepattern
 70
    14
 71
     2
 72
     2
 73
     0
 90
        0
 40
-0.6
 41
-30.0
 62
     5
 63
     7
 74
     1
 91
        4
 64
     7
 65
   257
 75
     7
175
     7
 42
1.0
 92
        8
 66
     7
 43
1.0
 76
     1
 77
     6
 78
     2
 67
     7
 79
     5
170
     0
171
     0
290
     0
174
     0
 93
        1
 44
0.0
173
     0
291
     1
 45
0.0
1001
ACAD
1000
AcDbSavedByObjectVersion
1070
     0
  0
VISUALSTYLE
  5
33
102
{ACAD_REACTORS
330
2A
102
}
330
2A
100
AcDbVisualStyle
  2
Realistic
 70
     8
 71
     2
 72
     2
 73
     0
 90
        0
 40
-0.6
 41
-30.0
 62
     5
 63
     7
 74
     1
 91
        0
 64
     7
 65
   257
 75
     1
175
     1
 42
1.0
 92
        8
 66
     8
 43
1.0
 76
     1
 77
     6
 78
     2
 67
     7
 79
     5
170
     0
171
     0
290
     0
174
     0
 93
       13
 44
0.0
173
     0
291
     0
 45
0.0
1001
ACAD
1000
AcDbSavedByObjectVersion
1070
     0
  0
VISUALSTYLE
  5
37
102
{ACAD_REACTORS
330
2A
102
}
330
2A
100
AcDbVisualStyle
  2
Thicken
 70
    13
 71
     2
 72
     2
 73
     0
 90
        0
 40
-0.6
 41
-30.0
 62
     5
 63
     7
 74
     1
 91
        4
 64
     7
 65
   257
 75
     1
175
     1
 42
1.0
 92
       12
 66
     7
 43
1.0
 76
     1
 77
     6
 78
     2
 67
     7
 79
     5
170
     0
171
     0
290
     0
174
     0
 93
        1
 44
0.0
173
     0
291
     1
 45
0.0
1001
ACAD
1000
AcDbSavedByObjectVersion
1070
     0
  0
ENDSEC
  0
EOF
