  0
SECTION
  2
HEADER
  9
$ACADVER
  1
AC1006
  9
$DWGCODEPAGE
  3
ansi_1252
  9
$INSBASE
 10
0.0
 20
0.0
 30
0.0
  9
$EXTMIN
 10
-102.7707
 20
-136.1128
  9
$EXTMAX
 10
102.809
 20
144.2401
  9
$LIMMIN
 10
0.0
 20
0.0
  9
$LIMMAX
 10
12.0
 20
9.0
  9
$ORTHOMODE
 70
     0
  9
$REGENMODE
 70
     1
  9
$FILLMODE
 70
     1
  9
$QTEXTMODE
 70
     0
  9
$MIRRTEXT
 70
     1
  9
$DRAGMODE
 70
     2
  9
$LTSCALE
 40
1.0
  9
$OSMODE
 70
    37
  9
$ATTMODE
 70
     1
  9
$TEXTSIZE
 40
0.2
  9
$TRACEWID
 40
0.05
  9
$TEXTSTYLE
  7
STANDARD
  9
$CLAYER
  8
0
  9
$CELTYPE
  6
BYLAYER
  9
$CECOLOR
 62
   256
  9
$DIMSCALE
 40
1.0
  9
$DIMASZ
 40
0.18
  9
$DIMEXO
 40
0.0625
  9
$DIMDLI
 40
0.38
  9
$DIMRND
 40
0.0
  9
$DIMDLE
 40
0.0
  9
$DIMEXE
 40
0.18
  9
$DIMTP
 40
0.0
  9
$DIMTM
 40
0.0
  9
$DIMTXT
 40
0.18
  9
$DIMCEN
 40
0.09
  9
$DIMTSZ
 40
0.0
  9
$DIMTOL
 70
     0
  9
$DIMLIM
 70
     0
  9
$DIMTIH
 70
     1
  9
$DIMTOH
 70
     1
  9
$DIMSE1
 70
     0
  9
$DIMSE2
 70
     0
  9
$DIMTAD
 70
     0
  9
$DIMZIN
 70
     0
  9
$DIMBLK
  1

  9
$DIMASO
 70
     1
  9
$DIMSHO
 70
     1
  9
$DIMPOST
  1

  9
$DIMAPOST
  1

  9
$DIMALT
 70
     0
  9
$DIMALTD
 70
     2
  9
$DIMALTF
 40
25.4
  9
$DIMLFAC
 40
1.0
  9
$DIMTOFL
 70
     0
  9
$DIMTVP
 40
0.0
  9
$DIMTIX
 70
     0
  9
$DIMSOXD
 70
     0
  9
$DIMSAH
 70
     0
  9
$DIMBLK1
  1

  9
$DIMBLK2
  1

  9
$LUNITS
 70
     2
  9
$LUPREC
 70
     4
  9
$SKETCHINC
 40
0.1
  9
$FILLETRAD
 40
0.5
  9
$AUNITS
 70
     0
  9
$AUPREC
 70
     0
  9
$MENU
  1
.
  9
$ELEVATION
 40
0.0
  9
$THICKNESS
 40
0.0
  9
$LIMCHECK
 70
     0
  9
$CHAMFERA
 40
0.5
  9
$CHAMFERB
 40
0.5
  9
$SKPOLY
 70
     0
  9
$TDCREATE
 40
2457098.643911701
  9
$TDUPDATE
 40
2457098.643911713
  9
$TDINDWG
 40
0.0000000116
  9
$TDUSRTIMER
 40
0.0000000116
  9
$USRTIMER
 70
     1
  9
$ANGBASE
 50
0.0
  9
$ANGDIR
 70
     0
  9
$PDMODE
 70
     0
  9
$PDSIZE
 40
0.0
  9
$PLINEWID
 40
0.0
  9
$COORDS
 70
     1
  9
$SPLFRAME
 70
     0
  9
$SPLINETYPE
 70
     6
  9
$SPLINESEGS
 70
     8
  9
$ATTDIA
 70
     0
  9
$ATTREQ
 70
     1
  9
$HANDLING
 70
     1
  9
$HANDSEED
  5
F21
  9
$SURFTAB1
 70
     6
  9
$SURFTAB2
 70
     6
  9
$SURFTYPE
 70
     6
  9
$SURFU
 70
     6
  9
$SURFV
 70
     6
  9
$UCSNAME
  2

  9
$UCSORG
 10
0.0
 20
0.0
 30
0.0
  9
$UCSXDIR
 10
1.0
 20
0.0
 30
0.0
  9
$UCSYDIR
 10
0.0
 20
1.0
 30
0.0
  9
$USERI1
 70
     0
  9
$USERI2
 70
     0
  9
$USERI3
 70
     0
  9
$USERI4
 70
     0
  9
$USERI5
 70
     0
  9
$USERR1
 40
0.0
  9
$USERR2
 40
0.0
  9
$USERR3
 40
0.0
  9
$USERR4
 40
0.0
  9
$USERR5
 40
0.0
  9
$WORLDVIEW
 70
     1
  0
ENDSEC
  0
SECTION
  2
TABLES
  0
TABLE
  2
VPORT
 70
     1
  0
VPORT
  2
*ACTIVE
 70
     0
 10
0.0
 20
0.0
 11
1.0
 21
1.0
 12
10.42990654205607
 22
4.5
 13
0.0
 23
0.0
 14
0.5
 24
0.5
 15
0.5
 25
0.5
 16
0.0
 26
0.0
 36
1.0
 17
0.0
 27
0.0
 37
0.0
 40
9.0
 41
1.972972972850329
 42
50.0
 43
0.0
 44
0.0
 50
0.0
 51
0.0
 71
     0
 72
   100
 73
     1
 74
     3
 75
     0
 76
     0
 77
     0
 78
     0
  0
ENDTAB
  0
TABLE
  2
LTYPE
 70
     1
  0
LTYPE
  2
CONTINUOUS
 70
     0
  3
Solid line
 72
    65
 73
     0
 40
0.0
  0
ENDTAB
  0
TABLE
  2
LAYER
 70
     2
  0
LAYER
  2
0
 70
     0
 62
     7
  6
CONTINUOUS
  0
LAYER
  2
LAYER_1
 70
     0
 62
     7
  6
CONTINUOUS
  0
ENDTAB
  0
TABLE
  2
STYLE
 70
     1
  0
STYLE
  2
STANDARD
 70
     0
 40
0.0
 41
1.0
 50
0.0
 71
     0
 42
0.2
  3
txt
  4

  0
ENDTAB
  0
TABLE
  2
VIEW
 70
     0
  0
ENDTAB
  0
TABLE
  2
UCS
 70
     0
  0
ENDTAB
  0
ENDSEC
  0
SECTION
  2
BLOCKS
  0
ENDSEC
  0
SECTION
  2
ENTITIES
  0
POLYLINE
  5
41
  8
LAYER_1
 62
   250
 66
     1
 10
0.0
 20
0.0
 30
0.0
 70
     1
  0
VERTEX
  5
B5
  8
LAYER_1
 62
   250
 10
-59.2943
 20
128.5637
 30
0.0
  0
VERTEX
  5
B6
  8
LAYER_1
 62
   250
 10
-59.2943
 20
124.0636
 30
0.0
  0
VERTEX
  5
B7
  8
LAYER_1
 62
   250
 10
-69.2943
 20
124.0636
 30
0.0
  0
VERTEX
  5
B8
  8
LAYER_1
 62
   250
 10
-69.2943
 20
144.0636
 30
0.0
  0
VERTEX
  5
B9
  8
LAYER_1
 62
   250
 10
-59.2943
 20
144.0636
 30
0.0
  0
VERTEX
  5
BA
  8
LAYER_1
 62
   250
 10
-59.2943
 20
139.5637
 30
0.0
  0
VERTEX
  5
BB
  8
LAYER_1
 62
   250
 10
-34.3693
 20
139.5637
 30
0.0
  0
VERTEX
  5
BC
  8
LAYER_1
 62
   250
 10
-33.9525
 20
139.5214
 30
0.0
  0
VERTEX
  5
BD
  8
LAYER_1
 62
   250
 10
-33.5636
 20
139.4
 30
0.0
  0
VERTEX
  5
BE
  8
LAYER_1
 62
   250
 10
-33.2112
 20
139.2081
 30
0.0
  0
VERTEX
  5
BF
  8
LAYER_1
 62
   250
 10
-32.9038
 20
138.9542
 30
0.0
  0
VERTEX
  5
C0
  8
LAYER_1
 62
   250
 10
-32.6499
 20
138.6468
 30
0.0
  0
VERTEX
  5
C1
  8
LAYER_1
 62
   250
 10
-32.458
 20
138.2944
 30
0.0
  0
VERTEX
  5
C2
  8
LAYER_1
 62
   250
 10
-32.3366
 20
137.9055
 30
0.0
  0
VERTEX
  5
C3
  8
LAYER_1
 62
   250
 10
-32.2943
 20
137.4887
 30
0.0
  0
VERTEX
  5
C4
  8
LAYER_1
 62
   250
 10
-32.2943
 20
130.6387
 30
0.0
  0
VERTEX
  5
C5
  8
LAYER_1
 62
   250
 10
-32.3366
 20
130.2219
 30
0.0
  0
VERTEX
  5
C6
  8
LAYER_1
 62
   250
 10
-32.458
 20
129.833
 30
0.0
  0
VERTEX
  5
C7
  8
LAYER_1
 62
   250
 10
-32.6499
 20
129.4806
 30
0.0
  0
VERTEX
  5
C8
  8
LAYER_1
 62
   250
 10
-32.9038
 20
129.1732
 30
0.0
  0
VERTEX
  5
C9
  8
LAYER_1
 62
   250
 10
-33.2112
 20
128.9193
 30
0.0
  0
VERTEX
  5
CA
  8
LAYER_1
 62
   250
 10
-33.5636
 20
128.7274
 30
0.0
  0
VERTEX
  5
CB
  8
LAYER_1
 62
   250
 10
-33.9525
 20
128.606
 30
0.0
  0
VERTEX
  5
CC
  8
LAYER_1
 62
   250
 10
-34.3693
 20
128.5637
 30
0.0
  0
VERTEX
  5
CD
  8
LAYER_1
 62
   250
 10
-59.2943
 20
128.5637
 30
0.0
  0
SEQEND
  5
CE
  8
LAYER_1
 62
   250
  0
POLYLINE
  5
42
  8
LAYER_1
 62
   250
 66
     1
 10
0.0
 20
0.0
 30
0.0
 70
     1
  0
VERTEX
  5
CF
  8
LAYER_1
 62
   250
 10
-37.7943
 20
134.0637
 30
0.0
  0
VERTEX
  5
D0
  8
LAYER_1
 62
   250
 10
-37.7638
 20
134.366
 30
0.0
  0
VERTEX
  5
D1
  8
LAYER_1
 62
   250
 10
-37.6764
 20
134.6476
 30
0.0
  0
VERTEX
  5
D2
  8
LAYER_1
 62
   250
 10
-37.5381
 20
134.9024
 30
0.0
  0
VERTEX
  5
D3
  8
LAYER_1
 62
   250
 10
-37.355
 20
135.1244
 30
0.0
  0
VERTEX
  5
D4
  8
LAYER_1
 62
   250
 10
-37.133
 20
135.3075
 30
0.0
  0
VERTEX
  5
D5
  8
LAYER_1
 62
   250
 10
-36.8782
 20
135.4458
 30
0.0
  0
VERTEX
  5
D6
  8
LAYER_1
 62
   250
 10
-36.5966
 20
135.5332
 30
0.0
  0
VERTEX
  5
D7
  8
LAYER_1
 62
   250
 10
-36.2943
 20
135.5637
 30
0.0
  0
VERTEX
  5
D8
  8
LAYER_1
 62
   250
 10
-35.992
 20
135.5332
 30
0.0
  0
VERTEX
  5
D9
  8
LAYER_1
 62
   250
 10
-35.7104
 20
135.4458
 30
0.0
  0
VERTEX
  5
DA
  8
LAYER_1
 62
   250
 10
-35.4556
 20
135.3075
 30
0.0
  0
VERTEX
  5
DB
  8
LAYER_1
 62
   250
 10
-35.2336
 20
135.1244
 30
0.0
  0
VERTEX
  5
DC
  8
LAYER_1
 62
   250
 10
-35.0505
 20
134.9024
 30
0.0
  0
VERTEX
  5
DD
  8
LAYER_1
 62
   250
 10
-34.9122
 20
134.6476
 30
0.0
  0
VERTEX
  5
DE
  8
LAYER_1
 62
   250
 10
-34.8248
 20
134.366
 30
0.0
  0
VERTEX
  5
DF
  8
LAYER_1
 62
   250
 10
-34.7943
 20
134.0637
 30
0.0
  0
VERTEX
  5
E0
  8
LAYER_1
 62
   250
 10
-34.8248
 20
133.7614
 30
0.0
  0
VERTEX
  5
E1
  8
LAYER_1
 62
   250
 10
-34.9122
 20
133.4798
 30
0.0
  0
VERTEX
  5
E2
  8
LAYER_1
 62
   250
 10
-35.0505
 20
133.225
 30
0.0
  0
VERTEX
  5
E3
  8
LAYER_1
 62
   250
 10
-35.2336
 20
133.0031
 30
0.0
  0
VERTEX
  5
E4
  8
LAYER_1
 62
   250
 10
-35.4556
 20
132.8199
 30
0.0
  0
VERTEX
  5
E5
  8
LAYER_1
 62
   250
 10
-35.7104
 20
132.6816
 30
0.0
  0
VERTEX
  5
E6
  8
LAYER_1
 62
   250
 10
-35.992
 20
132.5942
 30
0.0
  0
VERTEX
  5
E7
  8
LAYER_1
 62
   250
 10
-36.2943
 20
132.5637
 30
0.0
  0
VERTEX
  5
E8
  8
LAYER_1
 62
   250
 10
-36.5966
 20
132.5942
 30
0.0
  0
VERTEX
  5
E9
  8
LAYER_1
 62
   250
 10
-36.8782
 20
132.6816
 30
0.0
  0
VERTEX
  5
EA
  8
LAYER_1
 62
   250
 10
-37.133
 20
132.8199
 30
0.0
  0
VERTEX
  5
EB
  8
LAYER_1
 62
   250
 10
-37.355
 20
133.0031
 30
0.0
  0
VERTEX
  5
EC
  8
LAYER_1
 62
   250
 10
-37.5381
 20
133.225
 30
0.0
  0
VERTEX
  5
ED
  8
LAYER_1
 62
   250
 10
-37.6764
 20
133.4798
 30
0.0
  0
VERTEX
  5
EE
  8
LAYER_1
 62
   250
 10
-37.7638
 20
133.7614
 30
0.0
  0
VERTEX
  5
EF
  8
LAYER_1
 62
   250
 10
-37.7943
 20
134.0637
 30
0.0
  0
SEQEND
  5
F0
  8
LAYER_1
 62
   250
  0
POLYLINE
  5
43
  8
LAYER_1
 62
   250
 66
     1
 10
0.0
 20
0.0
 30
0.0
 70
     1
  0
VERTEX
  5
F1
  8
LAYER_1
 62
   250
 10
-58.2943
 20
134.0637
 30
0.0
  0
VERTEX
  5
F2
  8
LAYER_1
 62
   250
 10
-58.2943
 20
134.0637
 30
0.0
  0
VERTEX
  5
F3
  8
LAYER_1
 62
   250
 10
-58.2637
 20
134.365
 30
0.0
  0
VERTEX
  5
F4
  8
LAYER_1
 62
   250
 10
-58.176
 20
134.6461
 30
0.0
  0
VERTEX
  5
F5
  8
LAYER_1
 62
   250
 10
-58.0372
 20
134.9009
 30
0.0
  0
VERTEX
  5
F6
  8
LAYER_1
 62
   250
 10
-57.8537
 20
135.1231
 30
0.0
  0
VERTEX
  5
F7
  8
LAYER_1
 62
   250
 10
-57.6315
 20
135.3066
 30
0.0
  0
VERTEX
  5
F8
  8
LAYER_1
 62
   250
 10
-57.3768
 20
135.4453
 30
0.0
  0
VERTEX
  5
F9
  8
LAYER_1
 62
   250
 10
-57.0956
 20
135.5331
 30
0.0
  0
VERTEX
  5
FA
  8
LAYER_1
 62
   250
 10
-56.7943
 20
135.5637
 30
0.0
  0
VERTEX
  5
FB
  8
LAYER_1
 62
   250
 10
-50.7944
 20
135.5637
 30
0.0
  0
VERTEX
  5
FC
  8
LAYER_1
 62
   250
 10
-50.493
 20
135.5331
 30
0.0
  0
VERTEX
  5
FD
  8
LAYER_1
 62
   250
 10
-50.2119
 20
135.4453
 30
0.0
  0
VERTEX
  5
FE
  8
LAYER_1
 62
   250
 10
-49.9572
 20
135.3066
 30
0.0
  0
VERTEX
  5
FF
  8
LAYER_1
 62
   250
 10
-49.7349
 20
135.1231
 30
0.0
  0
VERTEX
  5
100
  8
LAYER_1
 62
   250
 10
-49.5514
 20
134.9009
 30
0.0
  0
VERTEX
  5
101
  8
LAYER_1
 62
   250
 10
-49.4127
 20
134.6461
 30
0.0
  0
VERTEX
  5
102
  8
LAYER_1
 62
   250
 10
-49.3249
 20
134.365
 30
0.0
  0
VERTEX
  5
103
  8
LAYER_1
 62
   250
 10
-49.2943
 20
134.0637
 30
0.0
  0
VERTEX
  5
104
  8
LAYER_1
 62
   250
 10
-49.2943
 20
134.0637
 30
0.0
  0
VERTEX
  5
105
  8
LAYER_1
 62
   250
 10
-49.3249
 20
133.7624
 30
0.0
  0
VERTEX
  5
106
  8
LAYER_1
 62
   250
 10
-49.4127
 20
133.4813
 30
0.0
  0
VERTEX
  5
107
  8
LAYER_1
 62
   250
 10
-49.5514
 20
133.2265
 30
0.0
  0
VERTEX
  5
108
  8
LAYER_1
 62
   250
 10
-49.7349
 20
133.0043
 30
0.0
  0
VERTEX
  5
109
  8
LAYER_1
 62
   250
 10
-49.9572
 20
132.8208
 30
0.0
  0
VERTEX
  5
10A
  8
LAYER_1
 62
   250
 10
-50.2119
 20
132.6821
 30
0.0
  0
VERTEX
  5
10B
  8
LAYER_1
 62
   250
 10
-50.493
 20
132.5943
 30
0.0
  0
VERTEX
  5
10C
  8
LAYER_1
 62
   250
 10
-50.7944
 20
132.5637
 30
0.0
  0
VERTEX
  5
10D
  8
LAYER_1
 62
   250
 10
-56.7943
 20
132.5637
 30
0.0
  0
VERTEX
  5
10E
  8
LAYER_1
 62
   250
 10
-57.0956
 20
132.5943
 30
0.0
  0
VERTEX
  5
10F
  8
LAYER_1
 62
   250
 10
-57.3768
 20
132.6821
 30
0.0
  0
VERTEX
  5
110
  8
LAYER_1
 62
   250
 10
-57.6315
 20
132.8208
 30
0.0
  0
VERTEX
  5
111
  8
LAYER_1
 62
   250
 10
-57.8537
 20
133.0043
 30
0.0
  0
VERTEX
  5
112
  8
LAYER_1
 62
   250
 10
-58.0372
 20
133.2265
 30
0.0
  0
VERTEX
  5
113
  8
LAYER_1
 62
   250
 10
-58.176
 20
133.4813
 30
0.0
  0
VERTEX
  5
114
  8
LAYER_1
 62
   250
 10
-58.2637
 20
133.7624
 30
0.0
  0
VERTEX
  5
115
  8
LAYER_1
 62
   250
 10
-58.2943
 20
134.0637
 30
0.0
  0
SEQEND
  5
116
  8
LAYER_1
 62
   250
  0
POLYLINE
  5
44
  8
LAYER_1
 62
   250
 66
     1
 10
0.0
 20
0.0
 30
0.0
 70
     1
  0
VERTEX
  5
117
  8
LAYER_1
 62
   250
 10
-59.2943
 20
-1.4363
 30
0.0
  0
VERTEX
  5
118
  8
LAYER_1
 62
   250
 10
-59.2943
 20
-5.9364
 30
0.0
  0
VERTEX
  5
119
  8
LAYER_1
 62
   250
 10
-69.2943
 20
-5.9364
 30
0.0
  0
VERTEX
  5
11A
  8
LAYER_1
 62
   250
 10
-69.2943
 20
14.0636
 30
0.0
  0
VERTEX
  5
11B
  8
LAYER_1
 62
   250
 10
-59.2943
 20
14.0636
 30
0.0
  0
VERTEX
  5
11C
  8
LAYER_1
 62
   250
 10
-59.2943
 20
9.5637
 30
0.0
  0
VERTEX
  5
11D
  8
LAYER_1
 62
   250
 10
-34.3693
 20
9.5637
 30
0.0
  0
VERTEX
  5
11E
  8
LAYER_1
 62
   250
 10
-33.9525
 20
9.5214
 30
0.0
  0
VERTEX
  5
11F
  8
LAYER_1
 62
   250
 10
-33.5636
 20
9.4
 30
0.0
  0
VERTEX
  5
120
  8
LAYER_1
 62
   250
 10
-33.2112
 20
9.2081
 30
0.0
  0
VERTEX
  5
121
  8
LAYER_1
 62
   250
 10
-32.9038
 20
8.9542
 30
0.0
  0
VERTEX
  5
122
  8
LAYER_1
 62
   250
 10
-32.6499
 20
8.6468
 30
0.0
  0
VERTEX
  5
123
  8
LAYER_1
 62
   250
 10
-32.458
 20
8.2944
 30
0.0
  0
VERTEX
  5
124
  8
LAYER_1
 62
   250
 10
-32.3366
 20
7.9055
 30
0.0
  0
VERTEX
  5
125
  8
LAYER_1
 62
   250
 10
-32.2943
 20
7.4887
 30
0.0
  0
VERTEX
  5
126
  8
LAYER_1
 62
   250
 10
-32.2943
 20
0.6387
 30
0.0
  0
VERTEX
  5
127
  8
LAYER_1
 62
   250
 10
-32.3366
 20
0.2219
 30
0.0
  0
VERTEX
  5
128
  8
LAYER_1
 62
   250
 10
-32.458
 20
-0.167
 30
0.0
  0
VERTEX
  5
129
  8
LAYER_1
 62
   250
 10
-32.6499
 20
-0.5194
 30
0.0
  0
VERTEX
  5
12A
  8
LAYER_1
 62
   250
 10
-32.9038
 20
-0.8268
 30
0.0
  0
VERTEX
  5
12B
  8
LAYER_1
 62
   250
 10
-33.2112
 20
-1.0807
 30
0.0
  0
VERTEX
  5
12C
  8
LAYER_1
 62
   250
 10
-33.5636
 20
-1.2726
 30
0.0
  0
VERTEX
  5
12D
  8
LAYER_1
 62
   250
 10
-33.9525
 20
-1.394
 30
0.0
  0
VERTEX
  5
12E
  8
LAYER_1
 62
   250
 10
-34.3693
 20
-1.4363
 30
0.0
  0
VERTEX
  5
12F
  8
LAYER_1
 62
   250
 10
-59.2943
 20
-1.4363
 30
0.0
  0
SEQEND
  5
130
  8
LAYER_1
 62
   250
  0
POLYLINE
  5
45
  8
LAYER_1
 62
   250
 66
     1
 10
0.0
 20
0.0
 30
0.0
 70
     1
  0
VERTEX
  5
131
  8
LAYER_1
 62
   250
 10
-37.7943
 20
4.0637
 30
0.0
  0
VERTEX
  5
132
  8
LAYER_1
 62
   250
 10
-37.7638
 20
4.366
 30
0.0
  0
VERTEX
  5
133
  8
LAYER_1
 62
   250
 10
-37.6764
 20
4.6476
 30
0.0
  0
VERTEX
  5
134
  8
LAYER_1
 62
   250
 10
-37.5381
 20
4.9024
 30
0.0
  0
VERTEX
  5
135
  8
LAYER_1
 62
   250
 10
-37.355
 20
5.1244
 30
0.0
  0
VERTEX
  5
136
  8
LAYER_1
 62
   250
 10
-37.133
 20
5.3075
 30
0.0
  0
VERTEX
  5
137
  8
LAYER_1
 62
   250
 10
-36.8782
 20
5.4458
 30
0.0
  0
VERTEX
  5
138
  8
LAYER_1
 62
   250
 10
-36.5966
 20
5.5332
 30
0.0
  0
VERTEX
  5
139
  8
LAYER_1
 62
   250
 10
-36.2943
 20
5.5637
 30
0.0
  0
VERTEX
  5
13A
  8
LAYER_1
 62
   250
 10
-35.992
 20
5.5332
 30
0.0
  0
VERTEX
  5
13B
  8
LAYER_1
 62
   250
 10
-35.7104
 20
5.4458
 30
0.0
  0
VERTEX
  5
13C
  8
LAYER_1
 62
   250
 10
-35.4556
 20
5.3075
 30
0.0
  0
VERTEX
  5
13D
  8
LAYER_1
 62
   250
 10
-35.2336
 20
5.1244
 30
0.0
  0
VERTEX
  5
13E
  8
LAYER_1
 62
   250
 10
-35.0505
 20
4.9024
 30
0.0
  0
VERTEX
  5
13F
  8
LAYER_1
 62
   250
 10
-34.9122
 20
4.6476
 30
0.0
  0
VERTEX
  5
140
  8
LAYER_1
 62
   250
 10
-34.8248
 20
4.366
 30
0.0
  0
VERTEX
  5
141
  8
LAYER_1
 62
   250
 10
-34.7943
 20
4.0637
 30
0.0
  0
VERTEX
  5
142
  8
LAYER_1
 62
   250
 10
-34.8248
 20
3.7614
 30
0.0
  0
VERTEX
  5
143
  8
LAYER_1
 62
   250
 10
-34.9122
 20
3.4798
 30
0.0
  0
VERTEX
  5
144
  8
LAYER_1
 62
   250
 10
-35.0505
 20
3.225
 30
0.0
  0
VERTEX
  5
145
  8
LAYER_1
 62
   250
 10
-35.2336
 20
3.0031
 30
0.0
  0
VERTEX
  5
146
  8
LAYER_1
 62
   250
 10
-35.4556
 20
2.8199
 30
0.0
  0
VERTEX
  5
147
  8
LAYER_1
 62
   250
 10
-35.7104
 20
2.6816
 30
0.0
  0
VERTEX
  5
148
  8
LAYER_1
 62
   250
 10
-35.992
 20
2.5942
 30
0.0
  0
VERTEX
  5
149
  8
LAYER_1
 62
   250
 10
-36.2943
 20
2.5637
 30
0.0
  0
VERTEX
  5
14A
  8
LAYER_1
 62
   250
 10
-36.5966
 20
2.5942
 30
0.0
  0
VERTEX
  5
14B
  8
LAYER_1
 62
   250
 10
-36.8782
 20
2.6816
 30
0.0
  0
VERTEX
  5
14C
  8
LAYER_1
 62
   250
 10
-37.133
 20
2.8199
 30
0.0
  0
VERTEX
  5
14D
  8
LAYER_1
 62
   250
 10
-37.355
 20
3.0031
 30
0.0
  0
VERTEX
  5
14E
  8
LAYER_1
 62
   250
 10
-37.5381
 20
3.225
 30
0.0
  0
VERTEX
  5
14F
  8
LAYER_1
 62
   250
 10
-37.6764
 20
3.4798
 30
0.0
  0
VERTEX
  5
150
  8
LAYER_1
 62
   250
 10
-37.7638
 20
3.7614
 30
0.0
  0
VERTEX
  5
151
  8
LAYER_1
 62
   250
 10
-37.7943
 20
4.0637
 30
0.0
  0
SEQEND
  5
152
  8
LAYER_1
 62
   250
  0
POLYLINE
  5
46
  8
LAYER_1
 62
   250
 66
     1
 10
0.0
 20
0.0
 30
0.0
 70
     1
  0
VERTEX
  5
153
  8
LAYER_1
 62
   250
 10
-58.2943
 20
4.0637
 30
0.0
  0
VERTEX
  5
154
  8
LAYER_1
 62
   250
 10
-58.2943
 20
4.0637
 30
0.0
  0
VERTEX
  5
155
  8
LAYER_1
 62
   250
 10
-58.2637
 20
4.365
 30
0.0
  0
VERTEX
  5
156
  8
LAYER_1
 62
   250
 10
-58.176
 20
4.6461
 30
0.0
  0
VERTEX
  5
157
  8
LAYER_1
 62
   250
 10
-58.0372
 20
4.9009
 30
0.0
  0
VERTEX
  5
158
  8
LAYER_1
 62
   250
 10
-57.8537
 20
5.1231
 30
0.0
  0
VERTEX
  5
159
  8
LAYER_1
 62
   250
 10
-57.6315
 20
5.3066
 30
0.0
  0
VERTEX
  5
15A
  8
LAYER_1
 62
   250
 10
-57.3768
 20
5.4453
 30
0.0
  0
VERTEX
  5
15B
  8
LAYER_1
 62
   250
 10
-57.0956
 20
5.5331
 30
0.0
  0
VERTEX
  5
15C
  8
LAYER_1
 62
   250
 10
-56.7943
 20
5.5637
 30
0.0
  0
VERTEX
  5
15D
  8
LAYER_1
 62
   250
 10
-50.7944
 20
5.5637
 30
0.0
  0
VERTEX
  5
15E
  8
LAYER_1
 62
   250
 10
-50.493
 20
5.5331
 30
0.0
  0
VERTEX
  5
15F
  8
LAYER_1
 62
   250
 10
-50.2119
 20
5.4453
 30
0.0
  0
VERTEX
  5
160
  8
LAYER_1
 62
   250
 10
-49.9572
 20
5.3066
 30
0.0
  0
VERTEX
  5
161
  8
LAYER_1
 62
   250
 10
-49.7349
 20
5.1231
 30
0.0
  0
VERTEX
  5
162
  8
LAYER_1
 62
   250
 10
-49.5514
 20
4.9009
 30
0.0
  0
VERTEX
  5
163
  8
LAYER_1
 62
   250
 10
-49.4127
 20
4.6461
 30
0.0
  0
VERTEX
  5
164
  8
LAYER_1
 62
   250
 10
-49.3249
 20
4.365
 30
0.0
  0
VERTEX
  5
165
  8
LAYER_1
 62
   250
 10
-49.2943
 20
4.0637
 30
0.0
  0
VERTEX
  5
166
  8
LAYER_1
 62
   250
 10
-49.2943
 20
4.0637
 30
0.0
  0
VERTEX
  5
167
  8
LAYER_1
 62
   250
 10
-49.3249
 20
3.7624
 30
0.0
  0
VERTEX
  5
168
  8
LAYER_1
 62
   250
 10
-49.4127
 20
3.4813
 30
0.0
  0
VERTEX
  5
169
  8
LAYER_1
 62
   250
 10
-49.5514
 20
3.2265
 30
0.0
  0
VERTEX
  5
16A
  8
LAYER_1
 62
   250
 10
-49.7349
 20
3.0043
 30
0.0
  0
VERTEX
  5
16B
  8
LAYER_1
 62
   250
 10
-49.9572
 20
2.8208
 30
0.0
  0
VERTEX
  5
16C
  8
LAYER_1
 62
   250
 10
-50.2119
 20
2.6821
 30
0.0
  0
VERTEX
  5
16D
  8
LAYER_1
 62
   250
 10
-50.493
 20
2.5943
 30
0.0
  0
VERTEX
  5
16E
  8
LAYER_1
 62
   250
 10
-50.7944
 20
2.5637
 30
0.0
  0
VERTEX
  5
16F
  8
LAYER_1
 62
   250
 10
-56.7943
 20
2.5637
 30
0.0
  0
VERTEX
  5
170
  8
LAYER_1
 62
   250
 10
-57.0956
 20
2.5943
 30
0.0
  0
VERTEX
  5
171
  8
LAYER_1
 62
   250
 10
-57.3768
 20
2.6821
 30
0.0
  0
VERTEX
  5
172
  8
LAYER_1
 62
   250
 10
-57.6315
 20
2.8208
 30
0.0
  0
VERTEX
  5
173
  8
LAYER_1
 62
   250
 10
-57.8537
 20
3.0043
 30
0.0
  0
VERTEX
  5
174
  8
LAYER_1
 62
   250
 10
-58.0372
 20
3.2265
 30
0.0
  0
VERTEX
  5
175
  8
LAYER_1
 62
   250
 10
-58.176
 20
3.4813
 30
0.0
  0
VERTEX
  5
176
  8
LAYER_1
 62
   250
 10
-58.2637
 20
3.7624
 30
0.0
  0
VERTEX
  5
177
  8
LAYER_1
 62
   250
 10
-58.2943
 20
4.0637
 30
0.0
  0
SEQEND
  5
178
  8
LAYER_1
 62
   250
  0
POLYLINE
  5
47
  8
LAYER_1
 62
   250
 66
     1
 10
0.0
 20
0.0
 30
0.0
 70
     1
  0
VERTEX
  5
179
  8
LAYER_1
 62
   250
 10
-22.2943
 20
128.5638
 30
0.0
  0
VERTEX
  5
17A
  8
LAYER_1
 62
   250
 10
-22.2943
 20
124.0637
 30
0.0
  0
VERTEX
  5
17B
  8
LAYER_1
 62
   250
 10
-32.2943
 20
124.0637
 30
0.0
  0
VERTEX
  5
17C
  8
LAYER_1
 62
   250
 10
-32.2943
 20
144.0637
 30
0.0
  0
VERTEX
  5
17D
  8
LAYER_1
 62
   250
 10
-22.2943
 20
144.0637
 30
0.0
  0
VERTEX
  5
17E
  8
LAYER_1
 62
   250
 10
-22.2943
 20
139.5638
 30
0.0
  0
VERTEX
  5
17F
  8
LAYER_1
 62
   250
 10
2.6307
 20
139.5638
 30
0.0
  0
VERTEX
  5
180
  8
LAYER_1
 62
   250
 10
3.0475
 20
139.5215
 30
0.0
  0
VERTEX
  5
181
  8
LAYER_1
 62
   250
 10
3.4364
 20
139.4001
 30
0.0
  0
VERTEX
  5
182
  8
LAYER_1
 62
   250
 10
3.7888
 20
139.2082
 30
0.0
  0
VERTEX
  5
183
  8
LAYER_1
 62
   250
 10
4.0962
 20
138.9543
 30
0.0
  0
VERTEX
  5
184
  8
LAYER_1
 62
   250
 10
4.3501
 20
138.6469
 30
0.0
  0
VERTEX
  5
185
  8
LAYER_1
 62
   250
 10
4.542
 20
138.2945
 30
0.0
  0
VERTEX
  5
186
  8
LAYER_1
 62
   250
 10
4.6634
 20
137.9056
 30
0.0
  0
VERTEX
  5
187
  8
LAYER_1
 62
   250
 10
4.7057
 20
137.4888
 30
0.0
  0
VERTEX
  5
188
  8
LAYER_1
 62
   250
 10
4.7057
 20
130.6388
 30
0.0
  0
VERTEX
  5
189
  8
LAYER_1
 62
   250
 10
4.6634
 20
130.222
 30
0.0
  0
VERTEX
  5
18A
  8
LAYER_1
 62
   250
 10
4.542
 20
129.8331
 30
0.0
  0
VERTEX
  5
18B
  8
LAYER_1
 62
   250
 10
4.3501
 20
129.4807
 30
0.0
  0
VERTEX
  5
18C
  8
LAYER_1
 62
   250
 10
4.0962
 20
129.1733
 30
0.0
  0
VERTEX
  5
18D
  8
LAYER_1
 62
   250
 10
3.7888
 20
128.9194
 30
0.0
  0
VERTEX
  5
18E
  8
LAYER_1
 62
   250
 10
3.4364
 20
128.7275
 30
0.0
  0
VERTEX
  5
18F
  8
LAYER_1
 62
   250
 10
3.0475
 20
128.6061
 30
0.0
  0
VERTEX
  5
190
  8
LAYER_1
 62
   250
 10
2.6307
 20
128.5638
 30
0.0
  0
VERTEX
  5
191
  8
LAYER_1
 62
   250
 10
-22.2943
 20
128.5638
 30
0.0
  0
SEQEND
  5
192
  8
LAYER_1
 62
   250
  0
POLYLINE
  5
48
  8
LAYER_1
 62
   250
 66
     1
 10
0.0
 20
0.0
 30
0.0
 70
     1
  0
VERTEX
  5
193
  8
LAYER_1
 62
   250
 10
-0.7943
 20
134.0638
 30
0.0
  0
VERTEX
  5
194
  8
LAYER_1
 62
   250
 10
-0.7638
 20
134.3661
 30
0.0
  0
VERTEX
  5
195
  8
LAYER_1
 62
   250
 10
-0.6764
 20
134.6477
 30
0.0
  0
VERTEX
  5
196
  8
LAYER_1
 62
   250
 10
-0.5381
 20
134.9025
 30
0.0
  0
VERTEX
  5
197
  8
LAYER_1
 62
   250
 10
-0.355
 20
135.1245
 30
0.0
  0
VERTEX
  5
198
  8
LAYER_1
 62
   250
 10
-0.133
 20
135.3076
 30
0.0
  0
VERTEX
  5
199
  8
LAYER_1
 62
   250
 10
0.1218
 20
135.4459
 30
0.0
  0
VERTEX
  5
19A
  8
LAYER_1
 62
   250
 10
0.4034
 20
135.5333
 30
0.0
  0
VERTEX
  5
19B
  8
LAYER_1
 62
   250
 10
0.7057
 20
135.5638
 30
0.0
  0
VERTEX
  5
19C
  8
LAYER_1
 62
   250
 10
1.008
 20
135.5333
 30
0.0
  0
VERTEX
  5
19D
  8
LAYER_1
 62
   250
 10
1.2896
 20
135.4459
 30
0.0
  0
VERTEX
  5
19E
  8
LAYER_1
 62
   250
 10
1.5444
 20
135.3076
 30
0.0
  0
VERTEX
  5
19F
  8
LAYER_1
 62
   250
 10
1.7664
 20
135.1245
 30
0.0
  0
VERTEX
  5
1A0
  8
LAYER_1
 62
   250
 10
1.9495
 20
134.9025
 30
0.0
  0
VERTEX
  5
1A1
  8
LAYER_1
 62
   250
 10
2.0878
 20
134.6477
 30
0.0
  0
VERTEX
  5
1A2
  8
LAYER_1
 62
   250
 10
2.1752
 20
134.3661
 30
0.0
  0
VERTEX
  5
1A3
  8
LAYER_1
 62
   250
 10
2.2057
 20
134.0638
 30
0.0
  0
VERTEX
  5
1A4
  8
LAYER_1
 62
   250
 10
2.1752
 20
133.7615
 30
0.0
  0
VERTEX
  5
1A5
  8
LAYER_1
 62
   250
 10
2.0878
 20
133.4799
 30
0.0
  0
VERTEX
  5
1A6
  8
LAYER_1
 62
   250
 10
1.9495
 20
133.2251
 30
0.0
  0
VERTEX
  5
1A7
  8
LAYER_1
 62
   250
 10
1.7664
 20
133.0032
 30
0.0
  0
VERTEX
  5
1A8
  8
LAYER_1
 62
   250
 10
1.5444
 20
132.82
 30
0.0
  0
VERTEX
  5
1A9
  8
LAYER_1
 62
   250
 10
1.2896
 20
132.6817
 30
0.0
  0
VERTEX
  5
1AA
  8
LAYER_1
 62
   250
 10
1.008
 20
132.5943
 30
0.0
  0
VERTEX
  5
1AB
  8
LAYER_1
 62
   250
 10
0.7057
 20
132.5638
 30
0.0
  0
VERTEX
  5
1AC
  8
LAYER_1
 62
   250
 10
0.4034
 20
132.5943
 30
0.0
  0
VERTEX
  5
1AD
  8
LAYER_1
 62
   250
 10
0.1218
 20
132.6817
 30
0.0
  0
VERTEX
  5
1AE
  8
LAYER_1
 62
   250
 10
-0.133
 20
132.82
 30
0.0
  0
VERTEX
  5
1AF
  8
LAYER_1
 62
   250
 10
-0.355
 20
133.0032
 30
0.0
  0
VERTEX
  5
1B0
  8
LAYER_1
 62
   250
 10
-0.5381
 20
133.2251
 30
0.0
  0
VERTEX
  5
1B1
  8
LAYER_1
 62
   250
 10
-0.6764
 20
133.4799
 30
0.0
  0
VERTEX
  5
1B2
  8
LAYER_1
 62
   250
 10
-0.7638
 20
133.7615
 30
0.0
  0
VERTEX
  5
1B3
  8
LAYER_1
 62
   250
 10
-0.7943
 20
134.0638
 30
0.0
  0
SEQEND
  5
1B4
  8
LAYER_1
 62
   250
  0
POLYLINE
  5
49
  8
LAYER_1
 62
   250
 66
     1
 10
0.0
 20
0.0
 30
0.0
 70
     1
  0
VERTEX
  5
1B5
  8
LAYER_1
 62
   250
 10
-21.2943
 20
134.0638
 30
0.0
  0
VERTEX
  5
1B6
  8
LAYER_1
 62
   250
 10
-21.2943
 20
134.0638
 30
0.0
  0
VERTEX
  5
1B7
  8
LAYER_1
 62
   250
 10
-21.2637
 20
134.3651
 30
0.0
  0
VERTEX
  5
1B8
  8
LAYER_1
 62
   250
 10
-21.176
 20
134.6462
 30
0.0
  0
VERTEX
  5
1B9
  8
LAYER_1
 62
   250
 10
-21.0372
 20
134.901
 30
0.0
  0
VERTEX
  5
1BA
  8
LAYER_1
 62
   250
 10
-20.8537
 20
135.1232
 30
0.0
  0
VERTEX
  5
1BB
  8
LAYER_1
 62
   250
 10
-20.6315
 20
135.3067
 30
0.0
  0
VERTEX
  5
1BC
  8
LAYER_1
 62
   250
 10
-20.3768
 20
135.4454
 30
0.0
  0
VERTEX
  5
1BD
  8
LAYER_1
 62
   250
 10
-20.0956
 20
135.5332
 30
0.0
  0
VERTEX
  5
1BE
  8
LAYER_1
 62
   250
 10
-19.7943
 20
135.5638
 30
0.0
  0
VERTEX
  5
1BF
  8
LAYER_1
 62
   250
 10
-13.7944
 20
135.5638
 30
0.0
  0
VERTEX
  5
1C0
  8
LAYER_1
 62
   250
 10
-13.493
 20
135.5332
 30
0.0
  0
VERTEX
  5
1C1
  8
LAYER_1
 62
   250
 10
-13.2119
 20
135.4454
 30
0.0
  0
VERTEX
  5
1C2
  8
LAYER_1
 62
   250
 10
-12.9572
 20
135.3067
 30
0.0
  0
VERTEX
  5
1C3
  8
LAYER_1
 62
   250
 10
-12.7349
 20
135.1232
 30
0.0
  0
VERTEX
  5
1C4
  8
LAYER_1
 62
   250
 10
-12.5514
 20
134.901
 30
0.0
  0
VERTEX
  5
1C5
  8
LAYER_1
 62
   250
 10
-12.4127
 20
134.6462
 30
0.0
  0
VERTEX
  5
1C6
  8
LAYER_1
 62
   250
 10
-12.3249
 20
134.3651
 30
0.0
  0
VERTEX
  5
1C7
  8
LAYER_1
 62
   250
 10
-12.2943
 20
134.0638
 30
0.0
  0
VERTEX
  5
1C8
  8
LAYER_1
 62
   250
 10
-12.2943
 20
134.0638
 30
0.0
  0
VERTEX
  5
1C9
  8
LAYER_1
 62
   250
 10
-12.3249
 20
133.7625
 30
0.0
  0
VERTEX
  5
1CA
  8
LAYER_1
 62
   250
 10
-12.4127
 20
133.4814
 30
0.0
  0
VERTEX
  5
1CB
  8
LAYER_1
 62
   250
 10
-12.5514
 20
133.2266
 30
0.0
  0
VERTEX
  5
1CC
  8
LAYER_1
 62
   250
 10
-12.7349
 20
133.0044
 30
0.0
  0
VERTEX
  5
1CD
  8
LAYER_1
 62
   250
 10
-12.9572
 20
132.8209
 30
0.0
  0
VERTEX
  5
1CE
  8
LAYER_1
 62
   250
 10
-13.2119
 20
132.6822
 30
0.0
  0
VERTEX
  5
1CF
  8
LAYER_1
 62
   250
 10
-13.493
 20
132.5944
 30
0.0
  0
VERTEX
  5
1D0
  8
LAYER_1
 62
   250
 10
-13.7944
 20
132.5638
 30
0.0
  0
VERTEX
  5
1D1
  8
LAYER_1
 62
   250
 10
-19.7943
 20
132.5638
 30
0.0
  0
VERTEX
  5
1D2
  8
LAYER_1
 62
   250
 10
-20.0956
 20
132.5944
 30
0.0
  0
VERTEX
  5
1D3
  8
LAYER_1
 62
   250
 10
-20.3768
 20
132.6822
 30
0.0
  0
VERTEX
  5
1D4
  8
LAYER_1
 62
   250
 10
-20.6315
 20
132.8209
 30
0.0
  0
VERTEX
  5
1D5
  8
LAYER_1
 62
   250
 10
-20.8537
 20
133.0044
 30
0.0
  0
VERTEX
  5
1D6
  8
LAYER_1
 62
   250
 10
-21.0372
 20
133.2266
 30
0.0
  0
VERTEX
  5
1D7
  8
LAYER_1
 62
   250
 10
-21.176
 20
133.4814
 30
0.0
  0
VERTEX
  5
1D8
  8
LAYER_1
 62
   250
 10
-21.2637
 20
133.7625
 30
0.0
  0
VERTEX
  5
1D9
  8
LAYER_1
 62
   250
 10
-21.2943
 20
134.0638
 30
0.0
  0
SEQEND
  5
1DA
  8
LAYER_1
 62
   250
  0
POLYLINE
  5
4A
  8
LAYER_1
 62
   250
 66
     1
 10
0.0
 20
0.0
 30
0.0
 70
     1
  0
VERTEX
  5
1DB
  8
LAYER_1
 62
   250
 10
-22.2943
 20
-1.4362
 30
0.0
  0
VERTEX
  5
1DC
  8
LAYER_1
 62
   250
 10
-22.2943
 20
-5.9363
 30
0.0
  0
VERTEX
  5
1DD
  8
LAYER_1
 62
   250
 10
-32.2943
 20
-5.9363
 30
0.0
  0
VERTEX
  5
1DE
  8
LAYER_1
 62
   250
 10
-32.2943
 20
14.0637
 30
0.0
  0
VERTEX
  5
1DF
  8
LAYER_1
 62
   250
 10
-22.2943
 20
14.0637
 30
0.0
  0
VERTEX
  5
1E0
  8
LAYER_1
 62
   250
 10
-22.2943
 20
9.5638
 30
0.0
  0
VERTEX
  5
1E1
  8
LAYER_1
 62
   250
 10
2.6307
 20
9.5638
 30
0.0
  0
VERTEX
  5
1E2
  8
LAYER_1
 62
   250
 10
3.0475
 20
9.5215
 30
0.0
  0
VERTEX
  5
1E3
  8
LAYER_1
 62
   250
 10
3.4364
 20
9.4001
 30
0.0
  0
VERTEX
  5
1E4
  8
LAYER_1
 62
   250
 10
3.7888
 20
9.2082
 30
0.0
  0
VERTEX
  5
1E5
  8
LAYER_1
 62
   250
 10
4.0962
 20
8.9543
 30
0.0
  0
VERTEX
  5
1E6
  8
LAYER_1
 62
   250
 10
4.3501
 20
8.6469
 30
0.0
  0
VERTEX
  5
1E7
  8
LAYER_1
 62
   250
 10
4.542
 20
8.2945
 30
0.0
  0
VERTEX
  5
1E8
  8
LAYER_1
 62
   250
 10
4.6634
 20
7.9056
 30
0.0
  0
VERTEX
  5
1E9
  8
LAYER_1
 62
   250
 10
4.7057
 20
7.4888
 30
0.0
  0
VERTEX
  5
1EA
  8
LAYER_1
 62
   250
 10
4.7057
 20
0.6388
 30
0.0
  0
VERTEX
  5
1EB
  8
LAYER_1
 62
   250
 10
4.6634
 20
0.222
 30
0.0
  0
VERTEX
  5
1EC
  8
LAYER_1
 62
   250
 10
4.542
 20
-0.1669
 30
0.0
  0
VERTEX
  5
1ED
  8
LAYER_1
 62
   250
 10
4.3501
 20
-0.5193
 30
0.0
  0
VERTEX
  5
1EE
  8
LAYER_1
 62
   250
 10
4.0962
 20
-0.8267
 30
0.0
  0
VERTEX
  5
1EF
  8
LAYER_1
 62
   250
 10
3.7888
 20
-1.0806
 30
0.0
  0
VERTEX
  5
1F0
  8
LAYER_1
 62
   250
 10
3.4364
 20
-1.2725
 30
0.0
  0
VERTEX
  5
1F1
  8
LAYER_1
 62
   250
 10
3.0475
 20
-1.3939
 30
0.0
  0
VERTEX
  5
1F2
  8
LAYER_1
 62
   250
 10
2.6307
 20
-1.4362
 30
0.0
  0
VERTEX
  5
1F3
  8
LAYER_1
 62
   250
 10
-22.2943
 20
-1.4362
 30
0.0
  0
SEQEND
  5
1F4
  8
LAYER_1
 62
   250
  0
POLYLINE
  5
4B
  8
LAYER_1
 62
   250
 66
     1
 10
0.0
 20
0.0
 30
0.0
 70
     1
  0
VERTEX
  5
1F5
  8
LAYER_1
 62
   250
 10
-0.7943
 20
4.0638
 30
0.0
  0
VERTEX
  5
1F6
  8
LAYER_1
 62
   250
 10
-0.7638
 20
4.3661
 30
0.0
  0
VERTEX
  5
1F7
  8
LAYER_1
 62
   250
 10
-0.6764
 20
4.6477
 30
0.0
  0
VERTEX
  5
1F8
  8
LAYER_1
 62
   250
 10
-0.5381
 20
4.9025
 30
0.0
  0
VERTEX
  5
1F9
  8
LAYER_1
 62
   250
 10
-0.355
 20
5.1245
 30
0.0
  0
VERTEX
  5
1FA
  8
LAYER_1
 62
   250
 10
-0.133
 20
5.3076
 30
0.0
  0
VERTEX
  5
1FB
  8
LAYER_1
 62
   250
 10
0.1218
 20
5.4459
 30
0.0
  0
VERTEX
  5
1FC
  8
LAYER_1
 62
   250
 10
0.4034
 20
5.5333
 30
0.0
  0
VERTEX
  5
1FD
  8
LAYER_1
 62
   250
 10
0.7057
 20
5.5638
 30
0.0
  0
VERTEX
  5
1FE
  8
LAYER_1
 62
   250
 10
1.008
 20
5.5333
 30
0.0
  0
VERTEX
  5
1FF
  8
LAYER_1
 62
   250
 10
1.2896
 20
5.4459
 30
0.0
  0
VERTEX
  5
200
  8
LAYER_1
 62
   250
 10
1.5444
 20
5.3076
 30
0.0
  0
VERTEX
  5
201
  8
LAYER_1
 62
   250
 10
1.7664
 20
5.1245
 30
0.0
  0
VERTEX
  5
202
  8
LAYER_1
 62
   250
 10
1.9495
 20
4.9025
 30
0.0
  0
VERTEX
  5
203
  8
LAYER_1
 62
   250
 10
2.0878
 20
4.6477
 30
0.0
  0
VERTEX
  5
204
  8
LAYER_1
 62
   250
 10
2.1752
 20
4.3661
 30
0.0
  0
VERTEX
  5
205
  8
LAYER_1
 62
   250
 10
2.2057
 20
4.0638
 30
0.0
  0
VERTEX
  5
206
  8
LAYER_1
 62
   250
 10
2.1752
 20
3.7615
 30
0.0
  0
VERTEX
  5
207
  8
LAYER_1
 62
   250
 10
2.0878
 20
3.4799
 30
0.0
  0
VERTEX
  5
208
  8
LAYER_1
 62
   250
 10
1.9495
 20
3.2251
 30
0.0
  0
VERTEX
  5
209
  8
LAYER_1
 62
   250
 10
1.7664
 20
3.0032
 30
0.0
  0
VERTEX
  5
20A
  8
LAYER_1
 62
   250
 10
1.5444
 20
2.82
 30
0.0
  0
VERTEX
  5
20B
  8
LAYER_1
 62
   250
 10
1.2896
 20
2.6817
 30
0.0
  0
VERTEX
  5
20C
  8
LAYER_1
 62
   250
 10
1.008
 20
2.5943
 30
0.0
  0
VERTEX
  5
20D
  8
LAYER_1
 62
   250
 10
0.7057
 20
2.5638
 30
0.0
  0
VERTEX
  5
20E
  8
LAYER_1
 62
   250
 10
0.4034
 20
2.5943
 30
0.0
  0
VERTEX
  5
20F
  8
LAYER_1
 62
   250
 10
0.1218
 20
2.6817
 30
0.0
  0
VERTEX
  5
210
  8
LAYER_1
 62
   250
 10
-0.133
 20
2.82
 30
0.0
  0
VERTEX
  5
211
  8
LAYER_1
 62
   250
 10
-0.355
 20
3.0032
 30
0.0
  0
VERTEX
  5
212
  8
LAYER_1
 62
   250
 10
-0.5381
 20
3.2251
 30
0.0
  0
VERTEX
  5
213
  8
LAYER_1
 62
   250
 10
-0.6764
 20
3.4799
 30
0.0
  0
VERTEX
  5
214
  8
LAYER_1
 62
   250
 10
-0.7638
 20
3.7615
 30
0.0
  0
VERTEX
  5
215
  8
LAYER_1
 62
   250
 10
-0.7943
 20
4.0638
 30
0.0
  0
SEQEND
  5
216
  8
LAYER_1
 62
   250
  0
POLYLINE
  5
4C
  8
LAYER_1
 62
   250
 66
     1
 10
0.0
 20
0.0
 30
0.0
 70
     1
  0
VERTEX
  5
217
  8
LAYER_1
 62
   250
 10
-21.2943
 20
4.0638
 30
0.0
  0
VERTEX
  5
218
  8
LAYER_1
 62
   250
 10
-21.2943
 20
4.0638
 30
0.0
  0
VERTEX
  5
219
  8
LAYER_1
 62
   250
 10
-21.2637
 20
4.3651
 30
0.0
  0
VERTEX
  5
21A
  8
LAYER_1
 62
   250
 10
-21.176
 20
4.6462
 30
0.0
  0
VERTEX
  5
21B
  8
LAYER_1
 62
   250
 10
-21.0372
 20
4.901
 30
0.0
  0
VERTEX
  5
21C
  8
LAYER_1
 62
   250
 10
-20.8537
 20
5.1232
 30
0.0
  0
VERTEX
  5
21D
  8
LAYER_1
 62
   250
 10
-20.6315
 20
5.3067
 30
0.0
  0
VERTEX
  5
21E
  8
LAYER_1
 62
   250
 10
-20.3768
 20
5.4454
 30
0.0
  0
VERTEX
  5
21F
  8
LAYER_1
 62
   250
 10
-20.0956
 20
5.5332
 30
0.0
  0
VERTEX
  5
220
  8
LAYER_1
 62
   250
 10
-19.7943
 20
5.5638
 30
0.0
  0
VERTEX
  5
221
  8
LAYER_1
 62
   250
 10
-13.7944
 20
5.5638
 30
0.0
  0
VERTEX
  5
222
  8
LAYER_1
 62
   250
 10
-13.493
 20
5.5332
 30
0.0
  0
VERTEX
  5
223
  8
LAYER_1
 62
   250
 10
-13.2119
 20
5.4454
 30
0.0
  0
VERTEX
  5
224
  8
LAYER_1
 62
   250
 10
-12.9572
 20
5.3067
 30
0.0
  0
VERTEX
  5
225
  8
LAYER_1
 62
   250
 10
-12.7349
 20
5.1232
 30
0.0
  0
VERTEX
  5
226
  8
LAYER_1
 62
   250
 10
-12.5514
 20
4.901
 30
0.0
  0
VERTEX
  5
227
  8
LAYER_1
 62
   250
 10
-12.4127
 20
4.6462
 30
0.0
  0
VERTEX
  5
228
  8
LAYER_1
 62
   250
 10
-12.3249
 20
4.3651
 30
0.0
  0
VERTEX
  5
229
  8
LAYER_1
 62
   250
 10
-12.2943
 20
4.0638
 30
0.0
  0
VERTEX
  5
22A
  8
LAYER_1
 62
   250
 10
-12.2943
 20
4.0638
 30
0.0
  0
VERTEX
  5
22B
  8
LAYER_1
 62
   250
 10
-12.3249
 20
3.7625
 30
0.0
  0
VERTEX
  5
22C
  8
LAYER_1
 62
   250
 10
-12.4127
 20
3.4814
 30
0.0
  0
VERTEX
  5
22D
  8
LAYER_1
 62
   250
 10
-12.5514
 20
3.2266
 30
0.0
  0
VERTEX
  5
22E
  8
LAYER_1
 62
   250
 10
-12.7349
 20
3.0044
 30
0.0
  0
VERTEX
  5
22F
  8
LAYER_1
 62
   250
 10
-12.9572
 20
2.8209
 30
0.0
  0
VERTEX
  5
230
  8
LAYER_1
 62
   250
 10
-13.2119
 20
2.6822
 30
0.0
  0
VERTEX
  5
231
  8
LAYER_1
 62
   250
 10
-13.493
 20
2.5944
 30
0.0
  0
VERTEX
  5
232
  8
LAYER_1
 62
   250
 10
-13.7944
 20
2.5638
 30
0.0
  0
VERTEX
  5
233
  8
LAYER_1
 62
   250
 10
-19.7943
 20
2.5638
 30
0.0
  0
VERTEX
  5
234
  8
LAYER_1
 62
   250
 10
-20.0956
 20
2.5944
 30
0.0
  0
VERTEX
  5
235
  8
LAYER_1
 62
   250
 10
-20.3768
 20
2.6822
 30
0.0
  0
VERTEX
  5
236
  8
LAYER_1
 62
   250
 10
-20.6315
 20
2.8209
 30
0.0
  0
VERTEX
  5
237
  8
LAYER_1
 62
   250
 10
-20.8537
 20
3.0044
 30
0.0
  0
VERTEX
  5
238
  8
LAYER_1
 62
   250
 10
-21.0372
 20
3.2266
 30
0.0
  0
VERTEX
  5
239
  8
LAYER_1
 62
   250
 10
-21.176
 20
3.4814
 30
0.0
  0
VERTEX
  5
23A
  8
LAYER_1
 62
   250
 10
-21.2637
 20
3.7625
 30
0.0
  0
VERTEX
  5
23B
  8
LAYER_1
 62
   250
 10
-21.2943
 20
4.0638
 30
0.0
  0
SEQEND
  5
23C
  8
LAYER_1
 62
   250
  0
POLYLINE
  5
4D
  8
LAYER_1
 62
   250
 66
     1
 10
0.0
 20
0.0
 30
0.0
 70
     1
  0
VERTEX
  5
23D
  8
LAYER_1
 62
   250
 10
1.7057
 20
124.0636
 30
0.0
  0
VERTEX
  5
23E
  8
LAYER_1
 62
   250
 10
81.7057
 20
124.0636
 30
0.0
  0
VERTEX
  5
23F
  8
LAYER_1
 62
   250
 10
85.7364
 20
123.6573
 30
0.0
  0
VERTEX
  5
240
  8
LAYER_1
 62
   250
 10
89.4906
 20
122.4919
 30
0.0
  0
VERTEX
  5
241
  8
LAYER_1
 62
   250
 10
92.8879
 20
120.6479
 30
0.0
  0
VERTEX
  5
242
  8
LAYER_1
 62
   250
 10
95.8478
 20
118.2057
 30
0.0
  0
VERTEX
  5
243
  8
LAYER_1
 62
   250
 10
98.29
 20
115.2458
 30
0.0
  0
VERTEX
  5
244
  8
LAYER_1
 62
   250
 10
100.134
 20
111.8485
 30
0.0
  0
VERTEX
  5
245
  8
LAYER_1
 62
   250
 10
101.2994
 20
108.0943
 30
0.0
  0
VERTEX
  5
246
  8
LAYER_1
 62
   250
 10
101.7057
 20
104.0636
 30
0.0
  0
VERTEX
  5
247
  8
LAYER_1
 62
   250
 10
101.7057
 20
34.0636
 30
0.0
  0
VERTEX
  5
248
  8
LAYER_1
 62
   250
 10
101.2994
 20
30.0329
 30
0.0
  0
VERTEX
  5
249
  8
LAYER_1
 62
   250
 10
100.134
 20
26.2787
 30
0.0
  0
VERTEX
  5
24A
  8
LAYER_1
 62
   250
 10
98.29
 20
22.8814
 30
0.0
  0
VERTEX
  5
24B
  8
LAYER_1
 62
   250
 10
95.8478
 20
19.9215
 30
0.0
  0
VERTEX
  5
24C
  8
LAYER_1
 62
   250
 10
92.8879
 20
17.4793
 30
0.0
  0
VERTEX
  5
24D
  8
LAYER_1
 62
   250
 10
89.4906
 20
15.6353
 30
0.0
  0
VERTEX
  5
24E
  8
LAYER_1
 62
   250
 10
85.7364
 20
14.4699
 30
0.0
  0
VERTEX
  5
24F
  8
LAYER_1
 62
   250
 10
81.7057
 20
14.0636
 30
0.0
  0
VERTEX
  5
250
  8
LAYER_1
 62
   250
 10
1.7057
 20
14.0636
 30
0.0
  0
VERTEX
  5
251
  8
LAYER_1
 62
   250
 10
1.7057
 20
16.0636
 30
0.0
  0
VERTEX
  5
252
  8
LAYER_1
 62
   250
 10
-9.2943
 20
16.0636
 30
0.0
  0
VERTEX
  5
253
  8
LAYER_1
 62
   250
 10
-9.2943
 20
14.0636
 30
0.0
  0
VERTEX
  5
254
  8
LAYER_1
 62
   250
 10
-69.2943
 20
14.0636
 30
0.0
  0
VERTEX
  5
255
  8
LAYER_1
 62
   250
 10
-69.2943
 20
-5.9363
 30
0.0
  0
VERTEX
  5
256
  8
LAYER_1
 62
   250
 10
-73.0536
 20
-5.3835
 30
0.0
  0
VERTEX
  5
257
  8
LAYER_1
 62
   250
 10
-76.957
 20
-3.7731
 30
0.0
  0
VERTEX
  5
258
  8
LAYER_1
 62
   250
 10
-80.8901
 20
-1.1772
 30
0.0
  0
VERTEX
  5
259
  8
LAYER_1
 62
   250
 10
-84.7384
 20
2.3323
 30
0.0
  0
VERTEX
  5
25A
  8
LAYER_1
 62
   250
 10
-88.3873
 20
6.6831
 30
0.0
  0
VERTEX
  5
25B
  8
LAYER_1
 62
   250
 10
-91.7226
 20
11.8033
 30
0.0
  0
VERTEX
  5
25C
  8
LAYER_1
 62
   250
 10
-94.6298
 20
17.6209
 30
0.0
  0
VERTEX
  5
25D
  8
LAYER_1
 62
   250
 10
-96.9943
 20
24.0637
 30
0.0
  0
VERTEX
  5
25E
  8
LAYER_1
 62
   250
 10
-98.3405
 20
28.9174
 30
0.0
  0
VERTEX
  5
25F
  8
LAYER_1
 62
   250
 10
-99.4938
 20
34.0121
 30
0.0
  0
VERTEX
  5
260
  8
LAYER_1
 62
   250
 10
-100.4584
 20
39.3375
 30
0.0
  0
VERTEX
  5
261
  8
LAYER_1
 62
   250
 10
-101.2383
 20
44.8832
 30
0.0
  0
VERTEX
  5
262
  8
LAYER_1
 62
   250
 10
-101.8377
 20
50.639
 30
0.0
  0
VERTEX
  5
263
  8
LAYER_1
 62
   250
 10
-102.2608
 20
56.5946
 30
0.0
  0
VERTEX
  5
264
  8
LAYER_1
 62
   250
 10
-102.5116
 20
62.7396
 30
0.0
  0
VERTEX
  5
265
  8
LAYER_1
 62
   250
 10
-102.5943
 20
69.0637
 30
0.0
  0
VERTEX
  5
266
  8
LAYER_1
 62
   250
 10
-102.5099
 20
75.36
 30
0.0
  0
VERTEX
  5
267
  8
LAYER_1
 62
   250
 10
-102.2549
 20
81.495
 30
0.0
  0
VERTEX
  5
268
  8
LAYER_1
 62
   250
 10
-101.8268
 20
87.4534
 30
0.0
  0
VERTEX
  5
269
  8
LAYER_1
 62
   250
 10
-101.2227
 20
93.2201
 30
0.0
  0
VERTEX
  5
26A
  8
LAYER_1
 62
   250
 10
-100.4401
 20
98.7797
 30
0.0
  0
VERTEX
  5
26B
  8
LAYER_1
 62
   250
 10
-99.4762
 20
104.117
 30
0.0
  0
VERTEX
  5
26C
  8
LAYER_1
 62
   250
 10
-98.3285
 20
109.2167
 30
0.0
  0
VERTEX
  5
26D
  8
LAYER_1
 62
   250
 10
-96.9943
 20
114.0637
 30
0.0
  0
VERTEX
  5
26E
  8
LAYER_1
 62
   250
 10
-94.6325
 20
120.5436
 30
0.0
  0
VERTEX
  5
26F
  8
LAYER_1
 62
   250
 10
-91.73
 20
126.3785
 30
0.0
  0
VERTEX
  5
270
  8
LAYER_1
 62
   250
 10
-88.3998
 20
131.501
 30
0.0
  0
VERTEX
  5
271
  8
LAYER_1
 62
   250
 10
-84.7551
 20
135.8436
 30
0.0
  0
VERTEX
  5
272
  8
LAYER_1
 62
   250
 10
-80.9091
 20
139.3386
 30
0.0
  0
VERTEX
  5
273
  8
LAYER_1
 62
   250
 10
-76.9749
 20
141.9186
 30
0.0
  0
VERTEX
  5
274
  8
LAYER_1
 62
   250
 10
-73.0656
 20
143.5162
 30
0.0
  0
VERTEX
  5
275
  8
LAYER_1
 62
   250
 10
-69.2944
 20
144.0637
 30
0.0
  0
VERTEX
  5
276
  8
LAYER_1
 62
   250
 10
-69.2943
 20
124.0636
 30
0.0
  0
VERTEX
  5
277
  8
LAYER_1
 62
   250
 10
-9.2943
 20
124.0636
 30
0.0
  0
VERTEX
  5
278
  8
LAYER_1
 62
   250
 10
-9.2943
 20
122.0636
 30
0.0
  0
VERTEX
  5
279
  8
LAYER_1
 62
   250
 10
1.7057
 20
122.0636
 30
0.0
  0
VERTEX
  5
27A
  8
LAYER_1
 62
   250
 10
1.7057
 20
124.0636
 30
0.0
  0
SEQEND
  5
27B
  8
LAYER_1
 62
   250
  0
POLYLINE
  5
4E
  8
LAYER_1
 62
   250
 66
     1
 10
0.0
 20
0.0
 30
0.0
 70
     1
  0
VERTEX
  5
27C
  8
LAYER_1
 62
   250
 10
36.8389
 20
26.3296
 30
0.0
  0
VERTEX
  5
27D
  8
LAYER_1
 62
   250
 10
36.8389
 20
31.3298
 30
0.0
  0
VERTEX
  5
27E
  8
LAYER_1
 62
   250
 10
36.8899
 20
31.832
 30
0.0
  0
VERTEX
  5
27F
  8
LAYER_1
 62
   250
 10
37.0362
 20
32.3005
 30
0.0
  0
VERTEX
  5
280
  8
LAYER_1
 62
   250
 10
37.2673
 20
32.725
 30
0.0
  0
VERTEX
  5
281
  8
LAYER_1
 62
   250
 10
37.5732
 20
33.0954
 30
0.0
  0
VERTEX
  5
282
  8
LAYER_1
 62
   250
 10
37.9436
 20
33.4013
 30
0.0
  0
VERTEX
  5
283
  8
LAYER_1
 62
   250
 10
38.3681
 20
33.6325
 30
0.0
  0
VERTEX
  5
284
  8
LAYER_1
 62
   250
 10
38.8366
 20
33.7787
 30
0.0
  0
VERTEX
  5
285
  8
LAYER_1
 62
   250
 10
39.3388
 20
33.8297
 30
0.0
  0
VERTEX
  5
286
  8
LAYER_1
 62
   250
 10
39.339
 20
33.8297
 30
0.0
  0
VERTEX
  5
287
  8
LAYER_1
 62
   250
 10
39.8412
 20
33.7787
 30
0.0
  0
VERTEX
  5
288
  8
LAYER_1
 62
   250
 10
40.3097
 20
33.6325
 30
0.0
  0
VERTEX
  5
289
  8
LAYER_1
 62
   250
 10
40.7342
 20
33.4013
 30
0.0
  0
VERTEX
  5
28A
  8
LAYER_1
 62
   250
 10
41.1046
 20
33.0954
 30
0.0
  0
VERTEX
  5
28B
  8
LAYER_1
 62
   250
 10
41.4105
 20
32.725
 30
0.0
  0
VERTEX
  5
28C
  8
LAYER_1
 62
   250
 10
41.6417
 20
32.3005
 30
0.0
  0
VERTEX
  5
28D
  8
LAYER_1
 62
   250
 10
41.7879
 20
31.832
 30
0.0
  0
VERTEX
  5
28E
  8
LAYER_1
 62
   250
 10
41.8389
 20
31.3298
 30
0.0
  0
VERTEX
  5
28F
  8
LAYER_1
 62
   250
 10
41.8389
 20
26.3296
 30
0.0
  0
VERTEX
  5
290
  8
LAYER_1
 62
   250
 10
41.7879
 20
25.8274
 30
0.0
  0
VERTEX
  5
291
  8
LAYER_1
 62
   250
 10
41.6417
 20
25.3589
 30
0.0
  0
VERTEX
  5
292
  8
LAYER_1
 62
   250
 10
41.4105
 20
24.9344
 30
0.0
  0
VERTEX
  5
293
  8
LAYER_1
 62
   250
 10
41.1046
 20
24.564
 30
0.0
  0
VERTEX
  5
294
  8
LAYER_1
 62
   250
 10
40.7342
 20
24.2581
 30
0.0
  0
VERTEX
  5
295
  8
LAYER_1
 62
   250
 10
40.3097
 20
24.027
 30
0.0
  0
VERTEX
  5
296
  8
LAYER_1
 62
   250
 10
39.8412
 20
23.8807
 30
0.0
  0
VERTEX
  5
297
  8
LAYER_1
 62
   250
 10
39.339
 20
23.8297
 30
0.0
  0
VERTEX
  5
298
  8
LAYER_1
 62
   250
 10
39.3388
 20
23.8297
 30
0.0
  0
VERTEX
  5
299
  8
LAYER_1
 62
   250
 10
38.8366
 20
23.8807
 30
0.0
  0
VERTEX
  5
29A
  8
LAYER_1
 62
   250
 10
38.3681
 20
24.027
 30
0.0
  0
VERTEX
  5
29B
  8
LAYER_1
 62
   250
 10
37.9436
 20
24.2581
 30
0.0
  0
VERTEX
  5
29C
  8
LAYER_1
 62
   250
 10
37.5732
 20
24.564
 30
0.0
  0
VERTEX
  5
29D
  8
LAYER_1
 62
   250
 10
37.2673
 20
24.9344
 30
0.0
  0
VERTEX
  5
29E
  8
LAYER_1
 62
   250
 10
37.0362
 20
25.3589
 30
0.0
  0
VERTEX
  5
29F
  8
LAYER_1
 62
   250
 10
36.8899
 20
25.8274
 30
0.0
  0
VERTEX
  5
2A0
  8
LAYER_1
 62
   250
 10
36.8389
 20
26.3296
 30
0.0
  0
SEQEND
  5
2A1
  8
LAYER_1
 62
   250
  0
POLYLINE
  5
4F
  8
LAYER_1
 62
   250
 66
     1
 10
0.0
 20
0.0
 30
0.0
 70
     1
  0
VERTEX
  5
2A2
  8
LAYER_1
 62
   250
 10
46.8389
 20
26.3296
 30
0.0
  0
VERTEX
  5
2A3
  8
LAYER_1
 62
   250
 10
46.8389
 20
31.3298
 30
0.0
  0
VERTEX
  5
2A4
  8
LAYER_1
 62
   250
 10
46.8899
 20
31.832
 30
0.0
  0
VERTEX
  5
2A5
  8
LAYER_1
 62
   250
 10
47.0362
 20
32.3005
 30
0.0
  0
VERTEX
  5
2A6
  8
LAYER_1
 62
   250
 10
47.2673
 20
32.725
 30
0.0
  0
VERTEX
  5
2A7
  8
LAYER_1
 62
   250
 10
47.5732
 20
33.0954
 30
0.0
  0
VERTEX
  5
2A8
  8
LAYER_1
 62
   250
 10
47.9436
 20
33.4013
 30
0.0
  0
VERTEX
  5
2A9
  8
LAYER_1
 62
   250
 10
48.3681
 20
33.6325
 30
0.0
  0
VERTEX
  5
2AA
  8
LAYER_1
 62
   250
 10
48.8366
 20
33.7787
 30
0.0
  0
VERTEX
  5
2AB
  8
LAYER_1
 62
   250
 10
49.3388
 20
33.8297
 30
0.0
  0
VERTEX
  5
2AC
  8
LAYER_1
 62
   250
 10
49.339
 20
33.8297
 30
0.0
  0
VERTEX
  5
2AD
  8
LAYER_1
 62
   250
 10
49.8412
 20
33.7787
 30
0.0
  0
VERTEX
  5
2AE
  8
LAYER_1
 62
   250
 10
50.3097
 20
33.6325
 30
0.0
  0
VERTEX
  5
2AF
  8
LAYER_1
 62
   250
 10
50.7342
 20
33.4013
 30
0.0
  0
VERTEX
  5
2B0
  8
LAYER_1
 62
   250
 10
51.1046
 20
33.0954
 30
0.0
  0
VERTEX
  5
2B1
  8
LAYER_1
 62
   250
 10
51.4105
 20
32.725
 30
0.0
  0
VERTEX
  5
2B2
  8
LAYER_1
 62
   250
 10
51.6417
 20
32.3005
 30
0.0
  0
VERTEX
  5
2B3
  8
LAYER_1
 62
   250
 10
51.7879
 20
31.832
 30
0.0
  0
VERTEX
  5
2B4
  8
LAYER_1
 62
   250
 10
51.8389
 20
31.3298
 30
0.0
  0
VERTEX
  5
2B5
  8
LAYER_1
 62
   250
 10
51.8389
 20
26.3296
 30
0.0
  0
VERTEX
  5
2B6
  8
LAYER_1
 62
   250
 10
51.7879
 20
25.8274
 30
0.0
  0
VERTEX
  5
2B7
  8
LAYER_1
 62
   250
 10
51.6417
 20
25.3589
 30
0.0
  0
VERTEX
  5
2B8
  8
LAYER_1
 62
   250
 10
51.4105
 20
24.9344
 30
0.0
  0
VERTEX
  5
2B9
  8
LAYER_1
 62
   250
 10
51.1046
 20
24.564
 30
0.0
  0
VERTEX
  5
2BA
  8
LAYER_1
 62
   250
 10
50.7342
 20
24.2581
 30
0.0
  0
VERTEX
  5
2BB
  8
LAYER_1
 62
   250
 10
50.3097
 20
24.027
 30
0.0
  0
VERTEX
  5
2BC
  8
LAYER_1
 62
   250
 10
49.8412
 20
23.8807
 30
0.0
  0
VERTEX
  5
2BD
  8
LAYER_1
 62
   250
 10
49.339
 20
23.8297
 30
0.0
  0
VERTEX
  5
2BE
  8
LAYER_1
 62
   250
 10
49.3388
 20
23.8297
 30
0.0
  0
VERTEX
  5
2BF
  8
LAYER_1
 62
   250
 10
48.8366
 20
23.8807
 30
0.0
  0
VERTEX
  5
2C0
  8
LAYER_1
 62
   250
 10
48.3681
 20
24.027
 30
0.0
  0
VERTEX
  5
2C1
  8
LAYER_1
 62
   250
 10
47.9436
 20
24.2581
 30
0.0
  0
VERTEX
  5
2C2
  8
LAYER_1
 62
   250
 10
47.5732
 20
24.564
 30
0.0
  0
VERTEX
  5
2C3
  8
LAYER_1
 62
   250
 10
47.2673
 20
24.9344
 30
0.0
  0
VERTEX
  5
2C4
  8
LAYER_1
 62
   250
 10
47.0362
 20
25.3589
 30
0.0
  0
VERTEX
  5
2C5
  8
LAYER_1
 62
   250
 10
46.8899
 20
25.8274
 30
0.0
  0
VERTEX
  5
2C6
  8
LAYER_1
 62
   250
 10
46.8389
 20
26.3296
 30
0.0
  0
SEQEND
  5
2C7
  8
LAYER_1
 62
   250
  0
POLYLINE
  5
50
  8
LAYER_1
 62
   250
 66
     1
 10
0.0
 20
0.0
 30
0.0
 70
     1
  0
VERTEX
  5
2C8
  8
LAYER_1
 62
   250
 10
56.8389
 20
26.3296
 30
0.0
  0
VERTEX
  5
2C9
  8
LAYER_1
 62
   250
 10
56.8389
 20
31.3298
 30
0.0
  0
VERTEX
  5
2CA
  8
LAYER_1
 62
   250
 10
56.8899
 20
31.832
 30
0.0
  0
VERTEX
  5
2CB
  8
LAYER_1
 62
   250
 10
57.0362
 20
32.3005
 30
0.0
  0
VERTEX
  5
2CC
  8
LAYER_1
 62
   250
 10
57.2673
 20
32.725
 30
0.0
  0
VERTEX
  5
2CD
  8
LAYER_1
 62
   250
 10
57.5732
 20
33.0954
 30
0.0
  0
VERTEX
  5
2CE
  8
LAYER_1
 62
   250
 10
57.9436
 20
33.4013
 30
0.0
  0
VERTEX
  5
2CF
  8
LAYER_1
 62
   250
 10
58.3681
 20
33.6325
 30
0.0
  0
VERTEX
  5
2D0
  8
LAYER_1
 62
   250
 10
58.8366
 20
33.7787
 30
0.0
  0
VERTEX
  5
2D1
  8
LAYER_1
 62
   250
 10
59.3388
 20
33.8297
 30
0.0
  0
VERTEX
  5
2D2
  8
LAYER_1
 62
   250
 10
59.339
 20
33.8297
 30
0.0
  0
VERTEX
  5
2D3
  8
LAYER_1
 62
   250
 10
59.8412
 20
33.7787
 30
0.0
  0
VERTEX
  5
2D4
  8
LAYER_1
 62
   250
 10
60.3097
 20
33.6325
 30
0.0
  0
VERTEX
  5
2D5
  8
LAYER_1
 62
   250
 10
60.7342
 20
33.4013
 30
0.0
  0
VERTEX
  5
2D6
  8
LAYER_1
 62
   250
 10
61.1046
 20
33.0954
 30
0.0
  0
VERTEX
  5
2D7
  8
LAYER_1
 62
   250
 10
61.4105
 20
32.725
 30
0.0
  0
VERTEX
  5
2D8
  8
LAYER_1
 62
   250
 10
61.6417
 20
32.3005
 30
0.0
  0
VERTEX
  5
2D9
  8
LAYER_1
 62
   250
 10
61.7879
 20
31.832
 30
0.0
  0
VERTEX
  5
2DA
  8
LAYER_1
 62
   250
 10
61.8389
 20
31.3298
 30
0.0
  0
VERTEX
  5
2DB
  8
LAYER_1
 62
   250
 10
61.8389
 20
26.3296
 30
0.0
  0
VERTEX
  5
2DC
  8
LAYER_1
 62
   250
 10
61.7879
 20
25.8274
 30
0.0
  0
VERTEX
  5
2DD
  8
LAYER_1
 62
   250
 10
61.6417
 20
25.3589
 30
0.0
  0
VERTEX
  5
2DE
  8
LAYER_1
 62
   250
 10
61.4105
 20
24.9344
 30
0.0
  0
VERTEX
  5
2DF
  8
LAYER_1
 62
   250
 10
61.1046
 20
24.564
 30
0.0
  0
VERTEX
  5
2E0
  8
LAYER_1
 62
   250
 10
60.7342
 20
24.2581
 30
0.0
  0
VERTEX
  5
2E1
  8
LAYER_1
 62
   250
 10
60.3097
 20
24.027
 30
0.0
  0
VERTEX
  5
2E2
  8
LAYER_1
 62
   250
 10
59.8412
 20
23.8807
 30
0.0
  0
VERTEX
  5
2E3
  8
LAYER_1
 62
   250
 10
59.339
 20
23.8297
 30
0.0
  0
VERTEX
  5
2E4
  8
LAYER_1
 62
   250
 10
59.3388
 20
23.8297
 30
0.0
  0
VERTEX
  5
2E5
  8
LAYER_1
 62
   250
 10
58.8366
 20
23.8807
 30
0.0
  0
VERTEX
  5
2E6
  8
LAYER_1
 62
   250
 10
58.3681
 20
24.027
 30
0.0
  0
VERTEX
  5
2E7
  8
LAYER_1
 62
   250
 10
57.9436
 20
24.2581
 30
0.0
  0
VERTEX
  5
2E8
  8
LAYER_1
 62
   250
 10
57.5732
 20
24.564
 30
0.0
  0
VERTEX
  5
2E9
  8
LAYER_1
 62
   250
 10
57.2673
 20
24.9344
 30
0.0
  0
VERTEX
  5
2EA
  8
LAYER_1
 62
   250
 10
57.0362
 20
25.3589
 30
0.0
  0
VERTEX
  5
2EB
  8
LAYER_1
 62
   250
 10
56.8899
 20
25.8274
 30
0.0
  0
VERTEX
  5
2EC
  8
LAYER_1
 62
   250
 10
56.8389
 20
26.3296
 30
0.0
  0
SEQEND
  5
2ED
  8
LAYER_1
 62
   250
  0
POLYLINE
  5
51
  8
LAYER_1
 62
   250
 66
     1
 10
0.0
 20
0.0
 30
0.0
 70
     1
  0
VERTEX
  5
2EE
  8
LAYER_1
 62
   250
 10
36.8062
 20
107.0767
 30
0.0
  0
VERTEX
  5
2EF
  8
LAYER_1
 62
   250
 10
36.8062
 20
112.0769
 30
0.0
  0
VERTEX
  5
2F0
  8
LAYER_1
 62
   250
 10
36.8572
 20
112.5791
 30
0.0
  0
VERTEX
  5
2F1
  8
LAYER_1
 62
   250
 10
37.0035
 20
113.0476
 30
0.0
  0
VERTEX
  5
2F2
  8
LAYER_1
 62
   250
 10
37.2346
 20
113.4721
 30
0.0
  0
VERTEX
  5
2F3
  8
LAYER_1
 62
   250
 10
37.5405
 20
113.8425
 30
0.0
  0
VERTEX
  5
2F4
  8
LAYER_1
 62
   250
 10
37.9109
 20
114.1484
 30
0.0
  0
VERTEX
  5
2F5
  8
LAYER_1
 62
   250
 10
38.3354
 20
114.3796
 30
0.0
  0
VERTEX
  5
2F6
  8
LAYER_1
 62
   250
 10
38.8039
 20
114.5258
 30
0.0
  0
VERTEX
  5
2F7
  8
LAYER_1
 62
   250
 10
39.3061
 20
114.5768
 30
0.0
  0
VERTEX
  5
2F8
  8
LAYER_1
 62
   250
 10
39.3063
 20
114.5768
 30
0.0
  0
VERTEX
  5
2F9
  8
LAYER_1
 62
   250
 10
39.8085
 20
114.5258
 30
0.0
  0
VERTEX
  5
2FA
  8
LAYER_1
 62
   250
 10
40.277
 20
114.3796
 30
0.0
  0
VERTEX
  5
2FB
  8
LAYER_1
 62
   250
 10
40.7015
 20
114.1484
 30
0.0
  0
VERTEX
  5
2FC
  8
LAYER_1
 62
   250
 10
41.0719
 20
113.8425
 30
0.0
  0
VERTEX
  5
2FD
  8
LAYER_1
 62
   250
 10
41.3778
 20
113.4721
 30
0.0
  0
VERTEX
  5
2FE
  8
LAYER_1
 62
   250
 10
41.609
 20
113.0476
 30
0.0
  0
VERTEX
  5
2FF
  8
LAYER_1
 62
   250
 10
41.7552
 20
112.5791
 30
0.0
  0
VERTEX
  5
300
  8
LAYER_1
 62
   250
 10
41.8062
 20
112.0769
 30
0.0
  0
VERTEX
  5
301
  8
LAYER_1
 62
   250
 10
41.8062
 20
107.0767
 30
0.0
  0
VERTEX
  5
302
  8
LAYER_1
 62
   250
 10
41.7552
 20
106.5745
 30
0.0
  0
VERTEX
  5
303
  8
LAYER_1
 62
   250
 10
41.609
 20
106.106
 30
0.0
  0
VERTEX
  5
304
  8
LAYER_1
 62
   250
 10
41.3778
 20
105.6815
 30
0.0
  0
VERTEX
  5
305
  8
LAYER_1
 62
   250
 10
41.0719
 20
105.3111
 30
0.0
  0
VERTEX
  5
306
  8
LAYER_1
 62
   250
 10
40.7015
 20
105.0052
 30
0.0
  0
VERTEX
  5
307
  8
LAYER_1
 62
   250
 10
40.277
 20
104.7741
 30
0.0
  0
VERTEX
  5
308
  8
LAYER_1
 62
   250
 10
39.8085
 20
104.6278
 30
0.0
  0
VERTEX
  5
309
  8
LAYER_1
 62
   250
 10
39.3063
 20
104.5768
 30
0.0
  0
VERTEX
  5
30A
  8
LAYER_1
 62
   250
 10
39.3061
 20
104.5768
 30
0.0
  0
VERTEX
  5
30B
  8
LAYER_1
 62
   250
 10
38.8039
 20
104.6278
 30
0.0
  0
VERTEX
  5
30C
  8
LAYER_1
 62
   250
 10
38.3354
 20
104.7741
 30
0.0
  0
VERTEX
  5
30D
  8
LAYER_1
 62
   250
 10
37.9109
 20
105.0052
 30
0.0
  0
VERTEX
  5
30E
  8
LAYER_1
 62
   250
 10
37.5405
 20
105.3111
 30
0.0
  0
VERTEX
  5
30F
  8
LAYER_1
 62
   250
 10
37.2346
 20
105.6815
 30
0.0
  0
VERTEX
  5
310
  8
LAYER_1
 62
   250
 10
37.0035
 20
106.106
 30
0.0
  0
VERTEX
  5
311
  8
LAYER_1
 62
   250
 10
36.8572
 20
106.5745
 30
0.0
  0
VERTEX
  5
312
  8
LAYER_1
 62
   250
 10
36.8062
 20
107.0767
 30
0.0
  0
SEQEND
  5
313
  8
LAYER_1
 62
   250
  0
POLYLINE
  5
52
  8
LAYER_1
 62
   250
 66
     1
 10
0.0
 20
0.0
 30
0.0
 70
     1
  0
VERTEX
  5
314
  8
LAYER_1
 62
   250
 10
46.8062
 20
107.0767
 30
0.0
  0
VERTEX
  5
315
  8
LAYER_1
 62
   250
 10
46.8062
 20
112.0769
 30
0.0
  0
VERTEX
  5
316
  8
LAYER_1
 62
   250
 10
46.8572
 20
112.5791
 30
0.0
  0
VERTEX
  5
317
  8
LAYER_1
 62
   250
 10
47.0035
 20
113.0476
 30
0.0
  0
VERTEX
  5
318
  8
LAYER_1
 62
   250
 10
47.2346
 20
113.4721
 30
0.0
  0
VERTEX
  5
319
  8
LAYER_1
 62
   250
 10
47.5405
 20
113.8425
 30
0.0
  0
VERTEX
  5
31A
  8
LAYER_1
 62
   250
 10
47.9109
 20
114.1484
 30
0.0
  0
VERTEX
  5
31B
  8
LAYER_1
 62
   250
 10
48.3354
 20
114.3796
 30
0.0
  0
VERTEX
  5
31C
  8
LAYER_1
 62
   250
 10
48.8039
 20
114.5258
 30
0.0
  0
VERTEX
  5
31D
  8
LAYER_1
 62
   250
 10
49.3061
 20
114.5768
 30
0.0
  0
VERTEX
  5
31E
  8
LAYER_1
 62
   250
 10
49.3063
 20
114.5768
 30
0.0
  0
VERTEX
  5
31F
  8
LAYER_1
 62
   250
 10
49.8085
 20
114.5258
 30
0.0
  0
VERTEX
  5
320
  8
LAYER_1
 62
   250
 10
50.277
 20
114.3796
 30
0.0
  0
VERTEX
  5
321
  8
LAYER_1
 62
   250
 10
50.7015
 20
114.1484
 30
0.0
  0
VERTEX
  5
322
  8
LAYER_1
 62
   250
 10
51.0719
 20
113.8425
 30
0.0
  0
VERTEX
  5
323
  8
LAYER_1
 62
   250
 10
51.3778
 20
113.4721
 30
0.0
  0
VERTEX
  5
324
  8
LAYER_1
 62
   250
 10
51.609
 20
113.0476
 30
0.0
  0
VERTEX
  5
325
  8
LAYER_1
 62
   250
 10
51.7552
 20
112.5791
 30
0.0
  0
VERTEX
  5
326
  8
LAYER_1
 62
   250
 10
51.8062
 20
112.0769
 30
0.0
  0
VERTEX
  5
327
  8
LAYER_1
 62
   250
 10
51.8062
 20
107.0767
 30
0.0
  0
VERTEX
  5
328
  8
LAYER_1
 62
   250
 10
51.7552
 20
106.5745
 30
0.0
  0
VERTEX
  5
329
  8
LAYER_1
 62
   250
 10
51.609
 20
106.106
 30
0.0
  0
VERTEX
  5
32A
  8
LAYER_1
 62
   250
 10
51.3778
 20
105.6815
 30
0.0
  0
VERTEX
  5
32B
  8
LAYER_1
 62
   250
 10
51.0719
 20
105.3111
 30
0.0
  0
VERTEX
  5
32C
  8
LAYER_1
 62
   250
 10
50.7015
 20
105.0052
 30
0.0
  0
VERTEX
  5
32D
  8
LAYER_1
 62
   250
 10
50.277
 20
104.7741
 30
0.0
  0
VERTEX
  5
32E
  8
LAYER_1
 62
   250
 10
49.8085
 20
104.6278
 30
0.0
  0
VERTEX
  5
32F
  8
LAYER_1
 62
   250
 10
49.3063
 20
104.5768
 30
0.0
  0
VERTEX
  5
330
  8
LAYER_1
 62
   250
 10
49.3061
 20
104.5768
 30
0.0
  0
VERTEX
  5
331
  8
LAYER_1
 62
   250
 10
48.8039
 20
104.6278
 30
0.0
  0
VERTEX
  5
332
  8
LAYER_1
 62
   250
 10
48.3354
 20
104.7741
 30
0.0
  0
VERTEX
  5
333
  8
LAYER_1
 62
   250
 10
47.9109
 20
105.0052
 30
0.0
  0
VERTEX
  5
334
  8
LAYER_1
 62
   250
 10
47.5405
 20
105.3111
 30
0.0
  0
VERTEX
  5
335
  8
LAYER_1
 62
   250
 10
47.2346
 20
105.6815
 30
0.0
  0
VERTEX
  5
336
  8
LAYER_1
 62
   250
 10
47.0035
 20
106.106
 30
0.0
  0
VERTEX
  5
337
  8
LAYER_1
 62
   250
 10
46.8572
 20
106.5745
 30
0.0
  0
VERTEX
  5
338
  8
LAYER_1
 62
   250
 10
46.8062
 20
107.0767
 30
0.0
  0
SEQEND
  5
339
  8
LAYER_1
 62
   250
  0
POLYLINE
  5
53
  8
LAYER_1
 62
   250
 66
     1
 10
0.0
 20
0.0
 30
0.0
 70
     1
  0
VERTEX
  5
33A
  8
LAYER_1
 62
   250
 10
56.8062
 20
107.0767
 30
0.0
  0
VERTEX
  5
33B
  8
LAYER_1
 62
   250
 10
56.8062
 20
112.0769
 30
0.0
  0
VERTEX
  5
33C
  8
LAYER_1
 62
   250
 10
56.8572
 20
112.5791
 30
0.0
  0
VERTEX
  5
33D
  8
LAYER_1
 62
   250
 10
57.0035
 20
113.0476
 30
0.0
  0
VERTEX
  5
33E
  8
LAYER_1
 62
   250
 10
57.2346
 20
113.4721
 30
0.0
  0
VERTEX
  5
33F
  8
LAYER_1
 62
   250
 10
57.5405
 20
113.8425
 30
0.0
  0
VERTEX
  5
340
  8
LAYER_1
 62
   250
 10
57.9109
 20
114.1484
 30
0.0
  0
VERTEX
  5
341
  8
LAYER_1
 62
   250
 10
58.3354
 20
114.3796
 30
0.0
  0
VERTEX
  5
342
  8
LAYER_1
 62
   250
 10
58.8039
 20
114.5258
 30
0.0
  0
VERTEX
  5
343
  8
LAYER_1
 62
   250
 10
59.3061
 20
114.5768
 30
0.0
  0
VERTEX
  5
344
  8
LAYER_1
 62
   250
 10
59.3063
 20
114.5768
 30
0.0
  0
VERTEX
  5
345
  8
LAYER_1
 62
   250
 10
59.8085
 20
114.5258
 30
0.0
  0
VERTEX
  5
346
  8
LAYER_1
 62
   250
 10
60.277
 20
114.3796
 30
0.0
  0
VERTEX
  5
347
  8
LAYER_1
 62
   250
 10
60.7015
 20
114.1484
 30
0.0
  0
VERTEX
  5
348
  8
LAYER_1
 62
   250
 10
61.0719
 20
113.8425
 30
0.0
  0
VERTEX
  5
349
  8
LAYER_1
 62
   250
 10
61.3778
 20
113.4721
 30
0.0
  0
VERTEX
  5
34A
  8
LAYER_1
 62
   250
 10
61.609
 20
113.0476
 30
0.0
  0
VERTEX
  5
34B
  8
LAYER_1
 62
   250
 10
61.7552
 20
112.5791
 30
0.0
  0
VERTEX
  5
34C
  8
LAYER_1
 62
   250
 10
61.8062
 20
112.0769
 30
0.0
  0
VERTEX
  5
34D
  8
LAYER_1
 62
   250
 10
61.8062
 20
107.0767
 30
0.0
  0
VERTEX
  5
34E
  8
LAYER_1
 62
   250
 10
61.7552
 20
106.5745
 30
0.0
  0
VERTEX
  5
34F
  8
LAYER_1
 62
   250
 10
61.609
 20
106.106
 30
0.0
  0
VERTEX
  5
350
  8
LAYER_1
 62
   250
 10
61.3778
 20
105.6815
 30
0.0
  0
VERTEX
  5
351
  8
LAYER_1
 62
   250
 10
61.0719
 20
105.3111
 30
0.0
  0
VERTEX
  5
352
  8
LAYER_1
 62
   250
 10
60.7015
 20
105.0052
 30
0.0
  0
VERTEX
  5
353
  8
LAYER_1
 62
   250
 10
60.277
 20
104.7741
 30
0.0
  0
VERTEX
  5
354
  8
LAYER_1
 62
   250
 10
59.8085
 20
104.6278
 30
0.0
  0
VERTEX
  5
355
  8
LAYER_1
 62
   250
 10
59.3063
 20
104.5768
 30
0.0
  0
VERTEX
  5
356
  8
LAYER_1
 62
   250
 10
59.3061
 20
104.5768
 30
0.0
  0
VERTEX
  5
357
  8
LAYER_1
 62
   250
 10
58.8039
 20
104.6278
 30
0.0
  0
VERTEX
  5
358
  8
LAYER_1
 62
   250
 10
58.3354
 20
104.7741
 30
0.0
  0
VERTEX
  5
359
  8
LAYER_1
 62
   250
 10
57.9109
 20
105.0052
 30
0.0
  0
VERTEX
  5
35A
  8
LAYER_1
 62
   250
 10
57.5405
 20
105.3111
 30
0.0
  0
VERTEX
  5
35B
  8
LAYER_1
 62
   250
 10
57.2346
 20
105.6815
 30
0.0
  0
VERTEX
  5
35C
  8
LAYER_1
 62
   250
 10
57.0035
 20
106.106
 30
0.0
  0
VERTEX
  5
35D
  8
LAYER_1
 62
   250
 10
56.8572
 20
106.5745
 30
0.0
  0
VERTEX
  5
35E
  8
LAYER_1
 62
   250
 10
56.8062
 20
107.0767
 30
0.0
  0
SEQEND
  5
35F
  8
LAYER_1
 62
   250
  0
POLYLINE
  5
54
  8
LAYER_1
 62
   250
 66
     1
 10
0.0
 20
0.0
 30
0.0
 70
     1
  0
VERTEX
  5
360
  8
LAYER_1
 62
   250
 10
90.1127
 20
27.6708
 30
0.0
  0
VERTEX
  5
361
  8
LAYER_1
 62
   250
 10
70.9127
 20
27.6708
 30
0.0
  0
VERTEX
  5
362
  8
LAYER_1
 62
   250
 10
70.9127
 20
40.6708
 30
0.0
  0
VERTEX
  5
363
  8
LAYER_1
 62
   250
 10
90.1127
 20
40.6708
 30
0.0
  0
VERTEX
  5
364
  8
LAYER_1
 62
   250
 10
90.1127
 20
27.6708
 30
0.0
  0
SEQEND
  5
365
  8
LAYER_1
 62
   250
  0
POLYLINE
  5
55
  8
LAYER_1
 62
   250
 66
     1
 10
0.0
 20
0.0
 30
0.0
 70
     1
  0
VERTEX
  5
366
  8
LAYER_1
 62
   250
 10
-28.694
 20
56.5641
 30
0.0
  0
VERTEX
  5
367
  8
LAYER_1
 62
   250
 10
-33.6942
 20
56.5641
 30
0.0
  0
VERTEX
  5
368
  8
LAYER_1
 62
   250
 10
-34.1964
 20
56.6151
 30
0.0
  0
VERTEX
  5
369
  8
LAYER_1
 62
   250
 10
-34.6649
 20
56.7614
 30
0.0
  0
VERTEX
  5
36A
  8
LAYER_1
 62
   250
 10
-35.0894
 20
56.9925
 30
0.0
  0
VERTEX
  5
36B
  8
LAYER_1
 62
   250
 10
-35.4598
 20
57.2984
 30
0.0
  0
VERTEX
  5
36C
  8
LAYER_1
 62
   250
 10
-35.7657
 20
57.6688
 30
0.0
  0
VERTEX
  5
36D
  8
LAYER_1
 62
   250
 10
-35.9969
 20
58.0933
 30
0.0
  0
VERTEX
  5
36E
  8
LAYER_1
 62
   250
 10
-36.1431
 20
58.5618
 30
0.0
  0
VERTEX
  5
36F
  8
LAYER_1
 62
   250
 10
-36.1941
 20
59.064
 30
0.0
  0
VERTEX
  5
370
  8
LAYER_1
 62
   250
 10
-36.1941
 20
59.0642
 30
0.0
  0
VERTEX
  5
371
  8
LAYER_1
 62
   250
 10
-36.1431
 20
59.5664
 30
0.0
  0
VERTEX
  5
372
  8
LAYER_1
 62
   250
 10
-35.9969
 20
60.0349
 30
0.0
  0
VERTEX
  5
373
  8
LAYER_1
 62
   250
 10
-35.7657
 20
60.4594
 30
0.0
  0
VERTEX
  5
374
  8
LAYER_1
 62
   250
 10
-35.4598
 20
60.8298
 30
0.0
  0
VERTEX
  5
375
  8
LAYER_1
 62
   250
 10
-35.0894
 20
61.1357
 30
0.0
  0
VERTEX
  5
376
  8
LAYER_1
 62
   250
 10
-34.6649
 20
61.3669
 30
0.0
  0
VERTEX
  5
377
  8
LAYER_1
 62
   250
 10
-34.1964
 20
61.5131
 30
0.0
  0
VERTEX
  5
378
  8
LAYER_1
 62
   250
 10
-33.6942
 20
61.5641
 30
0.0
  0
VERTEX
  5
379
  8
LAYER_1
 62
   250
 10
-28.694
 20
61.5641
 30
0.0
  0
VERTEX
  5
37A
  8
LAYER_1
 62
   250
 10
-28.1918
 20
61.5131
 30
0.0
  0
VERTEX
  5
37B
  8
LAYER_1
 62
   250
 10
-27.7233
 20
61.3669
 30
0.0
  0
VERTEX
  5
37C
  8
LAYER_1
 62
   250
 10
-27.2988
 20
61.1357
 30
0.0
  0
VERTEX
  5
37D
  8
LAYER_1
 62
   250
 10
-26.9284
 20
60.8298
 30
0.0
  0
VERTEX
  5
37E
  8
LAYER_1
 62
   250
 10
-26.6225
 20
60.4594
 30
0.0
  0
VERTEX
  5
37F
  8
LAYER_1
 62
   250
 10
-26.3914
 20
60.0349
 30
0.0
  0
VERTEX
  5
380
  8
LAYER_1
 62
   250
 10
-26.2451
 20
59.5664
 30
0.0
  0
VERTEX
  5
381
  8
LAYER_1
 62
   250
 10
-26.1941
 20
59.0642
 30
0.0
  0
VERTEX
  5
382
  8
LAYER_1
 62
   250
 10
-26.1941
 20
59.064
 30
0.0
  0
VERTEX
  5
383
  8
LAYER_1
 62
   250
 10
-26.2451
 20
58.5618
 30
0.0
  0
VERTEX
  5
384
  8
LAYER_1
 62
   250
 10
-26.3914
 20
58.0933
 30
0.0
  0
VERTEX
  5
385
  8
LAYER_1
 62
   250
 10
-26.6225
 20
57.6688
 30
0.0
  0
VERTEX
  5
386
  8
LAYER_1
 62
   250
 10
-26.9284
 20
57.2984
 30
0.0
  0
VERTEX
  5
387
  8
LAYER_1
 62
   250
 10
-27.2988
 20
56.9925
 30
0.0
  0
VERTEX
  5
388
  8
LAYER_1
 62
   250
 10
-27.7233
 20
56.7614
 30
0.0
  0
VERTEX
  5
389
  8
LAYER_1
 62
   250
 10
-28.1918
 20
56.6151
 30
0.0
  0
VERTEX
  5
38A
  8
LAYER_1
 62
   250
 10
-28.694
 20
56.5641
 30
0.0
  0
SEQEND
  5
38B
  8
LAYER_1
 62
   250
  0
POLYLINE
  5
56
  8
LAYER_1
 62
   250
 66
     1
 10
0.0
 20
0.0
 30
0.0
 70
     1
  0
VERTEX
  5
38C
  8
LAYER_1
 62
   250
 10
-28.694
 20
66.5641
 30
0.0
  0
VERTEX
  5
38D
  8
LAYER_1
 62
   250
 10
-33.6942
 20
66.5641
 30
0.0
  0
VERTEX
  5
38E
  8
LAYER_1
 62
   250
 10
-34.1964
 20
66.6151
 30
0.0
  0
VERTEX
  5
38F
  8
LAYER_1
 62
   250
 10
-34.6649
 20
66.7614
 30
0.0
  0
VERTEX
  5
390
  8
LAYER_1
 62
   250
 10
-35.0894
 20
66.9925
 30
0.0
  0
VERTEX
  5
391
  8
LAYER_1
 62
   250
 10
-35.4598
 20
67.2984
 30
0.0
  0
VERTEX
  5
392
  8
LAYER_1
 62
   250
 10
-35.7657
 20
67.6688
 30
0.0
  0
VERTEX
  5
393
  8
LAYER_1
 62
   250
 10
-35.9969
 20
68.0933
 30
0.0
  0
VERTEX
  5
394
  8
LAYER_1
 62
   250
 10
-36.1431
 20
68.5618
 30
0.0
  0
VERTEX
  5
395
  8
LAYER_1
 62
   250
 10
-36.1941
 20
69.064
 30
0.0
  0
VERTEX
  5
396
  8
LAYER_1
 62
   250
 10
-36.1941
 20
69.0642
 30
0.0
  0
VERTEX
  5
397
  8
LAYER_1
 62
   250
 10
-36.1431
 20
69.5664
 30
0.0
  0
VERTEX
  5
398
  8
LAYER_1
 62
   250
 10
-35.9969
 20
70.0349
 30
0.0
  0
VERTEX
  5
399
  8
LAYER_1
 62
   250
 10
-35.7657
 20
70.4594
 30
0.0
  0
VERTEX
  5
39A
  8
LAYER_1
 62
   250
 10
-35.4598
 20
70.8298
 30
0.0
  0
VERTEX
  5
39B
  8
LAYER_1
 62
   250
 10
-35.0894
 20
71.1357
 30
0.0
  0
VERTEX
  5
39C
  8
LAYER_1
 62
   250
 10
-34.6649
 20
71.3669
 30
0.0
  0
VERTEX
  5
39D
  8
LAYER_1
 62
   250
 10
-34.1964
 20
71.5131
 30
0.0
  0
VERTEX
  5
39E
  8
LAYER_1
 62
   250
 10
-33.6942
 20
71.5641
 30
0.0
  0
VERTEX
  5
39F
  8
LAYER_1
 62
   250
 10
-28.694
 20
71.5641
 30
0.0
  0
VERTEX
  5
3A0
  8
LAYER_1
 62
   250
 10
-28.1918
 20
71.5131
 30
0.0
  0
VERTEX
  5
3A1
  8
LAYER_1
 62
   250
 10
-27.7233
 20
71.3669
 30
0.0
  0
VERTEX
  5
3A2
  8
LAYER_1
 62
   250
 10
-27.2988
 20
71.1357
 30
0.0
  0
VERTEX
  5
3A3
  8
LAYER_1
 62
   250
 10
-26.9284
 20
70.8298
 30
0.0
  0
VERTEX
  5
3A4
  8
LAYER_1
 62
   250
 10
-26.6225
 20
70.4594
 30
0.0
  0
VERTEX
  5
3A5
  8
LAYER_1
 62
   250
 10
-26.3914
 20
70.0349
 30
0.0
  0
VERTEX
  5
3A6
  8
LAYER_1
 62
   250
 10
-26.2451
 20
69.5664
 30
0.0
  0
VERTEX
  5
3A7
  8
LAYER_1
 62
   250
 10
-26.1941
 20
69.0642
 30
0.0
  0
VERTEX
  5
3A8
  8
LAYER_1
 62
   250
 10
-26.1941
 20
69.064
 30
0.0
  0
VERTEX
  5
3A9
  8
LAYER_1
 62
   250
 10
-26.2451
 20
68.5618
 30
0.0
  0
VERTEX
  5
3AA
  8
LAYER_1
 62
   250
 10
-26.3914
 20
68.0933
 30
0.0
  0
VERTEX
  5
3AB
  8
LAYER_1
 62
   250
 10
-26.6225
 20
67.6688
 30
0.0
  0
VERTEX
  5
3AC
  8
LAYER_1
 62
   250
 10
-26.9284
 20
67.2984
 30
0.0
  0
VERTEX
  5
3AD
  8
LAYER_1
 62
   250
 10
-27.2988
 20
66.9925
 30
0.0
  0
VERTEX
  5
3AE
  8
LAYER_1
 62
   250
 10
-27.7233
 20
66.7614
 30
0.0
  0
VERTEX
  5
3AF
  8
LAYER_1
 62
   250
 10
-28.1918
 20
66.6151
 30
0.0
  0
VERTEX
  5
3B0
  8
LAYER_1
 62
   250
 10
-28.694
 20
66.5641
 30
0.0
  0
SEQEND
  5
3B1
  8
LAYER_1
 62
   250
  0
POLYLINE
  5
57
  8
LAYER_1
 62
   250
 66
     1
 10
0.0
 20
0.0
 30
0.0
 70
     1
  0
VERTEX
  5
3B2
  8
LAYER_1
 62
   250
 10
-28.694
 20
76.5641
 30
0.0
  0
VERTEX
  5
3B3
  8
LAYER_1
 62
   250
 10
-33.6942
 20
76.5641
 30
0.0
  0
VERTEX
  5
3B4
  8
LAYER_1
 62
   250
 10
-34.1964
 20
76.6151
 30
0.0
  0
VERTEX
  5
3B5
  8
LAYER_1
 62
   250
 10
-34.6649
 20
76.7614
 30
0.0
  0
VERTEX
  5
3B6
  8
LAYER_1
 62
   250
 10
-35.0894
 20
76.9925
 30
0.0
  0
VERTEX
  5
3B7
  8
LAYER_1
 62
   250
 10
-35.4598
 20
77.2984
 30
0.0
  0
VERTEX
  5
3B8
  8
LAYER_1
 62
   250
 10
-35.7657
 20
77.6688
 30
0.0
  0
VERTEX
  5
3B9
  8
LAYER_1
 62
   250
 10
-35.9969
 20
78.0933
 30
0.0
  0
VERTEX
  5
3BA
  8
LAYER_1
 62
   250
 10
-36.1431
 20
78.5618
 30
0.0
  0
VERTEX
  5
3BB
  8
LAYER_1
 62
   250
 10
-36.1941
 20
79.064
 30
0.0
  0
VERTEX
  5
3BC
  8
LAYER_1
 62
   250
 10
-36.1941
 20
79.0642
 30
0.0
  0
VERTEX
  5
3BD
  8
LAYER_1
 62
   250
 10
-36.1431
 20
79.5664
 30
0.0
  0
VERTEX
  5
3BE
  8
LAYER_1
 62
   250
 10
-35.9969
 20
80.0349
 30
0.0
  0
VERTEX
  5
3BF
  8
LAYER_1
 62
   250
 10
-35.7657
 20
80.4594
 30
0.0
  0
VERTEX
  5
3C0
  8
LAYER_1
 62
   250
 10
-35.4598
 20
80.8298
 30
0.0
  0
VERTEX
  5
3C1
  8
LAYER_1
 62
   250
 10
-35.0894
 20
81.1357
 30
0.0
  0
VERTEX
  5
3C2
  8
LAYER_1
 62
   250
 10
-34.6649
 20
81.3669
 30
0.0
  0
VERTEX
  5
3C3
  8
LAYER_1
 62
   250
 10
-34.1964
 20
81.5131
 30
0.0
  0
VERTEX
  5
3C4
  8
LAYER_1
 62
   250
 10
-33.6942
 20
81.5641
 30
0.0
  0
VERTEX
  5
3C5
  8
LAYER_1
 62
   250
 10
-28.694
 20
81.5641
 30
0.0
  0
VERTEX
  5
3C6
  8
LAYER_1
 62
   250
 10
-28.1918
 20
81.5131
 30
0.0
  0
VERTEX
  5
3C7
  8
LAYER_1
 62
   250
 10
-27.7233
 20
81.3669
 30
0.0
  0
VERTEX
  5
3C8
  8
LAYER_1
 62
   250
 10
-27.2988
 20
81.1357
 30
0.0
  0
VERTEX
  5
3C9
  8
LAYER_1
 62
   250
 10
-26.9284
 20
80.8298
 30
0.0
  0
VERTEX
  5
3CA
  8
LAYER_1
 62
   250
 10
-26.6225
 20
80.4594
 30
0.0
  0
VERTEX
  5
3CB
  8
LAYER_1
 62
   250
 10
-26.3914
 20
80.0349
 30
0.0
  0
VERTEX
  5
3CC
  8
LAYER_1
 62
   250
 10
-26.2451
 20
79.5664
 30
0.0
  0
VERTEX
  5
3CD
  8
LAYER_1
 62
   250
 10
-26.1941
 20
79.0642
 30
0.0
  0
VERTEX
  5
3CE
  8
LAYER_1
 62
   250
 10
-26.1941
 20
79.064
 30
0.0
  0
VERTEX
  5
3CF
  8
LAYER_1
 62
   250
 10
-26.2451
 20
78.5618
 30
0.0
  0
VERTEX
  5
3D0
  8
LAYER_1
 62
   250
 10
-26.3914
 20
78.0933
 30
0.0
  0
VERTEX
  5
3D1
  8
LAYER_1
 62
   250
 10
-26.6225
 20
77.6688
 30
0.0
  0
VERTEX
  5
3D2
  8
LAYER_1
 62
   250
 10
-26.9284
 20
77.2984
 30
0.0
  0
VERTEX
  5
3D3
  8
LAYER_1
 62
   250
 10
-27.2988
 20
76.9925
 30
0.0
  0
VERTEX
  5
3D4
  8
LAYER_1
 62
   250
 10
-27.7233
 20
76.7614
 30
0.0
  0
VERTEX
  5
3D5
  8
LAYER_1
 62
   250
 10
-28.1918
 20
76.6151
 30
0.0
  0
VERTEX
  5
3D6
  8
LAYER_1
 62
   250
 10
-28.694
 20
76.5641
 30
0.0
  0
SEQEND
  5
3D7
  8
LAYER_1
 62
   250
  0
POLYLINE
  5
58
  8
LAYER_1
 62
   250
 66
     1
 10
0.0
 20
0.0
 30
0.0
 70
     1
  0
VERTEX
  5
3D8
  8
LAYER_1
 62
   250
 10
1.7057
 20
101.0635
 30
0.0
  0
VERTEX
  5
3D9
  8
LAYER_1
 62
   250
 10
-9.2943
 20
101.0635
 30
0.0
  0
VERTEX
  5
3DA
  8
LAYER_1
 62
   250
 10
-9.2943
 20
104.0635
 30
0.0
  0
VERTEX
  5
3DB
  8
LAYER_1
 62
   250
 10
1.7057
 20
104.0635
 30
0.0
  0
VERTEX
  5
3DC
  8
LAYER_1
 62
   250
 10
1.7057
 20
101.0635
 30
0.0
  0
SEQEND
  5
3DD
  8
LAYER_1
 62
   250
  0
POLYLINE
  5
59
  8
LAYER_1
 62
   250
 66
     1
 10
0.0
 20
0.0
 30
0.0
 70
     1
  0
VERTEX
  5
3DE
  8
LAYER_1
 62
   250
 10
1.7057
 20
34.0636
 30
0.0
  0
VERTEX
  5
3DF
  8
LAYER_1
 62
   250
 10
-9.2943
 20
34.0636
 30
0.0
  0
VERTEX
  5
3E0
  8
LAYER_1
 62
   250
 10
-9.2943
 20
37.0636
 30
0.0
  0
VERTEX
  5
3E1
  8
LAYER_1
 62
   250
 10
1.7057
 20
37.0636
 30
0.0
  0
VERTEX
  5
3E2
  8
LAYER_1
 62
   250
 10
1.7057
 20
34.0636
 30
0.0
  0
SEQEND
  5
3E3
  8
LAYER_1
 62
   250
  0
POLYLINE
  5
5A
  8
LAYER_1
 62
   250
 66
     1
 10
0.0
 20
0.0
 30
0.0
 70
     1
  0
VERTEX
  5
3E4
  8
LAYER_1
 62
   250
 10
70.4057
 20
54.2636
 30
0.0
  0
VERTEX
  5
3E5
  8
LAYER_1
 62
   250
 10
70.4362
 20
53.9613
 30
0.0
  0
VERTEX
  5
3E6
  8
LAYER_1
 62
   250
 10
70.5236
 20
53.6797
 30
0.0
  0
VERTEX
  5
3E7
  8
LAYER_1
 62
   250
 10
70.6619
 20
53.4249
 30
0.0
  0
VERTEX
  5
3E8
  8
LAYER_1
 62
   250
 10
70.8451
 20
53.203
 30
0.0
  0
VERTEX
  5
3E9
  8
LAYER_1
 62
   250
 10
71.067
 20
53.0198
 30
0.0
  0
VERTEX
  5
3EA
  8
LAYER_1
 62
   250
 10
71.3218
 20
52.8815
 30
0.0
  0
VERTEX
  5
3EB
  8
LAYER_1
 62
   250
 10
71.6034
 20
52.7941
 30
0.0
  0
VERTEX
  5
3EC
  8
LAYER_1
 62
   250
 10
71.9057
 20
52.7636
 30
0.0
  0
VERTEX
  5
3ED
  8
LAYER_1
 62
   250
 10
72.208
 20
52.7941
 30
0.0
  0
VERTEX
  5
3EE
  8
LAYER_1
 62
   250
 10
72.4896
 20
52.8815
 30
0.0
  0
VERTEX
  5
3EF
  8
LAYER_1
 62
   250
 10
72.7444
 20
53.0198
 30
0.0
  0
VERTEX
  5
3F0
  8
LAYER_1
 62
   250
 10
72.9664
 20
53.203
 30
0.0
  0
VERTEX
  5
3F1
  8
LAYER_1
 62
   250
 10
73.1495
 20
53.4249
 30
0.0
  0
VERTEX
  5
3F2
  8
LAYER_1
 62
   250
 10
73.2878
 20
53.6797
 30
0.0
  0
VERTEX
  5
3F3
  8
LAYER_1
 62
   250
 10
73.3752
 20
53.9613
 30
0.0
  0
VERTEX
  5
3F4
  8
LAYER_1
 62
   250
 10
73.4057
 20
54.2636
 30
0.0
  0
VERTEX
  5
3F5
  8
LAYER_1
 62
   250
 10
73.3752
 20
54.5659
 30
0.0
  0
VERTEX
  5
3F6
  8
LAYER_1
 62
   250
 10
73.2878
 20
54.8475
 30
0.0
  0
VERTEX
  5
3F7
  8
LAYER_1
 62
   250
 10
73.1495
 20
55.1023
 30
0.0
  0
VERTEX
  5
3F8
  8
LAYER_1
 62
   250
 10
72.9664
 20
55.3243
 30
0.0
  0
VERTEX
  5
3F9
  8
LAYER_1
 62
   250
 10
72.7444
 20
55.5074
 30
0.0
  0
VERTEX
  5
3FA
  8
LAYER_1
 62
   250
 10
72.4896
 20
55.6457
 30
0.0
  0
VERTEX
  5
3FB
  8
LAYER_1
 62
   250
 10
72.208
 20
55.7331
 30
0.0
  0
VERTEX
  5
3FC
  8
LAYER_1
 62
   250
 10
71.9057
 20
55.7636
 30
0.0
  0
VERTEX
  5
3FD
  8
LAYER_1
 62
   250
 10
71.6034
 20
55.7331
 30
0.0
  0
VERTEX
  5
3FE
  8
LAYER_1
 62
   250
 10
71.3218
 20
55.6457
 30
0.0
  0
VERTEX
  5
3FF
  8
LAYER_1
 62
   250
 10
71.067
 20
55.5074
 30
0.0
  0
VERTEX
  5
400
  8
LAYER_1
 62
   250
 10
70.8451
 20
55.3243
 30
0.0
  0
VERTEX
  5
401
  8
LAYER_1
 62
   250
 10
70.6619
 20
55.1023
 30
0.0
  0
VERTEX
  5
402
  8
LAYER_1
 62
   250
 10
70.5236
 20
54.8475
 30
0.0
  0
VERTEX
  5
403
  8
LAYER_1
 62
   250
 10
70.4362
 20
54.5659
 30
0.0
  0
VERTEX
  5
404
  8
LAYER_1
 62
   250
 10
70.4057
 20
54.2636
 30
0.0
  0
SEQEND
  5
405
  8
LAYER_1
 62
   250
  0
POLYLINE
  5
5B
  8
LAYER_1
 62
   250
 66
     1
 10
0.0
 20
0.0
 30
0.0
 70
     1
  0
VERTEX
  5
406
  8
LAYER_1
 62
   250
 10
70.4057
 20
83.8636
 30
0.0
  0
VERTEX
  5
407
  8
LAYER_1
 62
   250
 10
70.4362
 20
83.5613
 30
0.0
  0
VERTEX
  5
408
  8
LAYER_1
 62
   250
 10
70.5236
 20
83.2797
 30
0.0
  0
VERTEX
  5
409
  8
LAYER_1
 62
   250
 10
70.6619
 20
83.0249
 30
0.0
  0
VERTEX
  5
40A
  8
LAYER_1
 62
   250
 10
70.8451
 20
82.803
 30
0.0
  0
VERTEX
  5
40B
  8
LAYER_1
 62
   250
 10
71.067
 20
82.6198
 30
0.0
  0
VERTEX
  5
40C
  8
LAYER_1
 62
   250
 10
71.3218
 20
82.4815
 30
0.0
  0
VERTEX
  5
40D
  8
LAYER_1
 62
   250
 10
71.6034
 20
82.3941
 30
0.0
  0
VERTEX
  5
40E
  8
LAYER_1
 62
   250
 10
71.9057
 20
82.3636
 30
0.0
  0
VERTEX
  5
40F
  8
LAYER_1
 62
   250
 10
72.208
 20
82.3941
 30
0.0
  0
VERTEX
  5
410
  8
LAYER_1
 62
   250
 10
72.4896
 20
82.4815
 30
0.0
  0
VERTEX
  5
411
  8
LAYER_1
 62
   250
 10
72.7444
 20
82.6198
 30
0.0
  0
VERTEX
  5
412
  8
LAYER_1
 62
   250
 10
72.9664
 20
82.803
 30
0.0
  0
VERTEX
  5
413
  8
LAYER_1
 62
   250
 10
73.1495
 20
83.0249
 30
0.0
  0
VERTEX
  5
414
  8
LAYER_1
 62
   250
 10
73.2878
 20
83.2797
 30
0.0
  0
VERTEX
  5
415
  8
LAYER_1
 62
   250
 10
73.3752
 20
83.5613
 30
0.0
  0
VERTEX
  5
416
  8
LAYER_1
 62
   250
 10
73.4057
 20
83.8636
 30
0.0
  0
VERTEX
  5
417
  8
LAYER_1
 62
   250
 10
73.3752
 20
84.1659
 30
0.0
  0
VERTEX
  5
418
  8
LAYER_1
 62
   250
 10
73.2878
 20
84.4475
 30
0.0
  0
VERTEX
  5
419
  8
LAYER_1
 62
   250
 10
73.1495
 20
84.7023
 30
0.0
  0
VERTEX
  5
41A
  8
LAYER_1
 62
   250
 10
72.9664
 20
84.9243
 30
0.0
  0
VERTEX
  5
41B
  8
LAYER_1
 62
   250
 10
72.7444
 20
85.1074
 30
0.0
  0
VERTEX
  5
41C
  8
LAYER_1
 62
   250
 10
72.4896
 20
85.2457
 30
0.0
  0
VERTEX
  5
41D
  8
LAYER_1
 62
   250
 10
72.208
 20
85.3331
 30
0.0
  0
VERTEX
  5
41E
  8
LAYER_1
 62
   250
 10
71.9057
 20
85.3636
 30
0.0
  0
VERTEX
  5
41F
  8
LAYER_1
 62
   250
 10
71.6034
 20
85.3331
 30
0.0
  0
VERTEX
  5
420
  8
LAYER_1
 62
   250
 10
71.3218
 20
85.2457
 30
0.0
  0
VERTEX
  5
421
  8
LAYER_1
 62
   250
 10
71.067
 20
85.1074
 30
0.0
  0
VERTEX
  5
422
  8
LAYER_1
 62
   250
 10
70.8451
 20
84.9243
 30
0.0
  0
VERTEX
  5
423
  8
LAYER_1
 62
   250
 10
70.6619
 20
84.7023
 30
0.0
  0
VERTEX
  5
424
  8
LAYER_1
 62
   250
 10
70.5236
 20
84.4475
 30
0.0
  0
VERTEX
  5
425
  8
LAYER_1
 62
   250
 10
70.4362
 20
84.1659
 30
0.0
  0
VERTEX
  5
426
  8
LAYER_1
 62
   250
 10
70.4057
 20
83.8636
 30
0.0
  0
SEQEND
  5
427
  8
LAYER_1
 62
   250
  0
POLYLINE
  5
5C
  8
LAYER_1
 62
   250
 66
     1
 10
0.0
 20
0.0
 30
0.0
 70
     1
  0
VERTEX
  5
428
  8
LAYER_1
 62
   250
 10
94.1057
 20
54.2636
 30
0.0
  0
VERTEX
  5
429
  8
LAYER_1
 62
   250
 10
94.1362
 20
53.9613
 30
0.0
  0
VERTEX
  5
42A
  8
LAYER_1
 62
   250
 10
94.2236
 20
53.6797
 30
0.0
  0
VERTEX
  5
42B
  8
LAYER_1
 62
   250
 10
94.3619
 20
53.4249
 30
0.0
  0
VERTEX
  5
42C
  8
LAYER_1
 62
   250
 10
94.5451
 20
53.203
 30
0.0
  0
VERTEX
  5
42D
  8
LAYER_1
 62
   250
 10
94.767
 20
53.0198
 30
0.0
  0
VERTEX
  5
42E
  8
LAYER_1
 62
   250
 10
95.0218
 20
52.8815
 30
0.0
  0
VERTEX
  5
42F
  8
LAYER_1
 62
   250
 10
95.3034
 20
52.7941
 30
0.0
  0
VERTEX
  5
430
  8
LAYER_1
 62
   250
 10
95.6057
 20
52.7636
 30
0.0
  0
VERTEX
  5
431
  8
LAYER_1
 62
   250
 10
95.908
 20
52.7941
 30
0.0
  0
VERTEX
  5
432
  8
LAYER_1
 62
   250
 10
96.1896
 20
52.8815
 30
0.0
  0
VERTEX
  5
433
  8
LAYER_1
 62
   250
 10
96.4444
 20
53.0198
 30
0.0
  0
VERTEX
  5
434
  8
LAYER_1
 62
   250
 10
96.6664
 20
53.203
 30
0.0
  0
VERTEX
  5
435
  8
LAYER_1
 62
   250
 10
96.8495
 20
53.4249
 30
0.0
  0
VERTEX
  5
436
  8
LAYER_1
 62
   250
 10
96.9878
 20
53.6797
 30
0.0
  0
VERTEX
  5
437
  8
LAYER_1
 62
   250
 10
97.0752
 20
53.9613
 30
0.0
  0
VERTEX
  5
438
  8
LAYER_1
 62
   250
 10
97.1057
 20
54.2636
 30
0.0
  0
VERTEX
  5
439
  8
LAYER_1
 62
   250
 10
97.0752
 20
54.5659
 30
0.0
  0
VERTEX
  5
43A
  8
LAYER_1
 62
   250
 10
96.9878
 20
54.8475
 30
0.0
  0
VERTEX
  5
43B
  8
LAYER_1
 62
   250
 10
96.8495
 20
55.1023
 30
0.0
  0
VERTEX
  5
43C
  8
LAYER_1
 62
   250
 10
96.6664
 20
55.3243
 30
0.0
  0
VERTEX
  5
43D
  8
LAYER_1
 62
   250
 10
96.4444
 20
55.5074
 30
0.0
  0
VERTEX
  5
43E
  8
LAYER_1
 62
   250
 10
96.1896
 20
55.6457
 30
0.0
  0
VERTEX
  5
43F
  8
LAYER_1
 62
   250
 10
95.908
 20
55.7331
 30
0.0
  0
VERTEX
  5
440
  8
LAYER_1
 62
   250
 10
95.6057
 20
55.7636
 30
0.0
  0
VERTEX
  5
441
  8
LAYER_1
 62
   250
 10
95.3034
 20
55.7331
 30
0.0
  0
VERTEX
  5
442
  8
LAYER_1
 62
   250
 10
95.0218
 20
55.6457
 30
0.0
  0
VERTEX
  5
443
  8
LAYER_1
 62
   250
 10
94.767
 20
55.5074
 30
0.0
  0
VERTEX
  5
444
  8
LAYER_1
 62
   250
 10
94.5451
 20
55.3243
 30
0.0
  0
VERTEX
  5
445
  8
LAYER_1
 62
   250
 10
94.3619
 20
55.1023
 30
0.0
  0
VERTEX
  5
446
  8
LAYER_1
 62
   250
 10
94.2236
 20
54.8475
 30
0.0
  0
VERTEX
  5
447
  8
LAYER_1
 62
   250
 10
94.1362
 20
54.5659
 30
0.0
  0
VERTEX
  5
448
  8
LAYER_1
 62
   250
 10
94.1057
 20
54.2636
 30
0.0
  0
SEQEND
  5
449
  8
LAYER_1
 62
   250
  0
POLYLINE
  5
5D
  8
LAYER_1
 62
   250
 66
     1
 10
0.0
 20
0.0
 30
0.0
 70
     1
  0
VERTEX
  5
44A
  8
LAYER_1
 62
   250
 10
94.1057
 20
83.8636
 30
0.0
  0
VERTEX
  5
44B
  8
LAYER_1
 62
   250
 10
94.1362
 20
83.5613
 30
0.0
  0
VERTEX
  5
44C
  8
LAYER_1
 62
   250
 10
94.2236
 20
83.2797
 30
0.0
  0
VERTEX
  5
44D
  8
LAYER_1
 62
   250
 10
94.3619
 20
83.0249
 30
0.0
  0
VERTEX
  5
44E
  8
LAYER_1
 62
   250
 10
94.5451
 20
82.803
 30
0.0
  0
VERTEX
  5
44F
  8
LAYER_1
 62
   250
 10
94.767
 20
82.6198
 30
0.0
  0
VERTEX
  5
450
  8
LAYER_1
 62
   250
 10
95.0218
 20
82.4815
 30
0.0
  0
VERTEX
  5
451
  8
LAYER_1
 62
   250
 10
95.3034
 20
82.3941
 30
0.0
  0
VERTEX
  5
452
  8
LAYER_1
 62
   250
 10
95.6057
 20
82.3636
 30
0.0
  0
VERTEX
  5
453
  8
LAYER_1
 62
   250
 10
95.908
 20
82.3941
 30
0.0
  0
VERTEX
  5
454
  8
LAYER_1
 62
   250
 10
96.1896
 20
82.4815
 30
0.0
  0
VERTEX
  5
455
  8
LAYER_1
 62
   250
 10
96.4444
 20
82.6198
 30
0.0
  0
VERTEX
  5
456
  8
LAYER_1
 62
   250
 10
96.6664
 20
82.803
 30
0.0
  0
VERTEX
  5
457
  8
LAYER_1
 62
   250
 10
96.8495
 20
83.0249
 30
0.0
  0
VERTEX
  5
458
  8
LAYER_1
 62
   250
 10
96.9878
 20
83.2797
 30
0.0
  0
VERTEX
  5
459
  8
LAYER_1
 62
   250
 10
97.0752
 20
83.5613
 30
0.0
  0
VERTEX
  5
45A
  8
LAYER_1
 62
   250
 10
97.1057
 20
83.8636
 30
0.0
  0
VERTEX
  5
45B
  8
LAYER_1
 62
   250
 10
97.0752
 20
84.1659
 30
0.0
  0
VERTEX
  5
45C
  8
LAYER_1
 62
   250
 10
96.9878
 20
84.4475
 30
0.0
  0
VERTEX
  5
45D
  8
LAYER_1
 62
   250
 10
96.8495
 20
84.7023
 30
0.0
  0
VERTEX
  5
45E
  8
LAYER_1
 62
   250
 10
96.6664
 20
84.9243
 30
0.0
  0
VERTEX
  5
45F
  8
LAYER_1
 62
   250
 10
96.4444
 20
85.1074
 30
0.0
  0
VERTEX
  5
460
  8
LAYER_1
 62
   250
 10
96.1896
 20
85.2457
 30
0.0
  0
VERTEX
  5
461
  8
LAYER_1
 62
   250
 10
95.908
 20
85.3331
 30
0.0
  0
VERTEX
  5
462
  8
LAYER_1
 62
   250
 10
95.6057
 20
85.3636
 30
0.0
  0
VERTEX
  5
463
  8
LAYER_1
 62
   250
 10
95.3034
 20
85.3331
 30
0.0
  0
VERTEX
  5
464
  8
LAYER_1
 62
   250
 10
95.0218
 20
85.2457
 30
0.0
  0
VERTEX
  5
465
  8
LAYER_1
 62
   250
 10
94.767
 20
85.1074
 30
0.0
  0
VERTEX
  5
466
  8
LAYER_1
 62
   250
 10
94.5451
 20
84.9243
 30
0.0
  0
VERTEX
  5
467
  8
LAYER_1
 62
   250
 10
94.3619
 20
84.7023
 30
0.0
  0
VERTEX
  5
468
  8
LAYER_1
 62
   250
 10
94.2236
 20
84.4475
 30
0.0
  0
VERTEX
  5
469
  8
LAYER_1
 62
   250
 10
94.1362
 20
84.1659
 30
0.0
  0
VERTEX
  5
46A
  8
LAYER_1
 62
   250
 10
94.1057
 20
83.8636
 30
0.0
  0
SEQEND
  5
46B
  8
LAYER_1
 62
   250
  0
POLYLINE
  5
5E
  8
LAYER_1
 62
   250
 66
     1
 10
0.0
 20
0.0
 30
0.0
 70
     1
  0
VERTEX
  5
46C
  8
LAYER_1
 62
   250
 10
36.9934
 20
45.0906
 30
0.0
  0
VERTEX
  5
46D
  8
LAYER_1
 62
   250
 10
37.0239
 20
44.7883
 30
0.0
  0
VERTEX
  5
46E
  8
LAYER_1
 62
   250
 10
37.1113
 20
44.5067
 30
0.0
  0
VERTEX
  5
46F
  8
LAYER_1
 62
   250
 10
37.2496
 20
44.2519
 30
0.0
  0
VERTEX
  5
470
  8
LAYER_1
 62
   250
 10
37.4328
 20
44.03
 30
0.0
  0
VERTEX
  5
471
  8
LAYER_1
 62
   250
 10
37.6547
 20
43.8468
 30
0.0
  0
VERTEX
  5
472
  8
LAYER_1
 62
   250
 10
37.9095
 20
43.7085
 30
0.0
  0
VERTEX
  5
473
  8
LAYER_1
 62
   250
 10
38.1911
 20
43.6211
 30
0.0
  0
VERTEX
  5
474
  8
LAYER_1
 62
   250
 10
38.4934
 20
43.5906
 30
0.0
  0
VERTEX
  5
475
  8
LAYER_1
 62
   250
 10
38.7957
 20
43.6211
 30
0.0
  0
VERTEX
  5
476
  8
LAYER_1
 62
   250
 10
39.0773
 20
43.7085
 30
0.0
  0
VERTEX
  5
477
  8
LAYER_1
 62
   250
 10
39.3321
 20
43.8468
 30
0.0
  0
VERTEX
  5
478
  8
LAYER_1
 62
   250
 10
39.5541
 20
44.03
 30
0.0
  0
VERTEX
  5
479
  8
LAYER_1
 62
   250
 10
39.7372
 20
44.2519
 30
0.0
  0
VERTEX
  5
47A
  8
LAYER_1
 62
   250
 10
39.8755
 20
44.5067
 30
0.0
  0
VERTEX
  5
47B
  8
LAYER_1
 62
   250
 10
39.9629
 20
44.7883
 30
0.0
  0
VERTEX
  5
47C
  8
LAYER_1
 62
   250
 10
39.9934
 20
45.0906
 30
0.0
  0
VERTEX
  5
47D
  8
LAYER_1
 62
   250
 10
39.9629
 20
45.3929
 30
0.0
  0
VERTEX
  5
47E
  8
LAYER_1
 62
   250
 10
39.8755
 20
45.6745
 30
0.0
  0
VERTEX
  5
47F
  8
LAYER_1
 62
   250
 10
39.7372
 20
45.9293
 30
0.0
  0
VERTEX
  5
480
  8
LAYER_1
 62
   250
 10
39.5541
 20
46.1513
 30
0.0
  0
VERTEX
  5
481
  8
LAYER_1
 62
   250
 10
39.3321
 20
46.3344
 30
0.0
  0
VERTEX
  5
482
  8
LAYER_1
 62
   250
 10
39.0773
 20
46.4727
 30
0.0
  0
VERTEX
  5
483
  8
LAYER_1
 62
   250
 10
38.7957
 20
46.5601
 30
0.0
  0
VERTEX
  5
484
  8
LAYER_1
 62
   250
 10
38.4934
 20
46.5906
 30
0.0
  0
VERTEX
  5
485
  8
LAYER_1
 62
   250
 10
38.1911
 20
46.5601
 30
0.0
  0
VERTEX
  5
486
  8
LAYER_1
 62
   250
 10
37.9095
 20
46.4727
 30
0.0
  0
VERTEX
  5
487
  8
LAYER_1
 62
   250
 10
37.6547
 20
46.3344
 30
0.0
  0
VERTEX
  5
488
  8
LAYER_1
 62
   250
 10
37.4328
 20
46.1513
 30
0.0
  0
VERTEX
  5
489
  8
LAYER_1
 62
   250
 10
37.2496
 20
45.9293
 30
0.0
  0
VERTEX
  5
48A
  8
LAYER_1
 62
   250
 10
37.1113
 20
45.6745
 30
0.0
  0
VERTEX
  5
48B
  8
LAYER_1
 62
   250
 10
37.0239
 20
45.3929
 30
0.0
  0
VERTEX
  5
48C
  8
LAYER_1
 62
   250
 10
36.9934
 20
45.0906
 30
0.0
  0
SEQEND
  5
48D
  8
LAYER_1
 62
   250
  0
POLYLINE
  5
5F
  8
LAYER_1
 62
   250
 66
     1
 10
0.0
 20
0.0
 30
0.0
 70
     1
  0
VERTEX
  5
48E
  8
LAYER_1
 62
   250
 10
38.2634
 20
93.2631
 30
0.0
  0
VERTEX
  5
48F
  8
LAYER_1
 62
   250
 10
38.2939
 20
92.9608
 30
0.0
  0
VERTEX
  5
490
  8
LAYER_1
 62
   250
 10
38.3813
 20
92.6792
 30
0.0
  0
VERTEX
  5
491
  8
LAYER_1
 62
   250
 10
38.5196
 20
92.4244
 30
0.0
  0
VERTEX
  5
492
  8
LAYER_1
 62
   250
 10
38.7028
 20
92.2025
 30
0.0
  0
VERTEX
  5
493
  8
LAYER_1
 62
   250
 10
38.9247
 20
92.0193
 30
0.0
  0
VERTEX
  5
494
  8
LAYER_1
 62
   250
 10
39.1795
 20
91.881
 30
0.0
  0
VERTEX
  5
495
  8
LAYER_1
 62
   250
 10
39.4611
 20
91.7936
 30
0.0
  0
VERTEX
  5
496
  8
LAYER_1
 62
   250
 10
39.7634
 20
91.7631
 30
0.0
  0
VERTEX
  5
497
  8
LAYER_1
 62
   250
 10
40.0657
 20
91.7936
 30
0.0
  0
VERTEX
  5
498
  8
LAYER_1
 62
   250
 10
40.3473
 20
91.881
 30
0.0
  0
VERTEX
  5
499
  8
LAYER_1
 62
   250
 10
40.6021
 20
92.0193
 30
0.0
  0
VERTEX
  5
49A
  8
LAYER_1
 62
   250
 10
40.8241
 20
92.2025
 30
0.0
  0
VERTEX
  5
49B
  8
LAYER_1
 62
   250
 10
41.0072
 20
92.4244
 30
0.0
  0
VERTEX
  5
49C
  8
LAYER_1
 62
   250
 10
41.1455
 20
92.6792
 30
0.0
  0
VERTEX
  5
49D
  8
LAYER_1
 62
   250
 10
41.2329
 20
92.9608
 30
0.0
  0
VERTEX
  5
49E
  8
LAYER_1
 62
   250
 10
41.2634
 20
93.2631
 30
0.0
  0
VERTEX
  5
49F
  8
LAYER_1
 62
   250
 10
41.2329
 20
93.5654
 30
0.0
  0
VERTEX
  5
4A0
  8
LAYER_1
 62
   250
 10
41.1455
 20
93.847
 30
0.0
  0
VERTEX
  5
4A1
  8
LAYER_1
 62
   250
 10
41.0072
 20
94.1018
 30
0.0
  0
VERTEX
  5
4A2
  8
LAYER_1
 62
   250
 10
40.8241
 20
94.3238
 30
0.0
  0
VERTEX
  5
4A3
  8
LAYER_1
 62
   250
 10
40.6021
 20
94.5069
 30
0.0
  0
VERTEX
  5
4A4
  8
LAYER_1
 62
   250
 10
40.3473
 20
94.6452
 30
0.0
  0
VERTEX
  5
4A5
  8
LAYER_1
 62
   250
 10
40.0657
 20
94.7326
 30
0.0
  0
VERTEX
  5
4A6
  8
LAYER_1
 62
   250
 10
39.7634
 20
94.7631
 30
0.0
  0
VERTEX
  5
4A7
  8
LAYER_1
 62
   250
 10
39.4611
 20
94.7326
 30
0.0
  0
VERTEX
  5
4A8
  8
LAYER_1
 62
   250
 10
39.1795
 20
94.6452
 30
0.0
  0
VERTEX
  5
4A9
  8
LAYER_1
 62
   250
 10
38.9247
 20
94.5069
 30
0.0
  0
VERTEX
  5
4AA
  8
LAYER_1
 62
   250
 10
38.7028
 20
94.3238
 30
0.0
  0
VERTEX
  5
4AB
  8
LAYER_1
 62
   250
 10
38.5196
 20
94.1018
 30
0.0
  0
VERTEX
  5
4AC
  8
LAYER_1
 62
   250
 10
38.3813
 20
93.847
 30
0.0
  0
VERTEX
  5
4AD
  8
LAYER_1
 62
   250
 10
38.2939
 20
93.5654
 30
0.0
  0
VERTEX
  5
4AE
  8
LAYER_1
 62
   250
 10
38.2634
 20
93.2631
 30
0.0
  0
SEQEND
  5
4AF
  8
LAYER_1
 62
   250
  0
POLYLINE
  5
60
  8
LAYER_1
 62
   250
 66
     1
 10
0.0
 20
0.0
 30
0.0
 70
     1
  0
VERTEX
  5
4B0
  8
LAYER_1
 62
   250
 10
-13.8066
 20
60.3306
 30
0.0
  0
VERTEX
  5
4B1
  8
LAYER_1
 62
   250
 10
-13.7761
 20
60.0283
 30
0.0
  0
VERTEX
  5
4B2
  8
LAYER_1
 62
   250
 10
-13.6887
 20
59.7467
 30
0.0
  0
VERTEX
  5
4B3
  8
LAYER_1
 62
   250
 10
-13.5504
 20
59.4919
 30
0.0
  0
VERTEX
  5
4B4
  8
LAYER_1
 62
   250
 10
-13.3673
 20
59.27
 30
0.0
  0
VERTEX
  5
4B5
  8
LAYER_1
 62
   250
 10
-13.1453
 20
59.0868
 30
0.0
  0
VERTEX
  5
4B6
  8
LAYER_1
 62
   250
 10
-12.8905
 20
58.9485
 30
0.0
  0
VERTEX
  5
4B7
  8
LAYER_1
 62
   250
 10
-12.6089
 20
58.8611
 30
0.0
  0
VERTEX
  5
4B8
  8
LAYER_1
 62
   250
 10
-12.3066
 20
58.8306
 30
0.0
  0
VERTEX
  5
4B9
  8
LAYER_1
 62
   250
 10
-12.0043
 20
58.8611
 30
0.0
  0
VERTEX
  5
4BA
  8
LAYER_1
 62
   250
 10
-11.7227
 20
58.9485
 30
0.0
  0
VERTEX
  5
4BB
  8
LAYER_1
 62
   250
 10
-11.4679
 20
59.0868
 30
0.0
  0
VERTEX
  5
4BC
  8
LAYER_1
 62
   250
 10
-11.246
 20
59.27
 30
0.0
  0
VERTEX
  5
4BD
  8
LAYER_1
 62
   250
 10
-11.0628
 20
59.4919
 30
0.0
  0
VERTEX
  5
4BE
  8
LAYER_1
 62
   250
 10
-10.9245
 20
59.7467
 30
0.0
  0
VERTEX
  5
4BF
  8
LAYER_1
 62
   250
 10
-10.8371
 20
60.0283
 30
0.0
  0
VERTEX
  5
4C0
  8
LAYER_1
 62
   250
 10
-10.8066
 20
60.3306
 30
0.0
  0
VERTEX
  5
4C1
  8
LAYER_1
 62
   250
 10
-10.8371
 20
60.6329
 30
0.0
  0
VERTEX
  5
4C2
  8
LAYER_1
 62
   250
 10
-10.9245
 20
60.9145
 30
0.0
  0
VERTEX
  5
4C3
  8
LAYER_1
 62
   250
 10
-11.0628
 20
61.1693
 30
0.0
  0
VERTEX
  5
4C4
  8
LAYER_1
 62
   250
 10
-11.246
 20
61.3913
 30
0.0
  0
VERTEX
  5
4C5
  8
LAYER_1
 62
   250
 10
-11.4679
 20
61.5744
 30
0.0
  0
VERTEX
  5
4C6
  8
LAYER_1
 62
   250
 10
-11.7227
 20
61.7127
 30
0.0
  0
VERTEX
  5
4C7
  8
LAYER_1
 62
   250
 10
-12.0043
 20
61.8001
 30
0.0
  0
VERTEX
  5
4C8
  8
LAYER_1
 62
   250
 10
-12.3066
 20
61.8306
 30
0.0
  0
VERTEX
  5
4C9
  8
LAYER_1
 62
   250
 10
-12.6089
 20
61.8001
 30
0.0
  0
VERTEX
  5
4CA
  8
LAYER_1
 62
   250
 10
-12.8905
 20
61.7127
 30
0.0
  0
VERTEX
  5
4CB
  8
LAYER_1
 62
   250
 10
-13.1453
 20
61.5744
 30
0.0
  0
VERTEX
  5
4CC
  8
LAYER_1
 62
   250
 10
-13.3673
 20
61.3913
 30
0.0
  0
VERTEX
  5
4CD
  8
LAYER_1
 62
   250
 10
-13.5504
 20
61.1693
 30
0.0
  0
VERTEX
  5
4CE
  8
LAYER_1
 62
   250
 10
-13.6887
 20
60.9145
 30
0.0
  0
VERTEX
  5
4CF
  8
LAYER_1
 62
   250
 10
-13.7761
 20
60.6329
 30
0.0
  0
VERTEX
  5
4D0
  8
LAYER_1
 62
   250
 10
-13.8066
 20
60.3306
 30
0.0
  0
SEQEND
  5
4D1
  8
LAYER_1
 62
   250
  0
POLYLINE
  5
61
  8
LAYER_1
 62
   250
 66
     1
 10
0.0
 20
0.0
 30
0.0
 70
     1
  0
VERTEX
  5
4D2
  8
LAYER_1
 62
   250
 10
-13.8066
 20
88.2706
 30
0.0
  0
VERTEX
  5
4D3
  8
LAYER_1
 62
   250
 10
-13.7761
 20
87.9683
 30
0.0
  0
VERTEX
  5
4D4
  8
LAYER_1
 62
   250
 10
-13.6887
 20
87.6867
 30
0.0
  0
VERTEX
  5
4D5
  8
LAYER_1
 62
   250
 10
-13.5504
 20
87.4319
 30
0.0
  0
VERTEX
  5
4D6
  8
LAYER_1
 62
   250
 10
-13.3673
 20
87.21
 30
0.0
  0
VERTEX
  5
4D7
  8
LAYER_1
 62
   250
 10
-13.1453
 20
87.0268
 30
0.0
  0
VERTEX
  5
4D8
  8
LAYER_1
 62
   250
 10
-12.8905
 20
86.8885
 30
0.0
  0
VERTEX
  5
4D9
  8
LAYER_1
 62
   250
 10
-12.6089
 20
86.8011
 30
0.0
  0
VERTEX
  5
4DA
  8
LAYER_1
 62
   250
 10
-12.3066
 20
86.7706
 30
0.0
  0
VERTEX
  5
4DB
  8
LAYER_1
 62
   250
 10
-12.0043
 20
86.8011
 30
0.0
  0
VERTEX
  5
4DC
  8
LAYER_1
 62
   250
 10
-11.7227
 20
86.8885
 30
0.0
  0
VERTEX
  5
4DD
  8
LAYER_1
 62
   250
 10
-11.4679
 20
87.0268
 30
0.0
  0
VERTEX
  5
4DE
  8
LAYER_1
 62
   250
 10
-11.246
 20
87.21
 30
0.0
  0
VERTEX
  5
4DF
  8
LAYER_1
 62
   250
 10
-11.0628
 20
87.4319
 30
0.0
  0
VERTEX
  5
4E0
  8
LAYER_1
 62
   250
 10
-10.9245
 20
87.6867
 30
0.0
  0
VERTEX
  5
4E1
  8
LAYER_1
 62
   250
 10
-10.8371
 20
87.9683
 30
0.0
  0
VERTEX
  5
4E2
  8
LAYER_1
 62
   250
 10
-10.8066
 20
88.2706
 30
0.0
  0
VERTEX
  5
4E3
  8
LAYER_1
 62
   250
 10
-10.8371
 20
88.5729
 30
0.0
  0
VERTEX
  5
4E4
  8
LAYER_1
 62
   250
 10
-10.9245
 20
88.8545
 30
0.0
  0
VERTEX
  5
4E5
  8
LAYER_1
 62
   250
 10
-11.0628
 20
89.1093
 30
0.0
  0
VERTEX
  5
4E6
  8
LAYER_1
 62
   250
 10
-11.246
 20
89.3313
 30
0.0
  0
VERTEX
  5
4E7
  8
LAYER_1
 62
   250
 10
-11.4679
 20
89.5144
 30
0.0
  0
VERTEX
  5
4E8
  8
LAYER_1
 62
   250
 10
-11.7227
 20
89.6527
 30
0.0
  0
VERTEX
  5
4E9
  8
LAYER_1
 62
   250
 10
-12.0043
 20
89.7401
 30
0.0
  0
VERTEX
  5
4EA
  8
LAYER_1
 62
   250
 10
-12.3066
 20
89.7706
 30
0.0
  0
VERTEX
  5
4EB
  8
LAYER_1
 62
   250
 10
-12.6089
 20
89.7401
 30
0.0
  0
VERTEX
  5
4EC
  8
LAYER_1
 62
   250
 10
-12.8905
 20
89.6527
 30
0.0
  0
VERTEX
  5
4ED
  8
LAYER_1
 62
   250
 10
-13.1453
 20
89.5144
 30
0.0
  0
VERTEX
  5
4EE
  8
LAYER_1
 62
   250
 10
-13.3673
 20
89.3313
 30
0.0
  0
VERTEX
  5
4EF
  8
LAYER_1
 62
   250
 10
-13.5504
 20
89.1093
 30
0.0
  0
VERTEX
  5
4F0
  8
LAYER_1
 62
   250
 10
-13.6887
 20
88.8545
 30
0.0
  0
VERTEX
  5
4F1
  8
LAYER_1
 62
   250
 10
-13.7761
 20
88.5729
 30
0.0
  0
VERTEX
  5
4F2
  8
LAYER_1
 62
   250
 10
-13.8066
 20
88.2706
 30
0.0
  0
SEQEND
  5
4F3
  8
LAYER_1
 62
   250
  0
POLYLINE
  5
62
  8
LAYER_1
 62
   250
 66
     1
 10
0.0
 20
0.0
 30
0.0
 70
     1
  0
VERTEX
  5
4F4
  8
LAYER_1
 62
   250
 10
-45.4247
 20
53.2283
 30
0.0
  0
VERTEX
  5
4F5
  8
LAYER_1
 62
   250
 10
-45.3942
 20
52.926
 30
0.0
  0
VERTEX
  5
4F6
  8
LAYER_1
 62
   250
 10
-45.3068
 20
52.6444
 30
0.0
  0
VERTEX
  5
4F7
  8
LAYER_1
 62
   250
 10
-45.1685
 20
52.3896
 30
0.0
  0
VERTEX
  5
4F8
  8
LAYER_1
 62
   250
 10
-44.9854
 20
52.1677
 30
0.0
  0
VERTEX
  5
4F9
  8
LAYER_1
 62
   250
 10
-44.7634
 20
51.9845
 30
0.0
  0
VERTEX
  5
4FA
  8
LAYER_1
 62
   250
 10
-44.5086
 20
51.8462
 30
0.0
  0
VERTEX
  5
4FB
  8
LAYER_1
 62
   250
 10
-44.227
 20
51.7588
 30
0.0
  0
VERTEX
  5
4FC
  8
LAYER_1
 62
   250
 10
-43.9247
 20
51.7283
 30
0.0
  0
VERTEX
  5
4FD
  8
LAYER_1
 62
   250
 10
-43.6224
 20
51.7588
 30
0.0
  0
VERTEX
  5
4FE
  8
LAYER_1
 62
   250
 10
-43.3408
 20
51.8462
 30
0.0
  0
VERTEX
  5
4FF
  8
LAYER_1
 62
   250
 10
-43.086
 20
51.9845
 30
0.0
  0
VERTEX
  5
500
  8
LAYER_1
 62
   250
 10
-42.8641
 20
52.1677
 30
0.0
  0
VERTEX
  5
501
  8
LAYER_1
 62
   250
 10
-42.6809
 20
52.3896
 30
0.0
  0
VERTEX
  5
502
  8
LAYER_1
 62
   250
 10
-42.5426
 20
52.6444
 30
0.0
  0
VERTEX
  5
503
  8
LAYER_1
 62
   250
 10
-42.4552
 20
52.926
 30
0.0
  0
VERTEX
  5
504
  8
LAYER_1
 62
   250
 10
-42.4247
 20
53.2283
 30
0.0
  0
VERTEX
  5
505
  8
LAYER_1
 62
   250
 10
-42.4552
 20
53.5306
 30
0.0
  0
VERTEX
  5
506
  8
LAYER_1
 62
   250
 10
-42.5426
 20
53.8122
 30
0.0
  0
VERTEX
  5
507
  8
LAYER_1
 62
   250
 10
-42.6809
 20
54.067
 30
0.0
  0
VERTEX
  5
508
  8
LAYER_1
 62
   250
 10
-42.8641
 20
54.289
 30
0.0
  0
VERTEX
  5
509
  8
LAYER_1
 62
   250
 10
-43.086
 20
54.4721
 30
0.0
  0
VERTEX
  5
50A
  8
LAYER_1
 62
   250
 10
-43.3408
 20
54.6104
 30
0.0
  0
VERTEX
  5
50B
  8
LAYER_1
 62
   250
 10
-43.6224
 20
54.6978
 30
0.0
  0
VERTEX
  5
50C
  8
LAYER_1
 62
   250
 10
-43.9247
 20
54.7283
 30
0.0
  0
VERTEX
  5
50D
  8
LAYER_1
 62
   250
 10
-44.227
 20
54.6978
 30
0.0
  0
VERTEX
  5
50E
  8
LAYER_1
 62
   250
 10
-44.5086
 20
54.6104
 30
0.0
  0
VERTEX
  5
50F
  8
LAYER_1
 62
   250
 10
-44.7634
 20
54.4721
 30
0.0
  0
VERTEX
  5
510
  8
LAYER_1
 62
   250
 10
-44.9854
 20
54.289
 30
0.0
  0
VERTEX
  5
511
  8
LAYER_1
 62
   250
 10
-45.1685
 20
54.067
 30
0.0
  0
VERTEX
  5
512
  8
LAYER_1
 62
   250
 10
-45.3068
 20
53.8122
 30
0.0
  0
VERTEX
  5
513
  8
LAYER_1
 62
   250
 10
-45.3942
 20
53.5306
 30
0.0
  0
VERTEX
  5
514
  8
LAYER_1
 62
   250
 10
-45.4247
 20
53.2283
 30
0.0
  0
SEQEND
  5
515
  8
LAYER_1
 62
   250
  0
POLYLINE
  5
63
  8
LAYER_1
 62
   250
 66
     1
 10
0.0
 20
0.0
 30
0.0
 70
     1
  0
VERTEX
  5
516
  8
LAYER_1
 62
   250
 10
-45.4247
 20
83.2283
 30
0.0
  0
VERTEX
  5
517
  8
LAYER_1
 62
   250
 10
-45.3942
 20
82.926
 30
0.0
  0
VERTEX
  5
518
  8
LAYER_1
 62
   250
 10
-45.3068
 20
82.6444
 30
0.0
  0
VERTEX
  5
519
  8
LAYER_1
 62
   250
 10
-45.1685
 20
82.3896
 30
0.0
  0
VERTEX
  5
51A
  8
LAYER_1
 62
   250
 10
-44.9854
 20
82.1677
 30
0.0
  0
VERTEX
  5
51B
  8
LAYER_1
 62
   250
 10
-44.7634
 20
81.9845
 30
0.0
  0
VERTEX
  5
51C
  8
LAYER_1
 62
   250
 10
-44.5086
 20
81.8462
 30
0.0
  0
VERTEX
  5
51D
  8
LAYER_1
 62
   250
 10
-44.227
 20
81.7588
 30
0.0
  0
VERTEX
  5
51E
  8
LAYER_1
 62
   250
 10
-43.9247
 20
81.7283
 30
0.0
  0
VERTEX
  5
51F
  8
LAYER_1
 62
   250
 10
-43.6224
 20
81.7588
 30
0.0
  0
VERTEX
  5
520
  8
LAYER_1
 62
   250
 10
-43.3408
 20
81.8462
 30
0.0
  0
VERTEX
  5
521
  8
LAYER_1
 62
   250
 10
-43.086
 20
81.9845
 30
0.0
  0
VERTEX
  5
522
  8
LAYER_1
 62
   250
 10
-42.8641
 20
82.1677
 30
0.0
  0
VERTEX
  5
523
  8
LAYER_1
 62
   250
 10
-42.6809
 20
82.3896
 30
0.0
  0
VERTEX
  5
524
  8
LAYER_1
 62
   250
 10
-42.5426
 20
82.6444
 30
0.0
  0
VERTEX
  5
525
  8
LAYER_1
 62
   250
 10
-42.4552
 20
82.926
 30
0.0
  0
VERTEX
  5
526
  8
LAYER_1
 62
   250
 10
-42.4247
 20
83.2283
 30
0.0
  0
VERTEX
  5
527
  8
LAYER_1
 62
   250
 10
-42.4552
 20
83.5306
 30
0.0
  0
VERTEX
  5
528
  8
LAYER_1
 62
   250
 10
-42.5426
 20
83.8122
 30
0.0
  0
VERTEX
  5
529
  8
LAYER_1
 62
   250
 10
-42.6809
 20
84.067
 30
0.0
  0
VERTEX
  5
52A
  8
LAYER_1
 62
   250
 10
-42.8641
 20
84.289
 30
0.0
  0
VERTEX
  5
52B
  8
LAYER_1
 62
   250
 10
-43.086
 20
84.4721
 30
0.0
  0
VERTEX
  5
52C
  8
LAYER_1
 62
   250
 10
-43.3408
 20
84.6104
 30
0.0
  0
VERTEX
  5
52D
  8
LAYER_1
 62
   250
 10
-43.6224
 20
84.6978
 30
0.0
  0
VERTEX
  5
52E
  8
LAYER_1
 62
   250
 10
-43.9247
 20
84.7283
 30
0.0
  0
VERTEX
  5
52F
  8
LAYER_1
 62
   250
 10
-44.227
 20
84.6978
 30
0.0
  0
VERTEX
  5
530
  8
LAYER_1
 62
   250
 10
-44.5086
 20
84.6104
 30
0.0
  0
VERTEX
  5
531
  8
LAYER_1
 62
   250
 10
-44.7634
 20
84.4721
 30
0.0
  0
VERTEX
  5
532
  8
LAYER_1
 62
   250
 10
-44.9854
 20
84.289
 30
0.0
  0
VERTEX
  5
533
  8
LAYER_1
 62
   250
 10
-45.1685
 20
84.067
 30
0.0
  0
VERTEX
  5
534
  8
LAYER_1
 62
   250
 10
-45.3068
 20
83.8122
 30
0.0
  0
VERTEX
  5
535
  8
LAYER_1
 62
   250
 10
-45.3942
 20
83.5306
 30
0.0
  0
VERTEX
  5
536
  8
LAYER_1
 62
   250
 10
-45.4247
 20
83.2283
 30
0.0
  0
SEQEND
  5
537
  8
LAYER_1
 62
   250
  0
POLYLINE
  5
64
  8
LAYER_1
 62
   250
 66
     1
 10
0.0
 20
0.0
 30
0.0
 70
     1
  0
VERTEX
  5
538
  8
LAYER_1
 62
   250
 10
-65.4247
 20
83.2283
 30
0.0
  0
VERTEX
  5
539
  8
LAYER_1
 62
   250
 10
-65.3942
 20
82.926
 30
0.0
  0
VERTEX
  5
53A
  8
LAYER_1
 62
   250
 10
-65.3068
 20
82.6444
 30
0.0
  0
VERTEX
  5
53B
  8
LAYER_1
 62
   250
 10
-65.1685
 20
82.3896
 30
0.0
  0
VERTEX
  5
53C
  8
LAYER_1
 62
   250
 10
-64.9854
 20
82.1677
 30
0.0
  0
VERTEX
  5
53D
  8
LAYER_1
 62
   250
 10
-64.7634
 20
81.9845
 30
0.0
  0
VERTEX
  5
53E
  8
LAYER_1
 62
   250
 10
-64.5086
 20
81.8462
 30
0.0
  0
VERTEX
  5
53F
  8
LAYER_1
 62
   250
 10
-64.227
 20
81.7588
 30
0.0
  0
VERTEX
  5
540
  8
LAYER_1
 62
   250
 10
-63.9247
 20
81.7283
 30
0.0
  0
VERTEX
  5
541
  8
LAYER_1
 62
   250
 10
-63.6224
 20
81.7588
 30
0.0
  0
VERTEX
  5
542
  8
LAYER_1
 62
   250
 10
-63.3408
 20
81.8462
 30
0.0
  0
VERTEX
  5
543
  8
LAYER_1
 62
   250
 10
-63.086
 20
81.9845
 30
0.0
  0
VERTEX
  5
544
  8
LAYER_1
 62
   250
 10
-62.8641
 20
82.1677
 30
0.0
  0
VERTEX
  5
545
  8
LAYER_1
 62
   250
 10
-62.6809
 20
82.3896
 30
0.0
  0
VERTEX
  5
546
  8
LAYER_1
 62
   250
 10
-62.5426
 20
82.6444
 30
0.0
  0
VERTEX
  5
547
  8
LAYER_1
 62
   250
 10
-62.4552
 20
82.926
 30
0.0
  0
VERTEX
  5
548
  8
LAYER_1
 62
   250
 10
-62.4247
 20
83.2283
 30
0.0
  0
VERTEX
  5
549
  8
LAYER_1
 62
   250
 10
-62.4552
 20
83.5306
 30
0.0
  0
VERTEX
  5
54A
  8
LAYER_1
 62
   250
 10
-62.5426
 20
83.8122
 30
0.0
  0
VERTEX
  5
54B
  8
LAYER_1
 62
   250
 10
-62.6809
 20
84.067
 30
0.0
  0
VERTEX
  5
54C
  8
LAYER_1
 62
   250
 10
-62.8641
 20
84.289
 30
0.0
  0
VERTEX
  5
54D
  8
LAYER_1
 62
   250
 10
-63.086
 20
84.4721
 30
0.0
  0
VERTEX
  5
54E
  8
LAYER_1
 62
   250
 10
-63.3408
 20
84.6104
 30
0.0
  0
VERTEX
  5
54F
  8
LAYER_1
 62
   250
 10
-63.6224
 20
84.6978
 30
0.0
  0
VERTEX
  5
550
  8
LAYER_1
 62
   250
 10
-63.9247
 20
84.7283
 30
0.0
  0
VERTEX
  5
551
  8
LAYER_1
 62
   250
 10
-64.227
 20
84.6978
 30
0.0
  0
VERTEX
  5
552
  8
LAYER_1
 62
   250
 10
-64.5086
 20
84.6104
 30
0.0
  0
VERTEX
  5
553
  8
LAYER_1
 62
   250
 10
-64.7634
 20
84.4721
 30
0.0
  0
VERTEX
  5
554
  8
LAYER_1
 62
   250
 10
-64.9854
 20
84.289
 30
0.0
  0
VERTEX
  5
555
  8
LAYER_1
 62
   250
 10
-65.1685
 20
84.067
 30
0.0
  0
VERTEX
  5
556
  8
LAYER_1
 62
   250
 10
-65.3068
 20
83.8122
 30
0.0
  0
VERTEX
  5
557
  8
LAYER_1
 62
   250
 10
-65.3942
 20
83.5306
 30
0.0
  0
VERTEX
  5
558
  8
LAYER_1
 62
   250
 10
-65.4247
 20
83.2283
 30
0.0
  0
SEQEND
  5
559
  8
LAYER_1
 62
   250
  0
POLYLINE
  5
65
  8
LAYER_1
 62
   250
 66
     1
 10
0.0
 20
0.0
 30
0.0
 70
     1
  0
VERTEX
  5
55A
  8
LAYER_1
 62
   250
 10
-65.4247
 20
53.2283
 30
0.0
  0
VERTEX
  5
55B
  8
LAYER_1
 62
   250
 10
-65.3942
 20
52.926
 30
0.0
  0
VERTEX
  5
55C
  8
LAYER_1
 62
   250
 10
-65.3068
 20
52.6444
 30
0.0
  0
VERTEX
  5
55D
  8
LAYER_1
 62
   250
 10
-65.1685
 20
52.3896
 30
0.0
  0
VERTEX
  5
55E
  8
LAYER_1
 62
   250
 10
-64.9854
 20
52.1677
 30
0.0
  0
VERTEX
  5
55F
  8
LAYER_1
 62
   250
 10
-64.7634
 20
51.9845
 30
0.0
  0
VERTEX
  5
560
  8
LAYER_1
 62
   250
 10
-64.5086
 20
51.8462
 30
0.0
  0
VERTEX
  5
561
  8
LAYER_1
 62
   250
 10
-64.227
 20
51.7588
 30
0.0
  0
VERTEX
  5
562
  8
LAYER_1
 62
   250
 10
-63.9247
 20
51.7283
 30
0.0
  0
VERTEX
  5
563
  8
LAYER_1
 62
   250
 10
-63.6224
 20
51.7588
 30
0.0
  0
VERTEX
  5
564
  8
LAYER_1
 62
   250
 10
-63.3408
 20
51.8462
 30
0.0
  0
VERTEX
  5
565
  8
LAYER_1
 62
   250
 10
-63.086
 20
51.9845
 30
0.0
  0
VERTEX
  5
566
  8
LAYER_1
 62
   250
 10
-62.8641
 20
52.1677
 30
0.0
  0
VERTEX
  5
567
  8
LAYER_1
 62
   250
 10
-62.6809
 20
52.3896
 30
0.0
  0
VERTEX
  5
568
  8
LAYER_1
 62
   250
 10
-62.5426
 20
52.6444
 30
0.0
  0
VERTEX
  5
569
  8
LAYER_1
 62
   250
 10
-62.4552
 20
52.926
 30
0.0
  0
VERTEX
  5
56A
  8
LAYER_1
 62
   250
 10
-62.4247
 20
53.2283
 30
0.0
  0
VERTEX
  5
56B
  8
LAYER_1
 62
   250
 10
-62.4552
 20
53.5306
 30
0.0
  0
VERTEX
  5
56C
  8
LAYER_1
 62
   250
 10
-62.5426
 20
53.8122
 30
0.0
  0
VERTEX
  5
56D
  8
LAYER_1
 62
   250
 10
-62.6809
 20
54.067
 30
0.0
  0
VERTEX
  5
56E
  8
LAYER_1
 62
   250
 10
-62.8641
 20
54.289
 30
0.0
  0
VERTEX
  5
56F
  8
LAYER_1
 62
   250
 10
-63.086
 20
54.4721
 30
0.0
  0
VERTEX
  5
570
  8
LAYER_1
 62
   250
 10
-63.3408
 20
54.6104
 30
0.0
  0
VERTEX
  5
571
  8
LAYER_1
 62
   250
 10
-63.6224
 20
54.6978
 30
0.0
  0
VERTEX
  5
572
  8
LAYER_1
 62
   250
 10
-63.9247
 20
54.7283
 30
0.0
  0
VERTEX
  5
573
  8
LAYER_1
 62
   250
 10
-64.227
 20
54.6978
 30
0.0
  0
VERTEX
  5
574
  8
LAYER_1
 62
   250
 10
-64.5086
 20
54.6104
 30
0.0
  0
VERTEX
  5
575
  8
LAYER_1
 62
   250
 10
-64.7634
 20
54.4721
 30
0.0
  0
VERTEX
  5
576
  8
LAYER_1
 62
   250
 10
-64.9854
 20
54.289
 30
0.0
  0
VERTEX
  5
577
  8
LAYER_1
 62
   250
 10
-65.1685
 20
54.067
 30
0.0
  0
VERTEX
  5
578
  8
LAYER_1
 62
   250
 10
-65.3068
 20
53.8122
 30
0.0
  0
VERTEX
  5
579
  8
LAYER_1
 62
   250
 10
-65.3942
 20
53.5306
 30
0.0
  0
VERTEX
  5
57A
  8
LAYER_1
 62
   250
 10
-65.4247
 20
53.2283
 30
0.0
  0
SEQEND
  5
57B
  8
LAYER_1
 62
   250
  0
POLYLINE
  5
66
  8
LAYER_1
 62
   250
 66
     1
 10
0.0
 20
0.0
 30
0.0
 70
     1
  0
VERTEX
  5
57C
  8
LAYER_1
 62
   250
 10
-85.9943
 20
87.8137
 30
0.0
  0
VERTEX
  5
57D
  8
LAYER_1
 62
   250
 10
-85.9638
 20
87.5114
 30
0.0
  0
VERTEX
  5
57E
  8
LAYER_1
 62
   250
 10
-85.8764
 20
87.2298
 30
0.0
  0
VERTEX
  5
57F
  8
LAYER_1
 62
   250
 10
-85.7381
 20
86.975
 30
0.0
  0
VERTEX
  5
580
  8
LAYER_1
 62
   250
 10
-85.555
 20
86.7531
 30
0.0
  0
VERTEX
  5
581
  8
LAYER_1
 62
   250
 10
-85.333
 20
86.5699
 30
0.0
  0
VERTEX
  5
582
  8
LAYER_1
 62
   250
 10
-85.0782
 20
86.4316
 30
0.0
  0
VERTEX
  5
583
  8
LAYER_1
 62
   250
 10
-84.7966
 20
86.3442
 30
0.0
  0
VERTEX
  5
584
  8
LAYER_1
 62
   250
 10
-84.4943
 20
86.3137
 30
0.0
  0
VERTEX
  5
585
  8
LAYER_1
 62
   250
 10
-84.192
 20
86.3442
 30
0.0
  0
VERTEX
  5
586
  8
LAYER_1
 62
   250
 10
-83.9104
 20
86.4316
 30
0.0
  0
VERTEX
  5
587
  8
LAYER_1
 62
   250
 10
-83.6556
 20
86.5699
 30
0.0
  0
VERTEX
  5
588
  8
LAYER_1
 62
   250
 10
-83.4337
 20
86.7531
 30
0.0
  0
VERTEX
  5
589
  8
LAYER_1
 62
   250
 10
-83.2505
 20
86.975
 30
0.0
  0
VERTEX
  5
58A
  8
LAYER_1
 62
   250
 10
-83.1122
 20
87.2298
 30
0.0
  0
VERTEX
  5
58B
  8
LAYER_1
 62
   250
 10
-83.0248
 20
87.5114
 30
0.0
  0
VERTEX
  5
58C
  8
LAYER_1
 62
   250
 10
-82.9943
 20
87.8137
 30
0.0
  0
VERTEX
  5
58D
  8
LAYER_1
 62
   250
 10
-83.0248
 20
88.116
 30
0.0
  0
VERTEX
  5
58E
  8
LAYER_1
 62
   250
 10
-83.1122
 20
88.3976
 30
0.0
  0
VERTEX
  5
58F
  8
LAYER_1
 62
   250
 10
-83.2505
 20
88.6524
 30
0.0
  0
VERTEX
  5
590
  8
LAYER_1
 62
   250
 10
-83.4337
 20
88.8744
 30
0.0
  0
VERTEX
  5
591
  8
LAYER_1
 62
   250
 10
-83.6556
 20
89.0575
 30
0.0
  0
VERTEX
  5
592
  8
LAYER_1
 62
   250
 10
-83.9104
 20
89.1958
 30
0.0
  0
VERTEX
  5
593
  8
LAYER_1
 62
   250
 10
-84.192
 20
89.2832
 30
0.0
  0
VERTEX
  5
594
  8
LAYER_1
 62
   250
 10
-84.4943
 20
89.3137
 30
0.0
  0
VERTEX
  5
595
  8
LAYER_1
 62
   250
 10
-84.7966
 20
89.2832
 30
0.0
  0
VERTEX
  5
596
  8
LAYER_1
 62
   250
 10
-85.0782
 20
89.1958
 30
0.0
  0
VERTEX
  5
597
  8
LAYER_1
 62
   250
 10
-85.333
 20
89.0575
 30
0.0
  0
VERTEX
  5
598
  8
LAYER_1
 62
   250
 10
-85.555
 20
88.8744
 30
0.0
  0
VERTEX
  5
599
  8
LAYER_1
 62
   250
 10
-85.7381
 20
88.6524
 30
0.0
  0
VERTEX
  5
59A
  8
LAYER_1
 62
   250
 10
-85.8764
 20
88.3976
 30
0.0
  0
VERTEX
  5
59B
  8
LAYER_1
 62
   250
 10
-85.9638
 20
88.116
 30
0.0
  0
VERTEX
  5
59C
  8
LAYER_1
 62
   250
 10
-85.9943
 20
87.8137
 30
0.0
  0
SEQEND
  5
59D
  8
LAYER_1
 62
   250
  0
POLYLINE
  5
67
  8
LAYER_1
 62
   250
 66
     1
 10
0.0
 20
0.0
 30
0.0
 70
     1
  0
VERTEX
  5
59E
  8
LAYER_1
 62
   250
 10
-85.9943
 20
95.3137
 30
0.0
  0
VERTEX
  5
59F
  8
LAYER_1
 62
   250
 10
-85.9638
 20
95.0114
 30
0.0
  0
VERTEX
  5
5A0
  8
LAYER_1
 62
   250
 10
-85.8764
 20
94.7298
 30
0.0
  0
VERTEX
  5
5A1
  8
LAYER_1
 62
   250
 10
-85.7381
 20
94.475
 30
0.0
  0
VERTEX
  5
5A2
  8
LAYER_1
 62
   250
 10
-85.555
 20
94.2531
 30
0.0
  0
VERTEX
  5
5A3
  8
LAYER_1
 62
   250
 10
-85.333
 20
94.0699
 30
0.0
  0
VERTEX
  5
5A4
  8
LAYER_1
 62
   250
 10
-85.0782
 20
93.9316
 30
0.0
  0
VERTEX
  5
5A5
  8
LAYER_1
 62
   250
 10
-84.7966
 20
93.8442
 30
0.0
  0
VERTEX
  5
5A6
  8
LAYER_1
 62
   250
 10
-84.4943
 20
93.8137
 30
0.0
  0
VERTEX
  5
5A7
  8
LAYER_1
 62
   250
 10
-84.192
 20
93.8442
 30
0.0
  0
VERTEX
  5
5A8
  8
LAYER_1
 62
   250
 10
-83.9104
 20
93.9316
 30
0.0
  0
VERTEX
  5
5A9
  8
LAYER_1
 62
   250
 10
-83.6556
 20
94.0699
 30
0.0
  0
VERTEX
  5
5AA
  8
LAYER_1
 62
   250
 10
-83.4337
 20
94.2531
 30
0.0
  0
VERTEX
  5
5AB
  8
LAYER_1
 62
   250
 10
-83.2505
 20
94.475
 30
0.0
  0
VERTEX
  5
5AC
  8
LAYER_1
 62
   250
 10
-83.1122
 20
94.7298
 30
0.0
  0
VERTEX
  5
5AD
  8
LAYER_1
 62
   250
 10
-83.0248
 20
95.0114
 30
0.0
  0
VERTEX
  5
5AE
  8
LAYER_1
 62
   250
 10
-82.9943
 20
95.3137
 30
0.0
  0
VERTEX
  5
5AF
  8
LAYER_1
 62
   250
 10
-83.0248
 20
95.616
 30
0.0
  0
VERTEX
  5
5B0
  8
LAYER_1
 62
   250
 10
-83.1122
 20
95.8976
 30
0.0
  0
VERTEX
  5
5B1
  8
LAYER_1
 62
   250
 10
-83.2505
 20
96.1524
 30
0.0
  0
VERTEX
  5
5B2
  8
LAYER_1
 62
   250
 10
-83.4337
 20
96.3744
 30
0.0
  0
VERTEX
  5
5B3
  8
LAYER_1
 62
   250
 10
-83.6556
 20
96.5575
 30
0.0
  0
VERTEX
  5
5B4
  8
LAYER_1
 62
   250
 10
-83.9104
 20
96.6958
 30
0.0
  0
VERTEX
  5
5B5
  8
LAYER_1
 62
   250
 10
-84.192
 20
96.7832
 30
0.0
  0
VERTEX
  5
5B6
  8
LAYER_1
 62
   250
 10
-84.4943
 20
96.8137
 30
0.0
  0
VERTEX
  5
5B7
  8
LAYER_1
 62
   250
 10
-84.7966
 20
96.7832
 30
0.0
  0
VERTEX
  5
5B8
  8
LAYER_1
 62
   250
 10
-85.0782
 20
96.6958
 30
0.0
  0
VERTEX
  5
5B9
  8
LAYER_1
 62
   250
 10
-85.333
 20
96.5575
 30
0.0
  0
VERTEX
  5
5BA
  8
LAYER_1
 62
   250
 10
-85.555
 20
96.3744
 30
0.0
  0
VERTEX
  5
5BB
  8
LAYER_1
 62
   250
 10
-85.7381
 20
96.1524
 30
0.0
  0
VERTEX
  5
5BC
  8
LAYER_1
 62
   250
 10
-85.8764
 20
95.8976
 30
0.0
  0
VERTEX
  5
5BD
  8
LAYER_1
 62
   250
 10
-85.9638
 20
95.616
 30
0.0
  0
VERTEX
  5
5BE
  8
LAYER_1
 62
   250
 10
-85.9943
 20
95.3137
 30
0.0
  0
SEQEND
  5
5BF
  8
LAYER_1
 62
   250
  0
POLYLINE
  5
68
  8
LAYER_1
 62
   250
 66
     1
 10
0.0
 20
0.0
 30
0.0
 70
     1
  0
VERTEX
  5
5C0
  8
LAYER_1
 62
   250
 10
-95.9276
 20
90.5846
 30
0.0
  0
VERTEX
  5
5C1
  8
LAYER_1
 62
   250
 10
-95.8971
 20
90.2823
 30
0.0
  0
VERTEX
  5
5C2
  8
LAYER_1
 62
   250
 10
-95.8097
 20
90.0007
 30
0.0
  0
VERTEX
  5
5C3
  8
LAYER_1
 62
   250
 10
-95.6714
 20
89.7459
 30
0.0
  0
VERTEX
  5
5C4
  8
LAYER_1
 62
   250
 10
-95.4883
 20
89.524
 30
0.0
  0
VERTEX
  5
5C5
  8
LAYER_1
 62
   250
 10
-95.2663
 20
89.3408
 30
0.0
  0
VERTEX
  5
5C6
  8
LAYER_1
 62
   250
 10
-95.0115
 20
89.2025
 30
0.0
  0
VERTEX
  5
5C7
  8
LAYER_1
 62
   250
 10
-94.7299
 20
89.1151
 30
0.0
  0
VERTEX
  5
5C8
  8
LAYER_1
 62
   250
 10
-94.4276
 20
89.0846
 30
0.0
  0
VERTEX
  5
5C9
  8
LAYER_1
 62
   250
 10
-94.1253
 20
89.1151
 30
0.0
  0
VERTEX
  5
5CA
  8
LAYER_1
 62
   250
 10
-93.8437
 20
89.2025
 30
0.0
  0
VERTEX
  5
5CB
  8
LAYER_1
 62
   250
 10
-93.5889
 20
89.3408
 30
0.0
  0
VERTEX
  5
5CC
  8
LAYER_1
 62
   250
 10
-93.367
 20
89.524
 30
0.0
  0
VERTEX
  5
5CD
  8
LAYER_1
 62
   250
 10
-93.1838
 20
89.7459
 30
0.0
  0
VERTEX
  5
5CE
  8
LAYER_1
 62
   250
 10
-93.0455
 20
90.0007
 30
0.0
  0
VERTEX
  5
5CF
  8
LAYER_1
 62
   250
 10
-92.9581
 20
90.2823
 30
0.0
  0
VERTEX
  5
5D0
  8
LAYER_1
 62
   250
 10
-92.9276
 20
90.5846
 30
0.0
  0
VERTEX
  5
5D1
  8
LAYER_1
 62
   250
 10
-92.9581
 20
90.8869
 30
0.0
  0
VERTEX
  5
5D2
  8
LAYER_1
 62
   250
 10
-93.0455
 20
91.1685
 30
0.0
  0
VERTEX
  5
5D3
  8
LAYER_1
 62
   250
 10
-93.1838
 20
91.4233
 30
0.0
  0
VERTEX
  5
5D4
  8
LAYER_1
 62
   250
 10
-93.367
 20
91.6453
 30
0.0
  0
VERTEX
  5
5D5
  8
LAYER_1
 62
   250
 10
-93.5889
 20
91.8284
 30
0.0
  0
VERTEX
  5
5D6
  8
LAYER_1
 62
   250
 10
-93.8437
 20
91.9667
 30
0.0
  0
VERTEX
  5
5D7
  8
LAYER_1
 62
   250
 10
-94.1253
 20
92.0541
 30
0.0
  0
VERTEX
  5
5D8
  8
LAYER_1
 62
   250
 10
-94.4276
 20
92.0846
 30
0.0
  0
VERTEX
  5
5D9
  8
LAYER_1
 62
   250
 10
-94.7299
 20
92.0541
 30
0.0
  0
VERTEX
  5
5DA
  8
LAYER_1
 62
   250
 10
-95.0115
 20
91.9667
 30
0.0
  0
VERTEX
  5
5DB
  8
LAYER_1
 62
   250
 10
-95.2663
 20
91.8284
 30
0.0
  0
VERTEX
  5
5DC
  8
LAYER_1
 62
   250
 10
-95.4883
 20
91.6453
 30
0.0
  0
VERTEX
  5
5DD
  8
LAYER_1
 62
   250
 10
-95.6714
 20
91.4233
 30
0.0
  0
VERTEX
  5
5DE
  8
LAYER_1
 62
   250
 10
-95.8097
 20
91.1685
 30
0.0
  0
VERTEX
  5
5DF
  8
LAYER_1
 62
   250
 10
-95.8971
 20
90.8869
 30
0.0
  0
VERTEX
  5
5E0
  8
LAYER_1
 62
   250
 10
-95.9276
 20
90.5846
 30
0.0
  0
SEQEND
  5
5E1
  8
LAYER_1
 62
   250
  0
POLYLINE
  5
69
  8
LAYER_1
 62
   250
 66
     1
 10
0.0
 20
0.0
 30
0.0
 70
     1
  0
VERTEX
  5
5E2
  8
LAYER_1
 62
   250
 10
-95.9276
 20
81.0846
 30
0.0
  0
VERTEX
  5
5E3
  8
LAYER_1
 62
   250
 10
-95.8971
 20
80.7823
 30
0.0
  0
VERTEX
  5
5E4
  8
LAYER_1
 62
   250
 10
-95.8097
 20
80.5007
 30
0.0
  0
VERTEX
  5
5E5
  8
LAYER_1
 62
   250
 10
-95.6714
 20
80.2459
 30
0.0
  0
VERTEX
  5
5E6
  8
LAYER_1
 62
   250
 10
-95.4883
 20
80.024
 30
0.0
  0
VERTEX
  5
5E7
  8
LAYER_1
 62
   250
 10
-95.2663
 20
79.8408
 30
0.0
  0
VERTEX
  5
5E8
  8
LAYER_1
 62
   250
 10
-95.0115
 20
79.7025
 30
0.0
  0
VERTEX
  5
5E9
  8
LAYER_1
 62
   250
 10
-94.7299
 20
79.6151
 30
0.0
  0
VERTEX
  5
5EA
  8
LAYER_1
 62
   250
 10
-94.4276
 20
79.5846
 30
0.0
  0
VERTEX
  5
5EB
  8
LAYER_1
 62
   250
 10
-94.1253
 20
79.6151
 30
0.0
  0
VERTEX
  5
5EC
  8
LAYER_1
 62
   250
 10
-93.8437
 20
79.7025
 30
0.0
  0
VERTEX
  5
5ED
  8
LAYER_1
 62
   250
 10
-93.5889
 20
79.8408
 30
0.0
  0
VERTEX
  5
5EE
  8
LAYER_1
 62
   250
 10
-93.367
 20
80.024
 30
0.0
  0
VERTEX
  5
5EF
  8
LAYER_1
 62
   250
 10
-93.1838
 20
80.2459
 30
0.0
  0
VERTEX
  5
5F0
  8
LAYER_1
 62
   250
 10
-93.0455
 20
80.5007
 30
0.0
  0
VERTEX
  5
5F1
  8
LAYER_1
 62
   250
 10
-92.9581
 20
80.7823
 30
0.0
  0
VERTEX
  5
5F2
  8
LAYER_1
 62
   250
 10
-92.9276
 20
81.0846
 30
0.0
  0
VERTEX
  5
5F3
  8
LAYER_1
 62
   250
 10
-92.9581
 20
81.3869
 30
0.0
  0
VERTEX
  5
5F4
  8
LAYER_1
 62
   250
 10
-93.0455
 20
81.6685
 30
0.0
  0
VERTEX
  5
5F5
  8
LAYER_1
 62
   250
 10
-93.1838
 20
81.9233
 30
0.0
  0
VERTEX
  5
5F6
  8
LAYER_1
 62
   250
 10
-93.367
 20
82.1453
 30
0.0
  0
VERTEX
  5
5F7
  8
LAYER_1
 62
   250
 10
-93.5889
 20
82.3284
 30
0.0
  0
VERTEX
  5
5F8
  8
LAYER_1
 62
   250
 10
-93.8437
 20
82.4667
 30
0.0
  0
VERTEX
  5
5F9
  8
LAYER_1
 62
   250
 10
-94.1253
 20
82.5541
 30
0.0
  0
VERTEX
  5
5FA
  8
LAYER_1
 62
   250
 10
-94.4276
 20
82.5846
 30
0.0
  0
VERTEX
  5
5FB
  8
LAYER_1
 62
   250
 10
-94.7299
 20
82.5541
 30
0.0
  0
VERTEX
  5
5FC
  8
LAYER_1
 62
   250
 10
-95.0115
 20
82.4667
 30
0.0
  0
VERTEX
  5
5FD
  8
LAYER_1
 62
   250
 10
-95.2663
 20
82.3284
 30
0.0
  0
VERTEX
  5
5FE
  8
LAYER_1
 62
   250
 10
-95.4883
 20
82.1453
 30
0.0
  0
VERTEX
  5
5FF
  8
LAYER_1
 62
   250
 10
-95.6714
 20
81.9233
 30
0.0
  0
VERTEX
  5
600
  8
LAYER_1
 62
   250
 10
-95.8097
 20
81.6685
 30
0.0
  0
VERTEX
  5
601
  8
LAYER_1
 62
   250
 10
-95.8971
 20
81.3869
 30
0.0
  0
VERTEX
  5
602
  8
LAYER_1
 62
   250
 10
-95.9276
 20
81.0846
 30
0.0
  0
SEQEND
  5
603
  8
LAYER_1
 62
   250
  0
POLYLINE
  5
6A
  8
LAYER_1
 62
   250
 66
     1
 10
0.0
 20
0.0
 30
0.0
 70
     1
  0
VERTEX
  5
604
  8
LAYER_1
 62
   250
 10
-95.9943
 20
110.3137
 30
0.0
  0
VERTEX
  5
605
  8
LAYER_1
 62
   250
 10
-95.9638
 20
110.0114
 30
0.0
  0
VERTEX
  5
606
  8
LAYER_1
 62
   250
 10
-95.8764
 20
109.7298
 30
0.0
  0
VERTEX
  5
607
  8
LAYER_1
 62
   250
 10
-95.7381
 20
109.475
 30
0.0
  0
VERTEX
  5
608
  8
LAYER_1
 62
   250
 10
-95.555
 20
109.2531
 30
0.0
  0
VERTEX
  5
609
  8
LAYER_1
 62
   250
 10
-95.333
 20
109.0699
 30
0.0
  0
VERTEX
  5
60A
  8
LAYER_1
 62
   250
 10
-95.0782
 20
108.9316
 30
0.0
  0
VERTEX
  5
60B
  8
LAYER_1
 62
   250
 10
-94.7966
 20
108.8442
 30
0.0
  0
VERTEX
  5
60C
  8
LAYER_1
 62
   250
 10
-94.4943
 20
108.8137
 30
0.0
  0
VERTEX
  5
60D
  8
LAYER_1
 62
   250
 10
-94.192
 20
108.8442
 30
0.0
  0
VERTEX
  5
60E
  8
LAYER_1
 62
   250
 10
-93.9104
 20
108.9316
 30
0.0
  0
VERTEX
  5
60F
  8
LAYER_1
 62
   250
 10
-93.6556
 20
109.0699
 30
0.0
  0
VERTEX
  5
610
  8
LAYER_1
 62
   250
 10
-93.4337
 20
109.2531
 30
0.0
  0
VERTEX
  5
611
  8
LAYER_1
 62
   250
 10
-93.2505
 20
109.475
 30
0.0
  0
VERTEX
  5
612
  8
LAYER_1
 62
   250
 10
-93.1122
 20
109.7298
 30
0.0
  0
VERTEX
  5
613
  8
LAYER_1
 62
   250
 10
-93.0248
 20
110.0114
 30
0.0
  0
VERTEX
  5
614
  8
LAYER_1
 62
   250
 10
-92.9943
 20
110.3137
 30
0.0
  0
VERTEX
  5
615
  8
LAYER_1
 62
   250
 10
-93.0248
 20
110.616
 30
0.0
  0
VERTEX
  5
616
  8
LAYER_1
 62
   250
 10
-93.1122
 20
110.8976
 30
0.0
  0
VERTEX
  5
617
  8
LAYER_1
 62
   250
 10
-93.2505
 20
111.1524
 30
0.0
  0
VERTEX
  5
618
  8
LAYER_1
 62
   250
 10
-93.4337
 20
111.3744
 30
0.0
  0
VERTEX
  5
619
  8
LAYER_1
 62
   250
 10
-93.6556
 20
111.5575
 30
0.0
  0
VERTEX
  5
61A
  8
LAYER_1
 62
   250
 10
-93.9104
 20
111.6958
 30
0.0
  0
VERTEX
  5
61B
  8
LAYER_1
 62
   250
 10
-94.192
 20
111.7832
 30
0.0
  0
VERTEX
  5
61C
  8
LAYER_1
 62
   250
 10
-94.4943
 20
111.8137
 30
0.0
  0
VERTEX
  5
61D
  8
LAYER_1
 62
   250
 10
-94.7966
 20
111.7832
 30
0.0
  0
VERTEX
  5
61E
  8
LAYER_1
 62
   250
 10
-95.0782
 20
111.6958
 30
0.0
  0
VERTEX
  5
61F
  8
LAYER_1
 62
   250
 10
-95.333
 20
111.5575
 30
0.0
  0
VERTEX
  5
620
  8
LAYER_1
 62
   250
 10
-95.555
 20
111.3744
 30
0.0
  0
VERTEX
  5
621
  8
LAYER_1
 62
   250
 10
-95.7381
 20
111.1524
 30
0.0
  0
VERTEX
  5
622
  8
LAYER_1
 62
   250
 10
-95.8764
 20
110.8976
 30
0.0
  0
VERTEX
  5
623
  8
LAYER_1
 62
   250
 10
-95.9638
 20
110.616
 30
0.0
  0
VERTEX
  5
624
  8
LAYER_1
 62
   250
 10
-95.9943
 20
110.3137
 30
0.0
  0
SEQEND
  5
625
  8
LAYER_1
 62
   250
  0
POLYLINE
  5
6B
  8
LAYER_1
 62
   250
 66
     1
 10
0.0
 20
0.0
 30
0.0
 70
     1
  0
VERTEX
  5
626
  8
LAYER_1
 62
   250
 10
-95.9943
 20
72.8137
 30
0.0
  0
VERTEX
  5
627
  8
LAYER_1
 62
   250
 10
-95.9638
 20
72.5114
 30
0.0
  0
VERTEX
  5
628
  8
LAYER_1
 62
   250
 10
-95.8764
 20
72.2298
 30
0.0
  0
VERTEX
  5
629
  8
LAYER_1
 62
   250
 10
-95.7381
 20
71.975
 30
0.0
  0
VERTEX
  5
62A
  8
LAYER_1
 62
   250
 10
-95.555
 20
71.7531
 30
0.0
  0
VERTEX
  5
62B
  8
LAYER_1
 62
   250
 10
-95.333
 20
71.5699
 30
0.0
  0
VERTEX
  5
62C
  8
LAYER_1
 62
   250
 10
-95.0782
 20
71.4316
 30
0.0
  0
VERTEX
  5
62D
  8
LAYER_1
 62
   250
 10
-94.7966
 20
71.3442
 30
0.0
  0
VERTEX
  5
62E
  8
LAYER_1
 62
   250
 10
-94.4943
 20
71.3137
 30
0.0
  0
VERTEX
  5
62F
  8
LAYER_1
 62
   250
 10
-94.192
 20
71.3442
 30
0.0
  0
VERTEX
  5
630
  8
LAYER_1
 62
   250
 10
-93.9104
 20
71.4316
 30
0.0
  0
VERTEX
  5
631
  8
LAYER_1
 62
   250
 10
-93.6556
 20
71.5699
 30
0.0
  0
VERTEX
  5
632
  8
LAYER_1
 62
   250
 10
-93.4337
 20
71.7531
 30
0.0
  0
VERTEX
  5
633
  8
LAYER_1
 62
   250
 10
-93.2505
 20
71.975
 30
0.0
  0
VERTEX
  5
634
  8
LAYER_1
 62
   250
 10
-93.1122
 20
72.2298
 30
0.0
  0
VERTEX
  5
635
  8
LAYER_1
 62
   250
 10
-93.0248
 20
72.5114
 30
0.0
  0
VERTEX
  5
636
  8
LAYER_1
 62
   250
 10
-92.9943
 20
72.8137
 30
0.0
  0
VERTEX
  5
637
  8
LAYER_1
 62
   250
 10
-93.0248
 20
73.116
 30
0.0
  0
VERTEX
  5
638
  8
LAYER_1
 62
   250
 10
-93.1122
 20
73.3976
 30
0.0
  0
VERTEX
  5
639
  8
LAYER_1
 62
   250
 10
-93.2505
 20
73.6524
 30
0.0
  0
VERTEX
  5
63A
  8
LAYER_1
 62
   250
 10
-93.4337
 20
73.8744
 30
0.0
  0
VERTEX
  5
63B
  8
LAYER_1
 62
   250
 10
-93.6556
 20
74.0575
 30
0.0
  0
VERTEX
  5
63C
  8
LAYER_1
 62
   250
 10
-93.9104
 20
74.1958
 30
0.0
  0
VERTEX
  5
63D
  8
LAYER_1
 62
   250
 10
-94.192
 20
74.2832
 30
0.0
  0
VERTEX
  5
63E
  8
LAYER_1
 62
   250
 10
-94.4943
 20
74.3137
 30
0.0
  0
VERTEX
  5
63F
  8
LAYER_1
 62
   250
 10
-94.7966
 20
74.2832
 30
0.0
  0
VERTEX
  5
640
  8
LAYER_1
 62
   250
 10
-95.0782
 20
74.1958
 30
0.0
  0
VERTEX
  5
641
  8
LAYER_1
 62
   250
 10
-95.333
 20
74.0575
 30
0.0
  0
VERTEX
  5
642
  8
LAYER_1
 62
   250
 10
-95.555
 20
73.8744
 30
0.0
  0
VERTEX
  5
643
  8
LAYER_1
 62
   250
 10
-95.7381
 20
73.6524
 30
0.0
  0
VERTEX
  5
644
  8
LAYER_1
 62
   250
 10
-95.8764
 20
73.3976
 30
0.0
  0
VERTEX
  5
645
  8
LAYER_1
 62
   250
 10
-95.9638
 20
73.116
 30
0.0
  0
VERTEX
  5
646
  8
LAYER_1
 62
   250
 10
-95.9943
 20
72.8137
 30
0.0
  0
SEQEND
  5
647
  8
LAYER_1
 62
   250
  0
POLYLINE
  5
6C
  8
LAYER_1
 62
   250
 66
     1
 10
0.0
 20
0.0
 30
0.0
 70
     1
  0
VERTEX
  5
648
  8
LAYER_1
 62
   250
 10
-95.9943
 20
65.3137
 30
0.0
  0
VERTEX
  5
649
  8
LAYER_1
 62
   250
 10
-95.9638
 20
65.0114
 30
0.0
  0
VERTEX
  5
64A
  8
LAYER_1
 62
   250
 10
-95.8764
 20
64.7298
 30
0.0
  0
VERTEX
  5
64B
  8
LAYER_1
 62
   250
 10
-95.7381
 20
64.475
 30
0.0
  0
VERTEX
  5
64C
  8
LAYER_1
 62
   250
 10
-95.555
 20
64.2531
 30
0.0
  0
VERTEX
  5
64D
  8
LAYER_1
 62
   250
 10
-95.333
 20
64.0699
 30
0.0
  0
VERTEX
  5
64E
  8
LAYER_1
 62
   250
 10
-95.0782
 20
63.9316
 30
0.0
  0
VERTEX
  5
64F
  8
LAYER_1
 62
   250
 10
-94.7966
 20
63.8442
 30
0.0
  0
VERTEX
  5
650
  8
LAYER_1
 62
   250
 10
-94.4943
 20
63.8137
 30
0.0
  0
VERTEX
  5
651
  8
LAYER_1
 62
   250
 10
-94.192
 20
63.8442
 30
0.0
  0
VERTEX
  5
652
  8
LAYER_1
 62
   250
 10
-93.9104
 20
63.9316
 30
0.0
  0
VERTEX
  5
653
  8
LAYER_1
 62
   250
 10
-93.6556
 20
64.0699
 30
0.0
  0
VERTEX
  5
654
  8
LAYER_1
 62
   250
 10
-93.4337
 20
64.2531
 30
0.0
  0
VERTEX
  5
655
  8
LAYER_1
 62
   250
 10
-93.2505
 20
64.475
 30
0.0
  0
VERTEX
  5
656
  8
LAYER_1
 62
   250
 10
-93.1122
 20
64.7298
 30
0.0
  0
VERTEX
  5
657
  8
LAYER_1
 62
   250
 10
-93.0248
 20
65.0114
 30
0.0
  0
VERTEX
  5
658
  8
LAYER_1
 62
   250
 10
-92.9943
 20
65.3137
 30
0.0
  0
VERTEX
  5
659
  8
LAYER_1
 62
   250
 10
-93.0248
 20
65.616
 30
0.0
  0
VERTEX
  5
65A
  8
LAYER_1
 62
   250
 10
-93.1122
 20
65.8976
 30
0.0
  0
VERTEX
  5
65B
  8
LAYER_1
 62
   250
 10
-93.2505
 20
66.1524
 30
0.0
  0
VERTEX
  5
65C
  8
LAYER_1
 62
   250
 10
-93.4337
 20
66.3744
 30
0.0
  0
VERTEX
  5
65D
  8
LAYER_1
 62
   250
 10
-93.6556
 20
66.5575
 30
0.0
  0
VERTEX
  5
65E
  8
LAYER_1
 62
   250
 10
-93.9104
 20
66.6958
 30
0.0
  0
VERTEX
  5
65F
  8
LAYER_1
 62
   250
 10
-94.192
 20
66.7832
 30
0.0
  0
VERTEX
  5
660
  8
LAYER_1
 62
   250
 10
-94.4943
 20
66.8137
 30
0.0
  0
VERTEX
  5
661
  8
LAYER_1
 62
   250
 10
-94.7966
 20
66.7832
 30
0.0
  0
VERTEX
  5
662
  8
LAYER_1
 62
   250
 10
-95.0782
 20
66.6958
 30
0.0
  0
VERTEX
  5
663
  8
LAYER_1
 62
   250
 10
-95.333
 20
66.5575
 30
0.0
  0
VERTEX
  5
664
  8
LAYER_1
 62
   250
 10
-95.555
 20
66.3744
 30
0.0
  0
VERTEX
  5
665
  8
LAYER_1
 62
   250
 10
-95.7381
 20
66.1524
 30
0.0
  0
VERTEX
  5
666
  8
LAYER_1
 62
   250
 10
-95.8764
 20
65.8976
 30
0.0
  0
VERTEX
  5
667
  8
LAYER_1
 62
   250
 10
-95.9638
 20
65.616
 30
0.0
  0
VERTEX
  5
668
  8
LAYER_1
 62
   250
 10
-95.9943
 20
65.3137
 30
0.0
  0
SEQEND
  5
669
  8
LAYER_1
 62
   250
  0
POLYLINE
  5
6D
  8
LAYER_1
 62
   250
 66
     1
 10
0.0
 20
0.0
 30
0.0
 70
     1
  0
VERTEX
  5
66A
  8
LAYER_1
 62
   250
 10
-95.9276
 20
57.0428
 30
0.0
  0
VERTEX
  5
66B
  8
LAYER_1
 62
   250
 10
-95.8971
 20
56.7405
 30
0.0
  0
VERTEX
  5
66C
  8
LAYER_1
 62
   250
 10
-95.8097
 20
56.4589
 30
0.0
  0
VERTEX
  5
66D
  8
LAYER_1
 62
   250
 10
-95.6714
 20
56.2041
 30
0.0
  0
VERTEX
  5
66E
  8
LAYER_1
 62
   250
 10
-95.4883
 20
55.9822
 30
0.0
  0
VERTEX
  5
66F
  8
LAYER_1
 62
   250
 10
-95.2663
 20
55.799
 30
0.0
  0
VERTEX
  5
670
  8
LAYER_1
 62
   250
 10
-95.0115
 20
55.6607
 30
0.0
  0
VERTEX
  5
671
  8
LAYER_1
 62
   250
 10
-94.7299
 20
55.5733
 30
0.0
  0
VERTEX
  5
672
  8
LAYER_1
 62
   250
 10
-94.4276
 20
55.5428
 30
0.0
  0
VERTEX
  5
673
  8
LAYER_1
 62
   250
 10
-94.1253
 20
55.5733
 30
0.0
  0
VERTEX
  5
674
  8
LAYER_1
 62
   250
 10
-93.8437
 20
55.6607
 30
0.0
  0
VERTEX
  5
675
  8
LAYER_1
 62
   250
 10
-93.5889
 20
55.799
 30
0.0
  0
VERTEX
  5
676
  8
LAYER_1
 62
   250
 10
-93.367
 20
55.9822
 30
0.0
  0
VERTEX
  5
677
  8
LAYER_1
 62
   250
 10
-93.1838
 20
56.2041
 30
0.0
  0
VERTEX
  5
678
  8
LAYER_1
 62
   250
 10
-93.0455
 20
56.4589
 30
0.0
  0
VERTEX
  5
679
  8
LAYER_1
 62
   250
 10
-92.9581
 20
56.7405
 30
0.0
  0
VERTEX
  5
67A
  8
LAYER_1
 62
   250
 10
-92.9276
 20
57.0428
 30
0.0
  0
VERTEX
  5
67B
  8
LAYER_1
 62
   250
 10
-92.9581
 20
57.3451
 30
0.0
  0
VERTEX
  5
67C
  8
LAYER_1
 62
   250
 10
-93.0455
 20
57.6267
 30
0.0
  0
VERTEX
  5
67D
  8
LAYER_1
 62
   250
 10
-93.1838
 20
57.8815
 30
0.0
  0
VERTEX
  5
67E
  8
LAYER_1
 62
   250
 10
-93.367
 20
58.1035
 30
0.0
  0
VERTEX
  5
67F
  8
LAYER_1
 62
   250
 10
-93.5889
 20
58.2866
 30
0.0
  0
VERTEX
  5
680
  8
LAYER_1
 62
   250
 10
-93.8437
 20
58.4249
 30
0.0
  0
VERTEX
  5
681
  8
LAYER_1
 62
   250
 10
-94.1253
 20
58.5123
 30
0.0
  0
VERTEX
  5
682
  8
LAYER_1
 62
   250
 10
-94.4276
 20
58.5428
 30
0.0
  0
VERTEX
  5
683
  8
LAYER_1
 62
   250
 10
-94.7299
 20
58.5123
 30
0.0
  0
VERTEX
  5
684
  8
LAYER_1
 62
   250
 10
-95.0115
 20
58.4249
 30
0.0
  0
VERTEX
  5
685
  8
LAYER_1
 62
   250
 10
-95.2663
 20
58.2866
 30
0.0
  0
VERTEX
  5
686
  8
LAYER_1
 62
   250
 10
-95.4883
 20
58.1035
 30
0.0
  0
VERTEX
  5
687
  8
LAYER_1
 62
   250
 10
-95.6714
 20
57.8815
 30
0.0
  0
VERTEX
  5
688
  8
LAYER_1
 62
   250
 10
-95.8097
 20
57.6267
 30
0.0
  0
VERTEX
  5
689
  8
LAYER_1
 62
   250
 10
-95.8971
 20
57.3451
 30
0.0
  0
VERTEX
  5
68A
  8
LAYER_1
 62
   250
 10
-95.9276
 20
57.0428
 30
0.0
  0
SEQEND
  5
68B
  8
LAYER_1
 62
   250
  0
POLYLINE
  5
6E
  8
LAYER_1
 62
   250
 66
     1
 10
0.0
 20
0.0
 30
0.0
 70
     1
  0
VERTEX
  5
68C
  8
LAYER_1
 62
   250
 10
-95.9276
 20
47.5428
 30
0.0
  0
VERTEX
  5
68D
  8
LAYER_1
 62
   250
 10
-95.8971
 20
47.2405
 30
0.0
  0
VERTEX
  5
68E
  8
LAYER_1
 62
   250
 10
-95.8097
 20
46.9589
 30
0.0
  0
VERTEX
  5
68F
  8
LAYER_1
 62
   250
 10
-95.6714
 20
46.7041
 30
0.0
  0
VERTEX
  5
690
  8
LAYER_1
 62
   250
 10
-95.4883
 20
46.4822
 30
0.0
  0
VERTEX
  5
691
  8
LAYER_1
 62
   250
 10
-95.2663
 20
46.299
 30
0.0
  0
VERTEX
  5
692
  8
LAYER_1
 62
   250
 10
-95.0115
 20
46.1607
 30
0.0
  0
VERTEX
  5
693
  8
LAYER_1
 62
   250
 10
-94.7299
 20
46.0733
 30
0.0
  0
VERTEX
  5
694
  8
LAYER_1
 62
   250
 10
-94.4276
 20
46.0428
 30
0.0
  0
VERTEX
  5
695
  8
LAYER_1
 62
   250
 10
-94.1253
 20
46.0733
 30
0.0
  0
VERTEX
  5
696
  8
LAYER_1
 62
   250
 10
-93.8437
 20
46.1607
 30
0.0
  0
VERTEX
  5
697
  8
LAYER_1
 62
   250
 10
-93.5889
 20
46.299
 30
0.0
  0
VERTEX
  5
698
  8
LAYER_1
 62
   250
 10
-93.367
 20
46.4822
 30
0.0
  0
VERTEX
  5
699
  8
LAYER_1
 62
   250
 10
-93.1838
 20
46.7041
 30
0.0
  0
VERTEX
  5
69A
  8
LAYER_1
 62
   250
 10
-93.0455
 20
46.9589
 30
0.0
  0
VERTEX
  5
69B
  8
LAYER_1
 62
   250
 10
-92.9581
 20
47.2405
 30
0.0
  0
VERTEX
  5
69C
  8
LAYER_1
 62
   250
 10
-92.9276
 20
47.5428
 30
0.0
  0
VERTEX
  5
69D
  8
LAYER_1
 62
   250
 10
-92.9581
 20
47.8451
 30
0.0
  0
VERTEX
  5
69E
  8
LAYER_1
 62
   250
 10
-93.0455
 20
48.1267
 30
0.0
  0
VERTEX
  5
69F
  8
LAYER_1
 62
   250
 10
-93.1838
 20
48.3815
 30
0.0
  0
VERTEX
  5
6A0
  8
LAYER_1
 62
   250
 10
-93.367
 20
48.6035
 30
0.0
  0
VERTEX
  5
6A1
  8
LAYER_1
 62
   250
 10
-93.5889
 20
48.7866
 30
0.0
  0
VERTEX
  5
6A2
  8
LAYER_1
 62
   250
 10
-93.8437
 20
48.9249
 30
0.0
  0
VERTEX
  5
6A3
  8
LAYER_1
 62
   250
 10
-94.1253
 20
49.0123
 30
0.0
  0
VERTEX
  5
6A4
  8
LAYER_1
 62
   250
 10
-94.4276
 20
49.0428
 30
0.0
  0
VERTEX
  5
6A5
  8
LAYER_1
 62
   250
 10
-94.7299
 20
49.0123
 30
0.0
  0
VERTEX
  5
6A6
  8
LAYER_1
 62
   250
 10
-95.0115
 20
48.9249
 30
0.0
  0
VERTEX
  5
6A7
  8
LAYER_1
 62
   250
 10
-95.2663
 20
48.7866
 30
0.0
  0
VERTEX
  5
6A8
  8
LAYER_1
 62
   250
 10
-95.4883
 20
48.6035
 30
0.0
  0
VERTEX
  5
6A9
  8
LAYER_1
 62
   250
 10
-95.6714
 20
48.3815
 30
0.0
  0
VERTEX
  5
6AA
  8
LAYER_1
 62
   250
 10
-95.8097
 20
48.1267
 30
0.0
  0
VERTEX
  5
6AB
  8
LAYER_1
 62
   250
 10
-95.8971
 20
47.8451
 30
0.0
  0
VERTEX
  5
6AC
  8
LAYER_1
 62
   250
 10
-95.9276
 20
47.5428
 30
0.0
  0
SEQEND
  5
6AD
  8
LAYER_1
 62
   250
  0
POLYLINE
  5
6F
  8
LAYER_1
 62
   250
 66
     1
 10
0.0
 20
0.0
 30
0.0
 70
     1
  0
VERTEX
  5
6AE
  8
LAYER_1
 62
   250
 10
-85.9943
 20
50.3137
 30
0.0
  0
VERTEX
  5
6AF
  8
LAYER_1
 62
   250
 10
-85.9638
 20
50.0114
 30
0.0
  0
VERTEX
  5
6B0
  8
LAYER_1
 62
   250
 10
-85.8764
 20
49.7298
 30
0.0
  0
VERTEX
  5
6B1
  8
LAYER_1
 62
   250
 10
-85.7381
 20
49.475
 30
0.0
  0
VERTEX
  5
6B2
  8
LAYER_1
 62
   250
 10
-85.555
 20
49.2531
 30
0.0
  0
VERTEX
  5
6B3
  8
LAYER_1
 62
   250
 10
-85.333
 20
49.0699
 30
0.0
  0
VERTEX
  5
6B4
  8
LAYER_1
 62
   250
 10
-85.0782
 20
48.9316
 30
0.0
  0
VERTEX
  5
6B5
  8
LAYER_1
 62
   250
 10
-84.7966
 20
48.8442
 30
0.0
  0
VERTEX
  5
6B6
  8
LAYER_1
 62
   250
 10
-84.4943
 20
48.8137
 30
0.0
  0
VERTEX
  5
6B7
  8
LAYER_1
 62
   250
 10
-84.192
 20
48.8442
 30
0.0
  0
VERTEX
  5
6B8
  8
LAYER_1
 62
   250
 10
-83.9104
 20
48.9316
 30
0.0
  0
VERTEX
  5
6B9
  8
LAYER_1
 62
   250
 10
-83.6556
 20
49.0699
 30
0.0
  0
VERTEX
  5
6BA
  8
LAYER_1
 62
   250
 10
-83.4337
 20
49.2531
 30
0.0
  0
VERTEX
  5
6BB
  8
LAYER_1
 62
   250
 10
-83.2505
 20
49.475
 30
0.0
  0
VERTEX
  5
6BC
  8
LAYER_1
 62
   250
 10
-83.1122
 20
49.7298
 30
0.0
  0
VERTEX
  5
6BD
  8
LAYER_1
 62
   250
 10
-83.0248
 20
50.0114
 30
0.0
  0
VERTEX
  5
6BE
  8
LAYER_1
 62
   250
 10
-82.9943
 20
50.3137
 30
0.0
  0
VERTEX
  5
6BF
  8
LAYER_1
 62
   250
 10
-83.0248
 20
50.616
 30
0.0
  0
VERTEX
  5
6C0
  8
LAYER_1
 62
   250
 10
-83.1122
 20
50.8976
 30
0.0
  0
VERTEX
  5
6C1
  8
LAYER_1
 62
   250
 10
-83.2505
 20
51.1524
 30
0.0
  0
VERTEX
  5
6C2
  8
LAYER_1
 62
   250
 10
-83.4337
 20
51.3744
 30
0.0
  0
VERTEX
  5
6C3
  8
LAYER_1
 62
   250
 10
-83.6556
 20
51.5575
 30
0.0
  0
VERTEX
  5
6C4
  8
LAYER_1
 62
   250
 10
-83.9104
 20
51.6958
 30
0.0
  0
VERTEX
  5
6C5
  8
LAYER_1
 62
   250
 10
-84.192
 20
51.7832
 30
0.0
  0
VERTEX
  5
6C6
  8
LAYER_1
 62
   250
 10
-84.4943
 20
51.8137
 30
0.0
  0
VERTEX
  5
6C7
  8
LAYER_1
 62
   250
 10
-84.7966
 20
51.7832
 30
0.0
  0
VERTEX
  5
6C8
  8
LAYER_1
 62
   250
 10
-85.0782
 20
51.6958
 30
0.0
  0
VERTEX
  5
6C9
  8
LAYER_1
 62
   250
 10
-85.333
 20
51.5575
 30
0.0
  0
VERTEX
  5
6CA
  8
LAYER_1
 62
   250
 10
-85.555
 20
51.3744
 30
0.0
  0
VERTEX
  5
6CB
  8
LAYER_1
 62
   250
 10
-85.7381
 20
51.1524
 30
0.0
  0
VERTEX
  5
6CC
  8
LAYER_1
 62
   250
 10
-85.8764
 20
50.8976
 30
0.0
  0
VERTEX
  5
6CD
  8
LAYER_1
 62
   250
 10
-85.9638
 20
50.616
 30
0.0
  0
VERTEX
  5
6CE
  8
LAYER_1
 62
   250
 10
-85.9943
 20
50.3137
 30
0.0
  0
SEQEND
  5
6CF
  8
LAYER_1
 62
   250
  0
POLYLINE
  5
70
  8
LAYER_1
 62
   250
 66
     1
 10
0.0
 20
0.0
 30
0.0
 70
     1
  0
VERTEX
  5
6D0
  8
LAYER_1
 62
   250
 10
-85.9943
 20
42.8137
 30
0.0
  0
VERTEX
  5
6D1
  8
LAYER_1
 62
   250
 10
-85.9638
 20
42.5114
 30
0.0
  0
VERTEX
  5
6D2
  8
LAYER_1
 62
   250
 10
-85.8764
 20
42.2298
 30
0.0
  0
VERTEX
  5
6D3
  8
LAYER_1
 62
   250
 10
-85.7381
 20
41.975
 30
0.0
  0
VERTEX
  5
6D4
  8
LAYER_1
 62
   250
 10
-85.555
 20
41.7531
 30
0.0
  0
VERTEX
  5
6D5
  8
LAYER_1
 62
   250
 10
-85.333
 20
41.5699
 30
0.0
  0
VERTEX
  5
6D6
  8
LAYER_1
 62
   250
 10
-85.0782
 20
41.4316
 30
0.0
  0
VERTEX
  5
6D7
  8
LAYER_1
 62
   250
 10
-84.7966
 20
41.3442
 30
0.0
  0
VERTEX
  5
6D8
  8
LAYER_1
 62
   250
 10
-84.4943
 20
41.3137
 30
0.0
  0
VERTEX
  5
6D9
  8
LAYER_1
 62
   250
 10
-84.192
 20
41.3442
 30
0.0
  0
VERTEX
  5
6DA
  8
LAYER_1
 62
   250
 10
-83.9104
 20
41.4316
 30
0.0
  0
VERTEX
  5
6DB
  8
LAYER_1
 62
   250
 10
-83.6556
 20
41.5699
 30
0.0
  0
VERTEX
  5
6DC
  8
LAYER_1
 62
   250
 10
-83.4337
 20
41.7531
 30
0.0
  0
VERTEX
  5
6DD
  8
LAYER_1
 62
   250
 10
-83.2505
 20
41.975
 30
0.0
  0
VERTEX
  5
6DE
  8
LAYER_1
 62
   250
 10
-83.1122
 20
42.2298
 30
0.0
  0
VERTEX
  5
6DF
  8
LAYER_1
 62
   250
 10
-83.0248
 20
42.5114
 30
0.0
  0
VERTEX
  5
6E0
  8
LAYER_1
 62
   250
 10
-82.9943
 20
42.8137
 30
0.0
  0
VERTEX
  5
6E1
  8
LAYER_1
 62
   250
 10
-83.0248
 20
43.116
 30
0.0
  0
VERTEX
  5
6E2
  8
LAYER_1
 62
   250
 10
-83.1122
 20
43.3976
 30
0.0
  0
VERTEX
  5
6E3
  8
LAYER_1
 62
   250
 10
-83.2505
 20
43.6524
 30
0.0
  0
VERTEX
  5
6E4
  8
LAYER_1
 62
   250
 10
-83.4337
 20
43.8744
 30
0.0
  0
VERTEX
  5
6E5
  8
LAYER_1
 62
   250
 10
-83.6556
 20
44.0575
 30
0.0
  0
VERTEX
  5
6E6
  8
LAYER_1
 62
   250
 10
-83.9104
 20
44.1958
 30
0.0
  0
VERTEX
  5
6E7
  8
LAYER_1
 62
   250
 10
-84.192
 20
44.2832
 30
0.0
  0
VERTEX
  5
6E8
  8
LAYER_1
 62
   250
 10
-84.4943
 20
44.3137
 30
0.0
  0
VERTEX
  5
6E9
  8
LAYER_1
 62
   250
 10
-84.7966
 20
44.2832
 30
0.0
  0
VERTEX
  5
6EA
  8
LAYER_1
 62
   250
 10
-85.0782
 20
44.1958
 30
0.0
  0
VERTEX
  5
6EB
  8
LAYER_1
 62
   250
 10
-85.333
 20
44.0575
 30
0.0
  0
VERTEX
  5
6EC
  8
LAYER_1
 62
   250
 10
-85.555
 20
43.8744
 30
0.0
  0
VERTEX
  5
6ED
  8
LAYER_1
 62
   250
 10
-85.7381
 20
43.6524
 30
0.0
  0
VERTEX
  5
6EE
  8
LAYER_1
 62
   250
 10
-85.8764
 20
43.3976
 30
0.0
  0
VERTEX
  5
6EF
  8
LAYER_1
 62
   250
 10
-85.9638
 20
43.116
 30
0.0
  0
VERTEX
  5
6F0
  8
LAYER_1
 62
   250
 10
-85.9943
 20
42.8137
 30
0.0
  0
SEQEND
  5
6F1
  8
LAYER_1
 62
   250
  0
POLYLINE
  5
71
  8
LAYER_1
 62
   250
 66
     1
 10
0.0
 20
0.0
 30
0.0
 70
     1
  0
VERTEX
  5
6F2
  8
LAYER_1
 62
   250
 10
-95.9943
 20
27.8137
 30
0.0
  0
VERTEX
  5
6F3
  8
LAYER_1
 62
   250
 10
-95.9638
 20
27.5114
 30
0.0
  0
VERTEX
  5
6F4
  8
LAYER_1
 62
   250
 10
-95.8764
 20
27.2298
 30
0.0
  0
VERTEX
  5
6F5
  8
LAYER_1
 62
   250
 10
-95.7381
 20
26.975
 30
0.0
  0
VERTEX
  5
6F6
  8
LAYER_1
 62
   250
 10
-95.555
 20
26.7531
 30
0.0
  0
VERTEX
  5
6F7
  8
LAYER_1
 62
   250
 10
-95.333
 20
26.5699
 30
0.0
  0
VERTEX
  5
6F8
  8
LAYER_1
 62
   250
 10
-95.0782
 20
26.4316
 30
0.0
  0
VERTEX
  5
6F9
  8
LAYER_1
 62
   250
 10
-94.7966
 20
26.3442
 30
0.0
  0
VERTEX
  5
6FA
  8
LAYER_1
 62
   250
 10
-94.4943
 20
26.3137
 30
0.0
  0
VERTEX
  5
6FB
  8
LAYER_1
 62
   250
 10
-94.192
 20
26.3442
 30
0.0
  0
VERTEX
  5
6FC
  8
LAYER_1
 62
   250
 10
-93.9104
 20
26.4316
 30
0.0
  0
VERTEX
  5
6FD
  8
LAYER_1
 62
   250
 10
-93.6556
 20
26.5699
 30
0.0
  0
VERTEX
  5
6FE
  8
LAYER_1
 62
   250
 10
-93.4337
 20
26.7531
 30
0.0
  0
VERTEX
  5
6FF
  8
LAYER_1
 62
   250
 10
-93.2505
 20
26.975
 30
0.0
  0
VERTEX
  5
700
  8
LAYER_1
 62
   250
 10
-93.1122
 20
27.2298
 30
0.0
  0
VERTEX
  5
701
  8
LAYER_1
 62
   250
 10
-93.0248
 20
27.5114
 30
0.0
  0
VERTEX
  5
702
  8
LAYER_1
 62
   250
 10
-92.9943
 20
27.8137
 30
0.0
  0
VERTEX
  5
703
  8
LAYER_1
 62
   250
 10
-93.0248
 20
28.116
 30
0.0
  0
VERTEX
  5
704
  8
LAYER_1
 62
   250
 10
-93.1122
 20
28.3976
 30
0.0
  0
VERTEX
  5
705
  8
LAYER_1
 62
   250
 10
-93.2505
 20
28.6524
 30
0.0
  0
VERTEX
  5
706
  8
LAYER_1
 62
   250
 10
-93.4337
 20
28.8744
 30
0.0
  0
VERTEX
  5
707
  8
LAYER_1
 62
   250
 10
-93.6556
 20
29.0575
 30
0.0
  0
VERTEX
  5
708
  8
LAYER_1
 62
   250
 10
-93.9104
 20
29.1958
 30
0.0
  0
VERTEX
  5
709
  8
LAYER_1
 62
   250
 10
-94.192
 20
29.2832
 30
0.0
  0
VERTEX
  5
70A
  8
LAYER_1
 62
   250
 10
-94.4943
 20
29.3137
 30
0.0
  0
VERTEX
  5
70B
  8
LAYER_1
 62
   250
 10
-94.7966
 20
29.2832
 30
0.0
  0
VERTEX
  5
70C
  8
LAYER_1
 62
   250
 10
-95.0782
 20
29.1958
 30
0.0
  0
VERTEX
  5
70D
  8
LAYER_1
 62
   250
 10
-95.333
 20
29.0575
 30
0.0
  0
VERTEX
  5
70E
  8
LAYER_1
 62
   250
 10
-95.555
 20
28.8744
 30
0.0
  0
VERTEX
  5
70F
  8
LAYER_1
 62
   250
 10
-95.7381
 20
28.6524
 30
0.0
  0
VERTEX
  5
710
  8
LAYER_1
 62
   250
 10
-95.8764
 20
28.3976
 30
0.0
  0
VERTEX
  5
711
  8
LAYER_1
 62
   250
 10
-95.9638
 20
28.116
 30
0.0
  0
VERTEX
  5
712
  8
LAYER_1
 62
   250
 10
-95.9943
 20
27.8137
 30
0.0
  0
SEQEND
  5
713
  8
LAYER_1
 62
   250
  0
POLYLINE
  5
72
  8
LAYER_1
 62
   250
 66
     1
 10
0.0
 20
0.0
 30
0.0
 70
     1
  0
VERTEX
  5
714
  8
LAYER_1
 62
   250
 10
-7.9941
 20
69.0641
 30
0.0
  0
VERTEX
  5
715
  8
LAYER_1
 62
   250
 10
-7.9535
 20
68.6611
 30
0.0
  0
VERTEX
  5
716
  8
LAYER_1
 62
   250
 10
-7.8369
 20
68.2856
 30
0.0
  0
VERTEX
  5
717
  8
LAYER_1
 62
   250
 10
-7.6525
 20
67.9459
 30
0.0
  0
VERTEX
  5
718
  8
LAYER_1
 62
   250
 10
-7.4083
 20
67.6499
 30
0.0
  0
VERTEX
  5
719
  8
LAYER_1
 62
   250
 10
-7.1123
 20
67.4057
 30
0.0
  0
VERTEX
  5
71A
  8
LAYER_1
 62
   250
 10
-6.7726
 20
67.2213
 30
0.0
  0
VERTEX
  5
71B
  8
LAYER_1
 62
   250
 10
-6.3971
 20
67.1047
 30
0.0
  0
VERTEX
  5
71C
  8
LAYER_1
 62
   250
 10
-5.9941
 20
67.0641
 30
0.0
  0
VERTEX
  5
71D
  8
LAYER_1
 62
   250
 10
-5.5911
 20
67.1047
 30
0.0
  0
VERTEX
  5
71E
  8
LAYER_1
 62
   250
 10
-5.2156
 20
67.2213
 30
0.0
  0
VERTEX
  5
71F
  8
LAYER_1
 62
   250
 10
-4.8759
 20
67.4057
 30
0.0
  0
VERTEX
  5
720
  8
LAYER_1
 62
   250
 10
-4.5799
 20
67.6499
 30
0.0
  0
VERTEX
  5
721
  8
LAYER_1
 62
   250
 10
-4.3357
 20
67.9459
 30
0.0
  0
VERTEX
  5
722
  8
LAYER_1
 62
   250
 10
-4.1513
 20
68.2856
 30
0.0
  0
VERTEX
  5
723
  8
LAYER_1
 62
   250
 10
-4.0347
 20
68.6611
 30
0.0
  0
VERTEX
  5
724
  8
LAYER_1
 62
   250
 10
-3.9941
 20
69.0641
 30
0.0
  0
VERTEX
  5
725
  8
LAYER_1
 62
   250
 10
-4.0347
 20
69.4671
 30
0.0
  0
VERTEX
  5
726
  8
LAYER_1
 62
   250
 10
-4.1513
 20
69.8426
 30
0.0
  0
VERTEX
  5
727
  8
LAYER_1
 62
   250
 10
-4.3357
 20
70.1823
 30
0.0
  0
VERTEX
  5
728
  8
LAYER_1
 62
   250
 10
-4.5799
 20
70.4783
 30
0.0
  0
VERTEX
  5
729
  8
LAYER_1
 62
   250
 10
-4.8759
 20
70.7225
 30
0.0
  0
VERTEX
  5
72A
  8
LAYER_1
 62
   250
 10
-5.2156
 20
70.9069
 30
0.0
  0
VERTEX
  5
72B
  8
LAYER_1
 62
   250
 10
-5.5911
 20
71.0235
 30
0.0
  0
VERTEX
  5
72C
  8
LAYER_1
 62
   250
 10
-5.9941
 20
71.0641
 30
0.0
  0
VERTEX
  5
72D
  8
LAYER_1
 62
   250
 10
-6.3971
 20
71.0235
 30
0.0
  0
VERTEX
  5
72E
  8
LAYER_1
 62
   250
 10
-6.7726
 20
70.9069
 30
0.0
  0
VERTEX
  5
72F
  8
LAYER_1
 62
   250
 10
-7.1123
 20
70.7225
 30
0.0
  0
VERTEX
  5
730
  8
LAYER_1
 62
   250
 10
-7.4083
 20
70.4783
 30
0.0
  0
VERTEX
  5
731
  8
LAYER_1
 62
   250
 10
-7.6525
 20
70.1823
 30
0.0
  0
VERTEX
  5
732
  8
LAYER_1
 62
   250
 10
-7.8369
 20
69.8426
 30
0.0
  0
VERTEX
  5
733
  8
LAYER_1
 62
   250
 10
-7.9535
 20
69.4671
 30
0.0
  0
VERTEX
  5
734
  8
LAYER_1
 62
   250
 10
-7.9941
 20
69.0641
 30
0.0
  0
SEQEND
  5
735
  8
LAYER_1
 62
   250
  0
POLYLINE
  5
73
  8
LAYER_1
 62
   250
 66
     1
 10
0.0
 20
0.0
 30
0.0
 70
     1
  0
VERTEX
  5
736
  8
LAYER_1
 62
   250
 10
48.0059
 20
69.0641
 30
0.0
  0
VERTEX
  5
737
  8
LAYER_1
 62
   250
 10
48.0465
 20
68.6611
 30
0.0
  0
VERTEX
  5
738
  8
LAYER_1
 62
   250
 10
48.1631
 20
68.2856
 30
0.0
  0
VERTEX
  5
739
  8
LAYER_1
 62
   250
 10
48.3475
 20
67.9459
 30
0.0
  0
VERTEX
  5
73A
  8
LAYER_1
 62
   250
 10
48.5917
 20
67.6499
 30
0.0
  0
VERTEX
  5
73B
  8
LAYER_1
 62
   250
 10
48.8877
 20
67.4057
 30
0.0
  0
VERTEX
  5
73C
  8
LAYER_1
 62
   250
 10
49.2274
 20
67.2213
 30
0.0
  0
VERTEX
  5
73D
  8
LAYER_1
 62
   250
 10
49.6029
 20
67.1047
 30
0.0
  0
VERTEX
  5
73E
  8
LAYER_1
 62
   250
 10
50.0059
 20
67.0641
 30
0.0
  0
VERTEX
  5
73F
  8
LAYER_1
 62
   250
 10
50.4089
 20
67.1047
 30
0.0
  0
VERTEX
  5
740
  8
LAYER_1
 62
   250
 10
50.7844
 20
67.2213
 30
0.0
  0
VERTEX
  5
741
  8
LAYER_1
 62
   250
 10
51.1241
 20
67.4057
 30
0.0
  0
VERTEX
  5
742
  8
LAYER_1
 62
   250
 10
51.4201
 20
67.6499
 30
0.0
  0
VERTEX
  5
743
  8
LAYER_1
 62
   250
 10
51.6643
 20
67.9459
 30
0.0
  0
VERTEX
  5
744
  8
LAYER_1
 62
   250
 10
51.8487
 20
68.2856
 30
0.0
  0
VERTEX
  5
745
  8
LAYER_1
 62
   250
 10
51.9653
 20
68.6611
 30
0.0
  0
VERTEX
  5
746
  8
LAYER_1
 62
   250
 10
52.0059
 20
69.0641
 30
0.0
  0
VERTEX
  5
747
  8
LAYER_1
 62
   250
 10
51.9653
 20
69.4671
 30
0.0
  0
VERTEX
  5
748
  8
LAYER_1
 62
   250
 10
51.8487
 20
69.8426
 30
0.0
  0
VERTEX
  5
749
  8
LAYER_1
 62
   250
 10
51.6643
 20
70.1823
 30
0.0
  0
VERTEX
  5
74A
  8
LAYER_1
 62
   250
 10
51.4201
 20
70.4783
 30
0.0
  0
VERTEX
  5
74B
  8
LAYER_1
 62
   250
 10
51.1241
 20
70.7225
 30
0.0
  0
VERTEX
  5
74C
  8
LAYER_1
 62
   250
 10
50.7844
 20
70.9069
 30
0.0
  0
VERTEX
  5
74D
  8
LAYER_1
 62
   250
 10
50.4089
 20
71.0235
 30
0.0
  0
VERTEX
  5
74E
  8
LAYER_1
 62
   250
 10
50.0059
 20
71.0641
 30
0.0
  0
VERTEX
  5
74F
  8
LAYER_1
 62
   250
 10
49.6029
 20
71.0235
 30
0.0
  0
VERTEX
  5
750
  8
LAYER_1
 62
   250
 10
49.2274
 20
70.9069
 30
0.0
  0
VERTEX
  5
751
  8
LAYER_1
 62
   250
 10
48.8877
 20
70.7225
 30
0.0
  0
VERTEX
  5
752
  8
LAYER_1
 62
   250
 10
48.5917
 20
70.4783
 30
0.0
  0
VERTEX
  5
753
  8
LAYER_1
 62
   250
 10
48.3475
 20
70.1823
 30
0.0
  0
VERTEX
  5
754
  8
LAYER_1
 62
   250
 10
48.1631
 20
69.8426
 30
0.0
  0
VERTEX
  5
755
  8
LAYER_1
 62
   250
 10
48.0465
 20
69.4671
 30
0.0
  0
VERTEX
  5
756
  8
LAYER_1
 62
   250
 10
48.0059
 20
69.0641
 30
0.0
  0
SEQEND
  5
757
  8
LAYER_1
 62
   250
  0
POLYLINE
  5
74
  8
LAYER_1
 62
   250
 66
     1
 10
0.0
 20
0.0
 30
0.0
 70
     1
  0
VERTEX
  5
758
  8
LAYER_1
 62
   250
 10
59.3326
 20
-120.4364
 30
0.0
  0
VERTEX
  5
759
  8
LAYER_1
 62
   250
 10
59.3326
 20
-115.9363
 30
0.0
  0
VERTEX
  5
75A
  8
LAYER_1
 62
   250
 10
69.3326
 20
-115.9363
 30
0.0
  0
VERTEX
  5
75B
  8
LAYER_1
 62
   250
 10
69.3326
 20
-135.9363
 30
0.0
  0
VERTEX
  5
75C
  8
LAYER_1
 62
   250
 10
59.3326
 20
-135.9363
 30
0.0
  0
VERTEX
  5
75D
  8
LAYER_1
 62
   250
 10
59.3326
 20
-131.4364
 30
0.0
  0
VERTEX
  5
75E
  8
LAYER_1
 62
   250
 10
34.4076
 20
-131.4364
 30
0.0
  0
VERTEX
  5
75F
  8
LAYER_1
 62
   250
 10
33.9908
 20
-131.3941
 30
0.0
  0
VERTEX
  5
760
  8
LAYER_1
 62
   250
 10
33.6019
 20
-131.2727
 30
0.0
  0
VERTEX
  5
761
  8
LAYER_1
 62
   250
 10
33.2495
 20
-131.0808
 30
0.0
  0
VERTEX
  5
762
  8
LAYER_1
 62
   250
 10
32.9421
 20
-130.8269
 30
0.0
  0
VERTEX
  5
763
  8
LAYER_1
 62
   250
 10
32.6882
 20
-130.5195
 30
0.0
  0
VERTEX
  5
764
  8
LAYER_1
 62
   250
 10
32.4963
 20
-130.1671
 30
0.0
  0
VERTEX
  5
765
  8
LAYER_1
 62
   250
 10
32.3749
 20
-129.7782
 30
0.0
  0
VERTEX
  5
766
  8
LAYER_1
 62
   250
 10
32.3326
 20
-129.3614
 30
0.0
  0
VERTEX
  5
767
  8
LAYER_1
 62
   250
 10
32.3326
 20
-122.5114
 30
0.0
  0
VERTEX
  5
768
  8
LAYER_1
 62
   250
 10
32.3749
 20
-122.0946
 30
0.0
  0
VERTEX
  5
769
  8
LAYER_1
 62
   250
 10
32.4963
 20
-121.7057
 30
0.0
  0
VERTEX
  5
76A
  8
LAYER_1
 62
   250
 10
32.6882
 20
-121.3533
 30
0.0
  0
VERTEX
  5
76B
  8
LAYER_1
 62
   250
 10
32.9421
 20
-121.0459
 30
0.0
  0
VERTEX
  5
76C
  8
LAYER_1
 62
   250
 10
33.2495
 20
-120.792
 30
0.0
  0
VERTEX
  5
76D
  8
LAYER_1
 62
   250
 10
33.6019
 20
-120.6001
 30
0.0
  0
VERTEX
  5
76E
  8
LAYER_1
 62
   250
 10
33.9908
 20
-120.4787
 30
0.0
  0
VERTEX
  5
76F
  8
LAYER_1
 62
   250
 10
34.4076
 20
-120.4364
 30
0.0
  0
VERTEX
  5
770
  8
LAYER_1
 62
   250
 10
59.3326
 20
-120.4364
 30
0.0
  0
SEQEND
  5
771
  8
LAYER_1
 62
   250
  0
POLYLINE
  5
75
  8
LAYER_1
 62
   250
 66
     1
 10
0.0
 20
0.0
 30
0.0
 70
     1
  0
VERTEX
  5
772
  8
LAYER_1
 62
   250
 10
37.8326
 20
-125.9364
 30
0.0
  0
VERTEX
  5
773
  8
LAYER_1
 62
   250
 10
37.8021
 20
-126.2387
 30
0.0
  0
VERTEX
  5
774
  8
LAYER_1
 62
   250
 10
37.7147
 20
-126.5203
 30
0.0
  0
VERTEX
  5
775
  8
LAYER_1
 62
   250
 10
37.5764
 20
-126.7751
 30
0.0
  0
VERTEX
  5
776
  8
LAYER_1
 62
   250
 10
37.3933
 20
-126.9971
 30
0.0
  0
VERTEX
  5
777
  8
LAYER_1
 62
   250
 10
37.1713
 20
-127.1802
 30
0.0
  0
VERTEX
  5
778
  8
LAYER_1
 62
   250
 10
36.9165
 20
-127.3185
 30
0.0
  0
VERTEX
  5
779
  8
LAYER_1
 62
   250
 10
36.6349
 20
-127.4059
 30
0.0
  0
VERTEX
  5
77A
  8
LAYER_1
 62
   250
 10
36.3326
 20
-127.4364
 30
0.0
  0
VERTEX
  5
77B
  8
LAYER_1
 62
   250
 10
36.0303
 20
-127.4059
 30
0.0
  0
VERTEX
  5
77C
  8
LAYER_1
 62
   250
 10
35.7487
 20
-127.3185
 30
0.0
  0
VERTEX
  5
77D
  8
LAYER_1
 62
   250
 10
35.4939
 20
-127.1802
 30
0.0
  0
VERTEX
  5
77E
  8
LAYER_1
 62
   250
 10
35.2719
 20
-126.9971
 30
0.0
  0
VERTEX
  5
77F
  8
LAYER_1
 62
   250
 10
35.0888
 20
-126.7751
 30
0.0
  0
VERTEX
  5
780
  8
LAYER_1
 62
   250
 10
34.9505
 20
-126.5203
 30
0.0
  0
VERTEX
  5
781
  8
LAYER_1
 62
   250
 10
34.8631
 20
-126.2387
 30
0.0
  0
VERTEX
  5
782
  8
LAYER_1
 62
   250
 10
34.8326
 20
-125.9364
 30
0.0
  0
VERTEX
  5
783
  8
LAYER_1
 62
   250
 10
34.8631
 20
-125.6341
 30
0.0
  0
VERTEX
  5
784
  8
LAYER_1
 62
   250
 10
34.9505
 20
-125.3525
 30
0.0
  0
VERTEX
  5
785
  8
LAYER_1
 62
   250
 10
35.0888
 20
-125.0977
 30
0.0
  0
VERTEX
  5
786
  8
LAYER_1
 62
   250
 10
35.2719
 20
-124.8758
 30
0.0
  0
VERTEX
  5
787
  8
LAYER_1
 62
   250
 10
35.4939
 20
-124.6926
 30
0.0
  0
VERTEX
  5
788
  8
LAYER_1
 62
   250
 10
35.7487
 20
-124.5543
 30
0.0
  0
VERTEX
  5
789
  8
LAYER_1
 62
   250
 10
36.0303
 20
-124.4669
 30
0.0
  0
VERTEX
  5
78A
  8
LAYER_1
 62
   250
 10
36.3326
 20
-124.4364
 30
0.0
  0
VERTEX
  5
78B
  8
LAYER_1
 62
   250
 10
36.6349
 20
-124.4669
 30
0.0
  0
VERTEX
  5
78C
  8
LAYER_1
 62
   250
 10
36.9165
 20
-124.5543
 30
0.0
  0
VERTEX
  5
78D
  8
LAYER_1
 62
   250
 10
37.1713
 20
-124.6926
 30
0.0
  0
VERTEX
  5
78E
  8
LAYER_1
 62
   250
 10
37.3933
 20
-124.8758
 30
0.0
  0
VERTEX
  5
78F
  8
LAYER_1
 62
   250
 10
37.5764
 20
-125.0977
 30
0.0
  0
VERTEX
  5
790
  8
LAYER_1
 62
   250
 10
37.7147
 20
-125.3525
 30
0.0
  0
VERTEX
  5
791
  8
LAYER_1
 62
   250
 10
37.8021
 20
-125.6341
 30
0.0
  0
VERTEX
  5
792
  8
LAYER_1
 62
   250
 10
37.8326
 20
-125.9364
 30
0.0
  0
SEQEND
  5
793
  8
LAYER_1
 62
   250
  0
POLYLINE
  5
76
  8
LAYER_1
 62
   250
 66
     1
 10
0.0
 20
0.0
 30
0.0
 70
     1
  0
VERTEX
  5
794
  8
LAYER_1
 62
   250
 10
58.3326
 20
-125.9364
 30
0.0
  0
VERTEX
  5
795
  8
LAYER_1
 62
   250
 10
58.3326
 20
-125.9364
 30
0.0
  0
VERTEX
  5
796
  8
LAYER_1
 62
   250
 10
58.302
 20
-126.2377
 30
0.0
  0
VERTEX
  5
797
  8
LAYER_1
 62
   250
 10
58.2143
 20
-126.5188
 30
0.0
  0
VERTEX
  5
798
  8
LAYER_1
 62
   250
 10
58.0755
 20
-126.7736
 30
0.0
  0
VERTEX
  5
799
  8
LAYER_1
 62
   250
 10
57.892
 20
-126.9958
 30
0.0
  0
VERTEX
  5
79A
  8
LAYER_1
 62
   250
 10
57.6698
 20
-127.1793
 30
0.0
  0
VERTEX
  5
79B
  8
LAYER_1
 62
   250
 10
57.4151
 20
-127.318
 30
0.0
  0
VERTEX
  5
79C
  8
LAYER_1
 62
   250
 10
57.1339
 20
-127.4058
 30
0.0
  0
VERTEX
  5
79D
  8
LAYER_1
 62
   250
 10
56.8326
 20
-127.4364
 30
0.0
  0
VERTEX
  5
79E
  8
LAYER_1
 62
   250
 10
50.8327
 20
-127.4364
 30
0.0
  0
VERTEX
  5
79F
  8
LAYER_1
 62
   250
 10
50.5313
 20
-127.4058
 30
0.0
  0
VERTEX
  5
7A0
  8
LAYER_1
 62
   250
 10
50.2502
 20
-127.318
 30
0.0
  0
VERTEX
  5
7A1
  8
LAYER_1
 62
   250
 10
49.9955
 20
-127.1793
 30
0.0
  0
VERTEX
  5
7A2
  8
LAYER_1
 62
   250
 10
49.7732
 20
-126.9958
 30
0.0
  0
VERTEX
  5
7A3
  8
LAYER_1
 62
   250
 10
49.5897
 20
-126.7736
 30
0.0
  0
VERTEX
  5
7A4
  8
LAYER_1
 62
   250
 10
49.451
 20
-126.5188
 30
0.0
  0
VERTEX
  5
7A5
  8
LAYER_1
 62
   250
 10
49.3632
 20
-126.2377
 30
0.0
  0
VERTEX
  5
7A6
  8
LAYER_1
 62
   250
 10
49.3326
 20
-125.9364
 30
0.0
  0
VERTEX
  5
7A7
  8
LAYER_1
 62
   250
 10
49.3326
 20
-125.9364
 30
0.0
  0
VERTEX
  5
7A8
  8
LAYER_1
 62
   250
 10
49.3632
 20
-125.6351
 30
0.0
  0
VERTEX
  5
7A9
  8
LAYER_1
 62
   250
 10
49.451
 20
-125.354
 30
0.0
  0
VERTEX
  5
7AA
  8
LAYER_1
 62
   250
 10
49.5897
 20
-125.0992
 30
0.0
  0
VERTEX
  5
7AB
  8
LAYER_1
 62
   250
 10
49.7732
 20
-124.877
 30
0.0
  0
VERTEX
  5
7AC
  8
LAYER_1
 62
   250
 10
49.9955
 20
-124.6935
 30
0.0
  0
VERTEX
  5
7AD
  8
LAYER_1
 62
   250
 10
50.2502
 20
-124.5548
 30
0.0
  0
VERTEX
  5
7AE
  8
LAYER_1
 62
   250
 10
50.5313
 20
-124.467
 30
0.0
  0
VERTEX
  5
7AF
  8
LAYER_1
 62
   250
 10
50.8327
 20
-124.4364
 30
0.0
  0
VERTEX
  5
7B0
  8
LAYER_1
 62
   250
 10
56.8326
 20
-124.4364
 30
0.0
  0
VERTEX
  5
7B1
  8
LAYER_1
 62
   250
 10
57.1339
 20
-124.467
 30
0.0
  0
VERTEX
  5
7B2
  8
LAYER_1
 62
   250
 10
57.4151
 20
-124.5548
 30
0.0
  0
VERTEX
  5
7B3
  8
LAYER_1
 62
   250
 10
57.6698
 20
-124.6935
 30
0.0
  0
VERTEX
  5
7B4
  8
LAYER_1
 62
   250
 10
57.892
 20
-124.877
 30
0.0
  0
VERTEX
  5
7B5
  8
LAYER_1
 62
   250
 10
58.0755
 20
-125.0992
 30
0.0
  0
VERTEX
  5
7B6
  8
LAYER_1
 62
   250
 10
58.2143
 20
-125.354
 30
0.0
  0
VERTEX
  5
7B7
  8
LAYER_1
 62
   250
 10
58.302
 20
-125.6351
 30
0.0
  0
VERTEX
  5
7B8
  8
LAYER_1
 62
   250
 10
58.3326
 20
-125.9364
 30
0.0
  0
SEQEND
  5
7B9
  8
LAYER_1
 62
   250
  0
POLYLINE
  5
77
  8
LAYER_1
 62
   250
 66
     1
 10
0.0
 20
0.0
 30
0.0
 70
     1
  0
VERTEX
  5
7BA
  8
LAYER_1
 62
   250
 10
59.3326
 20
9.5636
 30
0.0
  0
VERTEX
  5
7BB
  8
LAYER_1
 62
   250
 10
59.3326
 20
14.0637
 30
0.0
  0
VERTEX
  5
7BC
  8
LAYER_1
 62
   250
 10
69.3326
 20
14.0637
 30
0.0
  0
VERTEX
  5
7BD
  8
LAYER_1
 62
   250
 10
69.3326
 20
-5.9363
 30
0.0
  0
VERTEX
  5
7BE
  8
LAYER_1
 62
   250
 10
59.3326
 20
-5.9363
 30
0.0
  0
VERTEX
  5
7BF
  8
LAYER_1
 62
   250
 10
59.3326
 20
-1.4364
 30
0.0
  0
VERTEX
  5
7C0
  8
LAYER_1
 62
   250
 10
34.4076
 20
-1.4364
 30
0.0
  0
VERTEX
  5
7C1
  8
LAYER_1
 62
   250
 10
33.9908
 20
-1.3941
 30
0.0
  0
VERTEX
  5
7C2
  8
LAYER_1
 62
   250
 10
33.6019
 20
-1.2727
 30
0.0
  0
VERTEX
  5
7C3
  8
LAYER_1
 62
   250
 10
33.2495
 20
-1.0808
 30
0.0
  0
VERTEX
  5
7C4
  8
LAYER_1
 62
   250
 10
32.9421
 20
-0.8269
 30
0.0
  0
VERTEX
  5
7C5
  8
LAYER_1
 62
   250
 10
32.6882
 20
-0.5195
 30
0.0
  0
VERTEX
  5
7C6
  8
LAYER_1
 62
   250
 10
32.4963
 20
-0.1671
 30
0.0
  0
VERTEX
  5
7C7
  8
LAYER_1
 62
   250
 10
32.3749
 20
0.2218
 30
0.0
  0
VERTEX
  5
7C8
  8
LAYER_1
 62
   250
 10
32.3326
 20
0.6386
 30
0.0
  0
VERTEX
  5
7C9
  8
LAYER_1
 62
   250
 10
32.3326
 20
7.4886
 30
0.0
  0
VERTEX
  5
7CA
  8
LAYER_1
 62
   250
 10
32.3749
 20
7.9054
 30
0.0
  0
VERTEX
  5
7CB
  8
LAYER_1
 62
   250
 10
32.4963
 20
8.2943
 30
0.0
  0
VERTEX
  5
7CC
  8
LAYER_1
 62
   250
 10
32.6882
 20
8.6467
 30
0.0
  0
VERTEX
  5
7CD
  8
LAYER_1
 62
   250
 10
32.9421
 20
8.9541
 30
0.0
  0
VERTEX
  5
7CE
  8
LAYER_1
 62
   250
 10
33.2495
 20
9.208
 30
0.0
  0
VERTEX
  5
7CF
  8
LAYER_1
 62
   250
 10
33.6019
 20
9.3999
 30
0.0
  0
VERTEX
  5
7D0
  8
LAYER_1
 62
   250
 10
33.9908
 20
9.5213
 30
0.0
  0
VERTEX
  5
7D1
  8
LAYER_1
 62
   250
 10
34.4076
 20
9.5636
 30
0.0
  0
VERTEX
  5
7D2
  8
LAYER_1
 62
   250
 10
59.3326
 20
9.5636
 30
0.0
  0
SEQEND
  5
7D3
  8
LAYER_1
 62
   250
  0
POLYLINE
  5
78
  8
LAYER_1
 62
   250
 66
     1
 10
0.0
 20
0.0
 30
0.0
 70
     1
  0
VERTEX
  5
7D4
  8
LAYER_1
 62
   250
 10
37.8326
 20
4.0636
 30
0.0
  0
VERTEX
  5
7D5
  8
LAYER_1
 62
   250
 10
37.8021
 20
3.7613
 30
0.0
  0
VERTEX
  5
7D6
  8
LAYER_1
 62
   250
 10
37.7147
 20
3.4797
 30
0.0
  0
VERTEX
  5
7D7
  8
LAYER_1
 62
   250
 10
37.5764
 20
3.2249
 30
0.0
  0
VERTEX
  5
7D8
  8
LAYER_1
 62
   250
 10
37.3933
 20
3.003
 30
0.0
  0
VERTEX
  5
7D9
  8
LAYER_1
 62
   250
 10
37.1713
 20
2.8198
 30
0.0
  0
VERTEX
  5
7DA
  8
LAYER_1
 62
   250
 10
36.9165
 20
2.6815
 30
0.0
  0
VERTEX
  5
7DB
  8
LAYER_1
 62
   250
 10
36.6349
 20
2.5941
 30
0.0
  0
VERTEX
  5
7DC
  8
LAYER_1
 62
   250
 10
36.3326
 20
2.5636
 30
0.0
  0
VERTEX
  5
7DD
  8
LAYER_1
 62
   250
 10
36.0303
 20
2.5941
 30
0.0
  0
VERTEX
  5
7DE
  8
LAYER_1
 62
   250
 10
35.7487
 20
2.6815
 30
0.0
  0
VERTEX
  5
7DF
  8
LAYER_1
 62
   250
 10
35.4939
 20
2.8198
 30
0.0
  0
VERTEX
  5
7E0
  8
LAYER_1
 62
   250
 10
35.2719
 20
3.003
 30
0.0
  0
VERTEX
  5
7E1
  8
LAYER_1
 62
   250
 10
35.0888
 20
3.2249
 30
0.0
  0
VERTEX
  5
7E2
  8
LAYER_1
 62
   250
 10
34.9505
 20
3.4797
 30
0.0
  0
VERTEX
  5
7E3
  8
LAYER_1
 62
   250
 10
34.8631
 20
3.7613
 30
0.0
  0
VERTEX
  5
7E4
  8
LAYER_1
 62
   250
 10
34.8326
 20
4.0636
 30
0.0
  0
VERTEX
  5
7E5
  8
LAYER_1
 62
   250
 10
34.8631
 20
4.3659
 30
0.0
  0
VERTEX
  5
7E6
  8
LAYER_1
 62
   250
 10
34.9505
 20
4.6475
 30
0.0
  0
VERTEX
  5
7E7
  8
LAYER_1
 62
   250
 10
35.0888
 20
4.9023
 30
0.0
  0
VERTEX
  5
7E8
  8
LAYER_1
 62
   250
 10
35.2719
 20
5.1243
 30
0.0
  0
VERTEX
  5
7E9
  8
LAYER_1
 62
   250
 10
35.4939
 20
5.3074
 30
0.0
  0
VERTEX
  5
7EA
  8
LAYER_1
 62
   250
 10
35.7487
 20
5.4457
 30
0.0
  0
VERTEX
  5
7EB
  8
LAYER_1
 62
   250
 10
36.0303
 20
5.5331
 30
0.0
  0
VERTEX
  5
7EC
  8
LAYER_1
 62
   250
 10
36.3326
 20
5.5636
 30
0.0
  0
VERTEX
  5
7ED
  8
LAYER_1
 62
   250
 10
36.6349
 20
5.5331
 30
0.0
  0
VERTEX
  5
7EE
  8
LAYER_1
 62
   250
 10
36.9165
 20
5.4457
 30
0.0
  0
VERTEX
  5
7EF
  8
LAYER_1
 62
   250
 10
37.1713
 20
5.3074
 30
0.0
  0
VERTEX
  5
7F0
  8
LAYER_1
 62
   250
 10
37.3933
 20
5.1243
 30
0.0
  0
VERTEX
  5
7F1
  8
LAYER_1
 62
   250
 10
37.5764
 20
4.9023
 30
0.0
  0
VERTEX
  5
7F2
  8
LAYER_1
 62
   250
 10
37.7147
 20
4.6475
 30
0.0
  0
VERTEX
  5
7F3
  8
LAYER_1
 62
   250
 10
37.8021
 20
4.3659
 30
0.0
  0
VERTEX
  5
7F4
  8
LAYER_1
 62
   250
 10
37.8326
 20
4.0636
 30
0.0
  0
SEQEND
  5
7F5
  8
LAYER_1
 62
   250
  0
POLYLINE
  5
79
  8
LAYER_1
 62
   250
 66
     1
 10
0.0
 20
0.0
 30
0.0
 70
     1
  0
VERTEX
  5
7F6
  8
LAYER_1
 62
   250
 10
58.3326
 20
4.0636
 30
0.0
  0
VERTEX
  5
7F7
  8
LAYER_1
 62
   250
 10
58.3326
 20
4.0636
 30
0.0
  0
VERTEX
  5
7F8
  8
LAYER_1
 62
   250
 10
58.302
 20
3.7623
 30
0.0
  0
VERTEX
  5
7F9
  8
LAYER_1
 62
   250
 10
58.2143
 20
3.4812
 30
0.0
  0
VERTEX
  5
7FA
  8
LAYER_1
 62
   250
 10
58.0755
 20
3.2264
 30
0.0
  0
VERTEX
  5
7FB
  8
LAYER_1
 62
   250
 10
57.892
 20
3.0042
 30
0.0
  0
VERTEX
  5
7FC
  8
LAYER_1
 62
   250
 10
57.6698
 20
2.8207
 30
0.0
  0
VERTEX
  5
7FD
  8
LAYER_1
 62
   250
 10
57.4151
 20
2.682
 30
0.0
  0
VERTEX
  5
7FE
  8
LAYER_1
 62
   250
 10
57.1339
 20
2.5942
 30
0.0
  0
VERTEX
  5
7FF
  8
LAYER_1
 62
   250
 10
56.8326
 20
2.5636
 30
0.0
  0
VERTEX
  5
800
  8
LAYER_1
 62
   250
 10
50.8327
 20
2.5636
 30
0.0
  0
VERTEX
  5
801
  8
LAYER_1
 62
   250
 10
50.5313
 20
2.5942
 30
0.0
  0
VERTEX
  5
802
  8
LAYER_1
 62
   250
 10
50.2502
 20
2.682
 30
0.0
  0
VERTEX
  5
803
  8
LAYER_1
 62
   250
 10
49.9955
 20
2.8207
 30
0.0
  0
VERTEX
  5
804
  8
LAYER_1
 62
   250
 10
49.7732
 20
3.0042
 30
0.0
  0
VERTEX
  5
805
  8
LAYER_1
 62
   250
 10
49.5897
 20
3.2264
 30
0.0
  0
VERTEX
  5
806
  8
LAYER_1
 62
   250
 10
49.451
 20
3.4812
 30
0.0
  0
VERTEX
  5
807
  8
LAYER_1
 62
   250
 10
49.3632
 20
3.7623
 30
0.0
  0
VERTEX
  5
808
  8
LAYER_1
 62
   250
 10
49.3326
 20
4.0636
 30
0.0
  0
VERTEX
  5
809
  8
LAYER_1
 62
   250
 10
49.3326
 20
4.0636
 30
0.0
  0
VERTEX
  5
80A
  8
LAYER_1
 62
   250
 10
49.3632
 20
4.3649
 30
0.0
  0
VERTEX
  5
80B
  8
LAYER_1
 62
   250
 10
49.451
 20
4.646
 30
0.0
  0
VERTEX
  5
80C
  8
LAYER_1
 62
   250
 10
49.5897
 20
4.9008
 30
0.0
  0
VERTEX
  5
80D
  8
LAYER_1
 62
   250
 10
49.7732
 20
5.123
 30
0.0
  0
VERTEX
  5
80E
  8
LAYER_1
 62
   250
 10
49.9955
 20
5.3065
 30
0.0
  0
VERTEX
  5
80F
  8
LAYER_1
 62
   250
 10
50.2502
 20
5.4452
 30
0.0
  0
VERTEX
  5
810
  8
LAYER_1
 62
   250
 10
50.5313
 20
5.533
 30
0.0
  0
VERTEX
  5
811
  8
LAYER_1
 62
   250
 10
50.8327
 20
5.5636
 30
0.0
  0
VERTEX
  5
812
  8
LAYER_1
 62
   250
 10
56.8326
 20
5.5636
 30
0.0
  0
VERTEX
  5
813
  8
LAYER_1
 62
   250
 10
57.1339
 20
5.533
 30
0.0
  0
VERTEX
  5
814
  8
LAYER_1
 62
   250
 10
57.4151
 20
5.4452
 30
0.0
  0
VERTEX
  5
815
  8
LAYER_1
 62
   250
 10
57.6698
 20
5.3065
 30
0.0
  0
VERTEX
  5
816
  8
LAYER_1
 62
   250
 10
57.892
 20
5.123
 30
0.0
  0
VERTEX
  5
817
  8
LAYER_1
 62
   250
 10
58.0755
 20
4.9008
 30
0.0
  0
VERTEX
  5
818
  8
LAYER_1
 62
   250
 10
58.2143
 20
4.646
 30
0.0
  0
VERTEX
  5
819
  8
LAYER_1
 62
   250
 10
58.302
 20
4.3649
 30
0.0
  0
VERTEX
  5
81A
  8
LAYER_1
 62
   250
 10
58.3326
 20
4.0636
 30
0.0
  0
SEQEND
  5
81B
  8
LAYER_1
 62
   250
  0
POLYLINE
  5
7A
  8
LAYER_1
 62
   250
 66
     1
 10
0.0
 20
0.0
 30
0.0
 70
     1
  0
VERTEX
  5
81C
  8
LAYER_1
 62
   250
 10
22.3326
 20
-120.4365
 30
0.0
  0
VERTEX
  5
81D
  8
LAYER_1
 62
   250
 10
22.3326
 20
-115.9364
 30
0.0
  0
VERTEX
  5
81E
  8
LAYER_1
 62
   250
 10
32.3326
 20
-115.9364
 30
0.0
  0
VERTEX
  5
81F
  8
LAYER_1
 62
   250
 10
32.3326
 20
-135.9364
 30
0.0
  0
VERTEX
  5
820
  8
LAYER_1
 62
   250
 10
22.3326
 20
-135.9364
 30
0.0
  0
VERTEX
  5
821
  8
LAYER_1
 62
   250
 10
22.3326
 20
-131.4365
 30
0.0
  0
VERTEX
  5
822
  8
LAYER_1
 62
   250
 10
-2.5924
 20
-131.4365
 30
0.0
  0
VERTEX
  5
823
  8
LAYER_1
 62
   250
 10
-3.0092
 20
-131.3942
 30
0.0
  0
VERTEX
  5
824
  8
LAYER_1
 62
   250
 10
-3.3981
 20
-131.2728
 30
0.0
  0
VERTEX
  5
825
  8
LAYER_1
 62
   250
 10
-3.7505
 20
-131.0809
 30
0.0
  0
VERTEX
  5
826
  8
LAYER_1
 62
   250
 10
-4.0579
 20
-130.827
 30
0.0
  0
VERTEX
  5
827
  8
LAYER_1
 62
   250
 10
-4.3118
 20
-130.5196
 30
0.0
  0
VERTEX
  5
828
  8
LAYER_1
 62
   250
 10
-4.5037
 20
-130.1672
 30
0.0
  0
VERTEX
  5
829
  8
LAYER_1
 62
   250
 10
-4.6251
 20
-129.7783
 30
0.0
  0
VERTEX
  5
82A
  8
LAYER_1
 62
   250
 10
-4.6674
 20
-129.3615
 30
0.0
  0
VERTEX
  5
82B
  8
LAYER_1
 62
   250
 10
-4.6674
 20
-122.5115
 30
0.0
  0
VERTEX
  5
82C
  8
LAYER_1
 62
   250
 10
-4.6251
 20
-122.0947
 30
0.0
  0
VERTEX
  5
82D
  8
LAYER_1
 62
   250
 10
-4.5037
 20
-121.7058
 30
0.0
  0
VERTEX
  5
82E
  8
LAYER_1
 62
   250
 10
-4.3118
 20
-121.3534
 30
0.0
  0
VERTEX
  5
82F
  8
LAYER_1
 62
   250
 10
-4.0579
 20
-121.046
 30
0.0
  0
VERTEX
  5
830
  8
LAYER_1
 62
   250
 10
-3.7505
 20
-120.7921
 30
0.0
  0
VERTEX
  5
831
  8
LAYER_1
 62
   250
 10
-3.3981
 20
-120.6002
 30
0.0
  0
VERTEX
  5
832
  8
LAYER_1
 62
   250
 10
-3.0092
 20
-120.4788
 30
0.0
  0
VERTEX
  5
833
  8
LAYER_1
 62
   250
 10
-2.5924
 20
-120.4365
 30
0.0
  0
VERTEX
  5
834
  8
LAYER_1
 62
   250
 10
22.3326
 20
-120.4365
 30
0.0
  0
SEQEND
  5
835
  8
LAYER_1
 62
   250
  0
POLYLINE
  5
7B
  8
LAYER_1
 62
   250
 66
     1
 10
0.0
 20
0.0
 30
0.0
 70
     1
  0
VERTEX
  5
836
  8
LAYER_1
 62
   250
 10
0.8326
 20
-125.9365
 30
0.0
  0
VERTEX
  5
837
  8
LAYER_1
 62
   250
 10
0.8021
 20
-126.2388
 30
0.0
  0
VERTEX
  5
838
  8
LAYER_1
 62
   250
 10
0.7147
 20
-126.5204
 30
0.0
  0
VERTEX
  5
839
  8
LAYER_1
 62
   250
 10
0.5764
 20
-126.7752
 30
0.0
  0
VERTEX
  5
83A
  8
LAYER_1
 62
   250
 10
0.3933
 20
-126.9972
 30
0.0
  0
VERTEX
  5
83B
  8
LAYER_1
 62
   250
 10
0.1713
 20
-127.1803
 30
0.0
  0
VERTEX
  5
83C
  8
LAYER_1
 62
   250
 10
-0.0835
 20
-127.3186
 30
0.0
  0
VERTEX
  5
83D
  8
LAYER_1
 62
   250
 10
-0.3651
 20
-127.406
 30
0.0
  0
VERTEX
  5
83E
  8
LAYER_1
 62
   250
 10
-0.6674
 20
-127.4365
 30
0.0
  0
VERTEX
  5
83F
  8
LAYER_1
 62
   250
 10
-0.9697
 20
-127.406
 30
0.0
  0
VERTEX
  5
840
  8
LAYER_1
 62
   250
 10
-1.2513
 20
-127.3186
 30
0.0
  0
VERTEX
  5
841
  8
LAYER_1
 62
   250
 10
-1.5061
 20
-127.1803
 30
0.0
  0
VERTEX
  5
842
  8
LAYER_1
 62
   250
 10
-1.7281
 20
-126.9972
 30
0.0
  0
VERTEX
  5
843
  8
LAYER_1
 62
   250
 10
-1.9112
 20
-126.7752
 30
0.0
  0
VERTEX
  5
844
  8
LAYER_1
 62
   250
 10
-2.0495
 20
-126.5204
 30
0.0
  0
VERTEX
  5
845
  8
LAYER_1
 62
   250
 10
-2.1369
 20
-126.2388
 30
0.0
  0
VERTEX
  5
846
  8
LAYER_1
 62
   250
 10
-2.1674
 20
-125.9365
 30
0.0
  0
VERTEX
  5
847
  8
LAYER_1
 62
   250
 10
-2.1369
 20
-125.6342
 30
0.0
  0
VERTEX
  5
848
  8
LAYER_1
 62
   250
 10
-2.0495
 20
-125.3526
 30
0.0
  0
VERTEX
  5
849
  8
LAYER_1
 62
   250
 10
-1.9112
 20
-125.0978
 30
0.0
  0
VERTEX
  5
84A
  8
LAYER_1
 62
   250
 10
-1.7281
 20
-124.8759
 30
0.0
  0
VERTEX
  5
84B
  8
LAYER_1
 62
   250
 10
-1.5061
 20
-124.6927
 30
0.0
  0
VERTEX
  5
84C
  8
LAYER_1
 62
   250
 10
-1.2513
 20
-124.5544
 30
0.0
  0
VERTEX
  5
84D
  8
LAYER_1
 62
   250
 10
-0.9697
 20
-124.467
 30
0.0
  0
VERTEX
  5
84E
  8
LAYER_1
 62
   250
 10
-0.6674
 20
-124.4365
 30
0.0
  0
VERTEX
  5
84F
  8
LAYER_1
 62
   250
 10
-0.3651
 20
-124.467
 30
0.0
  0
VERTEX
  5
850
  8
LAYER_1
 62
   250
 10
-0.0835
 20
-124.5544
 30
0.0
  0
VERTEX
  5
851
  8
LAYER_1
 62
   250
 10
0.1713
 20
-124.6927
 30
0.0
  0
VERTEX
  5
852
  8
LAYER_1
 62
   250
 10
0.3933
 20
-124.8759
 30
0.0
  0
VERTEX
  5
853
  8
LAYER_1
 62
   250
 10
0.5764
 20
-125.0978
 30
0.0
  0
VERTEX
  5
854
  8
LAYER_1
 62
   250
 10
0.7147
 20
-125.3526
 30
0.0
  0
VERTEX
  5
855
  8
LAYER_1
 62
   250
 10
0.8021
 20
-125.6342
 30
0.0
  0
VERTEX
  5
856
  8
LAYER_1
 62
   250
 10
0.8326
 20
-125.9365
 30
0.0
  0
SEQEND
  5
857
  8
LAYER_1
 62
   250
  0
POLYLINE
  5
7C
  8
LAYER_1
 62
   250
 66
     1
 10
0.0
 20
0.0
 30
0.0
 70
     1
  0
VERTEX
  5
858
  8
LAYER_1
 62
   250
 10
21.3326
 20
-125.9365
 30
0.0
  0
VERTEX
  5
859
  8
LAYER_1
 62
   250
 10
21.3326
 20
-125.9365
 30
0.0
  0
VERTEX
  5
85A
  8
LAYER_1
 62
   250
 10
21.302
 20
-126.2378
 30
0.0
  0
VERTEX
  5
85B
  8
LAYER_1
 62
   250
 10
21.2143
 20
-126.5189
 30
0.0
  0
VERTEX
  5
85C
  8
LAYER_1
 62
   250
 10
21.0755
 20
-126.7737
 30
0.0
  0
VERTEX
  5
85D
  8
LAYER_1
 62
   250
 10
20.892
 20
-126.9959
 30
0.0
  0
VERTEX
  5
85E
  8
LAYER_1
 62
   250
 10
20.6698
 20
-127.1794
 30
0.0
  0
VERTEX
  5
85F
  8
LAYER_1
 62
   250
 10
20.4151
 20
-127.3181
 30
0.0
  0
VERTEX
  5
860
  8
LAYER_1
 62
   250
 10
20.1339
 20
-127.4059
 30
0.0
  0
VERTEX
  5
861
  8
LAYER_1
 62
   250
 10
19.8326
 20
-127.4365
 30
0.0
  0
VERTEX
  5
862
  8
LAYER_1
 62
   250
 10
13.8327
 20
-127.4365
 30
0.0
  0
VERTEX
  5
863
  8
LAYER_1
 62
   250
 10
13.5313
 20
-127.4059
 30
0.0
  0
VERTEX
  5
864
  8
LAYER_1
 62
   250
 10
13.2502
 20
-127.3181
 30
0.0
  0
VERTEX
  5
865
  8
LAYER_1
 62
   250
 10
12.9955
 20
-127.1794
 30
0.0
  0
VERTEX
  5
866
  8
LAYER_1
 62
   250
 10
12.7732
 20
-126.9959
 30
0.0
  0
VERTEX
  5
867
  8
LAYER_1
 62
   250
 10
12.5897
 20
-126.7737
 30
0.0
  0
VERTEX
  5
868
  8
LAYER_1
 62
   250
 10
12.451
 20
-126.5189
 30
0.0
  0
VERTEX
  5
869
  8
LAYER_1
 62
   250
 10
12.3632
 20
-126.2378
 30
0.0
  0
VERTEX
  5
86A
  8
LAYER_1
 62
   250
 10
12.3326
 20
-125.9365
 30
0.0
  0
VERTEX
  5
86B
  8
LAYER_1
 62
   250
 10
12.3326
 20
-125.9365
 30
0.0
  0
VERTEX
  5
86C
  8
LAYER_1
 62
   250
 10
12.3632
 20
-125.6352
 30
0.0
  0
VERTEX
  5
86D
  8
LAYER_1
 62
   250
 10
12.451
 20
-125.3541
 30
0.0
  0
VERTEX
  5
86E
  8
LAYER_1
 62
   250
 10
12.5897
 20
-125.0993
 30
0.0
  0
VERTEX
  5
86F
  8
LAYER_1
 62
   250
 10
12.7732
 20
-124.8771
 30
0.0
  0
VERTEX
  5
870
  8
LAYER_1
 62
   250
 10
12.9955
 20
-124.6936
 30
0.0
  0
VERTEX
  5
871
  8
LAYER_1
 62
   250
 10
13.2502
 20
-124.5549
 30
0.0
  0
VERTEX
  5
872
  8
LAYER_1
 62
   250
 10
13.5313
 20
-124.4671
 30
0.0
  0
VERTEX
  5
873
  8
LAYER_1
 62
   250
 10
13.8327
 20
-124.4365
 30
0.0
  0
VERTEX
  5
874
  8
LAYER_1
 62
   250
 10
19.8326
 20
-124.4365
 30
0.0
  0
VERTEX
  5
875
  8
LAYER_1
 62
   250
 10
20.1339
 20
-124.4671
 30
0.0
  0
VERTEX
  5
876
  8
LAYER_1
 62
   250
 10
20.4151
 20
-124.5549
 30
0.0
  0
VERTEX
  5
877
  8
LAYER_1
 62
   250
 10
20.6698
 20
-124.6936
 30
0.0
  0
VERTEX
  5
878
  8
LAYER_1
 62
   250
 10
20.892
 20
-124.8771
 30
0.0
  0
VERTEX
  5
879
  8
LAYER_1
 62
   250
 10
21.0755
 20
-125.0993
 30
0.0
  0
VERTEX
  5
87A
  8
LAYER_1
 62
   250
 10
21.2143
 20
-125.3541
 30
0.0
  0
VERTEX
  5
87B
  8
LAYER_1
 62
   250
 10
21.302
 20
-125.6352
 30
0.0
  0
VERTEX
  5
87C
  8
LAYER_1
 62
   250
 10
21.3326
 20
-125.9365
 30
0.0
  0
SEQEND
  5
87D
  8
LAYER_1
 62
   250
  0
POLYLINE
  5
7D
  8
LAYER_1
 62
   250
 66
     1
 10
0.0
 20
0.0
 30
0.0
 70
     1
  0
VERTEX
  5
87E
  8
LAYER_1
 62
   250
 10
-1.6674
 20
-115.9363
 30
0.0
  0
VERTEX
  5
87F
  8
LAYER_1
 62
   250
 10
-81.6674
 20
-115.9363
 30
0.0
  0
VERTEX
  5
880
  8
LAYER_1
 62
   250
 10
-85.6981
 20
-115.53
 30
0.0
  0
VERTEX
  5
881
  8
LAYER_1
 62
   250
 10
-89.4523
 20
-114.3646
 30
0.0
  0
VERTEX
  5
882
  8
LAYER_1
 62
   250
 10
-92.8496
 20
-112.5206
 30
0.0
  0
VERTEX
  5
883
  8
LAYER_1
 62
   250
 10
-95.8095
 20
-110.0784
 30
0.0
  0
VERTEX
  5
884
  8
LAYER_1
 62
   250
 10
-98.2517
 20
-107.1185
 30
0.0
  0
VERTEX
  5
885
  8
LAYER_1
 62
   250
 10
-100.0957
 20
-103.7212
 30
0.0
  0
VERTEX
  5
886
  8
LAYER_1
 62
   250
 10
-101.2611
 20
-99.967
 30
0.0
  0
VERTEX
  5
887
  8
LAYER_1
 62
   250
 10
-101.6674
 20
-95.9363
 30
0.0
  0
VERTEX
  5
888
  8
LAYER_1
 62
   250
 10
-101.6674
 20
-25.9363
 30
0.0
  0
VERTEX
  5
889
  8
LAYER_1
 62
   250
 10
-101.2611
 20
-21.9056
 30
0.0
  0
VERTEX
  5
88A
  8
LAYER_1
 62
   250
 10
-100.0957
 20
-18.1514
 30
0.0
  0
VERTEX
  5
88B
  8
LAYER_1
 62
   250
 10
-98.2517
 20
-14.7541
 30
0.0
  0
VERTEX
  5
88C
  8
LAYER_1
 62
   250
 10
-95.8095
 20
-11.7942
 30
0.0
  0
VERTEX
  5
88D
  8
LAYER_1
 62
   250
 10
-92.8496
 20
-9.352
 30
0.0
  0
VERTEX
  5
88E
  8
LAYER_1
 62
   250
 10
-89.4523
 20
-7.508
 30
0.0
  0
VERTEX
  5
88F
  8
LAYER_1
 62
   250
 10
-85.6981
 20
-6.3426
 30
0.0
  0
VERTEX
  5
890
  8
LAYER_1
 62
   250
 10
-81.6674
 20
-5.9363
 30
0.0
  0
VERTEX
  5
891
  8
LAYER_1
 62
   250
 10
-1.6674
 20
-5.9363
 30
0.0
  0
VERTEX
  5
892
  8
LAYER_1
 62
   250
 10
-1.6674
 20
-7.9363
 30
0.0
  0
VERTEX
  5
893
  8
LAYER_1
 62
   250
 10
9.3326
 20
-7.9363
 30
0.0
  0
VERTEX
  5
894
  8
LAYER_1
 62
   250
 10
9.3326
 20
-5.9363
 30
0.0
  0
VERTEX
  5
895
  8
LAYER_1
 62
   250
 10
69.3326
 20
-5.9363
 30
0.0
  0
VERTEX
  5
896
  8
LAYER_1
 62
   250
 10
69.3326
 20
14.0636
 30
0.0
  0
VERTEX
  5
897
  8
LAYER_1
 62
   250
 10
73.0919
 20
13.5108
 30
0.0
  0
VERTEX
  5
898
  8
LAYER_1
 62
   250
 10
76.9953
 20
11.9004
 30
0.0
  0
VERTEX
  5
899
  8
LAYER_1
 62
   250
 10
80.9284
 20
9.3045
 30
0.0
  0
VERTEX
  5
89A
  8
LAYER_1
 62
   250
 10
84.7767
 20
5.795
 30
0.0
  0
VERTEX
  5
89B
  8
LAYER_1
 62
   250
 10
88.4256
 20
1.4442
 30
0.0
  0
VERTEX
  5
89C
  8
LAYER_1
 62
   250
 10
91.7609
 20
-3.676
 30
0.0
  0
VERTEX
  5
89D
  8
LAYER_1
 62
   250
 10
94.6681
 20
-9.4936
 30
0.0
  0
VERTEX
  5
89E
  8
LAYER_1
 62
   250
 10
97.0326
 20
-15.9364
 30
0.0
  0
VERTEX
  5
89F
  8
LAYER_1
 62
   250
 10
98.3788
 20
-20.7901
 30
0.0
  0
VERTEX
  5
8A0
  8
LAYER_1
 62
   250
 10
99.5321
 20
-25.8848
 30
0.0
  0
VERTEX
  5
8A1
  8
LAYER_1
 62
   250
 10
100.4967
 20
-31.2102
 30
0.0
  0
VERTEX
  5
8A2
  8
LAYER_1
 62
   250
 10
101.2766
 20
-36.7559
 30
0.0
  0
VERTEX
  5
8A3
  8
LAYER_1
 62
   250
 10
101.876
 20
-42.5117
 30
0.0
  0
VERTEX
  5
8A4
  8
LAYER_1
 62
   250
 10
102.2991
 20
-48.4673
 30
0.0
  0
VERTEX
  5
8A5
  8
LAYER_1
 62
   250
 10
102.5499
 20
-54.6123
 30
0.0
  0
VERTEX
  5
8A6
  8
LAYER_1
 62
   250
 10
102.6326
 20
-60.9364
 30
0.0
  0
VERTEX
  5
8A7
  8
LAYER_1
 62
   250
 10
102.5482
 20
-67.2327
 30
0.0
  0
VERTEX
  5
8A8
  8
LAYER_1
 62
   250
 10
102.2932
 20
-73.3677
 30
0.0
  0
VERTEX
  5
8A9
  8
LAYER_1
 62
   250
 10
101.8651
 20
-79.3261
 30
0.0
  0
VERTEX
  5
8AA
  8
LAYER_1
 62
   250
 10
101.261
 20
-85.0928
 30
0.0
  0
VERTEX
  5
8AB
  8
LAYER_1
 62
   250
 10
100.4784
 20
-90.6524
 30
0.0
  0
VERTEX
  5
8AC
  8
LAYER_1
 62
   250
 10
99.5145
 20
-95.9897
 30
0.0
  0
VERTEX
  5
8AD
  8
LAYER_1
 62
   250
 10
98.3668
 20
-101.0894
 30
0.0
  0
VERTEX
  5
8AE
  8
LAYER_1
 62
   250
 10
97.0326
 20
-105.9364
 30
0.0
  0
VERTEX
  5
8AF
  8
LAYER_1
 62
   250
 10
94.6708
 20
-112.4163
 30
0.0
  0
VERTEX
  5
8B0
  8
LAYER_1
 62
   250
 10
91.7683
 20
-118.2512
 30
0.0
  0
VERTEX
  5
8B1
  8
LAYER_1
 62
   250
 10
88.4381
 20
-123.3737
 30
0.0
  0
VERTEX
  5
8B2
  8
LAYER_1
 62
   250
 10
84.7934
 20
-127.7163
 30
0.0
  0
VERTEX
  5
8B3
  8
LAYER_1
 62
   250
 10
80.9474
 20
-131.2113
 30
0.0
  0
VERTEX
  5
8B4
  8
LAYER_1
 62
   250
 10
77.0132
 20
-133.7913
 30
0.0
  0
VERTEX
  5
8B5
  8
LAYER_1
 62
   250
 10
73.1039
 20
-135.3889
 30
0.0
  0
VERTEX
  5
8B6
  8
LAYER_1
 62
   250
 10
69.3327
 20
-135.9364
 30
0.0
  0
VERTEX
  5
8B7
  8
LAYER_1
 62
   250
 10
69.3326
 20
-115.9363
 30
0.0
  0
VERTEX
  5
8B8
  8
LAYER_1
 62
   250
 10
9.3326
 20
-115.9363
 30
0.0
  0
VERTEX
  5
8B9
  8
LAYER_1
 62
   250
 10
9.3326
 20
-113.9363
 30
0.0
  0
VERTEX
  5
8BA
  8
LAYER_1
 62
   250
 10
-1.6674
 20
-113.9363
 30
0.0
  0
VERTEX
  5
8BB
  8
LAYER_1
 62
   250
 10
-1.6674
 20
-115.9363
 30
0.0
  0
SEQEND
  5
8BC
  8
LAYER_1
 62
   250
  0
POLYLINE
  5
7E
  8
LAYER_1
 62
   250
 66
     1
 10
0.0
 20
0.0
 30
0.0
 70
     1
  0
VERTEX
  5
8BD
  8
LAYER_1
 62
   250
 10
-36.8006
 20
-18.2023
 30
0.0
  0
VERTEX
  5
8BE
  8
LAYER_1
 62
   250
 10
-36.8006
 20
-23.2025
 30
0.0
  0
VERTEX
  5
8BF
  8
LAYER_1
 62
   250
 10
-36.8516
 20
-23.7047
 30
0.0
  0
VERTEX
  5
8C0
  8
LAYER_1
 62
   250
 10
-36.9979
 20
-24.1732
 30
0.0
  0
VERTEX
  5
8C1
  8
LAYER_1
 62
   250
 10
-37.229
 20
-24.5977
 30
0.0
  0
VERTEX
  5
8C2
  8
LAYER_1
 62
   250
 10
-37.5349
 20
-24.9681
 30
0.0
  0
VERTEX
  5
8C3
  8
LAYER_1
 62
   250
 10
-37.9053
 20
-25.274
 30
0.0
  0
VERTEX
  5
8C4
  8
LAYER_1
 62
   250
 10
-38.3298
 20
-25.5052
 30
0.0
  0
VERTEX
  5
8C5
  8
LAYER_1
 62
   250
 10
-38.7983
 20
-25.6514
 30
0.0
  0
VERTEX
  5
8C6
  8
LAYER_1
 62
   250
 10
-39.3005
 20
-25.7024
 30
0.0
  0
VERTEX
  5
8C7
  8
LAYER_1
 62
   250
 10
-39.3007
 20
-25.7024
 30
0.0
  0
VERTEX
  5
8C8
  8
LAYER_1
 62
   250
 10
-39.8029
 20
-25.6514
 30
0.0
  0
VERTEX
  5
8C9
  8
LAYER_1
 62
   250
 10
-40.2714
 20
-25.5052
 30
0.0
  0
VERTEX
  5
8CA
  8
LAYER_1
 62
   250
 10
-40.6959
 20
-25.274
 30
0.0
  0
VERTEX
  5
8CB
  8
LAYER_1
 62
   250
 10
-41.0663
 20
-24.9681
 30
0.0
  0
VERTEX
  5
8CC
  8
LAYER_1
 62
   250
 10
-41.3722
 20
-24.5977
 30
0.0
  0
VERTEX
  5
8CD
  8
LAYER_1
 62
   250
 10
-41.6034
 20
-24.1732
 30
0.0
  0
VERTEX
  5
8CE
  8
LAYER_1
 62
   250
 10
-41.7496
 20
-23.7047
 30
0.0
  0
VERTEX
  5
8CF
  8
LAYER_1
 62
   250
 10
-41.8006
 20
-23.2025
 30
0.0
  0
VERTEX
  5
8D0
  8
LAYER_1
 62
   250
 10
-41.8006
 20
-18.2023
 30
0.0
  0
VERTEX
  5
8D1
  8
LAYER_1
 62
   250
 10
-41.7496
 20
-17.7001
 30
0.0
  0
VERTEX
  5
8D2
  8
LAYER_1
 62
   250
 10
-41.6034
 20
-17.2316
 30
0.0
  0
VERTEX
  5
8D3
  8
LAYER_1
 62
   250
 10
-41.3722
 20
-16.8071
 30
0.0
  0
VERTEX
  5
8D4
  8
LAYER_1
 62
   250
 10
-41.0663
 20
-16.4367
 30
0.0
  0
VERTEX
  5
8D5
  8
LAYER_1
 62
   250
 10
-40.6959
 20
-16.1308
 30
0.0
  0
VERTEX
  5
8D6
  8
LAYER_1
 62
   250
 10
-40.2714
 20
-15.8997
 30
0.0
  0
VERTEX
  5
8D7
  8
LAYER_1
 62
   250
 10
-39.8029
 20
-15.7534
 30
0.0
  0
VERTEX
  5
8D8
  8
LAYER_1
 62
   250
 10
-39.3007
 20
-15.7024
 30
0.0
  0
VERTEX
  5
8D9
  8
LAYER_1
 62
   250
 10
-39.3005
 20
-15.7024
 30
0.0
  0
VERTEX
  5
8DA
  8
LAYER_1
 62
   250
 10
-38.7983
 20
-15.7534
 30
0.0
  0
VERTEX
  5
8DB
  8
LAYER_1
 62
   250
 10
-38.3298
 20
-15.8997
 30
0.0
  0
VERTEX
  5
8DC
  8
LAYER_1
 62
   250
 10
-37.9053
 20
-16.1308
 30
0.0
  0
VERTEX
  5
8DD
  8
LAYER_1
 62
   250
 10
-37.5349
 20
-16.4367
 30
0.0
  0
VERTEX
  5
8DE
  8
LAYER_1
 62
   250
 10
-37.229
 20
-16.8071
 30
0.0
  0
VERTEX
  5
8DF
  8
LAYER_1
 62
   250
 10
-36.9979
 20
-17.2316
 30
0.0
  0
VERTEX
  5
8E0
  8
LAYER_1
 62
   250
 10
-36.8516
 20
-17.7001
 30
0.0
  0
VERTEX
  5
8E1
  8
LAYER_1
 62
   250
 10
-36.8006
 20
-18.2023
 30
0.0
  0
SEQEND
  5
8E2
  8
LAYER_1
 62
   250
  0
POLYLINE
  5
7F
  8
LAYER_1
 62
   250
 66
     1
 10
0.0
 20
0.0
 30
0.0
 70
     1
  0
VERTEX
  5
8E3
  8
LAYER_1
 62
   250
 10
-46.8006
 20
-18.2023
 30
0.0
  0
VERTEX
  5
8E4
  8
LAYER_1
 62
   250
 10
-46.8006
 20
-23.2025
 30
0.0
  0
VERTEX
  5
8E5
  8
LAYER_1
 62
   250
 10
-46.8516
 20
-23.7047
 30
0.0
  0
VERTEX
  5
8E6
  8
LAYER_1
 62
   250
 10
-46.9979
 20
-24.1732
 30
0.0
  0
VERTEX
  5
8E7
  8
LAYER_1
 62
   250
 10
-47.229
 20
-24.5977
 30
0.0
  0
VERTEX
  5
8E8
  8
LAYER_1
 62
   250
 10
-47.5349
 20
-24.9681
 30
0.0
  0
VERTEX
  5
8E9
  8
LAYER_1
 62
   250
 10
-47.9053
 20
-25.274
 30
0.0
  0
VERTEX
  5
8EA
  8
LAYER_1
 62
   250
 10
-48.3298
 20
-25.5052
 30
0.0
  0
VERTEX
  5
8EB
  8
LAYER_1
 62
   250
 10
-48.7983
 20
-25.6514
 30
0.0
  0
VERTEX
  5
8EC
  8
LAYER_1
 62
   250
 10
-49.3005
 20
-25.7024
 30
0.0
  0
VERTEX
  5
8ED
  8
LAYER_1
 62
   250
 10
-49.3007
 20
-25.7024
 30
0.0
  0
VERTEX
  5
8EE
  8
LAYER_1
 62
   250
 10
-49.8029
 20
-25.6514
 30
0.0
  0
VERTEX
  5
8EF
  8
LAYER_1
 62
   250
 10
-50.2714
 20
-25.5052
 30
0.0
  0
VERTEX
  5
8F0
  8
LAYER_1
 62
   250
 10
-50.6959
 20
-25.274
 30
0.0
  0
VERTEX
  5
8F1
  8
LAYER_1
 62
   250
 10
-51.0663
 20
-24.9681
 30
0.0
  0
VERTEX
  5
8F2
  8
LAYER_1
 62
   250
 10
-51.3722
 20
-24.5977
 30
0.0
  0
VERTEX
  5
8F3
  8
LAYER_1
 62
   250
 10
-51.6034
 20
-24.1732
 30
0.0
  0
VERTEX
  5
8F4
  8
LAYER_1
 62
   250
 10
-51.7496
 20
-23.7047
 30
0.0
  0
VERTEX
  5
8F5
  8
LAYER_1
 62
   250
 10
-51.8006
 20
-23.2025
 30
0.0
  0
VERTEX
  5
8F6
  8
LAYER_1
 62
   250
 10
-51.8006
 20
-18.2023
 30
0.0
  0
VERTEX
  5
8F7
  8
LAYER_1
 62
   250
 10
-51.7496
 20
-17.7001
 30
0.0
  0
VERTEX
  5
8F8
  8
LAYER_1
 62
   250
 10
-51.6034
 20
-17.2316
 30
0.0
  0
VERTEX
  5
8F9
  8
LAYER_1
 62
   250
 10
-51.3722
 20
-16.8071
 30
0.0
  0
VERTEX
  5
8FA
  8
LAYER_1
 62
   250
 10
-51.0663
 20
-16.4367
 30
0.0
  0
VERTEX
  5
8FB
  8
LAYER_1
 62
   250
 10
-50.6959
 20
-16.1308
 30
0.0
  0
VERTEX
  5
8FC
  8
LAYER_1
 62
   250
 10
-50.2714
 20
-15.8997
 30
0.0
  0
VERTEX
  5
8FD
  8
LAYER_1
 62
   250
 10
-49.8029
 20
-15.7534
 30
0.0
  0
VERTEX
  5
8FE
  8
LAYER_1
 62
   250
 10
-49.3007
 20
-15.7024
 30
0.0
  0
VERTEX
  5
8FF
  8
LAYER_1
 62
   250
 10
-49.3005
 20
-15.7024
 30
0.0
  0
VERTEX
  5
900
  8
LAYER_1
 62
   250
 10
-48.7983
 20
-15.7534
 30
0.0
  0
VERTEX
  5
901
  8
LAYER_1
 62
   250
 10
-48.3298
 20
-15.8997
 30
0.0
  0
VERTEX
  5
902
  8
LAYER_1
 62
   250
 10
-47.9053
 20
-16.1308
 30
0.0
  0
VERTEX
  5
903
  8
LAYER_1
 62
   250
 10
-47.5349
 20
-16.4367
 30
0.0
  0
VERTEX
  5
904
  8
LAYER_1
 62
   250
 10
-47.229
 20
-16.8071
 30
0.0
  0
VERTEX
  5
905
  8
LAYER_1
 62
   250
 10
-46.9979
 20
-17.2316
 30
0.0
  0
VERTEX
  5
906
  8
LAYER_1
 62
   250
 10
-46.8516
 20
-17.7001
 30
0.0
  0
VERTEX
  5
907
  8
LAYER_1
 62
   250
 10
-46.8006
 20
-18.2023
 30
0.0
  0
SEQEND
  5
908
  8
LAYER_1
 62
   250
  0
POLYLINE
  5
80
  8
LAYER_1
 62
   250
 66
     1
 10
0.0
 20
0.0
 30
0.0
 70
     1
  0
VERTEX
  5
909
  8
LAYER_1
 62
   250
 10
-56.8006
 20
-18.2023
 30
0.0
  0
VERTEX
  5
90A
  8
LAYER_1
 62
   250
 10
-56.8006
 20
-23.2025
 30
0.0
  0
VERTEX
  5
90B
  8
LAYER_1
 62
   250
 10
-56.8516
 20
-23.7047
 30
0.0
  0
VERTEX
  5
90C
  8
LAYER_1
 62
   250
 10
-56.9979
 20
-24.1732
 30
0.0
  0
VERTEX
  5
90D
  8
LAYER_1
 62
   250
 10
-57.229
 20
-24.5977
 30
0.0
  0
VERTEX
  5
90E
  8
LAYER_1
 62
   250
 10
-57.5349
 20
-24.9681
 30
0.0
  0
VERTEX
  5
90F
  8
LAYER_1
 62
   250
 10
-57.9053
 20
-25.274
 30
0.0
  0
VERTEX
  5
910
  8
LAYER_1
 62
   250
 10
-58.3298
 20
-25.5052
 30
0.0
  0
VERTEX
  5
911
  8
LAYER_1
 62
   250
 10
-58.7983
 20
-25.6514
 30
0.0
  0
VERTEX
  5
912
  8
LAYER_1
 62
   250
 10
-59.3005
 20
-25.7024
 30
0.0
  0
VERTEX
  5
913
  8
LAYER_1
 62
   250
 10
-59.3007
 20
-25.7024
 30
0.0
  0
VERTEX
  5
914
  8
LAYER_1
 62
   250
 10
-59.8029
 20
-25.6514
 30
0.0
  0
VERTEX
  5
915
  8
LAYER_1
 62
   250
 10
-60.2714
 20
-25.5052
 30
0.0
  0
VERTEX
  5
916
  8
LAYER_1
 62
   250
 10
-60.6959
 20
-25.274
 30
0.0
  0
VERTEX
  5
917
  8
LAYER_1
 62
   250
 10
-61.0663
 20
-24.9681
 30
0.0
  0
VERTEX
  5
918
  8
LAYER_1
 62
   250
 10
-61.3722
 20
-24.5977
 30
0.0
  0
VERTEX
  5
919
  8
LAYER_1
 62
   250
 10
-61.6034
 20
-24.1732
 30
0.0
  0
VERTEX
  5
91A
  8
LAYER_1
 62
   250
 10
-61.7496
 20
-23.7047
 30
0.0
  0
VERTEX
  5
91B
  8
LAYER_1
 62
   250
 10
-61.8006
 20
-23.2025
 30
0.0
  0
VERTEX
  5
91C
  8
LAYER_1
 62
   250
 10
-61.8006
 20
-18.2023
 30
0.0
  0
VERTEX
  5
91D
  8
LAYER_1
 62
   250
 10
-61.7496
 20
-17.7001
 30
0.0
  0
VERTEX
  5
91E
  8
LAYER_1
 62
   250
 10
-61.6034
 20
-17.2316
 30
0.0
  0
VERTEX
  5
91F
  8
LAYER_1
 62
   250
 10
-61.3722
 20
-16.8071
 30
0.0
  0
VERTEX
  5
920
  8
LAYER_1
 62
   250
 10
-61.0663
 20
-16.4367
 30
0.0
  0
VERTEX
  5
921
  8
LAYER_1
 62
   250
 10
-60.6959
 20
-16.1308
 30
0.0
  0
VERTEX
  5
922
  8
LAYER_1
 62
   250
 10
-60.2714
 20
-15.8997
 30
0.0
  0
VERTEX
  5
923
  8
LAYER_1
 62
   250
 10
-59.8029
 20
-15.7534
 30
0.0
  0
VERTEX
  5
924
  8
LAYER_1
 62
   250
 10
-59.3007
 20
-15.7024
 30
0.0
  0
VERTEX
  5
925
  8
LAYER_1
 62
   250
 10
-59.3005
 20
-15.7024
 30
0.0
  0
VERTEX
  5
926
  8
LAYER_1
 62
   250
 10
-58.7983
 20
-15.7534
 30
0.0
  0
VERTEX
  5
927
  8
LAYER_1
 62
   250
 10
-58.3298
 20
-15.8997
 30
0.0
  0
VERTEX
  5
928
  8
LAYER_1
 62
   250
 10
-57.9053
 20
-16.1308
 30
0.0
  0
VERTEX
  5
929
  8
LAYER_1
 62
   250
 10
-57.5349
 20
-16.4367
 30
0.0
  0
VERTEX
  5
92A
  8
LAYER_1
 62
   250
 10
-57.229
 20
-16.8071
 30
0.0
  0
VERTEX
  5
92B
  8
LAYER_1
 62
   250
 10
-56.9979
 20
-17.2316
 30
0.0
  0
VERTEX
  5
92C
  8
LAYER_1
 62
   250
 10
-56.8516
 20
-17.7001
 30
0.0
  0
VERTEX
  5
92D
  8
LAYER_1
 62
   250
 10
-56.8006
 20
-18.2023
 30
0.0
  0
SEQEND
  5
92E
  8
LAYER_1
 62
   250
  0
POLYLINE
  5
81
  8
LAYER_1
 62
   250
 66
     1
 10
0.0
 20
0.0
 30
0.0
 70
     1
  0
VERTEX
  5
92F
  8
LAYER_1
 62
   250
 10
-36.7679
 20
-98.9494
 30
0.0
  0
VERTEX
  5
930
  8
LAYER_1
 62
   250
 10
-36.7679
 20
-103.9496
 30
0.0
  0
VERTEX
  5
931
  8
LAYER_1
 62
   250
 10
-36.8189
 20
-104.4518
 30
0.0
  0
VERTEX
  5
932
  8
LAYER_1
 62
   250
 10
-36.9652
 20
-104.9203
 30
0.0
  0
VERTEX
  5
933
  8
LAYER_1
 62
   250
 10
-37.1963
 20
-105.3448
 30
0.0
  0
VERTEX
  5
934
  8
LAYER_1
 62
   250
 10
-37.5022
 20
-105.7152
 30
0.0
  0
VERTEX
  5
935
  8
LAYER_1
 62
   250
 10
-37.8726
 20
-106.0211
 30
0.0
  0
VERTEX
  5
936
  8
LAYER_1
 62
   250
 10
-38.2971
 20
-106.2523
 30
0.0
  0
VERTEX
  5
937
  8
LAYER_1
 62
   250
 10
-38.7656
 20
-106.3985
 30
0.0
  0
VERTEX
  5
938
  8
LAYER_1
 62
   250
 10
-39.2678
 20
-106.4495
 30
0.0
  0
VERTEX
  5
939
  8
LAYER_1
 62
   250
 10
-39.268
 20
-106.4495
 30
0.0
  0
VERTEX
  5
93A
  8
LAYER_1
 62
   250
 10
-39.7702
 20
-106.3985
 30
0.0
  0
VERTEX
  5
93B
  8
LAYER_1
 62
   250
 10
-40.2387
 20
-106.2523
 30
0.0
  0
VERTEX
  5
93C
  8
LAYER_1
 62
   250
 10
-40.6632
 20
-106.0211
 30
0.0
  0
VERTEX
  5
93D
  8
LAYER_1
 62
   250
 10
-41.0336
 20
-105.7152
 30
0.0
  0
VERTEX
  5
93E
  8
LAYER_1
 62
   250
 10
-41.3395
 20
-105.3448
 30
0.0
  0
VERTEX
  5
93F
  8
LAYER_1
 62
   250
 10
-41.5707
 20
-104.9203
 30
0.0
  0
VERTEX
  5
940
  8
LAYER_1
 62
   250
 10
-41.7169
 20
-104.4518
 30
0.0
  0
VERTEX
  5
941
  8
LAYER_1
 62
   250
 10
-41.7679
 20
-103.9496
 30
0.0
  0
VERTEX
  5
942
  8
LAYER_1
 62
   250
 10
-41.7679
 20
-98.9494
 30
0.0
  0
VERTEX
  5
943
  8
LAYER_1
 62
   250
 10
-41.7169
 20
-98.4472
 30
0.0
  0
VERTEX
  5
944
  8
LAYER_1
 62
   250
 10
-41.5707
 20
-97.9787
 30
0.0
  0
VERTEX
  5
945
  8
LAYER_1
 62
   250
 10
-41.3395
 20
-97.5542
 30
0.0
  0
VERTEX
  5
946
  8
LAYER_1
 62
   250
 10
-41.0336
 20
-97.1838
 30
0.0
  0
VERTEX
  5
947
  8
LAYER_1
 62
   250
 10
-40.6632
 20
-96.8779
 30
0.0
  0
VERTEX
  5
948
  8
LAYER_1
 62
   250
 10
-40.2387
 20
-96.6468
 30
0.0
  0
VERTEX
  5
949
  8
LAYER_1
 62
   250
 10
-39.7702
 20
-96.5005
 30
0.0
  0
VERTEX
  5
94A
  8
LAYER_1
 62
   250
 10
-39.268
 20
-96.4495
 30
0.0
  0
VERTEX
  5
94B
  8
LAYER_1
 62
   250
 10
-39.2678
 20
-96.4495
 30
0.0
  0
VERTEX
  5
94C
  8
LAYER_1
 62
   250
 10
-38.7656
 20
-96.5005
 30
0.0
  0
VERTEX
  5
94D
  8
LAYER_1
 62
   250
 10
-38.2971
 20
-96.6468
 30
0.0
  0
VERTEX
  5
94E
  8
LAYER_1
 62
   250
 10
-37.8726
 20
-96.8779
 30
0.0
  0
VERTEX
  5
94F
  8
LAYER_1
 62
   250
 10
-37.5022
 20
-97.1838
 30
0.0
  0
VERTEX
  5
950
  8
LAYER_1
 62
   250
 10
-37.1963
 20
-97.5542
 30
0.0
  0
VERTEX
  5
951
  8
LAYER_1
 62
   250
 10
-36.9652
 20
-97.9787
 30
0.0
  0
VERTEX
  5
952
  8
LAYER_1
 62
   250
 10
-36.8189
 20
-98.4472
 30
0.0
  0
VERTEX
  5
953
  8
LAYER_1
 62
   250
 10
-36.7679
 20
-98.9494
 30
0.0
  0
SEQEND
  5
954
  8
LAYER_1
 62
   250
  0
POLYLINE
  5
82
  8
LAYER_1
 62
   250
 66
     1
 10
0.0
 20
0.0
 30
0.0
 70
     1
  0
VERTEX
  5
955
  8
LAYER_1
 62
   250
 10
-46.7679
 20
-98.9494
 30
0.0
  0
VERTEX
  5
956
  8
LAYER_1
 62
   250
 10
-46.7679
 20
-103.9496
 30
0.0
  0
VERTEX
  5
957
  8
LAYER_1
 62
   250
 10
-46.8189
 20
-104.4518
 30
0.0
  0
VERTEX
  5
958
  8
LAYER_1
 62
   250
 10
-46.9652
 20
-104.9203
 30
0.0
  0
VERTEX
  5
959
  8
LAYER_1
 62
   250
 10
-47.1963
 20
-105.3448
 30
0.0
  0
VERTEX
  5
95A
  8
LAYER_1
 62
   250
 10
-47.5022
 20
-105.7152
 30
0.0
  0
VERTEX
  5
95B
  8
LAYER_1
 62
   250
 10
-47.8726
 20
-106.0211
 30
0.0
  0
VERTEX
  5
95C
  8
LAYER_1
 62
   250
 10
-48.2971
 20
-106.2523
 30
0.0
  0
VERTEX
  5
95D
  8
LAYER_1
 62
   250
 10
-48.7656
 20
-106.3985
 30
0.0
  0
VERTEX
  5
95E
  8
LAYER_1
 62
   250
 10
-49.2678
 20
-106.4495
 30
0.0
  0
VERTEX
  5
95F
  8
LAYER_1
 62
   250
 10
-49.268
 20
-106.4495
 30
0.0
  0
VERTEX
  5
960
  8
LAYER_1
 62
   250
 10
-49.7702
 20
-106.3985
 30
0.0
  0
VERTEX
  5
961
  8
LAYER_1
 62
   250
 10
-50.2387
 20
-106.2523
 30
0.0
  0
VERTEX
  5
962
  8
LAYER_1
 62
   250
 10
-50.6632
 20
-106.0211
 30
0.0
  0
VERTEX
  5
963
  8
LAYER_1
 62
   250
 10
-51.0336
 20
-105.7152
 30
0.0
  0
VERTEX
  5
964
  8
LAYER_1
 62
   250
 10
-51.3395
 20
-105.3448
 30
0.0
  0
VERTEX
  5
965
  8
LAYER_1
 62
   250
 10
-51.5707
 20
-104.9203
 30
0.0
  0
VERTEX
  5
966
  8
LAYER_1
 62
   250
 10
-51.7169
 20
-104.4518
 30
0.0
  0
VERTEX
  5
967
  8
LAYER_1
 62
   250
 10
-51.7679
 20
-103.9496
 30
0.0
  0
VERTEX
  5
968
  8
LAYER_1
 62
   250
 10
-51.7679
 20
-98.9494
 30
0.0
  0
VERTEX
  5
969
  8
LAYER_1
 62
   250
 10
-51.7169
 20
-98.4472
 30
0.0
  0
VERTEX
  5
96A
  8
LAYER_1
 62
   250
 10
-51.5707
 20
-97.9787
 30
0.0
  0
VERTEX
  5
96B
  8
LAYER_1
 62
   250
 10
-51.3395
 20
-97.5542
 30
0.0
  0
VERTEX
  5
96C
  8
LAYER_1
 62
   250
 10
-51.0336
 20
-97.1838
 30
0.0
  0
VERTEX
  5
96D
  8
LAYER_1
 62
   250
 10
-50.6632
 20
-96.8779
 30
0.0
  0
VERTEX
  5
96E
  8
LAYER_1
 62
   250
 10
-50.2387
 20
-96.6468
 30
0.0
  0
VERTEX
  5
96F
  8
LAYER_1
 62
   250
 10
-49.7702
 20
-96.5005
 30
0.0
  0
VERTEX
  5
970
  8
LAYER_1
 62
   250
 10
-49.268
 20
-96.4495
 30
0.0
  0
VERTEX
  5
971
  8
LAYER_1
 62
   250
 10
-49.2678
 20
-96.4495
 30
0.0
  0
VERTEX
  5
972
  8
LAYER_1
 62
   250
 10
-48.7656
 20
-96.5005
 30
0.0
  0
VERTEX
  5
973
  8
LAYER_1
 62
   250
 10
-48.2971
 20
-96.6468
 30
0.0
  0
VERTEX
  5
974
  8
LAYER_1
 62
   250
 10
-47.8726
 20
-96.8779
 30
0.0
  0
VERTEX
  5
975
  8
LAYER_1
 62
   250
 10
-47.5022
 20
-97.1838
 30
0.0
  0
VERTEX
  5
976
  8
LAYER_1
 62
   250
 10
-47.1963
 20
-97.5542
 30
0.0
  0
VERTEX
  5
977
  8
LAYER_1
 62
   250
 10
-46.9652
 20
-97.9787
 30
0.0
  0
VERTEX
  5
978
  8
LAYER_1
 62
   250
 10
-46.8189
 20
-98.4472
 30
0.0
  0
VERTEX
  5
979
  8
LAYER_1
 62
   250
 10
-46.7679
 20
-98.9494
 30
0.0
  0
SEQEND
  5
97A
  8
LAYER_1
 62
   250
  0
POLYLINE
  5
83
  8
LAYER_1
 62
   250
 66
     1
 10
0.0
 20
0.0
 30
0.0
 70
     1
  0
VERTEX
  5
97B
  8
LAYER_1
 62
   250
 10
-56.7679
 20
-98.9494
 30
0.0
  0
VERTEX
  5
97C
  8
LAYER_1
 62
   250
 10
-56.7679
 20
-103.9496
 30
0.0
  0
VERTEX
  5
97D
  8
LAYER_1
 62
   250
 10
-56.8189
 20
-104.4518
 30
0.0
  0
VERTEX
  5
97E
  8
LAYER_1
 62
   250
 10
-56.9652
 20
-104.9203
 30
0.0
  0
VERTEX
  5
97F
  8
LAYER_1
 62
   250
 10
-57.1963
 20
-105.3448
 30
0.0
  0
VERTEX
  5
980
  8
LAYER_1
 62
   250
 10
-57.5022
 20
-105.7152
 30
0.0
  0
VERTEX
  5
981
  8
LAYER_1
 62
   250
 10
-57.8726
 20
-106.0211
 30
0.0
  0
VERTEX
  5
982
  8
LAYER_1
 62
   250
 10
-58.2971
 20
-106.2523
 30
0.0
  0
VERTEX
  5
983
  8
LAYER_1
 62
   250
 10
-58.7656
 20
-106.3985
 30
0.0
  0
VERTEX
  5
984
  8
LAYER_1
 62
   250
 10
-59.2678
 20
-106.4495
 30
0.0
  0
VERTEX
  5
985
  8
LAYER_1
 62
   250
 10
-59.268
 20
-106.4495
 30
0.0
  0
VERTEX
  5
986
  8
LAYER_1
 62
   250
 10
-59.7702
 20
-106.3985
 30
0.0
  0
VERTEX
  5
987
  8
LAYER_1
 62
   250
 10
-60.2387
 20
-106.2523
 30
0.0
  0
VERTEX
  5
988
  8
LAYER_1
 62
   250
 10
-60.6632
 20
-106.0211
 30
0.0
  0
VERTEX
  5
989
  8
LAYER_1
 62
   250
 10
-61.0336
 20
-105.7152
 30
0.0
  0
VERTEX
  5
98A
  8
LAYER_1
 62
   250
 10
-61.3395
 20
-105.3448
 30
0.0
  0
VERTEX
  5
98B
  8
LAYER_1
 62
   250
 10
-61.5707
 20
-104.9203
 30
0.0
  0
VERTEX
  5
98C
  8
LAYER_1
 62
   250
 10
-61.7169
 20
-104.4518
 30
0.0
  0
VERTEX
  5
98D
  8
LAYER_1
 62
   250
 10
-61.7679
 20
-103.9496
 30
0.0
  0
VERTEX
  5
98E
  8
LAYER_1
 62
   250
 10
-61.7679
 20
-98.9494
 30
0.0
  0
VERTEX
  5
98F
  8
LAYER_1
 62
   250
 10
-61.7169
 20
-98.4472
 30
0.0
  0
VERTEX
  5
990
  8
LAYER_1
 62
   250
 10
-61.5707
 20
-97.9787
 30
0.0
  0
VERTEX
  5
991
  8
LAYER_1
 62
   250
 10
-61.3395
 20
-97.5542
 30
0.0
  0
VERTEX
  5
992
  8
LAYER_1
 62
   250
 10
-61.0336
 20
-97.1838
 30
0.0
  0
VERTEX
  5
993
  8
LAYER_1
 62
   250
 10
-60.6632
 20
-96.8779
 30
0.0
  0
VERTEX
  5
994
  8
LAYER_1
 62
   250
 10
-60.2387
 20
-96.6468
 30
0.0
  0
VERTEX
  5
995
  8
LAYER_1
 62
   250
 10
-59.7702
 20
-96.5005
 30
0.0
  0
VERTEX
  5
996
  8
LAYER_1
 62
   250
 10
-59.268
 20
-96.4495
 30
0.0
  0
VERTEX
  5
997
  8
LAYER_1
 62
   250
 10
-59.2678
 20
-96.4495
 30
0.0
  0
VERTEX
  5
998
  8
LAYER_1
 62
   250
 10
-58.7656
 20
-96.5005
 30
0.0
  0
VERTEX
  5
999
  8
LAYER_1
 62
   250
 10
-58.2971
 20
-96.6468
 30
0.0
  0
VERTEX
  5
99A
  8
LAYER_1
 62
   250
 10
-57.8726
 20
-96.8779
 30
0.0
  0
VERTEX
  5
99B
  8
LAYER_1
 62
   250
 10
-57.5022
 20
-97.1838
 30
0.0
  0
VERTEX
  5
99C
  8
LAYER_1
 62
   250
 10
-57.1963
 20
-97.5542
 30
0.0
  0
VERTEX
  5
99D
  8
LAYER_1
 62
   250
 10
-56.9652
 20
-97.9787
 30
0.0
  0
VERTEX
  5
99E
  8
LAYER_1
 62
   250
 10
-56.8189
 20
-98.4472
 30
0.0
  0
VERTEX
  5
99F
  8
LAYER_1
 62
   250
 10
-56.7679
 20
-98.9494
 30
0.0
  0
SEQEND
  5
9A0
  8
LAYER_1
 62
   250
  0
POLYLINE
  5
84
  8
LAYER_1
 62
   250
 66
     1
 10
0.0
 20
0.0
 30
0.0
 70
     1
  0
VERTEX
  5
9A1
  8
LAYER_1
 62
   250
 10
-90.0744
 20
-19.5435
 30
0.0
  0
VERTEX
  5
9A2
  8
LAYER_1
 62
   250
 10
-70.8744
 20
-19.5435
 30
0.0
  0
VERTEX
  5
9A3
  8
LAYER_1
 62
   250
 10
-70.8744
 20
-32.5435
 30
0.0
  0
VERTEX
  5
9A4
  8
LAYER_1
 62
   250
 10
-90.0744
 20
-32.5435
 30
0.0
  0
VERTEX
  5
9A5
  8
LAYER_1
 62
   250
 10
-90.0744
 20
-19.5435
 30
0.0
  0
SEQEND
  5
9A6
  8
LAYER_1
 62
   250
  0
POLYLINE
  5
85
  8
LAYER_1
 62
   250
 66
     1
 10
0.0
 20
0.0
 30
0.0
 70
     1
  0
VERTEX
  5
9A7
  8
LAYER_1
 62
   250
 10
28.7323
 20
-48.4368
 30
0.0
  0
VERTEX
  5
9A8
  8
LAYER_1
 62
   250
 10
33.7325
 20
-48.4368
 30
0.0
  0
VERTEX
  5
9A9
  8
LAYER_1
 62
   250
 10
34.2347
 20
-48.4878
 30
0.0
  0
VERTEX
  5
9AA
  8
LAYER_1
 62
   250
 10
34.7032
 20
-48.6341
 30
0.0
  0
VERTEX
  5
9AB
  8
LAYER_1
 62
   250
 10
35.1277
 20
-48.8652
 30
0.0
  0
VERTEX
  5
9AC
  8
LAYER_1
 62
   250
 10
35.4981
 20
-49.1711
 30
0.0
  0
VERTEX
  5
9AD
  8
LAYER_1
 62
   250
 10
35.804
 20
-49.5415
 30
0.0
  0
VERTEX
  5
9AE
  8
LAYER_1
 62
   250
 10
36.0352
 20
-49.966
 30
0.0
  0
VERTEX
  5
9AF
  8
LAYER_1
 62
   250
 10
36.1814
 20
-50.4345
 30
0.0
  0
VERTEX
  5
9B0
  8
LAYER_1
 62
   250
 10
36.2324
 20
-50.9367
 30
0.0
  0
VERTEX
  5
9B1
  8
LAYER_1
 62
   250
 10
36.2324
 20
-50.9369
 30
0.0
  0
VERTEX
  5
9B2
  8
LAYER_1
 62
   250
 10
36.1814
 20
-51.4391
 30
0.0
  0
VERTEX
  5
9B3
  8
LAYER_1
 62
   250
 10
36.0352
 20
-51.9076
 30
0.0
  0
VERTEX
  5
9B4
  8
LAYER_1
 62
   250
 10
35.804
 20
-52.3321
 30
0.0
  0
VERTEX
  5
9B5
  8
LAYER_1
 62
   250
 10
35.4981
 20
-52.7025
 30
0.0
  0
VERTEX
  5
9B6
  8
LAYER_1
 62
   250
 10
35.1277
 20
-53.0084
 30
0.0
  0
VERTEX
  5
9B7
  8
LAYER_1
 62
   250
 10
34.7032
 20
-53.2396
 30
0.0
  0
VERTEX
  5
9B8
  8
LAYER_1
 62
   250
 10
34.2347
 20
-53.3858
 30
0.0
  0
VERTEX
  5
9B9
  8
LAYER_1
 62
   250
 10
33.7325
 20
-53.4368
 30
0.0
  0
VERTEX
  5
9BA
  8
LAYER_1
 62
   250
 10
28.7323
 20
-53.4368
 30
0.0
  0
VERTEX
  5
9BB
  8
LAYER_1
 62
   250
 10
28.2301
 20
-53.3858
 30
0.0
  0
VERTEX
  5
9BC
  8
LAYER_1
 62
   250
 10
27.7616
 20
-53.2396
 30
0.0
  0
VERTEX
  5
9BD
  8
LAYER_1
 62
   250
 10
27.3371
 20
-53.0084
 30
0.0
  0
VERTEX
  5
9BE
  8
LAYER_1
 62
   250
 10
26.9667
 20
-52.7025
 30
0.0
  0
VERTEX
  5
9BF
  8
LAYER_1
 62
   250
 10
26.6608
 20
-52.3321
 30
0.0
  0
VERTEX
  5
9C0
  8
LAYER_1
 62
   250
 10
26.4297
 20
-51.9076
 30
0.0
  0
VERTEX
  5
9C1
  8
LAYER_1
 62
   250
 10
26.2834
 20
-51.4391
 30
0.0
  0
VERTEX
  5
9C2
  8
LAYER_1
 62
   250
 10
26.2324
 20
-50.9369
 30
0.0
  0
VERTEX
  5
9C3
  8
LAYER_1
 62
   250
 10
26.2324
 20
-50.9367
 30
0.0
  0
VERTEX
  5
9C4
  8
LAYER_1
 62
   250
 10
26.2834
 20
-50.4345
 30
0.0
  0
VERTEX
  5
9C5
  8
LAYER_1
 62
   250
 10
26.4297
 20
-49.966
 30
0.0
  0
VERTEX
  5
9C6
  8
LAYER_1
 62
   250
 10
26.6608
 20
-49.5415
 30
0.0
  0
VERTEX
  5
9C7
  8
LAYER_1
 62
   250
 10
26.9667
 20
-49.1711
 30
0.0
  0
VERTEX
  5
9C8
  8
LAYER_1
 62
   250
 10
27.3371
 20
-48.8652
 30
0.0
  0
VERTEX
  5
9C9
  8
LAYER_1
 62
   250
 10
27.7616
 20
-48.6341
 30
0.0
  0
VERTEX
  5
9CA
  8
LAYER_1
 62
   250
 10
28.2301
 20
-48.4878
 30
0.0
  0
VERTEX
  5
9CB
  8
LAYER_1
 62
   250
 10
28.7323
 20
-48.4368
 30
0.0
  0
SEQEND
  5
9CC
  8
LAYER_1
 62
   250
  0
POLYLINE
  5
86
  8
LAYER_1
 62
   250
 66
     1
 10
0.0
 20
0.0
 30
0.0
 70
     1
  0
VERTEX
  5
9CD
  8
LAYER_1
 62
   250
 10
28.7323
 20
-58.4368
 30
0.0
  0
VERTEX
  5
9CE
  8
LAYER_1
 62
   250
 10
33.7325
 20
-58.4368
 30
0.0
  0
VERTEX
  5
9CF
  8
LAYER_1
 62
   250
 10
34.2347
 20
-58.4878
 30
0.0
  0
VERTEX
  5
9D0
  8
LAYER_1
 62
   250
 10
34.7032
 20
-58.6341
 30
0.0
  0
VERTEX
  5
9D1
  8
LAYER_1
 62
   250
 10
35.1277
 20
-58.8652
 30
0.0
  0
VERTEX
  5
9D2
  8
LAYER_1
 62
   250
 10
35.4981
 20
-59.1711
 30
0.0
  0
VERTEX
  5
9D3
  8
LAYER_1
 62
   250
 10
35.804
 20
-59.5415
 30
0.0
  0
VERTEX
  5
9D4
  8
LAYER_1
 62
   250
 10
36.0352
 20
-59.966
 30
0.0
  0
VERTEX
  5
9D5
  8
LAYER_1
 62
   250
 10
36.1814
 20
-60.4345
 30
0.0
  0
VERTEX
  5
9D6
  8
LAYER_1
 62
   250
 10
36.2324
 20
-60.9367
 30
0.0
  0
VERTEX
  5
9D7
  8
LAYER_1
 62
   250
 10
36.2324
 20
-60.9369
 30
0.0
  0
VERTEX
  5
9D8
  8
LAYER_1
 62
   250
 10
36.1814
 20
-61.4391
 30
0.0
  0
VERTEX
  5
9D9
  8
LAYER_1
 62
   250
 10
36.0352
 20
-61.9076
 30
0.0
  0
VERTEX
  5
9DA
  8
LAYER_1
 62
   250
 10
35.804
 20
-62.3321
 30
0.0
  0
VERTEX
  5
9DB
  8
LAYER_1
 62
   250
 10
35.4981
 20
-62.7025
 30
0.0
  0
VERTEX
  5
9DC
  8
LAYER_1
 62
   250
 10
35.1277
 20
-63.0084
 30
0.0
  0
VERTEX
  5
9DD
  8
LAYER_1
 62
   250
 10
34.7032
 20
-63.2396
 30
0.0
  0
VERTEX
  5
9DE
  8
LAYER_1
 62
   250
 10
34.2347
 20
-63.3858
 30
0.0
  0
VERTEX
  5
9DF
  8
LAYER_1
 62
   250
 10
33.7325
 20
-63.4368
 30
0.0
  0
VERTEX
  5
9E0
  8
LAYER_1
 62
   250
 10
28.7323
 20
-63.4368
 30
0.0
  0
VERTEX
  5
9E1
  8
LAYER_1
 62
   250
 10
28.2301
 20
-63.3858
 30
0.0
  0
VERTEX
  5
9E2
  8
LAYER_1
 62
   250
 10
27.7616
 20
-63.2396
 30
0.0
  0
VERTEX
  5
9E3
  8
LAYER_1
 62
   250
 10
27.3371
 20
-63.0084
 30
0.0
  0
VERTEX
  5
9E4
  8
LAYER_1
 62
   250
 10
26.9667
 20
-62.7025
 30
0.0
  0
VERTEX
  5
9E5
  8
LAYER_1
 62
   250
 10
26.6608
 20
-62.3321
 30
0.0
  0
VERTEX
  5
9E6
  8
LAYER_1
 62
   250
 10
26.4297
 20
-61.9076
 30
0.0
  0
VERTEX
  5
9E7
  8
LAYER_1
 62
   250
 10
26.2834
 20
-61.4391
 30
0.0
  0
VERTEX
  5
9E8
  8
LAYER_1
 62
   250
 10
26.2324
 20
-60.9369
 30
0.0
  0
VERTEX
  5
9E9
  8
LAYER_1
 62
   250
 10
26.2324
 20
-60.9367
 30
0.0
  0
VERTEX
  5
9EA
  8
LAYER_1
 62
   250
 10
26.2834
 20
-60.4345
 30
0.0
  0
VERTEX
  5
9EB
  8
LAYER_1
 62
   250
 10
26.4297
 20
-59.966
 30
0.0
  0
VERTEX
  5
9EC
  8
LAYER_1
 62
   250
 10
26.6608
 20
-59.5415
 30
0.0
  0
VERTEX
  5
9ED
  8
LAYER_1
 62
   250
 10
26.9667
 20
-59.1711
 30
0.0
  0
VERTEX
  5
9EE
  8
LAYER_1
 62
   250
 10
27.3371
 20
-58.8652
 30
0.0
  0
VERTEX
  5
9EF
  8
LAYER_1
 62
   250
 10
27.7616
 20
-58.6341
 30
0.0
  0
VERTEX
  5
9F0
  8
LAYER_1
 62
   250
 10
28.2301
 20
-58.4878
 30
0.0
  0
VERTEX
  5
9F1
  8
LAYER_1
 62
   250
 10
28.7323
 20
-58.4368
 30
0.0
  0
SEQEND
  5
9F2
  8
LAYER_1
 62
   250
  0
POLYLINE
  5
87
  8
LAYER_1
 62
   250
 66
     1
 10
0.0
 20
0.0
 30
0.0
 70
     1
  0
VERTEX
  5
9F3
  8
LAYER_1
 62
   250
 10
28.7323
 20
-68.4368
 30
0.0
  0
VERTEX
  5
9F4
  8
LAYER_1
 62
   250
 10
33.7325
 20
-68.4368
 30
0.0
  0
VERTEX
  5
9F5
  8
LAYER_1
 62
   250
 10
34.2347
 20
-68.4878
 30
0.0
  0
VERTEX
  5
9F6
  8
LAYER_1
 62
   250
 10
34.7032
 20
-68.6341
 30
0.0
  0
VERTEX
  5
9F7
  8
LAYER_1
 62
   250
 10
35.1277
 20
-68.8652
 30
0.0
  0
VERTEX
  5
9F8
  8
LAYER_1
 62
   250
 10
35.4981
 20
-69.1711
 30
0.0
  0
VERTEX
  5
9F9
  8
LAYER_1
 62
   250
 10
35.804
 20
-69.5415
 30
0.0
  0
VERTEX
  5
9FA
  8
LAYER_1
 62
   250
 10
36.0352
 20
-69.966
 30
0.0
  0
VERTEX
  5
9FB
  8
LAYER_1
 62
   250
 10
36.1814
 20
-70.4345
 30
0.0
  0
VERTEX
  5
9FC
  8
LAYER_1
 62
   250
 10
36.2324
 20
-70.9367
 30
0.0
  0
VERTEX
  5
9FD
  8
LAYER_1
 62
   250
 10
36.2324
 20
-70.9369
 30
0.0
  0
VERTEX
  5
9FE
  8
LAYER_1
 62
   250
 10
36.1814
 20
-71.4391
 30
0.0
  0
VERTEX
  5
9FF
  8
LAYER_1
 62
   250
 10
36.0352
 20
-71.9076
 30
0.0
  0
VERTEX
  5
A00
  8
LAYER_1
 62
   250
 10
35.804
 20
-72.3321
 30
0.0
  0
VERTEX
  5
A01
  8
LAYER_1
 62
   250
 10
35.4981
 20
-72.7025
 30
0.0
  0
VERTEX
  5
A02
  8
LAYER_1
 62
   250
 10
35.1277
 20
-73.0084
 30
0.0
  0
VERTEX
  5
A03
  8
LAYER_1
 62
   250
 10
34.7032
 20
-73.2396
 30
0.0
  0
VERTEX
  5
A04
  8
LAYER_1
 62
   250
 10
34.2347
 20
-73.3858
 30
0.0
  0
VERTEX
  5
A05
  8
LAYER_1
 62
   250
 10
33.7325
 20
-73.4368
 30
0.0
  0
VERTEX
  5
A06
  8
LAYER_1
 62
   250
 10
28.7323
 20
-73.4368
 30
0.0
  0
VERTEX
  5
A07
  8
LAYER_1
 62
   250
 10
28.2301
 20
-73.3858
 30
0.0
  0
VERTEX
  5
A08
  8
LAYER_1
 62
   250
 10
27.7616
 20
-73.2396
 30
0.0
  0
VERTEX
  5
A09
  8
LAYER_1
 62
   250
 10
27.3371
 20
-73.0084
 30
0.0
  0
VERTEX
  5
A0A
  8
LAYER_1
 62
   250
 10
26.9667
 20
-72.7025
 30
0.0
  0
VERTEX
  5
A0B
  8
LAYER_1
 62
   250
 10
26.6608
 20
-72.3321
 30
0.0
  0
VERTEX
  5
A0C
  8
LAYER_1
 62
   250
 10
26.4297
 20
-71.9076
 30
0.0
  0
VERTEX
  5
A0D
  8
LAYER_1
 62
   250
 10
26.2834
 20
-71.4391
 30
0.0
  0
VERTEX
  5
A0E
  8
LAYER_1
 62
   250
 10
26.2324
 20
-70.9369
 30
0.0
  0
VERTEX
  5
A0F
  8
LAYER_1
 62
   250
 10
26.2324
 20
-70.9367
 30
0.0
  0
VERTEX
  5
A10
  8
LAYER_1
 62
   250
 10
26.2834
 20
-70.4345
 30
0.0
  0
VERTEX
  5
A11
  8
LAYER_1
 62
   250
 10
26.4297
 20
-69.966
 30
0.0
  0
VERTEX
  5
A12
  8
LAYER_1
 62
   250
 10
26.6608
 20
-69.5415
 30
0.0
  0
VERTEX
  5
A13
  8
LAYER_1
 62
   250
 10
26.9667
 20
-69.1711
 30
0.0
  0
VERTEX
  5
A14
  8
LAYER_1
 62
   250
 10
27.3371
 20
-68.8652
 30
0.0
  0
VERTEX
  5
A15
  8
LAYER_1
 62
   250
 10
27.7616
 20
-68.6341
 30
0.0
  0
VERTEX
  5
A16
  8
LAYER_1
 62
   250
 10
28.2301
 20
-68.4878
 30
0.0
  0
VERTEX
  5
A17
  8
LAYER_1
 62
   250
 10
28.7323
 20
-68.4368
 30
0.0
  0
SEQEND
  5
A18
  8
LAYER_1
 62
   250
  0
POLYLINE
  5
88
  8
LAYER_1
 62
   250
 66
     1
 10
0.0
 20
0.0
 30
0.0
 70
     1
  0
VERTEX
  5
A19
  8
LAYER_1
 62
   250
 10
-1.6674
 20
-92.9362
 30
0.0
  0
VERTEX
  5
A1A
  8
LAYER_1
 62
   250
 10
9.3326
 20
-92.9362
 30
0.0
  0
VERTEX
  5
A1B
  8
LAYER_1
 62
   250
 10
9.3326
 20
-95.9362
 30
0.0
  0
VERTEX
  5
A1C
  8
LAYER_1
 62
   250
 10
-1.6674
 20
-95.9362
 30
0.0
  0
VERTEX
  5
A1D
  8
LAYER_1
 62
   250
 10
-1.6674
 20
-92.9362
 30
0.0
  0
SEQEND
  5
A1E
  8
LAYER_1
 62
   250
  0
POLYLINE
  5
89
  8
LAYER_1
 62
   250
 66
     1
 10
0.0
 20
0.0
 30
0.0
 70
     1
  0
VERTEX
  5
A1F
  8
LAYER_1
 62
   250
 10
-1.6674
 20
-25.9363
 30
0.0
  0
VERTEX
  5
A20
  8
LAYER_1
 62
   250
 10
9.3326
 20
-25.9363
 30
0.0
  0
VERTEX
  5
A21
  8
LAYER_1
 62
   250
 10
9.3326
 20
-28.9363
 30
0.0
  0
VERTEX
  5
A22
  8
LAYER_1
 62
   250
 10
-1.6674
 20
-28.9363
 30
0.0
  0
VERTEX
  5
A23
  8
LAYER_1
 62
   250
 10
-1.6674
 20
-25.9363
 30
0.0
  0
SEQEND
  5
A24
  8
LAYER_1
 62
   250
  0
POLYLINE
  5
8A
  8
LAYER_1
 62
   250
 66
     1
 10
0.0
 20
0.0
 30
0.0
 70
     1
  0
VERTEX
  5
A25
  8
LAYER_1
 62
   250
 10
-70.3674
 20
-46.1363
 30
0.0
  0
VERTEX
  5
A26
  8
LAYER_1
 62
   250
 10
-70.3979
 20
-45.834
 30
0.0
  0
VERTEX
  5
A27
  8
LAYER_1
 62
   250
 10
-70.4853
 20
-45.5524
 30
0.0
  0
VERTEX
  5
A28
  8
LAYER_1
 62
   250
 10
-70.6236
 20
-45.2976
 30
0.0
  0
VERTEX
  5
A29
  8
LAYER_1
 62
   250
 10
-70.8068
 20
-45.0757
 30
0.0
  0
VERTEX
  5
A2A
  8
LAYER_1
 62
   250
 10
-71.0287
 20
-44.8925
 30
0.0
  0
VERTEX
  5
A2B
  8
LAYER_1
 62
   250
 10
-71.2835
 20
-44.7542
 30
0.0
  0
VERTEX
  5
A2C
  8
LAYER_1
 62
   250
 10
-71.5651
 20
-44.6668
 30
0.0
  0
VERTEX
  5
A2D
  8
LAYER_1
 62
   250
 10
-71.8674
 20
-44.6363
 30
0.0
  0
VERTEX
  5
A2E
  8
LAYER_1
 62
   250
 10
-72.1697
 20
-44.6668
 30
0.0
  0
VERTEX
  5
A2F
  8
LAYER_1
 62
   250
 10
-72.4513
 20
-44.7542
 30
0.0
  0
VERTEX
  5
A30
  8
LAYER_1
 62
   250
 10
-72.7061
 20
-44.8925
 30
0.0
  0
VERTEX
  5
A31
  8
LAYER_1
 62
   250
 10
-72.9281
 20
-45.0757
 30
0.0
  0
VERTEX
  5
A32
  8
LAYER_1
 62
   250
 10
-73.1112
 20
-45.2976
 30
0.0
  0
VERTEX
  5
A33
  8
LAYER_1
 62
   250
 10
-73.2495
 20
-45.5524
 30
0.0
  0
VERTEX
  5
A34
  8
LAYER_1
 62
   250
 10
-73.3369
 20
-45.834
 30
0.0
  0
VERTEX
  5
A35
  8
LAYER_1
 62
   250
 10
-73.3674
 20
-46.1363
 30
0.0
  0
VERTEX
  5
A36
  8
LAYER_1
 62
   250
 10
-73.3369
 20
-46.4386
 30
0.0
  0
VERTEX
  5
A37
  8
LAYER_1
 62
   250
 10
-73.2495
 20
-46.7202
 30
0.0
  0
VERTEX
  5
A38
  8
LAYER_1
 62
   250
 10
-73.1112
 20
-46.975
 30
0.0
  0
VERTEX
  5
A39
  8
LAYER_1
 62
   250
 10
-72.9281
 20
-47.197
 30
0.0
  0
VERTEX
  5
A3A
  8
LAYER_1
 62
   250
 10
-72.7061
 20
-47.3801
 30
0.0
  0
VERTEX
  5
A3B
  8
LAYER_1
 62
   250
 10
-72.4513
 20
-47.5184
 30
0.0
  0
VERTEX
  5
A3C
  8
LAYER_1
 62
   250
 10
-72.1697
 20
-47.6058
 30
0.0
  0
VERTEX
  5
A3D
  8
LAYER_1
 62
   250
 10
-71.8674
 20
-47.6363
 30
0.0
  0
VERTEX
  5
A3E
  8
LAYER_1
 62
   250
 10
-71.5651
 20
-47.6058
 30
0.0
  0
VERTEX
  5
A3F
  8
LAYER_1
 62
   250
 10
-71.2835
 20
-47.5184
 30
0.0
  0
VERTEX
  5
A40
  8
LAYER_1
 62
   250
 10
-71.0287
 20
-47.3801
 30
0.0
  0
VERTEX
  5
A41
  8
LAYER_1
 62
   250
 10
-70.8068
 20
-47.197
 30
0.0
  0
VERTEX
  5
A42
  8
LAYER_1
 62
   250
 10
-70.6236
 20
-46.975
 30
0.0
  0
VERTEX
  5
A43
  8
LAYER_1
 62
   250
 10
-70.4853
 20
-46.7202
 30
0.0
  0
VERTEX
  5
A44
  8
LAYER_1
 62
   250
 10
-70.3979
 20
-46.4386
 30
0.0
  0
VERTEX
  5
A45
  8
LAYER_1
 62
   250
 10
-70.3674
 20
-46.1363
 30
0.0
  0
SEQEND
  5
A46
  8
LAYER_1
 62
   250
  0
POLYLINE
  5
8B
  8
LAYER_1
 62
   250
 66
     1
 10
0.0
 20
0.0
 30
0.0
 70
     1
  0
VERTEX
  5
A47
  8
LAYER_1
 62
   250
 10
-70.3674
 20
-75.7363
 30
0.0
  0
VERTEX
  5
A48
  8
LAYER_1
 62
   250
 10
-70.3979
 20
-75.434
 30
0.0
  0
VERTEX
  5
A49
  8
LAYER_1
 62
   250
 10
-70.4853
 20
-75.1524
 30
0.0
  0
VERTEX
  5
A4A
  8
LAYER_1
 62
   250
 10
-70.6236
 20
-74.8976
 30
0.0
  0
VERTEX
  5
A4B
  8
LAYER_1
 62
   250
 10
-70.8068
 20
-74.6757
 30
0.0
  0
VERTEX
  5
A4C
  8
LAYER_1
 62
   250
 10
-71.0287
 20
-74.4925
 30
0.0
  0
VERTEX
  5
A4D
  8
LAYER_1
 62
   250
 10
-71.2835
 20
-74.3542
 30
0.0
  0
VERTEX
  5
A4E
  8
LAYER_1
 62
   250
 10
-71.5651
 20
-74.2668
 30
0.0
  0
VERTEX
  5
A4F
  8
LAYER_1
 62
   250
 10
-71.8674
 20
-74.2363
 30
0.0
  0
VERTEX
  5
A50
  8
LAYER_1
 62
   250
 10
-72.1697
 20
-74.2668
 30
0.0
  0
VERTEX
  5
A51
  8
LAYER_1
 62
   250
 10
-72.4513
 20
-74.3542
 30
0.0
  0
VERTEX
  5
A52
  8
LAYER_1
 62
   250
 10
-72.7061
 20
-74.4925
 30
0.0
  0
VERTEX
  5
A53
  8
LAYER_1
 62
   250
 10
-72.9281
 20
-74.6757
 30
0.0
  0
VERTEX
  5
A54
  8
LAYER_1
 62
   250
 10
-73.1112
 20
-74.8976
 30
0.0
  0
VERTEX
  5
A55
  8
LAYER_1
 62
   250
 10
-73.2495
 20
-75.1524
 30
0.0
  0
VERTEX
  5
A56
  8
LAYER_1
 62
   250
 10
-73.3369
 20
-75.434
 30
0.0
  0
VERTEX
  5
A57
  8
LAYER_1
 62
   250
 10
-73.3674
 20
-75.7363
 30
0.0
  0
VERTEX
  5
A58
  8
LAYER_1
 62
   250
 10
-73.3369
 20
-76.0386
 30
0.0
  0
VERTEX
  5
A59
  8
LAYER_1
 62
   250
 10
-73.2495
 20
-76.3202
 30
0.0
  0
VERTEX
  5
A5A
  8
LAYER_1
 62
   250
 10
-73.1112
 20
-76.575
 30
0.0
  0
VERTEX
  5
A5B
  8
LAYER_1
 62
   250
 10
-72.9281
 20
-76.797
 30
0.0
  0
VERTEX
  5
A5C
  8
LAYER_1
 62
   250
 10
-72.7061
 20
-76.9801
 30
0.0
  0
VERTEX
  5
A5D
  8
LAYER_1
 62
   250
 10
-72.4513
 20
-77.1184
 30
0.0
  0
VERTEX
  5
A5E
  8
LAYER_1
 62
   250
 10
-72.1697
 20
-77.2058
 30
0.0
  0
VERTEX
  5
A5F
  8
LAYER_1
 62
   250
 10
-71.8674
 20
-77.2363
 30
0.0
  0
VERTEX
  5
A60
  8
LAYER_1
 62
   250
 10
-71.5651
 20
-77.2058
 30
0.0
  0
VERTEX
  5
A61
  8
LAYER_1
 62
   250
 10
-71.2835
 20
-77.1184
 30
0.0
  0
VERTEX
  5
A62
  8
LAYER_1
 62
   250
 10
-71.0287
 20
-76.9801
 30
0.0
  0
VERTEX
  5
A63
  8
LAYER_1
 62
   250
 10
-70.8068
 20
-76.797
 30
0.0
  0
VERTEX
  5
A64
  8
LAYER_1
 62
   250
 10
-70.6236
 20
-76.575
 30
0.0
  0
VERTEX
  5
A65
  8
LAYER_1
 62
   250
 10
-70.4853
 20
-76.3202
 30
0.0
  0
VERTEX
  5
A66
  8
LAYER_1
 62
   250
 10
-70.3979
 20
-76.0386
 30
0.0
  0
VERTEX
  5
A67
  8
LAYER_1
 62
   250
 10
-70.3674
 20
-75.7363
 30
0.0
  0
SEQEND
  5
A68
  8
LAYER_1
 62
   250
  0
POLYLINE
  5
8C
  8
LAYER_1
 62
   250
 66
     1
 10
0.0
 20
0.0
 30
0.0
 70
     1
  0
VERTEX
  5
A69
  8
LAYER_1
 62
   250
 10
-94.0674
 20
-46.1363
 30
0.0
  0
VERTEX
  5
A6A
  8
LAYER_1
 62
   250
 10
-94.0979
 20
-45.834
 30
0.0
  0
VERTEX
  5
A6B
  8
LAYER_1
 62
   250
 10
-94.1853
 20
-45.5524
 30
0.0
  0
VERTEX
  5
A6C
  8
LAYER_1
 62
   250
 10
-94.3236
 20
-45.2976
 30
0.0
  0
VERTEX
  5
A6D
  8
LAYER_1
 62
   250
 10
-94.5068
 20
-45.0757
 30
0.0
  0
VERTEX
  5
A6E
  8
LAYER_1
 62
   250
 10
-94.7287
 20
-44.8925
 30
0.0
  0
VERTEX
  5
A6F
  8
LAYER_1
 62
   250
 10
-94.9835
 20
-44.7542
 30
0.0
  0
VERTEX
  5
A70
  8
LAYER_1
 62
   250
 10
-95.2651
 20
-44.6668
 30
0.0
  0
VERTEX
  5
A71
  8
LAYER_1
 62
   250
 10
-95.5674
 20
-44.6363
 30
0.0
  0
VERTEX
  5
A72
  8
LAYER_1
 62
   250
 10
-95.8697
 20
-44.6668
 30
0.0
  0
VERTEX
  5
A73
  8
LAYER_1
 62
   250
 10
-96.1513
 20
-44.7542
 30
0.0
  0
VERTEX
  5
A74
  8
LAYER_1
 62
   250
 10
-96.4061
 20
-44.8925
 30
0.0
  0
VERTEX
  5
A75
  8
LAYER_1
 62
   250
 10
-96.6281
 20
-45.0757
 30
0.0
  0
VERTEX
  5
A76
  8
LAYER_1
 62
   250
 10
-96.8112
 20
-45.2976
 30
0.0
  0
VERTEX
  5
A77
  8
LAYER_1
 62
   250
 10
-96.9495
 20
-45.5524
 30
0.0
  0
VERTEX
  5
A78
  8
LAYER_1
 62
   250
 10
-97.0369
 20
-45.834
 30
0.0
  0
VERTEX
  5
A79
  8
LAYER_1
 62
   250
 10
-97.0674
 20
-46.1363
 30
0.0
  0
VERTEX
  5
A7A
  8
LAYER_1
 62
   250
 10
-97.0369
 20
-46.4386
 30
0.0
  0
VERTEX
  5
A7B
  8
LAYER_1
 62
   250
 10
-96.9495
 20
-46.7202
 30
0.0
  0
VERTEX
  5
A7C
  8
LAYER_1
 62
   250
 10
-96.8112
 20
-46.975
 30
0.0
  0
VERTEX
  5
A7D
  8
LAYER_1
 62
   250
 10
-96.6281
 20
-47.197
 30
0.0
  0
VERTEX
  5
A7E
  8
LAYER_1
 62
   250
 10
-96.4061
 20
-47.3801
 30
0.0
  0
VERTEX
  5
A7F
  8
LAYER_1
 62
   250
 10
-96.1513
 20
-47.5184
 30
0.0
  0
VERTEX
  5
A80
  8
LAYER_1
 62
   250
 10
-95.8697
 20
-47.6058
 30
0.0
  0
VERTEX
  5
A81
  8
LAYER_1
 62
   250
 10
-95.5674
 20
-47.6363
 30
0.0
  0
VERTEX
  5
A82
  8
LAYER_1
 62
   250
 10
-95.2651
 20
-47.6058
 30
0.0
  0
VERTEX
  5
A83
  8
LAYER_1
 62
   250
 10
-94.9835
 20
-47.5184
 30
0.0
  0
VERTEX
  5
A84
  8
LAYER_1
 62
   250
 10
-94.7287
 20
-47.3801
 30
0.0
  0
VERTEX
  5
A85
  8
LAYER_1
 62
   250
 10
-94.5068
 20
-47.197
 30
0.0
  0
VERTEX
  5
A86
  8
LAYER_1
 62
   250
 10
-94.3236
 20
-46.975
 30
0.0
  0
VERTEX
  5
A87
  8
LAYER_1
 62
   250
 10
-94.1853
 20
-46.7202
 30
0.0
  0
VERTEX
  5
A88
  8
LAYER_1
 62
   250
 10
-94.0979
 20
-46.4386
 30
0.0
  0
VERTEX
  5
A89
  8
LAYER_1
 62
   250
 10
-94.0674
 20
-46.1363
 30
0.0
  0
SEQEND
  5
A8A
  8
LAYER_1
 62
   250
  0
POLYLINE
  5
8D
  8
LAYER_1
 62
   250
 66
     1
 10
0.0
 20
0.0
 30
0.0
 70
     1
  0
VERTEX
  5
A8B
  8
LAYER_1
 62
   250
 10
-94.0674
 20
-75.7363
 30
0.0
  0
VERTEX
  5
A8C
  8
LAYER_1
 62
   250
 10
-94.0979
 20
-75.434
 30
0.0
  0
VERTEX
  5
A8D
  8
LAYER_1
 62
   250
 10
-94.1853
 20
-75.1524
 30
0.0
  0
VERTEX
  5
A8E
  8
LAYER_1
 62
   250
 10
-94.3236
 20
-74.8976
 30
0.0
  0
VERTEX
  5
A8F
  8
LAYER_1
 62
   250
 10
-94.5068
 20
-74.6757
 30
0.0
  0
VERTEX
  5
A90
  8
LAYER_1
 62
   250
 10
-94.7287
 20
-74.4925
 30
0.0
  0
VERTEX
  5
A91
  8
LAYER_1
 62
   250
 10
-94.9835
 20
-74.3542
 30
0.0
  0
VERTEX
  5
A92
  8
LAYER_1
 62
   250
 10
-95.2651
 20
-74.2668
 30
0.0
  0
VERTEX
  5
A93
  8
LAYER_1
 62
   250
 10
-95.5674
 20
-74.2363
 30
0.0
  0
VERTEX
  5
A94
  8
LAYER_1
 62
   250
 10
-95.8697
 20
-74.2668
 30
0.0
  0
VERTEX
  5
A95
  8
LAYER_1
 62
   250
 10
-96.1513
 20
-74.3542
 30
0.0
  0
VERTEX
  5
A96
  8
LAYER_1
 62
   250
 10
-96.4061
 20
-74.4925
 30
0.0
  0
VERTEX
  5
A97
  8
LAYER_1
 62
   250
 10
-96.6281
 20
-74.6757
 30
0.0
  0
VERTEX
  5
A98
  8
LAYER_1
 62
   250
 10
-96.8112
 20
-74.8976
 30
0.0
  0
VERTEX
  5
A99
  8
LAYER_1
 62
   250
 10
-96.9495
 20
-75.1524
 30
0.0
  0
VERTEX
  5
A9A
  8
LAYER_1
 62
   250
 10
-97.0369
 20
-75.434
 30
0.0
  0
VERTEX
  5
A9B
  8
LAYER_1
 62
   250
 10
-97.0674
 20
-75.7363
 30
0.0
  0
VERTEX
  5
A9C
  8
LAYER_1
 62
   250
 10
-97.0369
 20
-76.0386
 30
0.0
  0
VERTEX
  5
A9D
  8
LAYER_1
 62
   250
 10
-96.9495
 20
-76.3202
 30
0.0
  0
VERTEX
  5
A9E
  8
LAYER_1
 62
   250
 10
-96.8112
 20
-76.575
 30
0.0
  0
VERTEX
  5
A9F
  8
LAYER_1
 62
   250
 10
-96.6281
 20
-76.797
 30
0.0
  0
VERTEX
  5
AA0
  8
LAYER_1
 62
   250
 10
-96.4061
 20
-76.9801
 30
0.0
  0
VERTEX
  5
AA1
  8
LAYER_1
 62
   250
 10
-96.1513
 20
-77.1184
 30
0.0
  0
VERTEX
  5
AA2
  8
LAYER_1
 62
   250
 10
-95.8697
 20
-77.2058
 30
0.0
  0
VERTEX
  5
AA3
  8
LAYER_1
 62
   250
 10
-95.5674
 20
-77.2363
 30
0.0
  0
VERTEX
  5
AA4
  8
LAYER_1
 62
   250
 10
-95.2651
 20
-77.2058
 30
0.0
  0
VERTEX
  5
AA5
  8
LAYER_1
 62
   250
 10
-94.9835
 20
-77.1184
 30
0.0
  0
VERTEX
  5
AA6
  8
LAYER_1
 62
   250
 10
-94.7287
 20
-76.9801
 30
0.0
  0
VERTEX
  5
AA7
  8
LAYER_1
 62
   250
 10
-94.5068
 20
-76.797
 30
0.0
  0
VERTEX
  5
AA8
  8
LAYER_1
 62
   250
 10
-94.3236
 20
-76.575
 30
0.0
  0
VERTEX
  5
AA9
  8
LAYER_1
 62
   250
 10
-94.1853
 20
-76.3202
 30
0.0
  0
VERTEX
  5
AAA
  8
LAYER_1
 62
   250
 10
-94.0979
 20
-76.0386
 30
0.0
  0
VERTEX
  5
AAB
  8
LAYER_1
 62
   250
 10
-94.0674
 20
-75.7363
 30
0.0
  0
SEQEND
  5
AAC
  8
LAYER_1
 62
   250
  0
POLYLINE
  5
8E
  8
LAYER_1
 62
   250
 66
     1
 10
0.0
 20
0.0
 30
0.0
 70
     1
  0
VERTEX
  5
AAD
  8
LAYER_1
 62
   250
 10
-36.9551
 20
-36.9633
 30
0.0
  0
VERTEX
  5
AAE
  8
LAYER_1
 62
   250
 10
-36.9856
 20
-36.661
 30
0.0
  0
VERTEX
  5
AAF
  8
LAYER_1
 62
   250
 10
-37.073
 20
-36.3794
 30
0.0
  0
VERTEX
  5
AB0
  8
LAYER_1
 62
   250
 10
-37.2113
 20
-36.1246
 30
0.0
  0
VERTEX
  5
AB1
  8
LAYER_1
 62
   250
 10
-37.3945
 20
-35.9027
 30
0.0
  0
VERTEX
  5
AB2
  8
LAYER_1
 62
   250
 10
-37.6164
 20
-35.7195
 30
0.0
  0
VERTEX
  5
AB3
  8
LAYER_1
 62
   250
 10
-37.8712
 20
-35.5812
 30
0.0
  0
VERTEX
  5
AB4
  8
LAYER_1
 62
   250
 10
-38.1528
 20
-35.4938
 30
0.0
  0
VERTEX
  5
AB5
  8
LAYER_1
 62
   250
 10
-38.4551
 20
-35.4633
 30
0.0
  0
VERTEX
  5
AB6
  8
LAYER_1
 62
   250
 10
-38.7574
 20
-35.4938
 30
0.0
  0
VERTEX
  5
AB7
  8
LAYER_1
 62
   250
 10
-39.039
 20
-35.5812
 30
0.0
  0
VERTEX
  5
AB8
  8
LAYER_1
 62
   250
 10
-39.2938
 20
-35.7195
 30
0.0
  0
VERTEX
  5
AB9
  8
LAYER_1
 62
   250
 10
-39.5158
 20
-35.9027
 30
0.0
  0
VERTEX
  5
ABA
  8
LAYER_1
 62
   250
 10
-39.6989
 20
-36.1246
 30
0.0
  0
VERTEX
  5
ABB
  8
LAYER_1
 62
   250
 10
-39.8372
 20
-36.3794
 30
0.0
  0
VERTEX
  5
ABC
  8
LAYER_1
 62
   250
 10
-39.9246
 20
-36.661
 30
0.0
  0
VERTEX
  5
ABD
  8
LAYER_1
 62
   250
 10
-39.9551
 20
-36.9633
 30
0.0
  0
VERTEX
  5
ABE
  8
LAYER_1
 62
   250
 10
-39.9246
 20
-37.2656
 30
0.0
  0
VERTEX
  5
ABF
  8
LAYER_1
 62
   250
 10
-39.8372
 20
-37.5472
 30
0.0
  0
VERTEX
  5
AC0
  8
LAYER_1
 62
   250
 10
-39.6989
 20
-37.802
 30
0.0
  0
VERTEX
  5
AC1
  8
LAYER_1
 62
   250
 10
-39.5158
 20
-38.024
 30
0.0
  0
VERTEX
  5
AC2
  8
LAYER_1
 62
   250
 10
-39.2938
 20
-38.2071
 30
0.0
  0
VERTEX
  5
AC3
  8
LAYER_1
 62
   250
 10
-39.039
 20
-38.3454
 30
0.0
  0
VERTEX
  5
AC4
  8
LAYER_1
 62
   250
 10
-38.7574
 20
-38.4328
 30
0.0
  0
VERTEX
  5
AC5
  8
LAYER_1
 62
   250
 10
-38.4551
 20
-38.4633
 30
0.0
  0
VERTEX
  5
AC6
  8
LAYER_1
 62
   250
 10
-38.1528
 20
-38.4328
 30
0.0
  0
VERTEX
  5
AC7
  8
LAYER_1
 62
   250
 10
-37.8712
 20
-38.3454
 30
0.0
  0
VERTEX
  5
AC8
  8
LAYER_1
 62
   250
 10
-37.6164
 20
-38.2071
 30
0.0
  0
VERTEX
  5
AC9
  8
LAYER_1
 62
   250
 10
-37.3945
 20
-38.024
 30
0.0
  0
VERTEX
  5
ACA
  8
LAYER_1
 62
   250
 10
-37.2113
 20
-37.802
 30
0.0
  0
VERTEX
  5
ACB
  8
LAYER_1
 62
   250
 10
-37.073
 20
-37.5472
 30
0.0
  0
VERTEX
  5
ACC
  8
LAYER_1
 62
   250
 10
-36.9856
 20
-37.2656
 30
0.0
  0
VERTEX
  5
ACD
  8
LAYER_1
 62
   250
 10
-36.9551
 20
-36.9633
 30
0.0
  0
SEQEND
  5
ACE
  8
LAYER_1
 62
   250
  0
POLYLINE
  5
8F
  8
LAYER_1
 62
   250
 66
     1
 10
0.0
 20
0.0
 30
0.0
 70
     1
  0
VERTEX
  5
ACF
  8
LAYER_1
 62
   250
 10
-38.2251
 20
-85.1358
 30
0.0
  0
VERTEX
  5
AD0
  8
LAYER_1
 62
   250
 10
-38.2556
 20
-84.8335
 30
0.0
  0
VERTEX
  5
AD1
  8
LAYER_1
 62
   250
 10
-38.343
 20
-84.5519
 30
0.0
  0
VERTEX
  5
AD2
  8
LAYER_1
 62
   250
 10
-38.4813
 20
-84.2971
 30
0.0
  0
VERTEX
  5
AD3
  8
LAYER_1
 62
   250
 10
-38.6645
 20
-84.0752
 30
0.0
  0
VERTEX
  5
AD4
  8
LAYER_1
 62
   250
 10
-38.8864
 20
-83.892
 30
0.0
  0
VERTEX
  5
AD5
  8
LAYER_1
 62
   250
 10
-39.1412
 20
-83.7537
 30
0.0
  0
VERTEX
  5
AD6
  8
LAYER_1
 62
   250
 10
-39.4228
 20
-83.6663
 30
0.0
  0
VERTEX
  5
AD7
  8
LAYER_1
 62
   250
 10
-39.7251
 20
-83.6358
 30
0.0
  0
VERTEX
  5
AD8
  8
LAYER_1
 62
   250
 10
-40.0274
 20
-83.6663
 30
0.0
  0
VERTEX
  5
AD9
  8
LAYER_1
 62
   250
 10
-40.309
 20
-83.7537
 30
0.0
  0
VERTEX
  5
ADA
  8
LAYER_1
 62
   250
 10
-40.5638
 20
-83.892
 30
0.0
  0
VERTEX
  5
ADB
  8
LAYER_1
 62
   250
 10
-40.7858
 20
-84.0752
 30
0.0
  0
VERTEX
  5
ADC
  8
LAYER_1
 62
   250
 10
-40.9689
 20
-84.2971
 30
0.0
  0
VERTEX
  5
ADD
  8
LAYER_1
 62
   250
 10
-41.1072
 20
-84.5519
 30
0.0
  0
VERTEX
  5
ADE
  8
LAYER_1
 62
   250
 10
-41.1946
 20
-84.8335
 30
0.0
  0
VERTEX
  5
ADF
  8
LAYER_1
 62
   250
 10
-41.2251
 20
-85.1358
 30
0.0
  0
VERTEX
  5
AE0
  8
LAYER_1
 62
   250
 10
-41.1946
 20
-85.4381
 30
0.0
  0
VERTEX
  5
AE1
  8
LAYER_1
 62
   250
 10
-41.1072
 20
-85.7197
 30
0.0
  0
VERTEX
  5
AE2
  8
LAYER_1
 62
   250
 10
-40.9689
 20
-85.9745
 30
0.0
  0
VERTEX
  5
AE3
  8
LAYER_1
 62
   250
 10
-40.7858
 20
-86.1965
 30
0.0
  0
VERTEX
  5
AE4
  8
LAYER_1
 62
   250
 10
-40.5638
 20
-86.3796
 30
0.0
  0
VERTEX
  5
AE5
  8
LAYER_1
 62
   250
 10
-40.309
 20
-86.5179
 30
0.0
  0
VERTEX
  5
AE6
  8
LAYER_1
 62
   250
 10
-40.0274
 20
-86.6053
 30
0.0
  0
VERTEX
  5
AE7
  8
LAYER_1
 62
   250
 10
-39.7251
 20
-86.6358
 30
0.0
  0
VERTEX
  5
AE8
  8
LAYER_1
 62
   250
 10
-39.4228
 20
-86.6053
 30
0.0
  0
VERTEX
  5
AE9
  8
LAYER_1
 62
   250
 10
-39.1412
 20
-86.5179
 30
0.0
  0
VERTEX
  5
AEA
  8
LAYER_1
 62
   250
 10
-38.8864
 20
-86.3796
 30
0.0
  0
VERTEX
  5
AEB
  8
LAYER_1
 62
   250
 10
-38.6645
 20
-86.1965
 30
0.0
  0
VERTEX
  5
AEC
  8
LAYER_1
 62
   250
 10
-38.4813
 20
-85.9745
 30
0.0
  0
VERTEX
  5
AED
  8
LAYER_1
 62
   250
 10
-38.343
 20
-85.7197
 30
0.0
  0
VERTEX
  5
AEE
  8
LAYER_1
 62
   250
 10
-38.2556
 20
-85.4381
 30
0.0
  0
VERTEX
  5
AEF
  8
LAYER_1
 62
   250
 10
-38.2251
 20
-85.1358
 30
0.0
  0
SEQEND
  5
AF0
  8
LAYER_1
 62
   250
  0
POLYLINE
  5
90
  8
LAYER_1
 62
   250
 66
     1
 10
0.0
 20
0.0
 30
0.0
 70
     1
  0
VERTEX
  5
AF1
  8
LAYER_1
 62
   250
 10
13.8449
 20
-52.2033
 30
0.0
  0
VERTEX
  5
AF2
  8
LAYER_1
 62
   250
 10
13.8144
 20
-51.901
 30
0.0
  0
VERTEX
  5
AF3
  8
LAYER_1
 62
   250
 10
13.727
 20
-51.6194
 30
0.0
  0
VERTEX
  5
AF4
  8
LAYER_1
 62
   250
 10
13.5887
 20
-51.3646
 30
0.0
  0
VERTEX
  5
AF5
  8
LAYER_1
 62
   250
 10
13.4056
 20
-51.1427
 30
0.0
  0
VERTEX
  5
AF6
  8
LAYER_1
 62
   250
 10
13.1836
 20
-50.9595
 30
0.0
  0
VERTEX
  5
AF7
  8
LAYER_1
 62
   250
 10
12.9288
 20
-50.8212
 30
0.0
  0
VERTEX
  5
AF8
  8
LAYER_1
 62
   250
 10
12.6472
 20
-50.7338
 30
0.0
  0
VERTEX
  5
AF9
  8
LAYER_1
 62
   250
 10
12.3449
 20
-50.7033
 30
0.0
  0
VERTEX
  5
AFA
  8
LAYER_1
 62
   250
 10
12.0426
 20
-50.7338
 30
0.0
  0
VERTEX
  5
AFB
  8
LAYER_1
 62
   250
 10
11.761
 20
-50.8212
 30
0.0
  0
VERTEX
  5
AFC
  8
LAYER_1
 62
   250
 10
11.5062
 20
-50.9595
 30
0.0
  0
VERTEX
  5
AFD
  8
LAYER_1
 62
   250
 10
11.2843
 20
-51.1427
 30
0.0
  0
VERTEX
  5
AFE
  8
LAYER_1
 62
   250
 10
11.1011
 20
-51.3646
 30
0.0
  0
VERTEX
  5
AFF
  8
LAYER_1
 62
   250
 10
10.9628
 20
-51.6194
 30
0.0
  0
VERTEX
  5
B00
  8
LAYER_1
 62
   250
 10
10.8754
 20
-51.901
 30
0.0
  0
VERTEX
  5
B01
  8
LAYER_1
 62
   250
 10
10.8449
 20
-52.2033
 30
0.0
  0
VERTEX
  5
B02
  8
LAYER_1
 62
   250
 10
10.8754
 20
-52.5056
 30
0.0
  0
VERTEX
  5
B03
  8
LAYER_1
 62
   250
 10
10.9628
 20
-52.7872
 30
0.0
  0
VERTEX
  5
B04
  8
LAYER_1
 62
   250
 10
11.1011
 20
-53.042
 30
0.0
  0
VERTEX
  5
B05
  8
LAYER_1
 62
   250
 10
11.2843
 20
-53.264
 30
0.0
  0
VERTEX
  5
B06
  8
LAYER_1
 62
   250
 10
11.5062
 20
-53.4471
 30
0.0
  0
VERTEX
  5
B07
  8
LAYER_1
 62
   250
 10
11.761
 20
-53.5854
 30
0.0
  0
VERTEX
  5
B08
  8
LAYER_1
 62
   250
 10
12.0426
 20
-53.6728
 30
0.0
  0
VERTEX
  5
B09
  8
LAYER_1
 62
   250
 10
12.3449
 20
-53.7033
 30
0.0
  0
VERTEX
  5
B0A
  8
LAYER_1
 62
   250
 10
12.6472
 20
-53.6728
 30
0.0
  0
VERTEX
  5
B0B
  8
LAYER_1
 62
   250
 10
12.9288
 20
-53.5854
 30
0.0
  0
VERTEX
  5
B0C
  8
LAYER_1
 62
   250
 10
13.1836
 20
-53.4471
 30
0.0
  0
VERTEX
  5
B0D
  8
LAYER_1
 62
   250
 10
13.4056
 20
-53.264
 30
0.0
  0
VERTEX
  5
B0E
  8
LAYER_1
 62
   250
 10
13.5887
 20
-53.042
 30
0.0
  0
VERTEX
  5
B0F
  8
LAYER_1
 62
   250
 10
13.727
 20
-52.7872
 30
0.0
  0
VERTEX
  5
B10
  8
LAYER_1
 62
   250
 10
13.8144
 20
-52.5056
 30
0.0
  0
VERTEX
  5
B11
  8
LAYER_1
 62
   250
 10
13.8449
 20
-52.2033
 30
0.0
  0
SEQEND
  5
B12
  8
LAYER_1
 62
   250
  0
POLYLINE
  5
91
  8
LAYER_1
 62
   250
 66
     1
 10
0.0
 20
0.0
 30
0.0
 70
     1
  0
VERTEX
  5
B13
  8
LAYER_1
 62
   250
 10
13.8449
 20
-80.1433
 30
0.0
  0
VERTEX
  5
B14
  8
LAYER_1
 62
   250
 10
13.8144
 20
-79.841
 30
0.0
  0
VERTEX
  5
B15
  8
LAYER_1
 62
   250
 10
13.727
 20
-79.5594
 30
0.0
  0
VERTEX
  5
B16
  8
LAYER_1
 62
   250
 10
13.5887
 20
-79.3046
 30
0.0
  0
VERTEX
  5
B17
  8
LAYER_1
 62
   250
 10
13.4056
 20
-79.0827
 30
0.0
  0
VERTEX
  5
B18
  8
LAYER_1
 62
   250
 10
13.1836
 20
-78.8995
 30
0.0
  0
VERTEX
  5
B19
  8
LAYER_1
 62
   250
 10
12.9288
 20
-78.7612
 30
0.0
  0
VERTEX
  5
B1A
  8
LAYER_1
 62
   250
 10
12.6472
 20
-78.6738
 30
0.0
  0
VERTEX
  5
B1B
  8
LAYER_1
 62
   250
 10
12.3449
 20
-78.6433
 30
0.0
  0
VERTEX
  5
B1C
  8
LAYER_1
 62
   250
 10
12.0426
 20
-78.6738
 30
0.0
  0
VERTEX
  5
B1D
  8
LAYER_1
 62
   250
 10
11.761
 20
-78.7612
 30
0.0
  0
VERTEX
  5
B1E
  8
LAYER_1
 62
   250
 10
11.5062
 20
-78.8995
 30
0.0
  0
VERTEX
  5
B1F
  8
LAYER_1
 62
   250
 10
11.2843
 20
-79.0827
 30
0.0
  0
VERTEX
  5
B20
  8
LAYER_1
 62
   250
 10
11.1011
 20
-79.3046
 30
0.0
  0
VERTEX
  5
B21
  8
LAYER_1
 62
   250
 10
10.9628
 20
-79.5594
 30
0.0
  0
VERTEX
  5
B22
  8
LAYER_1
 62
   250
 10
10.8754
 20
-79.841
 30
0.0
  0
VERTEX
  5
B23
  8
LAYER_1
 62
   250
 10
10.8449
 20
-80.1433
 30
0.0
  0
VERTEX
  5
B24
  8
LAYER_1
 62
   250
 10
10.8754
 20
-80.4456
 30
0.0
  0
VERTEX
  5
B25
  8
LAYER_1
 62
   250
 10
10.9628
 20
-80.7272
 30
0.0
  0
VERTEX
  5
B26
  8
LAYER_1
 62
   250
 10
11.1011
 20
-80.982
 30
0.0
  0
VERTEX
  5
B27
  8
LAYER_1
 62
   250
 10
11.2843
 20
-81.204
 30
0.0
  0
VERTEX
  5
B28
  8
LAYER_1
 62
   250
 10
11.5062
 20
-81.3871
 30
0.0
  0
VERTEX
  5
B29
  8
LAYER_1
 62
   250
 10
11.761
 20
-81.5254
 30
0.0
  0
VERTEX
  5
B2A
  8
LAYER_1
 62
   250
 10
12.0426
 20
-81.6128
 30
0.0
  0
VERTEX
  5
B2B
  8
LAYER_1
 62
   250
 10
12.3449
 20
-81.6433
 30
0.0
  0
VERTEX
  5
B2C
  8
LAYER_1
 62
   250
 10
12.6472
 20
-81.6128
 30
0.0
  0
VERTEX
  5
B2D
  8
LAYER_1
 62
   250
 10
12.9288
 20
-81.5254
 30
0.0
  0
VERTEX
  5
B2E
  8
LAYER_1
 62
   250
 10
13.1836
 20
-81.3871
 30
0.0
  0
VERTEX
  5
B2F
  8
LAYER_1
 62
   250
 10
13.4056
 20
-81.204
 30
0.0
  0
VERTEX
  5
B30
  8
LAYER_1
 62
   250
 10
13.5887
 20
-80.982
 30
0.0
  0
VERTEX
  5
B31
  8
LAYER_1
 62
   250
 10
13.727
 20
-80.7272
 30
0.0
  0
VERTEX
  5
B32
  8
LAYER_1
 62
   250
 10
13.8144
 20
-80.4456
 30
0.0
  0
VERTEX
  5
B33
  8
LAYER_1
 62
   250
 10
13.8449
 20
-80.1433
 30
0.0
  0
SEQEND
  5
B34
  8
LAYER_1
 62
   250
  0
POLYLINE
  5
92
  8
LAYER_1
 62
   250
 66
     1
 10
0.0
 20
0.0
 30
0.0
 70
     1
  0
VERTEX
  5
B35
  8
LAYER_1
 62
   250
 10
45.463
 20
-45.101
 30
0.0
  0
VERTEX
  5
B36
  8
LAYER_1
 62
   250
 10
45.4325
 20
-44.7987
 30
0.0
  0
VERTEX
  5
B37
  8
LAYER_1
 62
   250
 10
45.3451
 20
-44.5171
 30
0.0
  0
VERTEX
  5
B38
  8
LAYER_1
 62
   250
 10
45.2068
 20
-44.2623
 30
0.0
  0
VERTEX
  5
B39
  8
LAYER_1
 62
   250
 10
45.0237
 20
-44.0404
 30
0.0
  0
VERTEX
  5
B3A
  8
LAYER_1
 62
   250
 10
44.8017
 20
-43.8572
 30
0.0
  0
VERTEX
  5
B3B
  8
LAYER_1
 62
   250
 10
44.5469
 20
-43.7189
 30
0.0
  0
VERTEX
  5
B3C
  8
LAYER_1
 62
   250
 10
44.2653
 20
-43.6315
 30
0.0
  0
VERTEX
  5
B3D
  8
LAYER_1
 62
   250
 10
43.963
 20
-43.601
 30
0.0
  0
VERTEX
  5
B3E
  8
LAYER_1
 62
   250
 10
43.6607
 20
-43.6315
 30
0.0
  0
VERTEX
  5
B3F
  8
LAYER_1
 62
   250
 10
43.3791
 20
-43.7189
 30
0.0
  0
VERTEX
  5
B40
  8
LAYER_1
 62
   250
 10
43.1243
 20
-43.8572
 30
0.0
  0
VERTEX
  5
B41
  8
LAYER_1
 62
   250
 10
42.9024
 20
-44.0404
 30
0.0
  0
VERTEX
  5
B42
  8
LAYER_1
 62
   250
 10
42.7192
 20
-44.2623
 30
0.0
  0
VERTEX
  5
B43
  8
LAYER_1
 62
   250
 10
42.5809
 20
-44.5171
 30
0.0
  0
VERTEX
  5
B44
  8
LAYER_1
 62
   250
 10
42.4935
 20
-44.7987
 30
0.0
  0
VERTEX
  5
B45
  8
LAYER_1
 62
   250
 10
42.463
 20
-45.101
 30
0.0
  0
VERTEX
  5
B46
  8
LAYER_1
 62
   250
 10
42.4935
 20
-45.4033
 30
0.0
  0
VERTEX
  5
B47
  8
LAYER_1
 62
   250
 10
42.5809
 20
-45.6849
 30
0.0
  0
VERTEX
  5
B48
  8
LAYER_1
 62
   250
 10
42.7192
 20
-45.9397
 30
0.0
  0
VERTEX
  5
B49
  8
LAYER_1
 62
   250
 10
42.9024
 20
-46.1617
 30
0.0
  0
VERTEX
  5
B4A
  8
LAYER_1
 62
   250
 10
43.1243
 20
-46.3448
 30
0.0
  0
VERTEX
  5
B4B
  8
LAYER_1
 62
   250
 10
43.3791
 20
-46.4831
 30
0.0
  0
VERTEX
  5
B4C
  8
LAYER_1
 62
   250
 10
43.6607
 20
-46.5705
 30
0.0
  0
VERTEX
  5
B4D
  8
LAYER_1
 62
   250
 10
43.963
 20
-46.601
 30
0.0
  0
VERTEX
  5
B4E
  8
LAYER_1
 62
   250
 10
44.2653
 20
-46.5705
 30
0.0
  0
VERTEX
  5
B4F
  8
LAYER_1
 62
   250
 10
44.5469
 20
-46.4831
 30
0.0
  0
VERTEX
  5
B50
  8
LAYER_1
 62
   250
 10
44.8017
 20
-46.3448
 30
0.0
  0
VERTEX
  5
B51
  8
LAYER_1
 62
   250
 10
45.0237
 20
-46.1617
 30
0.0
  0
VERTEX
  5
B52
  8
LAYER_1
 62
   250
 10
45.2068
 20
-45.9397
 30
0.0
  0
VERTEX
  5
B53
  8
LAYER_1
 62
   250
 10
45.3451
 20
-45.6849
 30
0.0
  0
VERTEX
  5
B54
  8
LAYER_1
 62
   250
 10
45.4325
 20
-45.4033
 30
0.0
  0
VERTEX
  5
B55
  8
LAYER_1
 62
   250
 10
45.463
 20
-45.101
 30
0.0
  0
SEQEND
  5
B56
  8
LAYER_1
 62
   250
  0
POLYLINE
  5
93
  8
LAYER_1
 62
   250
 66
     1
 10
0.0
 20
0.0
 30
0.0
 70
     1
  0
VERTEX
  5
B57
  8
LAYER_1
 62
   250
 10
45.463
 20
-75.101
 30
0.0
  0
VERTEX
  5
B58
  8
LAYER_1
 62
   250
 10
45.4325
 20
-74.7987
 30
0.0
  0
VERTEX
  5
B59
  8
LAYER_1
 62
   250
 10
45.3451
 20
-74.5171
 30
0.0
  0
VERTEX
  5
B5A
  8
LAYER_1
 62
   250
 10
45.2068
 20
-74.2623
 30
0.0
  0
VERTEX
  5
B5B
  8
LAYER_1
 62
   250
 10
45.0237
 20
-74.0404
 30
0.0
  0
VERTEX
  5
B5C
  8
LAYER_1
 62
   250
 10
44.8017
 20
-73.8572
 30
0.0
  0
VERTEX
  5
B5D
  8
LAYER_1
 62
   250
 10
44.5469
 20
-73.7189
 30
0.0
  0
VERTEX
  5
B5E
  8
LAYER_1
 62
   250
 10
44.2653
 20
-73.6315
 30
0.0
  0
VERTEX
  5
B5F
  8
LAYER_1
 62
   250
 10
43.963
 20
-73.601
 30
0.0
  0
VERTEX
  5
B60
  8
LAYER_1
 62
   250
 10
43.6607
 20
-73.6315
 30
0.0
  0
VERTEX
  5
B61
  8
LAYER_1
 62
   250
 10
43.3791
 20
-73.7189
 30
0.0
  0
VERTEX
  5
B62
  8
LAYER_1
 62
   250
 10
43.1243
 20
-73.8572
 30
0.0
  0
VERTEX
  5
B63
  8
LAYER_1
 62
   250
 10
42.9024
 20
-74.0404
 30
0.0
  0
VERTEX
  5
B64
  8
LAYER_1
 62
   250
 10
42.7192
 20
-74.2623
 30
0.0
  0
VERTEX
  5
B65
  8
LAYER_1
 62
   250
 10
42.5809
 20
-74.5171
 30
0.0
  0
VERTEX
  5
B66
  8
LAYER_1
 62
   250
 10
42.4935
 20
-74.7987
 30
0.0
  0
VERTEX
  5
B67
  8
LAYER_1
 62
   250
 10
42.463
 20
-75.101
 30
0.0
  0
VERTEX
  5
B68
  8
LAYER_1
 62
   250
 10
42.4935
 20
-75.4033
 30
0.0
  0
VERTEX
  5
B69
  8
LAYER_1
 62
   250
 10
42.5809
 20
-75.6849
 30
0.0
  0
VERTEX
  5
B6A
  8
LAYER_1
 62
   250
 10
42.7192
 20
-75.9397
 30
0.0
  0
VERTEX
  5
B6B
  8
LAYER_1
 62
   250
 10
42.9024
 20
-76.1617
 30
0.0
  0
VERTEX
  5
B6C
  8
LAYER_1
 62
   250
 10
43.1243
 20
-76.3448
 30
0.0
  0
VERTEX
  5
B6D
  8
LAYER_1
 62
   250
 10
43.3791
 20
-76.4831
 30
0.0
  0
VERTEX
  5
B6E
  8
LAYER_1
 62
   250
 10
43.6607
 20
-76.5705
 30
0.0
  0
VERTEX
  5
B6F
  8
LAYER_1
 62
   250
 10
43.963
 20
-76.601
 30
0.0
  0
VERTEX
  5
B70
  8
LAYER_1
 62
   250
 10
44.2653
 20
-76.5705
 30
0.0
  0
VERTEX
  5
B71
  8
LAYER_1
 62
   250
 10
44.5469
 20
-76.4831
 30
0.0
  0
VERTEX
  5
B72
  8
LAYER_1
 62
   250
 10
44.8017
 20
-76.3448
 30
0.0
  0
VERTEX
  5
B73
  8
LAYER_1
 62
   250
 10
45.0237
 20
-76.1617
 30
0.0
  0
VERTEX
  5
B74
  8
LAYER_1
 62
   250
 10
45.2068
 20
-75.9397
 30
0.0
  0
VERTEX
  5
B75
  8
LAYER_1
 62
   250
 10
45.3451
 20
-75.6849
 30
0.0
  0
VERTEX
  5
B76
  8
LAYER_1
 62
   250
 10
45.4325
 20
-75.4033
 30
0.0
  0
VERTEX
  5
B77
  8
LAYER_1
 62
   250
 10
45.463
 20
-75.101
 30
0.0
  0
SEQEND
  5
B78
  8
LAYER_1
 62
   250
  0
POLYLINE
  5
94
  8
LAYER_1
 62
   250
 66
     1
 10
0.0
 20
0.0
 30
0.0
 70
     1
  0
VERTEX
  5
B79
  8
LAYER_1
 62
   250
 10
65.463
 20
-75.101
 30
0.0
  0
VERTEX
  5
B7A
  8
LAYER_1
 62
   250
 10
65.4325
 20
-74.7987
 30
0.0
  0
VERTEX
  5
B7B
  8
LAYER_1
 62
   250
 10
65.3451
 20
-74.5171
 30
0.0
  0
VERTEX
  5
B7C
  8
LAYER_1
 62
   250
 10
65.2068
 20
-74.2623
 30
0.0
  0
VERTEX
  5
B7D
  8
LAYER_1
 62
   250
 10
65.0237
 20
-74.0404
 30
0.0
  0
VERTEX
  5
B7E
  8
LAYER_1
 62
   250
 10
64.8017
 20
-73.8572
 30
0.0
  0
VERTEX
  5
B7F
  8
LAYER_1
 62
   250
 10
64.5469
 20
-73.7189
 30
0.0
  0
VERTEX
  5
B80
  8
LAYER_1
 62
   250
 10
64.2653
 20
-73.6315
 30
0.0
  0
VERTEX
  5
B81
  8
LAYER_1
 62
   250
 10
63.963
 20
-73.601
 30
0.0
  0
VERTEX
  5
B82
  8
LAYER_1
 62
   250
 10
63.6607
 20
-73.6315
 30
0.0
  0
VERTEX
  5
B83
  8
LAYER_1
 62
   250
 10
63.3791
 20
-73.7189
 30
0.0
  0
VERTEX
  5
B84
  8
LAYER_1
 62
   250
 10
63.1243
 20
-73.8572
 30
0.0
  0
VERTEX
  5
B85
  8
LAYER_1
 62
   250
 10
62.9024
 20
-74.0404
 30
0.0
  0
VERTEX
  5
B86
  8
LAYER_1
 62
   250
 10
62.7192
 20
-74.2623
 30
0.0
  0
VERTEX
  5
B87
  8
LAYER_1
 62
   250
 10
62.5809
 20
-74.5171
 30
0.0
  0
VERTEX
  5
B88
  8
LAYER_1
 62
   250
 10
62.4935
 20
-74.7987
 30
0.0
  0
VERTEX
  5
B89
  8
LAYER_1
 62
   250
 10
62.463
 20
-75.101
 30
0.0
  0
VERTEX
  5
B8A
  8
LAYER_1
 62
   250
 10
62.4935
 20
-75.4033
 30
0.0
  0
VERTEX
  5
B8B
  8
LAYER_1
 62
   250
 10
62.5809
 20
-75.6849
 30
0.0
  0
VERTEX
  5
B8C
  8
LAYER_1
 62
   250
 10
62.7192
 20
-75.9397
 30
0.0
  0
VERTEX
  5
B8D
  8
LAYER_1
 62
   250
 10
62.9024
 20
-76.1617
 30
0.0
  0
VERTEX
  5
B8E
  8
LAYER_1
 62
   250
 10
63.1243
 20
-76.3448
 30
0.0
  0
VERTEX
  5
B8F
  8
LAYER_1
 62
   250
 10
63.3791
 20
-76.4831
 30
0.0
  0
VERTEX
  5
B90
  8
LAYER_1
 62
   250
 10
63.6607
 20
-76.5705
 30
0.0
  0
VERTEX
  5
B91
  8
LAYER_1
 62
   250
 10
63.963
 20
-76.601
 30
0.0
  0
VERTEX
  5
B92
  8
LAYER_1
 62
   250
 10
64.2653
 20
-76.5705
 30
0.0
  0
VERTEX
  5
B93
  8
LAYER_1
 62
   250
 10
64.5469
 20
-76.4831
 30
0.0
  0
VERTEX
  5
B94
  8
LAYER_1
 62
   250
 10
64.8017
 20
-76.3448
 30
0.0
  0
VERTEX
  5
B95
  8
LAYER_1
 62
   250
 10
65.0237
 20
-76.1617
 30
0.0
  0
VERTEX
  5
B96
  8
LAYER_1
 62
   250
 10
65.2068
 20
-75.9397
 30
0.0
  0
VERTEX
  5
B97
  8
LAYER_1
 62
   250
 10
65.3451
 20
-75.6849
 30
0.0
  0
VERTEX
  5
B98
  8
LAYER_1
 62
   250
 10
65.4325
 20
-75.4033
 30
0.0
  0
VERTEX
  5
B99
  8
LAYER_1
 62
   250
 10
65.463
 20
-75.101
 30
0.0
  0
SEQEND
  5
B9A
  8
LAYER_1
 62
   250
  0
POLYLINE
  5
95
  8
LAYER_1
 62
   250
 66
     1
 10
0.0
 20
0.0
 30
0.0
 70
     1
  0
VERTEX
  5
B9B
  8
LAYER_1
 62
   250
 10
65.463
 20
-45.101
 30
0.0
  0
VERTEX
  5
B9C
  8
LAYER_1
 62
   250
 10
65.4325
 20
-44.7987
 30
0.0
  0
VERTEX
  5
B9D
  8
LAYER_1
 62
   250
 10
65.3451
 20
-44.5171
 30
0.0
  0
VERTEX
  5
B9E
  8
LAYER_1
 62
   250
 10
65.2068
 20
-44.2623
 30
0.0
  0
VERTEX
  5
B9F
  8
LAYER_1
 62
   250
 10
65.0237
 20
-44.0404
 30
0.0
  0
VERTEX
  5
BA0
  8
LAYER_1
 62
   250
 10
64.8017
 20
-43.8572
 30
0.0
  0
VERTEX
  5
BA1
  8
LAYER_1
 62
   250
 10
64.5469
 20
-43.7189
 30
0.0
  0
VERTEX
  5
BA2
  8
LAYER_1
 62
   250
 10
64.2653
 20
-43.6315
 30
0.0
  0
VERTEX
  5
BA3
  8
LAYER_1
 62
   250
 10
63.963
 20
-43.601
 30
0.0
  0
VERTEX
  5
BA4
  8
LAYER_1
 62
   250
 10
63.6607
 20
-43.6315
 30
0.0
  0
VERTEX
  5
BA5
  8
LAYER_1
 62
   250
 10
63.3791
 20
-43.7189
 30
0.0
  0
VERTEX
  5
BA6
  8
LAYER_1
 62
   250
 10
63.1243
 20
-43.8572
 30
0.0
  0
VERTEX
  5
BA7
  8
LAYER_1
 62
   250
 10
62.9024
 20
-44.0404
 30
0.0
  0
VERTEX
  5
BA8
  8
LAYER_1
 62
   250
 10
62.7192
 20
-44.2623
 30
0.0
  0
VERTEX
  5
BA9
  8
LAYER_1
 62
   250
 10
62.5809
 20
-44.5171
 30
0.0
  0
VERTEX
  5
BAA
  8
LAYER_1
 62
   250
 10
62.4935
 20
-44.7987
 30
0.0
  0
VERTEX
  5
BAB
  8
LAYER_1
 62
   250
 10
62.463
 20
-45.101
 30
0.0
  0
VERTEX
  5
BAC
  8
LAYER_1
 62
   250
 10
62.4935
 20
-45.4033
 30
0.0
  0
VERTEX
  5
BAD
  8
LAYER_1
 62
   250
 10
62.5809
 20
-45.6849
 30
0.0
  0
VERTEX
  5
BAE
  8
LAYER_1
 62
   250
 10
62.7192
 20
-45.9397
 30
0.0
  0
VERTEX
  5
BAF
  8
LAYER_1
 62
   250
 10
62.9024
 20
-46.1617
 30
0.0
  0
VERTEX
  5
BB0
  8
LAYER_1
 62
   250
 10
63.1243
 20
-46.3448
 30
0.0
  0
VERTEX
  5
BB1
  8
LAYER_1
 62
   250
 10
63.3791
 20
-46.4831
 30
0.0
  0
VERTEX
  5
BB2
  8
LAYER_1
 62
   250
 10
63.6607
 20
-46.5705
 30
0.0
  0
VERTEX
  5
BB3
  8
LAYER_1
 62
   250
 10
63.963
 20
-46.601
 30
0.0
  0
VERTEX
  5
BB4
  8
LAYER_1
 62
   250
 10
64.2653
 20
-46.5705
 30
0.0
  0
VERTEX
  5
BB5
  8
LAYER_1
 62
   250
 10
64.5469
 20
-46.4831
 30
0.0
  0
VERTEX
  5
BB6
  8
LAYER_1
 62
   250
 10
64.8017
 20
-46.3448
 30
0.0
  0
VERTEX
  5
BB7
  8
LAYER_1
 62
   250
 10
65.0237
 20
-46.1617
 30
0.0
  0
VERTEX
  5
BB8
  8
LAYER_1
 62
   250
 10
65.2068
 20
-45.9397
 30
0.0
  0
VERTEX
  5
BB9
  8
LAYER_1
 62
   250
 10
65.3451
 20
-45.6849
 30
0.0
  0
VERTEX
  5
BBA
  8
LAYER_1
 62
   250
 10
65.4325
 20
-45.4033
 30
0.0
  0
VERTEX
  5
BBB
  8
LAYER_1
 62
   250
 10
65.463
 20
-45.101
 30
0.0
  0
SEQEND
  5
BBC
  8
LAYER_1
 62
   250
  0
POLYLINE
  5
96
  8
LAYER_1
 62
   250
 66
     1
 10
0.0
 20
0.0
 30
0.0
 70
     1
  0
VERTEX
  5
BBD
  8
LAYER_1
 62
   250
 10
86.0326
 20
-79.6864
 30
0.0
  0
VERTEX
  5
BBE
  8
LAYER_1
 62
   250
 10
86.0021
 20
-79.3841
 30
0.0
  0
VERTEX
  5
BBF
  8
LAYER_1
 62
   250
 10
85.9147
 20
-79.1025
 30
0.0
  0
VERTEX
  5
BC0
  8
LAYER_1
 62
   250
 10
85.7764
 20
-78.8477
 30
0.0
  0
VERTEX
  5
BC1
  8
LAYER_1
 62
   250
 10
85.5933
 20
-78.6258
 30
0.0
  0
VERTEX
  5
BC2
  8
LAYER_1
 62
   250
 10
85.3713
 20
-78.4426
 30
0.0
  0
VERTEX
  5
BC3
  8
LAYER_1
 62
   250
 10
85.1165
 20
-78.3043
 30
0.0
  0
VERTEX
  5
BC4
  8
LAYER_1
 62
   250
 10
84.8349
 20
-78.2169
 30
0.0
  0
VERTEX
  5
BC5
  8
LAYER_1
 62
   250
 10
84.5326
 20
-78.1864
 30
0.0
  0
VERTEX
  5
BC6
  8
LAYER_1
 62
   250
 10
84.2303
 20
-78.2169
 30
0.0
  0
VERTEX
  5
BC7
  8
LAYER_1
 62
   250
 10
83.9487
 20
-78.3043
 30
0.0
  0
VERTEX
  5
BC8
  8
LAYER_1
 62
   250
 10
83.6939
 20
-78.4426
 30
0.0
  0
VERTEX
  5
BC9
  8
LAYER_1
 62
   250
 10
83.472
 20
-78.6258
 30
0.0
  0
VERTEX
  5
BCA
  8
LAYER_1
 62
   250
 10
83.2888
 20
-78.8477
 30
0.0
  0
VERTEX
  5
BCB
  8
LAYER_1
 62
   250
 10
83.1505
 20
-79.1025
 30
0.0
  0
VERTEX
  5
BCC
  8
LAYER_1
 62
   250
 10
83.0631
 20
-79.3841
 30
0.0
  0
VERTEX
  5
BCD
  8
LAYER_1
 62
   250
 10
83.0326
 20
-79.6864
 30
0.0
  0
VERTEX
  5
BCE
  8
LAYER_1
 62
   250
 10
83.0631
 20
-79.9887
 30
0.0
  0
VERTEX
  5
BCF
  8
LAYER_1
 62
   250
 10
83.1505
 20
-80.2703
 30
0.0
  0
VERTEX
  5
BD0
  8
LAYER_1
 62
   250
 10
83.2888
 20
-80.5251
 30
0.0
  0
VERTEX
  5
BD1
  8
LAYER_1
 62
   250
 10
83.472
 20
-80.7471
 30
0.0
  0
VERTEX
  5
BD2
  8
LAYER_1
 62
   250
 10
83.6939
 20
-80.9302
 30
0.0
  0
VERTEX
  5
BD3
  8
LAYER_1
 62
   250
 10
83.9487
 20
-81.0685
 30
0.0
  0
VERTEX
  5
BD4
  8
LAYER_1
 62
   250
 10
84.2303
 20
-81.1559
 30
0.0
  0
VERTEX
  5
BD5
  8
LAYER_1
 62
   250
 10
84.5326
 20
-81.1864
 30
0.0
  0
VERTEX
  5
BD6
  8
LAYER_1
 62
   250
 10
84.8349
 20
-81.1559
 30
0.0
  0
VERTEX
  5
BD7
  8
LAYER_1
 62
   250
 10
85.1165
 20
-81.0685
 30
0.0
  0
VERTEX
  5
BD8
  8
LAYER_1
 62
   250
 10
85.3713
 20
-80.9302
 30
0.0
  0
VERTEX
  5
BD9
  8
LAYER_1
 62
   250
 10
85.5933
 20
-80.7471
 30
0.0
  0
VERTEX
  5
BDA
  8
LAYER_1
 62
   250
 10
85.7764
 20
-80.5251
 30
0.0
  0
VERTEX
  5
BDB
  8
LAYER_1
 62
   250
 10
85.9147
 20
-80.2703
 30
0.0
  0
VERTEX
  5
BDC
  8
LAYER_1
 62
   250
 10
86.0021
 20
-79.9887
 30
0.0
  0
VERTEX
  5
BDD
  8
LAYER_1
 62
   250
 10
86.0326
 20
-79.6864
 30
0.0
  0
SEQEND
  5
BDE
  8
LAYER_1
 62
   250
  0
POLYLINE
  5
97
  8
LAYER_1
 62
   250
 66
     1
 10
0.0
 20
0.0
 30
0.0
 70
     1
  0
VERTEX
  5
BDF
  8
LAYER_1
 62
   250
 10
86.0326
 20
-87.1864
 30
0.0
  0
VERTEX
  5
BE0
  8
LAYER_1
 62
   250
 10
86.0021
 20
-86.8841
 30
0.0
  0
VERTEX
  5
BE1
  8
LAYER_1
 62
   250
 10
85.9147
 20
-86.6025
 30
0.0
  0
VERTEX
  5
BE2
  8
LAYER_1
 62
   250
 10
85.7764
 20
-86.3477
 30
0.0
  0
VERTEX
  5
BE3
  8
LAYER_1
 62
   250
 10
85.5933
 20
-86.1258
 30
0.0
  0
VERTEX
  5
BE4
  8
LAYER_1
 62
   250
 10
85.3713
 20
-85.9426
 30
0.0
  0
VERTEX
  5
BE5
  8
LAYER_1
 62
   250
 10
85.1165
 20
-85.8043
 30
0.0
  0
VERTEX
  5
BE6
  8
LAYER_1
 62
   250
 10
84.8349
 20
-85.7169
 30
0.0
  0
VERTEX
  5
BE7
  8
LAYER_1
 62
   250
 10
84.5326
 20
-85.6864
 30
0.0
  0
VERTEX
  5
BE8
  8
LAYER_1
 62
   250
 10
84.2303
 20
-85.7169
 30
0.0
  0
VERTEX
  5
BE9
  8
LAYER_1
 62
   250
 10
83.9487
 20
-85.8043
 30
0.0
  0
VERTEX
  5
BEA
  8
LAYER_1
 62
   250
 10
83.6939
 20
-85.9426
 30
0.0
  0
VERTEX
  5
BEB
  8
LAYER_1
 62
   250
 10
83.472
 20
-86.1258
 30
0.0
  0
VERTEX
  5
BEC
  8
LAYER_1
 62
   250
 10
83.2888
 20
-86.3477
 30
0.0
  0
VERTEX
  5
BED
  8
LAYER_1
 62
   250
 10
83.1505
 20
-86.6025
 30
0.0
  0
VERTEX
  5
BEE
  8
LAYER_1
 62
   250
 10
83.0631
 20
-86.8841
 30
0.0
  0
VERTEX
  5
BEF
  8
LAYER_1
 62
   250
 10
83.0326
 20
-87.1864
 30
0.0
  0
VERTEX
  5
BF0
  8
LAYER_1
 62
   250
 10
83.0631
 20
-87.4887
 30
0.0
  0
VERTEX
  5
BF1
  8
LAYER_1
 62
   250
 10
83.1505
 20
-87.7703
 30
0.0
  0
VERTEX
  5
BF2
  8
LAYER_1
 62
   250
 10
83.2888
 20
-88.0251
 30
0.0
  0
VERTEX
  5
BF3
  8
LAYER_1
 62
   250
 10
83.472
 20
-88.2471
 30
0.0
  0
VERTEX
  5
BF4
  8
LAYER_1
 62
   250
 10
83.6939
 20
-88.4302
 30
0.0
  0
VERTEX
  5
BF5
  8
LAYER_1
 62
   250
 10
83.9487
 20
-88.5685
 30
0.0
  0
VERTEX
  5
BF6
  8
LAYER_1
 62
   250
 10
84.2303
 20
-88.6559
 30
0.0
  0
VERTEX
  5
BF7
  8
LAYER_1
 62
   250
 10
84.5326
 20
-88.6864
 30
0.0
  0
VERTEX
  5
BF8
  8
LAYER_1
 62
   250
 10
84.8349
 20
-88.6559
 30
0.0
  0
VERTEX
  5
BF9
  8
LAYER_1
 62
   250
 10
85.1165
 20
-88.5685
 30
0.0
  0
VERTEX
  5
BFA
  8
LAYER_1
 62
   250
 10
85.3713
 20
-88.4302
 30
0.0
  0
VERTEX
  5
BFB
  8
LAYER_1
 62
   250
 10
85.5933
 20
-88.2471
 30
0.0
  0
VERTEX
  5
BFC
  8
LAYER_1
 62
   250
 10
85.7764
 20
-88.0251
 30
0.0
  0
VERTEX
  5
BFD
  8
LAYER_1
 62
   250
 10
85.9147
 20
-87.7703
 30
0.0
  0
VERTEX
  5
BFE
  8
LAYER_1
 62
   250
 10
86.0021
 20
-87.4887
 30
0.0
  0
VERTEX
  5
BFF
  8
LAYER_1
 62
   250
 10
86.0326
 20
-87.1864
 30
0.0
  0
SEQEND
  5
C00
  8
LAYER_1
 62
   250
  0
POLYLINE
  5
98
  8
LAYER_1
 62
   250
 66
     1
 10
0.0
 20
0.0
 30
0.0
 70
     1
  0
VERTEX
  5
C01
  8
LAYER_1
 62
   250
 10
95.9659
 20
-82.4573
 30
0.0
  0
VERTEX
  5
C02
  8
LAYER_1
 62
   250
 10
95.9354
 20
-82.155
 30
0.0
  0
VERTEX
  5
C03
  8
LAYER_1
 62
   250
 10
95.848
 20
-81.8734
 30
0.0
  0
VERTEX
  5
C04
  8
LAYER_1
 62
   250
 10
95.7097
 20
-81.6186
 30
0.0
  0
VERTEX
  5
C05
  8
LAYER_1
 62
   250
 10
95.5266
 20
-81.3967
 30
0.0
  0
VERTEX
  5
C06
  8
LAYER_1
 62
   250
 10
95.3046
 20
-81.2135
 30
0.0
  0
VERTEX
  5
C07
  8
LAYER_1
 62
   250
 10
95.0498
 20
-81.0752
 30
0.0
  0
VERTEX
  5
C08
  8
LAYER_1
 62
   250
 10
94.7682
 20
-80.9878
 30
0.0
  0
VERTEX
  5
C09
  8
LAYER_1
 62
   250
 10
94.4659
 20
-80.9573
 30
0.0
  0
VERTEX
  5
C0A
  8
LAYER_1
 62
   250
 10
94.1636
 20
-80.9878
 30
0.0
  0
VERTEX
  5
C0B
  8
LAYER_1
 62
   250
 10
93.882
 20
-81.0752
 30
0.0
  0
VERTEX
  5
C0C
  8
LAYER_1
 62
   250
 10
93.6272
 20
-81.2135
 30
0.0
  0
VERTEX
  5
C0D
  8
LAYER_1
 62
   250
 10
93.4053
 20
-81.3967
 30
0.0
  0
VERTEX
  5
C0E
  8
LAYER_1
 62
   250
 10
93.2221
 20
-81.6186
 30
0.0
  0
VERTEX
  5
C0F
  8
LAYER_1
 62
   250
 10
93.0838
 20
-81.8734
 30
0.0
  0
VERTEX
  5
C10
  8
LAYER_1
 62
   250
 10
92.9964
 20
-82.155
 30
0.0
  0
VERTEX
  5
C11
  8
LAYER_1
 62
   250
 10
92.9659
 20
-82.4573
 30
0.0
  0
VERTEX
  5
C12
  8
LAYER_1
 62
   250
 10
92.9964
 20
-82.7596
 30
0.0
  0
VERTEX
  5
C13
  8
LAYER_1
 62
   250
 10
93.0838
 20
-83.0412
 30
0.0
  0
VERTEX
  5
C14
  8
LAYER_1
 62
   250
 10
93.2221
 20
-83.296
 30
0.0
  0
VERTEX
  5
C15
  8
LAYER_1
 62
   250
 10
93.4053
 20
-83.518
 30
0.0
  0
VERTEX
  5
C16
  8
LAYER_1
 62
   250
 10
93.6272
 20
-83.7011
 30
0.0
  0
VERTEX
  5
C17
  8
LAYER_1
 62
   250
 10
93.882
 20
-83.8394
 30
0.0
  0
VERTEX
  5
C18
  8
LAYER_1
 62
   250
 10
94.1636
 20
-83.9268
 30
0.0
  0
VERTEX
  5
C19
  8
LAYER_1
 62
   250
 10
94.4659
 20
-83.9573
 30
0.0
  0
VERTEX
  5
C1A
  8
LAYER_1
 62
   250
 10
94.7682
 20
-83.9268
 30
0.0
  0
VERTEX
  5
C1B
  8
LAYER_1
 62
   250
 10
95.0498
 20
-83.8394
 30
0.0
  0
VERTEX
  5
C1C
  8
LAYER_1
 62
   250
 10
95.3046
 20
-83.7011
 30
0.0
  0
VERTEX
  5
C1D
  8
LAYER_1
 62
   250
 10
95.5266
 20
-83.518
 30
0.0
  0
VERTEX
  5
C1E
  8
LAYER_1
 62
   250
 10
95.7097
 20
-83.296
 30
0.0
  0
VERTEX
  5
C1F
  8
LAYER_1
 62
   250
 10
95.848
 20
-83.0412
 30
0.0
  0
VERTEX
  5
C20
  8
LAYER_1
 62
   250
 10
95.9354
 20
-82.7596
 30
0.0
  0
VERTEX
  5
C21
  8
LAYER_1
 62
   250
 10
95.9659
 20
-82.4573
 30
0.0
  0
SEQEND
  5
C22
  8
LAYER_1
 62
   250
  0
POLYLINE
  5
99
  8
LAYER_1
 62
   250
 66
     1
 10
0.0
 20
0.0
 30
0.0
 70
     1
  0
VERTEX
  5
C23
  8
LAYER_1
 62
   250
 10
95.9659
 20
-72.9573
 30
0.0
  0
VERTEX
  5
C24
  8
LAYER_1
 62
   250
 10
95.9354
 20
-72.655
 30
0.0
  0
VERTEX
  5
C25
  8
LAYER_1
 62
   250
 10
95.848
 20
-72.3734
 30
0.0
  0
VERTEX
  5
C26
  8
LAYER_1
 62
   250
 10
95.7097
 20
-72.1186
 30
0.0
  0
VERTEX
  5
C27
  8
LAYER_1
 62
   250
 10
95.5266
 20
-71.8967
 30
0.0
  0
VERTEX
  5
C28
  8
LAYER_1
 62
   250
 10
95.3046
 20
-71.7135
 30
0.0
  0
VERTEX
  5
C29
  8
LAYER_1
 62
   250
 10
95.0498
 20
-71.5752
 30
0.0
  0
VERTEX
  5
C2A
  8
LAYER_1
 62
   250
 10
94.7682
 20
-71.4878
 30
0.0
  0
VERTEX
  5
C2B
  8
LAYER_1
 62
   250
 10
94.4659
 20
-71.4573
 30
0.0
  0
VERTEX
  5
C2C
  8
LAYER_1
 62
   250
 10
94.1636
 20
-71.4878
 30
0.0
  0
VERTEX
  5
C2D
  8
LAYER_1
 62
   250
 10
93.882
 20
-71.5752
 30
0.0
  0
VERTEX
  5
C2E
  8
LAYER_1
 62
   250
 10
93.6272
 20
-71.7135
 30
0.0
  0
VERTEX
  5
C2F
  8
LAYER_1
 62
   250
 10
93.4053
 20
-71.8967
 30
0.0
  0
VERTEX
  5
C30
  8
LAYER_1
 62
   250
 10
93.2221
 20
-72.1186
 30
0.0
  0
VERTEX
  5
C31
  8
LAYER_1
 62
   250
 10
93.0838
 20
-72.3734
 30
0.0
  0
VERTEX
  5
C32
  8
LAYER_1
 62
   250
 10
92.9964
 20
-72.655
 30
0.0
  0
VERTEX
  5
C33
  8
LAYER_1
 62
   250
 10
92.9659
 20
-72.9573
 30
0.0
  0
VERTEX
  5
C34
  8
LAYER_1
 62
   250
 10
92.9964
 20
-73.2596
 30
0.0
  0
VERTEX
  5
C35
  8
LAYER_1
 62
   250
 10
93.0838
 20
-73.5412
 30
0.0
  0
VERTEX
  5
C36
  8
LAYER_1
 62
   250
 10
93.2221
 20
-73.796
 30
0.0
  0
VERTEX
  5
C37
  8
LAYER_1
 62
   250
 10
93.4053
 20
-74.018
 30
0.0
  0
VERTEX
  5
C38
  8
LAYER_1
 62
   250
 10
93.6272
 20
-74.2011
 30
0.0
  0
VERTEX
  5
C39
  8
LAYER_1
 62
   250
 10
93.882
 20
-74.3394
 30
0.0
  0
VERTEX
  5
C3A
  8
LAYER_1
 62
   250
 10
94.1636
 20
-74.4268
 30
0.0
  0
VERTEX
  5
C3B
  8
LAYER_1
 62
   250
 10
94.4659
 20
-74.4573
 30
0.0
  0
VERTEX
  5
C3C
  8
LAYER_1
 62
   250
 10
94.7682
 20
-74.4268
 30
0.0
  0
VERTEX
  5
C3D
  8
LAYER_1
 62
   250
 10
95.0498
 20
-74.3394
 30
0.0
  0
VERTEX
  5
C3E
  8
LAYER_1
 62
   250
 10
95.3046
 20
-74.2011
 30
0.0
  0
VERTEX
  5
C3F
  8
LAYER_1
 62
   250
 10
95.5266
 20
-74.018
 30
0.0
  0
VERTEX
  5
C40
  8
LAYER_1
 62
   250
 10
95.7097
 20
-73.796
 30
0.0
  0
VERTEX
  5
C41
  8
LAYER_1
 62
   250
 10
95.848
 20
-73.5412
 30
0.0
  0
VERTEX
  5
C42
  8
LAYER_1
 62
   250
 10
95.9354
 20
-73.2596
 30
0.0
  0
VERTEX
  5
C43
  8
LAYER_1
 62
   250
 10
95.9659
 20
-72.9573
 30
0.0
  0
SEQEND
  5
C44
  8
LAYER_1
 62
   250
  0
POLYLINE
  5
9A
  8
LAYER_1
 62
   250
 66
     1
 10
0.0
 20
0.0
 30
0.0
 70
     1
  0
VERTEX
  5
C45
  8
LAYER_1
 62
   250
 10
96.0326
 20
-102.1864
 30
0.0
  0
VERTEX
  5
C46
  8
LAYER_1
 62
   250
 10
96.0021
 20
-101.8841
 30
0.0
  0
VERTEX
  5
C47
  8
LAYER_1
 62
   250
 10
95.9147
 20
-101.6025
 30
0.0
  0
VERTEX
  5
C48
  8
LAYER_1
 62
   250
 10
95.7764
 20
-101.3477
 30
0.0
  0
VERTEX
  5
C49
  8
LAYER_1
 62
   250
 10
95.5933
 20
-101.1258
 30
0.0
  0
VERTEX
  5
C4A
  8
LAYER_1
 62
   250
 10
95.3713
 20
-100.9426
 30
0.0
  0
VERTEX
  5
C4B
  8
LAYER_1
 62
   250
 10
95.1165
 20
-100.8043
 30
0.0
  0
VERTEX
  5
C4C
  8
LAYER_1
 62
   250
 10
94.8349
 20
-100.7169
 30
0.0
  0
VERTEX
  5
C4D
  8
LAYER_1
 62
   250
 10
94.5326
 20
-100.6864
 30
0.0
  0
VERTEX
  5
C4E
  8
LAYER_1
 62
   250
 10
94.2303
 20
-100.7169
 30
0.0
  0
VERTEX
  5
C4F
  8
LAYER_1
 62
   250
 10
93.9487
 20
-100.8043
 30
0.0
  0
VERTEX
  5
C50
  8
LAYER_1
 62
   250
 10
93.6939
 20
-100.9426
 30
0.0
  0
VERTEX
  5
C51
  8
LAYER_1
 62
   250
 10
93.472
 20
-101.1258
 30
0.0
  0
VERTEX
  5
C52
  8
LAYER_1
 62
   250
 10
93.2888
 20
-101.3477
 30
0.0
  0
VERTEX
  5
C53
  8
LAYER_1
 62
   250
 10
93.1505
 20
-101.6025
 30
0.0
  0
VERTEX
  5
C54
  8
LAYER_1
 62
   250
 10
93.0631
 20
-101.8841
 30
0.0
  0
VERTEX
  5
C55
  8
LAYER_1
 62
   250
 10
93.0326
 20
-102.1864
 30
0.0
  0
VERTEX
  5
C56
  8
LAYER_1
 62
   250
 10
93.0631
 20
-102.4887
 30
0.0
  0
VERTEX
  5
C57
  8
LAYER_1
 62
   250
 10
93.1505
 20
-102.7703
 30
0.0
  0
VERTEX
  5
C58
  8
LAYER_1
 62
   250
 10
93.2888
 20
-103.0251
 30
0.0
  0
VERTEX
  5
C59
  8
LAYER_1
 62
   250
 10
93.472
 20
-103.2471
 30
0.0
  0
VERTEX
  5
C5A
  8
LAYER_1
 62
   250
 10
93.6939
 20
-103.4302
 30
0.0
  0
VERTEX
  5
C5B
  8
LAYER_1
 62
   250
 10
93.9487
 20
-103.5685
 30
0.0
  0
VERTEX
  5
C5C
  8
LAYER_1
 62
   250
 10
94.2303
 20
-103.6559
 30
0.0
  0
VERTEX
  5
C5D
  8
LAYER_1
 62
   250
 10
94.5326
 20
-103.6864
 30
0.0
  0
VERTEX
  5
C5E
  8
LAYER_1
 62
   250
 10
94.8349
 20
-103.6559
 30
0.0
  0
VERTEX
  5
C5F
  8
LAYER_1
 62
   250
 10
95.1165
 20
-103.5685
 30
0.0
  0
VERTEX
  5
C60
  8
LAYER_1
 62
   250
 10
95.3713
 20
-103.4302
 30
0.0
  0
VERTEX
  5
C61
  8
LAYER_1
 62
   250
 10
95.5933
 20
-103.2471
 30
0.0
  0
VERTEX
  5
C62
  8
LAYER_1
 62
   250
 10
95.7764
 20
-103.0251
 30
0.0
  0
VERTEX
  5
C63
  8
LAYER_1
 62
   250
 10
95.9147
 20
-102.7703
 30
0.0
  0
VERTEX
  5
C64
  8
LAYER_1
 62
   250
 10
96.0021
 20
-102.4887
 30
0.0
  0
VERTEX
  5
C65
  8
LAYER_1
 62
   250
 10
96.0326
 20
-102.1864
 30
0.0
  0
SEQEND
  5
C66
  8
LAYER_1
 62
   250
  0
POLYLINE
  5
9B
  8
LAYER_1
 62
   250
 66
     1
 10
0.0
 20
0.0
 30
0.0
 70
     1
  0
VERTEX
  5
C67
  8
LAYER_1
 62
   250
 10
96.0326
 20
-64.6864
 30
0.0
  0
VERTEX
  5
C68
  8
LAYER_1
 62
   250
 10
96.0021
 20
-64.3841
 30
0.0
  0
VERTEX
  5
C69
  8
LAYER_1
 62
   250
 10
95.9147
 20
-64.1025
 30
0.0
  0
VERTEX
  5
C6A
  8
LAYER_1
 62
   250
 10
95.7764
 20
-63.8477
 30
0.0
  0
VERTEX
  5
C6B
  8
LAYER_1
 62
   250
 10
95.5933
 20
-63.6258
 30
0.0
  0
VERTEX
  5
C6C
  8
LAYER_1
 62
   250
 10
95.3713
 20
-63.4426
 30
0.0
  0
VERTEX
  5
C6D
  8
LAYER_1
 62
   250
 10
95.1165
 20
-63.3043
 30
0.0
  0
VERTEX
  5
C6E
  8
LAYER_1
 62
   250
 10
94.8349
 20
-63.2169
 30
0.0
  0
VERTEX
  5
C6F
  8
LAYER_1
 62
   250
 10
94.5326
 20
-63.1864
 30
0.0
  0
VERTEX
  5
C70
  8
LAYER_1
 62
   250
 10
94.2303
 20
-63.2169
 30
0.0
  0
VERTEX
  5
C71
  8
LAYER_1
 62
   250
 10
93.9487
 20
-63.3043
 30
0.0
  0
VERTEX
  5
C72
  8
LAYER_1
 62
   250
 10
93.6939
 20
-63.4426
 30
0.0
  0
VERTEX
  5
C73
  8
LAYER_1
 62
   250
 10
93.472
 20
-63.6258
 30
0.0
  0
VERTEX
  5
C74
  8
LAYER_1
 62
   250
 10
93.2888
 20
-63.8477
 30
0.0
  0
VERTEX
  5
C75
  8
LAYER_1
 62
   250
 10
93.1505
 20
-64.1025
 30
0.0
  0
VERTEX
  5
C76
  8
LAYER_1
 62
   250
 10
93.0631
 20
-64.3841
 30
0.0
  0
VERTEX
  5
C77
  8
LAYER_1
 62
   250
 10
93.0326
 20
-64.6864
 30
0.0
  0
VERTEX
  5
C78
  8
LAYER_1
 62
   250
 10
93.0631
 20
-64.9887
 30
0.0
  0
VERTEX
  5
C79
  8
LAYER_1
 62
   250
 10
93.1505
 20
-65.2703
 30
0.0
  0
VERTEX
  5
C7A
  8
LAYER_1
 62
   250
 10
93.2888
 20
-65.5251
 30
0.0
  0
VERTEX
  5
C7B
  8
LAYER_1
 62
   250
 10
93.472
 20
-65.7471
 30
0.0
  0
VERTEX
  5
C7C
  8
LAYER_1
 62
   250
 10
93.6939
 20
-65.9302
 30
0.0
  0
VERTEX
  5
C7D
  8
LAYER_1
 62
   250
 10
93.9487
 20
-66.0685
 30
0.0
  0
VERTEX
  5
C7E
  8
LAYER_1
 62
   250
 10
94.2303
 20
-66.1559
 30
0.0
  0
VERTEX
  5
C7F
  8
LAYER_1
 62
   250
 10
94.5326
 20
-66.1864
 30
0.0
  0
VERTEX
  5
C80
  8
LAYER_1
 62
   250
 10
94.8349
 20
-66.1559
 30
0.0
  0
VERTEX
  5
C81
  8
LAYER_1
 62
   250
 10
95.1165
 20
-66.0685
 30
0.0
  0
VERTEX
  5
C82
  8
LAYER_1
 62
   250
 10
95.3713
 20
-65.9302
 30
0.0
  0
VERTEX
  5
C83
  8
LAYER_1
 62
   250
 10
95.5933
 20
-65.7471
 30
0.0
  0
VERTEX
  5
C84
  8
LAYER_1
 62
   250
 10
95.7764
 20
-65.5251
 30
0.0
  0
VERTEX
  5
C85
  8
LAYER_1
 62
   250
 10
95.9147
 20
-65.2703
 30
0.0
  0
VERTEX
  5
C86
  8
LAYER_1
 62
   250
 10
96.0021
 20
-64.9887
 30
0.0
  0
VERTEX
  5
C87
  8
LAYER_1
 62
   250
 10
96.0326
 20
-64.6864
 30
0.0
  0
SEQEND
  5
C88
  8
LAYER_1
 62
   250
  0
POLYLINE
  5
9C
  8
LAYER_1
 62
   250
 66
     1
 10
0.0
 20
0.0
 30
0.0
 70
     1
  0
VERTEX
  5
C89
  8
LAYER_1
 62
   250
 10
96.0326
 20
-57.1864
 30
0.0
  0
VERTEX
  5
C8A
  8
LAYER_1
 62
   250
 10
96.0021
 20
-56.8841
 30
0.0
  0
VERTEX
  5
C8B
  8
LAYER_1
 62
   250
 10
95.9147
 20
-56.6025
 30
0.0
  0
VERTEX
  5
C8C
  8
LAYER_1
 62
   250
 10
95.7764
 20
-56.3477
 30
0.0
  0
VERTEX
  5
C8D
  8
LAYER_1
 62
   250
 10
95.5933
 20
-56.1258
 30
0.0
  0
VERTEX
  5
C8E
  8
LAYER_1
 62
   250
 10
95.3713
 20
-55.9426
 30
0.0
  0
VERTEX
  5
C8F
  8
LAYER_1
 62
   250
 10
95.1165
 20
-55.8043
 30
0.0
  0
VERTEX
  5
C90
  8
LAYER_1
 62
   250
 10
94.8349
 20
-55.7169
 30
0.0
  0
VERTEX
  5
C91
  8
LAYER_1
 62
   250
 10
94.5326
 20
-55.6864
 30
0.0
  0
VERTEX
  5
C92
  8
LAYER_1
 62
   250
 10
94.2303
 20
-55.7169
 30
0.0
  0
VERTEX
  5
C93
  8
LAYER_1
 62
   250
 10
93.9487
 20
-55.8043
 30
0.0
  0
VERTEX
  5
C94
  8
LAYER_1
 62
   250
 10
93.6939
 20
-55.9426
 30
0.0
  0
VERTEX
  5
C95
  8
LAYER_1
 62
   250
 10
93.472
 20
-56.1258
 30
0.0
  0
VERTEX
  5
C96
  8
LAYER_1
 62
   250
 10
93.2888
 20
-56.3477
 30
0.0
  0
VERTEX
  5
C97
  8
LAYER_1
 62
   250
 10
93.1505
 20
-56.6025
 30
0.0
  0
VERTEX
  5
C98
  8
LAYER_1
 62
   250
 10
93.0631
 20
-56.8841
 30
0.0
  0
VERTEX
  5
C99
  8
LAYER_1
 62
   250
 10
93.0326
 20
-57.1864
 30
0.0
  0
VERTEX
  5
C9A
  8
LAYER_1
 62
   250
 10
93.0631
 20
-57.4887
 30
0.0
  0
VERTEX
  5
C9B
  8
LAYER_1
 62
   250
 10
93.1505
 20
-57.7703
 30
0.0
  0
VERTEX
  5
C9C
  8
LAYER_1
 62
   250
 10
93.2888
 20
-58.0251
 30
0.0
  0
VERTEX
  5
C9D
  8
LAYER_1
 62
   250
 10
93.472
 20
-58.2471
 30
0.0
  0
VERTEX
  5
C9E
  8
LAYER_1
 62
   250
 10
93.6939
 20
-58.4302
 30
0.0
  0
VERTEX
  5
C9F
  8
LAYER_1
 62
   250
 10
93.9487
 20
-58.5685
 30
0.0
  0
VERTEX
  5
CA0
  8
LAYER_1
 62
   250
 10
94.2303
 20
-58.6559
 30
0.0
  0
VERTEX
  5
CA1
  8
LAYER_1
 62
   250
 10
94.5326
 20
-58.6864
 30
0.0
  0
VERTEX
  5
CA2
  8
LAYER_1
 62
   250
 10
94.8349
 20
-58.6559
 30
0.0
  0
VERTEX
  5
CA3
  8
LAYER_1
 62
   250
 10
95.1165
 20
-58.5685
 30
0.0
  0
VERTEX
  5
CA4
  8
LAYER_1
 62
   250
 10
95.3713
 20
-58.4302
 30
0.0
  0
VERTEX
  5
CA5
  8
LAYER_1
 62
   250
 10
95.5933
 20
-58.2471
 30
0.0
  0
VERTEX
  5
CA6
  8
LAYER_1
 62
   250
 10
95.7764
 20
-58.0251
 30
0.0
  0
VERTEX
  5
CA7
  8
LAYER_1
 62
   250
 10
95.9147
 20
-57.7703
 30
0.0
  0
VERTEX
  5
CA8
  8
LAYER_1
 62
   250
 10
96.0021
 20
-57.4887
 30
0.0
  0
VERTEX
  5
CA9
  8
LAYER_1
 62
   250
 10
96.0326
 20
-57.1864
 30
0.0
  0
SEQEND
  5
CAA
  8
LAYER_1
 62
   250
  0
POLYLINE
  5
9D
  8
LAYER_1
 62
   250
 66
     1
 10
0.0
 20
0.0
 30
0.0
 70
     1
  0
VERTEX
  5
CAB
  8
LAYER_1
 62
   250
 10
95.9659
 20
-48.9155
 30
0.0
  0
VERTEX
  5
CAC
  8
LAYER_1
 62
   250
 10
95.9354
 20
-48.6132
 30
0.0
  0
VERTEX
  5
CAD
  8
LAYER_1
 62
   250
 10
95.848
 20
-48.3316
 30
0.0
  0
VERTEX
  5
CAE
  8
LAYER_1
 62
   250
 10
95.7097
 20
-48.0768
 30
0.0
  0
VERTEX
  5
CAF
  8
LAYER_1
 62
   250
 10
95.5266
 20
-47.8549
 30
0.0
  0
VERTEX
  5
CB0
  8
LAYER_1
 62
   250
 10
95.3046
 20
-47.6717
 30
0.0
  0
VERTEX
  5
CB1
  8
LAYER_1
 62
   250
 10
95.0498
 20
-47.5334
 30
0.0
  0
VERTEX
  5
CB2
  8
LAYER_1
 62
   250
 10
94.7682
 20
-47.446
 30
0.0
  0
VERTEX
  5
CB3
  8
LAYER_1
 62
   250
 10
94.4659
 20
-47.4155
 30
0.0
  0
VERTEX
  5
CB4
  8
LAYER_1
 62
   250
 10
94.1636
 20
-47.446
 30
0.0
  0
VERTEX
  5
CB5
  8
LAYER_1
 62
   250
 10
93.882
 20
-47.5334
 30
0.0
  0
VERTEX
  5
CB6
  8
LAYER_1
 62
   250
 10
93.6272
 20
-47.6717
 30
0.0
  0
VERTEX
  5
CB7
  8
LAYER_1
 62
   250
 10
93.4053
 20
-47.8549
 30
0.0
  0
VERTEX
  5
CB8
  8
LAYER_1
 62
   250
 10
93.2221
 20
-48.0768
 30
0.0
  0
VERTEX
  5
CB9
  8
LAYER_1
 62
   250
 10
93.0838
 20
-48.3316
 30
0.0
  0
VERTEX
  5
CBA
  8
LAYER_1
 62
   250
 10
92.9964
 20
-48.6132
 30
0.0
  0
VERTEX
  5
CBB
  8
LAYER_1
 62
   250
 10
92.9659
 20
-48.9155
 30
0.0
  0
VERTEX
  5
CBC
  8
LAYER_1
 62
   250
 10
92.9964
 20
-49.2178
 30
0.0
  0
VERTEX
  5
CBD
  8
LAYER_1
 62
   250
 10
93.0838
 20
-49.4994
 30
0.0
  0
VERTEX
  5
CBE
  8
LAYER_1
 62
   250
 10
93.2221
 20
-49.7542
 30
0.0
  0
VERTEX
  5
CBF
  8
LAYER_1
 62
   250
 10
93.4053
 20
-49.9762
 30
0.0
  0
VERTEX
  5
CC0
  8
LAYER_1
 62
   250
 10
93.6272
 20
-50.1593
 30
0.0
  0
VERTEX
  5
CC1
  8
LAYER_1
 62
   250
 10
93.882
 20
-50.2976
 30
0.0
  0
VERTEX
  5
CC2
  8
LAYER_1
 62
   250
 10
94.1636
 20
-50.385
 30
0.0
  0
VERTEX
  5
CC3
  8
LAYER_1
 62
   250
 10
94.4659
 20
-50.4155
 30
0.0
  0
VERTEX
  5
CC4
  8
LAYER_1
 62
   250
 10
94.7682
 20
-50.385
 30
0.0
  0
VERTEX
  5
CC5
  8
LAYER_1
 62
   250
 10
95.0498
 20
-50.2976
 30
0.0
  0
VERTEX
  5
CC6
  8
LAYER_1
 62
   250
 10
95.3046
 20
-50.1593
 30
0.0
  0
VERTEX
  5
CC7
  8
LAYER_1
 62
   250
 10
95.5266
 20
-49.9762
 30
0.0
  0
VERTEX
  5
CC8
  8
LAYER_1
 62
   250
 10
95.7097
 20
-49.7542
 30
0.0
  0
VERTEX
  5
CC9
  8
LAYER_1
 62
   250
 10
95.848
 20
-49.4994
 30
0.0
  0
VERTEX
  5
CCA
  8
LAYER_1
 62
   250
 10
95.9354
 20
-49.2178
 30
0.0
  0
VERTEX
  5
CCB
  8
LAYER_1
 62
   250
 10
95.9659
 20
-48.9155
 30
0.0
  0
SEQEND
  5
CCC
  8
LAYER_1
 62
   250
  0
POLYLINE
  5
9E
  8
LAYER_1
 62
   250
 66
     1
 10
0.0
 20
0.0
 30
0.0
 70
     1
  0
VERTEX
  5
CCD
  8
LAYER_1
 62
   250
 10
95.9659
 20
-39.4155
 30
0.0
  0
VERTEX
  5
CCE
  8
LAYER_1
 62
   250
 10
95.9354
 20
-39.1132
 30
0.0
  0
VERTEX
  5
CCF
  8
LAYER_1
 62
   250
 10
95.848
 20
-38.8316
 30
0.0
  0
VERTEX
  5
CD0
  8
LAYER_1
 62
   250
 10
95.7097
 20
-38.5768
 30
0.0
  0
VERTEX
  5
CD1
  8
LAYER_1
 62
   250
 10
95.5266
 20
-38.3549
 30
0.0
  0
VERTEX
  5
CD2
  8
LAYER_1
 62
   250
 10
95.3046
 20
-38.1717
 30
0.0
  0
VERTEX
  5
CD3
  8
LAYER_1
 62
   250
 10
95.0498
 20
-38.0334
 30
0.0
  0
VERTEX
  5
CD4
  8
LAYER_1
 62
   250
 10
94.7682
 20
-37.946
 30
0.0
  0
VERTEX
  5
CD5
  8
LAYER_1
 62
   250
 10
94.4659
 20
-37.9155
 30
0.0
  0
VERTEX
  5
CD6
  8
LAYER_1
 62
   250
 10
94.1636
 20
-37.946
 30
0.0
  0
VERTEX
  5
CD7
  8
LAYER_1
 62
   250
 10
93.882
 20
-38.0334
 30
0.0
  0
VERTEX
  5
CD8
  8
LAYER_1
 62
   250
 10
93.6272
 20
-38.1717
 30
0.0
  0
VERTEX
  5
CD9
  8
LAYER_1
 62
   250
 10
93.4053
 20
-38.3549
 30
0.0
  0
VERTEX
  5
CDA
  8
LAYER_1
 62
   250
 10
93.2221
 20
-38.5768
 30
0.0
  0
VERTEX
  5
CDB
  8
LAYER_1
 62
   250
 10
93.0838
 20
-38.8316
 30
0.0
  0
VERTEX
  5
CDC
  8
LAYER_1
 62
   250
 10
92.9964
 20
-39.1132
 30
0.0
  0
VERTEX
  5
CDD
  8
LAYER_1
 62
   250
 10
92.9659
 20
-39.4155
 30
0.0
  0
VERTEX
  5
CDE
  8
LAYER_1
 62
   250
 10
92.9964
 20
-39.7178
 30
0.0
  0
VERTEX
  5
CDF
  8
LAYER_1
 62
   250
 10
93.0838
 20
-39.9994
 30
0.0
  0
VERTEX
  5
CE0
  8
LAYER_1
 62
   250
 10
93.2221
 20
-40.2542
 30
0.0
  0
VERTEX
  5
CE1
  8
LAYER_1
 62
   250
 10
93.4053
 20
-40.4762
 30
0.0
  0
VERTEX
  5
CE2
  8
LAYER_1
 62
   250
 10
93.6272
 20
-40.6593
 30
0.0
  0
VERTEX
  5
CE3
  8
LAYER_1
 62
   250
 10
93.882
 20
-40.7976
 30
0.0
  0
VERTEX
  5
CE4
  8
LAYER_1
 62
   250
 10
94.1636
 20
-40.885
 30
0.0
  0
VERTEX
  5
CE5
  8
LAYER_1
 62
   250
 10
94.4659
 20
-40.9155
 30
0.0
  0
VERTEX
  5
CE6
  8
LAYER_1
 62
   250
 10
94.7682
 20
-40.885
 30
0.0
  0
VERTEX
  5
CE7
  8
LAYER_1
 62
   250
 10
95.0498
 20
-40.7976
 30
0.0
  0
VERTEX
  5
CE8
  8
LAYER_1
 62
   250
 10
95.3046
 20
-40.6593
 30
0.0
  0
VERTEX
  5
CE9
  8
LAYER_1
 62
   250
 10
95.5266
 20
-40.4762
 30
0.0
  0
VERTEX
  5
CEA
  8
LAYER_1
 62
   250
 10
95.7097
 20
-40.2542
 30
0.0
  0
VERTEX
  5
CEB
  8
LAYER_1
 62
   250
 10
95.848
 20
-39.9994
 30
0.0
  0
VERTEX
  5
CEC
  8
LAYER_1
 62
   250
 10
95.9354
 20
-39.7178
 30
0.0
  0
VERTEX
  5
CED
  8
LAYER_1
 62
   250
 10
95.9659
 20
-39.4155
 30
0.0
  0
SEQEND
  5
CEE
  8
LAYER_1
 62
   250
  0
POLYLINE
  5
9F
  8
LAYER_1
 62
   250
 66
     1
 10
0.0
 20
0.0
 30
0.0
 70
     1
  0
VERTEX
  5
CEF
  8
LAYER_1
 62
   250
 10
86.0326
 20
-42.1864
 30
0.0
  0
VERTEX
  5
CF0
  8
LAYER_1
 62
   250
 10
86.0021
 20
-41.8841
 30
0.0
  0
VERTEX
  5
CF1
  8
LAYER_1
 62
   250
 10
85.9147
 20
-41.6025
 30
0.0
  0
VERTEX
  5
CF2
  8
LAYER_1
 62
   250
 10
85.7764
 20
-41.3477
 30
0.0
  0
VERTEX
  5
CF3
  8
LAYER_1
 62
   250
 10
85.5933
 20
-41.1258
 30
0.0
  0
VERTEX
  5
CF4
  8
LAYER_1
 62
   250
 10
85.3713
 20
-40.9426
 30
0.0
  0
VERTEX
  5
CF5
  8
LAYER_1
 62
   250
 10
85.1165
 20
-40.8043
 30
0.0
  0
VERTEX
  5
CF6
  8
LAYER_1
 62
   250
 10
84.8349
 20
-40.7169
 30
0.0
  0
VERTEX
  5
CF7
  8
LAYER_1
 62
   250
 10
84.5326
 20
-40.6864
 30
0.0
  0
VERTEX
  5
CF8
  8
LAYER_1
 62
   250
 10
84.2303
 20
-40.7169
 30
0.0
  0
VERTEX
  5
CF9
  8
LAYER_1
 62
   250
 10
83.9487
 20
-40.8043
 30
0.0
  0
VERTEX
  5
CFA
  8
LAYER_1
 62
   250
 10
83.6939
 20
-40.9426
 30
0.0
  0
VERTEX
  5
CFB
  8
LAYER_1
 62
   250
 10
83.472
 20
-41.1258
 30
0.0
  0
VERTEX
  5
CFC
  8
LAYER_1
 62
   250
 10
83.2888
 20
-41.3477
 30
0.0
  0
VERTEX
  5
CFD
  8
LAYER_1
 62
   250
 10
83.1505
 20
-41.6025
 30
0.0
  0
VERTEX
  5
CFE
  8
LAYER_1
 62
   250
 10
83.0631
 20
-41.8841
 30
0.0
  0
VERTEX
  5
CFF
  8
LAYER_1
 62
   250
 10
83.0326
 20
-42.1864
 30
0.0
  0
VERTEX
  5
D00
  8
LAYER_1
 62
   250
 10
83.0631
 20
-42.4887
 30
0.0
  0
VERTEX
  5
D01
  8
LAYER_1
 62
   250
 10
83.1505
 20
-42.7703
 30
0.0
  0
VERTEX
  5
D02
  8
LAYER_1
 62
   250
 10
83.2888
 20
-43.0251
 30
0.0
  0
VERTEX
  5
D03
  8
LAYER_1
 62
   250
 10
83.472
 20
-43.2471
 30
0.0
  0
VERTEX
  5
D04
  8
LAYER_1
 62
   250
 10
83.6939
 20
-43.4302
 30
0.0
  0
VERTEX
  5
D05
  8
LAYER_1
 62
   250
 10
83.9487
 20
-43.5685
 30
0.0
  0
VERTEX
  5
D06
  8
LAYER_1
 62
   250
 10
84.2303
 20
-43.6559
 30
0.0
  0
VERTEX
  5
D07
  8
LAYER_1
 62
   250
 10
84.5326
 20
-43.6864
 30
0.0
  0
VERTEX
  5
D08
  8
LAYER_1
 62
   250
 10
84.8349
 20
-43.6559
 30
0.0
  0
VERTEX
  5
D09
  8
LAYER_1
 62
   250
 10
85.1165
 20
-43.5685
 30
0.0
  0
VERTEX
  5
D0A
  8
LAYER_1
 62
   250
 10
85.3713
 20
-43.4302
 30
0.0
  0
VERTEX
  5
D0B
  8
LAYER_1
 62
   250
 10
85.5933
 20
-43.2471
 30
0.0
  0
VERTEX
  5
D0C
  8
LAYER_1
 62
   250
 10
85.7764
 20
-43.0251
 30
0.0
  0
VERTEX
  5
D0D
  8
LAYER_1
 62
   250
 10
85.9147
 20
-42.7703
 30
0.0
  0
VERTEX
  5
D0E
  8
LAYER_1
 62
   250
 10
86.0021
 20
-42.4887
 30
0.0
  0
VERTEX
  5
D0F
  8
LAYER_1
 62
   250
 10
86.0326
 20
-42.1864
 30
0.0
  0
SEQEND
  5
D10
  8
LAYER_1
 62
   250
  0
POLYLINE
  5
A0
  8
LAYER_1
 62
   250
 66
     1
 10
0.0
 20
0.0
 30
0.0
 70
     1
  0
VERTEX
  5
D11
  8
LAYER_1
 62
   250
 10
86.0326
 20
-34.6864
 30
0.0
  0
VERTEX
  5
D12
  8
LAYER_1
 62
   250
 10
86.0021
 20
-34.3841
 30
0.0
  0
VERTEX
  5
D13
  8
LAYER_1
 62
   250
 10
85.9147
 20
-34.1025
 30
0.0
  0
VERTEX
  5
D14
  8
LAYER_1
 62
   250
 10
85.7764
 20
-33.8477
 30
0.0
  0
VERTEX
  5
D15
  8
LAYER_1
 62
   250
 10
85.5933
 20
-33.6258
 30
0.0
  0
VERTEX
  5
D16
  8
LAYER_1
 62
   250
 10
85.3713
 20
-33.4426
 30
0.0
  0
VERTEX
  5
D17
  8
LAYER_1
 62
   250
 10
85.1165
 20
-33.3043
 30
0.0
  0
VERTEX
  5
D18
  8
LAYER_1
 62
   250
 10
84.8349
 20
-33.2169
 30
0.0
  0
VERTEX
  5
D19
  8
LAYER_1
 62
   250
 10
84.5326
 20
-33.1864
 30
0.0
  0
VERTEX
  5
D1A
  8
LAYER_1
 62
   250
 10
84.2303
 20
-33.2169
 30
0.0
  0
VERTEX
  5
D1B
  8
LAYER_1
 62
   250
 10
83.9487
 20
-33.3043
 30
0.0
  0
VERTEX
  5
D1C
  8
LAYER_1
 62
   250
 10
83.6939
 20
-33.4426
 30
0.0
  0
VERTEX
  5
D1D
  8
LAYER_1
 62
   250
 10
83.472
 20
-33.6258
 30
0.0
  0
VERTEX
  5
D1E
  8
LAYER_1
 62
   250
 10
83.2888
 20
-33.8477
 30
0.0
  0
VERTEX
  5
D1F
  8
LAYER_1
 62
   250
 10
83.1505
 20
-34.1025
 30
0.0
  0
VERTEX
  5
D20
  8
LAYER_1
 62
   250
 10
83.0631
 20
-34.3841
 30
0.0
  0
VERTEX
  5
D21
  8
LAYER_1
 62
   250
 10
83.0326
 20
-34.6864
 30
0.0
  0
VERTEX
  5
D22
  8
LAYER_1
 62
   250
 10
83.0631
 20
-34.9887
 30
0.0
  0
VERTEX
  5
D23
  8
LAYER_1
 62
   250
 10
83.1505
 20
-35.2703
 30
0.0
  0
VERTEX
  5
D24
  8
LAYER_1
 62
   250
 10
83.2888
 20
-35.5251
 30
0.0
  0
VERTEX
  5
D25
  8
LAYER_1
 62
   250
 10
83.472
 20
-35.7471
 30
0.0
  0
VERTEX
  5
D26
  8
LAYER_1
 62
   250
 10
83.6939
 20
-35.9302
 30
0.0
  0
VERTEX
  5
D27
  8
LAYER_1
 62
   250
 10
83.9487
 20
-36.0685
 30
0.0
  0
VERTEX
  5
D28
  8
LAYER_1
 62
   250
 10
84.2303
 20
-36.1559
 30
0.0
  0
VERTEX
  5
D29
  8
LAYER_1
 62
   250
 10
84.5326
 20
-36.1864
 30
0.0
  0
VERTEX
  5
D2A
  8
LAYER_1
 62
   250
 10
84.8349
 20
-36.1559
 30
0.0
  0
VERTEX
  5
D2B
  8
LAYER_1
 62
   250
 10
85.1165
 20
-36.0685
 30
0.0
  0
VERTEX
  5
D2C
  8
LAYER_1
 62
   250
 10
85.3713
 20
-35.9302
 30
0.0
  0
VERTEX
  5
D2D
  8
LAYER_1
 62
   250
 10
85.5933
 20
-35.7471
 30
0.0
  0
VERTEX
  5
D2E
  8
LAYER_1
 62
   250
 10
85.7764
 20
-35.5251
 30
0.0
  0
VERTEX
  5
D2F
  8
LAYER_1
 62
   250
 10
85.9147
 20
-35.2703
 30
0.0
  0
VERTEX
  5
D30
  8
LAYER_1
 62
   250
 10
86.0021
 20
-34.9887
 30
0.0
  0
VERTEX
  5
D31
  8
LAYER_1
 62
   250
 10
86.0326
 20
-34.6864
 30
0.0
  0
SEQEND
  5
D32
  8
LAYER_1
 62
   250
  0
POLYLINE
  5
A1
  8
LAYER_1
 62
   250
 66
     1
 10
0.0
 20
0.0
 30
0.0
 70
     1
  0
VERTEX
  5
D33
  8
LAYER_1
 62
   250
 10
96.0326
 20
-19.6864
 30
0.0
  0
VERTEX
  5
D34
  8
LAYER_1
 62
   250
 10
96.0021
 20
-19.3841
 30
0.0
  0
VERTEX
  5
D35
  8
LAYER_1
 62
   250
 10
95.9147
 20
-19.1025
 30
0.0
  0
VERTEX
  5
D36
  8
LAYER_1
 62
   250
 10
95.7764
 20
-18.8477
 30
0.0
  0
VERTEX
  5
D37
  8
LAYER_1
 62
   250
 10
95.5933
 20
-18.6258
 30
0.0
  0
VERTEX
  5
D38
  8
LAYER_1
 62
   250
 10
95.3713
 20
-18.4426
 30
0.0
  0
VERTEX
  5
D39
  8
LAYER_1
 62
   250
 10
95.1165
 20
-18.3043
 30
0.0
  0
VERTEX
  5
D3A
  8
LAYER_1
 62
   250
 10
94.8349
 20
-18.2169
 30
0.0
  0
VERTEX
  5
D3B
  8
LAYER_1
 62
   250
 10
94.5326
 20
-18.1864
 30
0.0
  0
VERTEX
  5
D3C
  8
LAYER_1
 62
   250
 10
94.2303
 20
-18.2169
 30
0.0
  0
VERTEX
  5
D3D
  8
LAYER_1
 62
   250
 10
93.9487
 20
-18.3043
 30
0.0
  0
VERTEX
  5
D3E
  8
LAYER_1
 62
   250
 10
93.6939
 20
-18.4426
 30
0.0
  0
VERTEX
  5
D3F
  8
LAYER_1
 62
   250
 10
93.472
 20
-18.6258
 30
0.0
  0
VERTEX
  5
D40
  8
LAYER_1
 62
   250
 10
93.2888
 20
-18.8477
 30
0.0
  0
VERTEX
  5
D41
  8
LAYER_1
 62
   250
 10
93.1505
 20
-19.1025
 30
0.0
  0
VERTEX
  5
D42
  8
LAYER_1
 62
   250
 10
93.0631
 20
-19.3841
 30
0.0
  0
VERTEX
  5
D43
  8
LAYER_1
 62
   250
 10
93.0326
 20
-19.6864
 30
0.0
  0
VERTEX
  5
D44
  8
LAYER_1
 62
   250
 10
93.0631
 20
-19.9887
 30
0.0
  0
VERTEX
  5
D45
  8
LAYER_1
 62
   250
 10
93.1505
 20
-20.2703
 30
0.0
  0
VERTEX
  5
D46
  8
LAYER_1
 62
   250
 10
93.2888
 20
-20.5251
 30
0.0
  0
VERTEX
  5
D47
  8
LAYER_1
 62
   250
 10
93.472
 20
-20.7471
 30
0.0
  0
VERTEX
  5
D48
  8
LAYER_1
 62
   250
 10
93.6939
 20
-20.9302
 30
0.0
  0
VERTEX
  5
D49
  8
LAYER_1
 62
   250
 10
93.9487
 20
-21.0685
 30
0.0
  0
VERTEX
  5
D4A
  8
LAYER_1
 62
   250
 10
94.2303
 20
-21.1559
 30
0.0
  0
VERTEX
  5
D4B
  8
LAYER_1
 62
   250
 10
94.5326
 20
-21.1864
 30
0.0
  0
VERTEX
  5
D4C
  8
LAYER_1
 62
   250
 10
94.8349
 20
-21.1559
 30
0.0
  0
VERTEX
  5
D4D
  8
LAYER_1
 62
   250
 10
95.1165
 20
-21.0685
 30
0.0
  0
VERTEX
  5
D4E
  8
LAYER_1
 62
   250
 10
95.3713
 20
-20.9302
 30
0.0
  0
VERTEX
  5
D4F
  8
LAYER_1
 62
   250
 10
95.5933
 20
-20.7471
 30
0.0
  0
VERTEX
  5
D50
  8
LAYER_1
 62
   250
 10
95.7764
 20
-20.5251
 30
0.0
  0
VERTEX
  5
D51
  8
LAYER_1
 62
   250
 10
95.9147
 20
-20.2703
 30
0.0
  0
VERTEX
  5
D52
  8
LAYER_1
 62
   250
 10
96.0021
 20
-19.9887
 30
0.0
  0
VERTEX
  5
D53
  8
LAYER_1
 62
   250
 10
96.0326
 20
-19.6864
 30
0.0
  0
SEQEND
  5
D54
  8
LAYER_1
 62
   250
  0
POLYLINE
  5
A2
  8
LAYER_1
 62
   250
 66
     1
 10
0.0
 20
0.0
 30
0.0
 70
     1
  0
VERTEX
  5
D55
  8
LAYER_1
 62
   250
 10
8.0324
 20
-60.9368
 30
0.0
  0
VERTEX
  5
D56
  8
LAYER_1
 62
   250
 10
7.9918
 20
-60.5337
 30
0.0
  0
VERTEX
  5
D57
  8
LAYER_1
 62
   250
 10
7.8752
 20
-60.1583
 30
0.0
  0
VERTEX
  5
D58
  8
LAYER_1
 62
   250
 10
7.6908
 20
-59.8186
 30
0.0
  0
VERTEX
  5
D59
  8
LAYER_1
 62
   250
 10
7.4466
 20
-59.5226
 30
0.0
  0
VERTEX
  5
D5A
  8
LAYER_1
 62
   250
 10
7.1506
 20
-59.2784
 30
0.0
  0
VERTEX
  5
D5B
  8
LAYER_1
 62
   250
 10
6.8109
 20
-59.094
 30
0.0
  0
VERTEX
  5
D5C
  8
LAYER_1
 62
   250
 10
6.4355
 20
-58.9774
 30
0.0
  0
VERTEX
  5
D5D
  8
LAYER_1
 62
   250
 10
6.0324
 20
-58.9368
 30
0.0
  0
VERTEX
  5
D5E
  8
LAYER_1
 62
   250
 10
5.6293
 20
-58.9774
 30
0.0
  0
VERTEX
  5
D5F
  8
LAYER_1
 62
   250
 10
5.2539
 20
-59.094
 30
0.0
  0
VERTEX
  5
D60
  8
LAYER_1
 62
   250
 10
4.9142
 20
-59.2784
 30
0.0
  0
VERTEX
  5
D61
  8
LAYER_1
 62
   250
 10
4.6182
 20
-59.5226
 30
0.0
  0
VERTEX
  5
D62
  8
LAYER_1
 62
   250
 10
4.374
 20
-59.8186
 30
0.0
  0
VERTEX
  5
D63
  8
LAYER_1
 62
   250
 10
4.1896
 20
-60.1583
 30
0.0
  0
VERTEX
  5
D64
  8
LAYER_1
 62
   250
 10
4.073
 20
-60.5337
 30
0.0
  0
VERTEX
  5
D65
  8
LAYER_1
 62
   250
 10
4.0324
 20
-60.9368
 30
0.0
  0
VERTEX
  5
D66
  8
LAYER_1
 62
   250
 10
4.073
 20
-61.3399
 30
0.0
  0
VERTEX
  5
D67
  8
LAYER_1
 62
   250
 10
4.1896
 20
-61.7153
 30
0.0
  0
VERTEX
  5
D68
  8
LAYER_1
 62
   250
 10
4.374
 20
-62.055
 30
0.0
  0
VERTEX
  5
D69
  8
LAYER_1
 62
   250
 10
4.6182
 20
-62.351
 30
0.0
  0
VERTEX
  5
D6A
  8
LAYER_1
 62
   250
 10
4.9142
 20
-62.5952
 30
0.0
  0
VERTEX
  5
D6B
  8
LAYER_1
 62
   250
 10
5.2539
 20
-62.7796
 30
0.0
  0
VERTEX
  5
D6C
  8
LAYER_1
 62
   250
 10
5.6293
 20
-62.8962
 30
0.0
  0
VERTEX
  5
D6D
  8
LAYER_1
 62
   250
 10
6.0324
 20
-62.9368
 30
0.0
  0
VERTEX
  5
D6E
  8
LAYER_1
 62
   250
 10
6.4355
 20
-62.8962
 30
0.0
  0
VERTEX
  5
D6F
  8
LAYER_1
 62
   250
 10
6.8109
 20
-62.7796
 30
0.0
  0
VERTEX
  5
D70
  8
LAYER_1
 62
   250
 10
7.1506
 20
-62.5952
 30
0.0
  0
VERTEX
  5
D71
  8
LAYER_1
 62
   250
 10
7.4466
 20
-62.351
 30
0.0
  0
VERTEX
  5
D72
  8
LAYER_1
 62
   250
 10
7.6908
 20
-62.055
 30
0.0
  0
VERTEX
  5
D73
  8
LAYER_1
 62
   250
 10
7.8752
 20
-61.7153
 30
0.0
  0
VERTEX
  5
D74
  8
LAYER_1
 62
   250
 10
7.9918
 20
-61.3399
 30
0.0
  0
VERTEX
  5
D75
  8
LAYER_1
 62
   250
 10
8.0324
 20
-60.9368
 30
0.0
  0
SEQEND
  5
D76
  8
LAYER_1
 62
   250
  0
POLYLINE
  5
A3
  8
LAYER_1
 62
   250
 66
     1
 10
0.0
 20
0.0
 30
0.0
 70
     1
  0
VERTEX
  5
D77
  8
LAYER_1
 62
   250
 10
-47.9676
 20
-60.9368
 30
0.0
  0
VERTEX
  5
D78
  8
LAYER_1
 62
   250
 10
-48.0082
 20
-60.5337
 30
0.0
  0
VERTEX
  5
D79
  8
LAYER_1
 62
   250
 10
-48.1248
 20
-60.1583
 30
0.0
  0
VERTEX
  5
D7A
  8
LAYER_1
 62
   250
 10
-48.3092
 20
-59.8186
 30
0.0
  0
VERTEX
  5
D7B
  8
LAYER_1
 62
   250
 10
-48.5534
 20
-59.5226
 30
0.0
  0
VERTEX
  5
D7C
  8
LAYER_1
 62
   250
 10
-48.8494
 20
-59.2784
 30
0.0
  0
VERTEX
  5
D7D
  8
LAYER_1
 62
   250
 10
-49.1891
 20
-59.094
 30
0.0
  0
VERTEX
  5
D7E
  8
LAYER_1
 62
   250
 10
-49.5645
 20
-58.9774
 30
0.0
  0
VERTEX
  5
D7F
  8
LAYER_1
 62
   250
 10
-49.9676
 20
-58.9368
 30
0.0
  0
VERTEX
  5
D80
  8
LAYER_1
 62
   250
 10
-50.3707
 20
-58.9774
 30
0.0
  0
VERTEX
  5
D81
  8
LAYER_1
 62
   250
 10
-50.7461
 20
-59.094
 30
0.0
  0
VERTEX
  5
D82
  8
LAYER_1
 62
   250
 10
-51.0858
 20
-59.2784
 30
0.0
  0
VERTEX
  5
D83
  8
LAYER_1
 62
   250
 10
-51.3818
 20
-59.5226
 30
0.0
  0
VERTEX
  5
D84
  8
LAYER_1
 62
   250
 10
-51.626
 20
-59.8186
 30
0.0
  0
VERTEX
  5
D85
  8
LAYER_1
 62
   250
 10
-51.8104
 20
-60.1583
 30
0.0
  0
VERTEX
  5
D86
  8
LAYER_1
 62
   250
 10
-51.927
 20
-60.5337
 30
0.0
  0
VERTEX
  5
D87
  8
LAYER_1
 62
   250
 10
-51.9676
 20
-60.9368
 30
0.0
  0
VERTEX
  5
D88
  8
LAYER_1
 62
   250
 10
-51.927
 20
-61.3399
 30
0.0
  0
VERTEX
  5
D89
  8
LAYER_1
 62
   250
 10
-51.8104
 20
-61.7153
 30
0.0
  0
VERTEX
  5
D8A
  8
LAYER_1
 62
   250
 10
-51.626
 20
-62.055
 30
0.0
  0
VERTEX
  5
D8B
  8
LAYER_1
 62
   250
 10
-51.3818
 20
-62.351
 30
0.0
  0
VERTEX
  5
D8C
  8
LAYER_1
 62
   250
 10
-51.0858
 20
-62.5952
 30
0.0
  0
VERTEX
  5
D8D
  8
LAYER_1
 62
   250
 10
-50.7461
 20
-62.7796
 30
0.0
  0
VERTEX
  5
D8E
  8
LAYER_1
 62
   250
 10
-50.3707
 20
-62.8962
 30
0.0
  0
VERTEX
  5
D8F
  8
LAYER_1
 62
   250
 10
-49.9676
 20
-62.9368
 30
0.0
  0
VERTEX
  5
D90
  8
LAYER_1
 62
   250
 10
-49.5645
 20
-62.8962
 30
0.0
  0
VERTEX
  5
D91
  8
LAYER_1
 62
   250
 10
-49.1891
 20
-62.7796
 30
0.0
  0
VERTEX
  5
D92
  8
LAYER_1
 62
   250
 10
-48.8494
 20
-62.5952
 30
0.0
  0
VERTEX
  5
D93
  8
LAYER_1
 62
   250
 10
-48.5534
 20
-62.351
 30
0.0
  0
VERTEX
  5
D94
  8
LAYER_1
 62
   250
 10
-48.3092
 20
-62.055
 30
0.0
  0
VERTEX
  5
D95
  8
LAYER_1
 62
   250
 10
-48.1248
 20
-61.7153
 30
0.0
  0
VERTEX
  5
D96
  8
LAYER_1
 62
   250
 10
-48.0082
 20
-61.3399
 30
0.0
  0
VERTEX
  5
D97
  8
LAYER_1
 62
   250
 10
-47.9676
 20
-60.9368
 30
0.0
  0
SEQEND
  5
D98
  8
LAYER_1
 62
   250
  0
POLYLINE
  5
A4
  8
LAYER_1
 62
   250
 66
     1
 10
0.0
 20
0.0
 30
0.0
 70
     1
  0
VERTEX
  5
D99
  8
LAYER_1
 62
   250
 10
-14.6674
 20
-120.4366
 30
0.0
  0
VERTEX
  5
D9A
  8
LAYER_1
 62
   250
 10
-14.6674
 20
-115.9365
 30
0.0
  0
VERTEX
  5
D9B
  8
LAYER_1
 62
   250
 10
-4.6674
 20
-115.9365
 30
0.0
  0
VERTEX
  5
D9C
  8
LAYER_1
 62
   250
 10
-4.6674
 20
-135.9365
 30
0.0
  0
VERTEX
  5
D9D
  8
LAYER_1
 62
   250
 10
-14.6674
 20
-135.9365
 30
0.0
  0
VERTEX
  5
D9E
  8
LAYER_1
 62
   250
 10
-14.6674
 20
-131.4366
 30
0.0
  0
VERTEX
  5
D9F
  8
LAYER_1
 62
   250
 10
-39.5924
 20
-131.4366
 30
0.0
  0
VERTEX
  5
DA0
  8
LAYER_1
 62
   250
 10
-40.0092
 20
-131.3943
 30
0.0
  0
VERTEX
  5
DA1
  8
LAYER_1
 62
   250
 10
-40.3981
 20
-131.2729
 30
0.0
  0
VERTEX
  5
DA2
  8
LAYER_1
 62
   250
 10
-40.7505
 20
-131.081
 30
0.0
  0
VERTEX
  5
DA3
  8
LAYER_1
 62
   250
 10
-41.0579
 20
-130.8271
 30
0.0
  0
VERTEX
  5
DA4
  8
LAYER_1
 62
   250
 10
-41.3118
 20
-130.5197
 30
0.0
  0
VERTEX
  5
DA5
  8
LAYER_1
 62
   250
 10
-41.5037
 20
-130.1673
 30
0.0
  0
VERTEX
  5
DA6
  8
LAYER_1
 62
   250
 10
-41.6251
 20
-129.7784
 30
0.0
  0
VERTEX
  5
DA7
  8
LAYER_1
 62
   250
 10
-41.6674
 20
-129.3616
 30
0.0
  0
VERTEX
  5
DA8
  8
LAYER_1
 62
   250
 10
-41.6674
 20
-122.5116
 30
0.0
  0
VERTEX
  5
DA9
  8
LAYER_1
 62
   250
 10
-41.6251
 20
-122.0948
 30
0.0
  0
VERTEX
  5
DAA
  8
LAYER_1
 62
   250
 10
-41.5037
 20
-121.7059
 30
0.0
  0
VERTEX
  5
DAB
  8
LAYER_1
 62
   250
 10
-41.3118
 20
-121.3535
 30
0.0
  0
VERTEX
  5
DAC
  8
LAYER_1
 62
   250
 10
-41.0579
 20
-121.0461
 30
0.0
  0
VERTEX
  5
DAD
  8
LAYER_1
 62
   250
 10
-40.7505
 20
-120.7922
 30
0.0
  0
VERTEX
  5
DAE
  8
LAYER_1
 62
   250
 10
-40.3981
 20
-120.6003
 30
0.0
  0
VERTEX
  5
DAF
  8
LAYER_1
 62
   250
 10
-40.0092
 20
-120.4789
 30
0.0
  0
VERTEX
  5
DB0
  8
LAYER_1
 62
   250
 10
-39.5924
 20
-120.4366
 30
0.0
  0
VERTEX
  5
DB1
  8
LAYER_1
 62
   250
 10
-14.6674
 20
-120.4366
 30
0.0
  0
SEQEND
  5
DB2
  8
LAYER_1
 62
   250
  0
POLYLINE
  5
A5
  8
LAYER_1
 62
   250
 66
     1
 10
0.0
 20
0.0
 30
0.0
 70
     1
  0
VERTEX
  5
DB3
  8
LAYER_1
 62
   250
 10
-36.1674
 20
-125.9366
 30
0.0
  0
VERTEX
  5
DB4
  8
LAYER_1
 62
   250
 10
-36.1979
 20
-126.2389
 30
0.0
  0
VERTEX
  5
DB5
  8
LAYER_1
 62
   250
 10
-36.2853
 20
-126.5205
 30
0.0
  0
VERTEX
  5
DB6
  8
LAYER_1
 62
   250
 10
-36.4236
 20
-126.7753
 30
0.0
  0
VERTEX
  5
DB7
  8
LAYER_1
 62
   250
 10
-36.6067
 20
-126.9973
 30
0.0
  0
VERTEX
  5
DB8
  8
LAYER_1
 62
   250
 10
-36.8287
 20
-127.1804
 30
0.0
  0
VERTEX
  5
DB9
  8
LAYER_1
 62
   250
 10
-37.0835
 20
-127.3187
 30
0.0
  0
VERTEX
  5
DBA
  8
LAYER_1
 62
   250
 10
-37.3651
 20
-127.4061
 30
0.0
  0
VERTEX
  5
DBB
  8
LAYER_1
 62
   250
 10
-37.6674
 20
-127.4366
 30
0.0
  0
VERTEX
  5
DBC
  8
LAYER_1
 62
   250
 10
-37.9697
 20
-127.4061
 30
0.0
  0
VERTEX
  5
DBD
  8
LAYER_1
 62
   250
 10
-38.2513
 20
-127.3187
 30
0.0
  0
VERTEX
  5
DBE
  8
LAYER_1
 62
   250
 10
-38.5061
 20
-127.1804
 30
0.0
  0
VERTEX
  5
DBF
  8
LAYER_1
 62
   250
 10
-38.7281
 20
-126.9973
 30
0.0
  0
VERTEX
  5
DC0
  8
LAYER_1
 62
   250
 10
-38.9112
 20
-126.7753
 30
0.0
  0
VERTEX
  5
DC1
  8
LAYER_1
 62
   250
 10
-39.0495
 20
-126.5205
 30
0.0
  0
VERTEX
  5
DC2
  8
LAYER_1
 62
   250
 10
-39.1369
 20
-126.2389
 30
0.0
  0
VERTEX
  5
DC3
  8
LAYER_1
 62
   250
 10
-39.1674
 20
-125.9366
 30
0.0
  0
VERTEX
  5
DC4
  8
LAYER_1
 62
   250
 10
-39.1369
 20
-125.6343
 30
0.0
  0
VERTEX
  5
DC5
  8
LAYER_1
 62
   250
 10
-39.0495
 20
-125.3527
 30
0.0
  0
VERTEX
  5
DC6
  8
LAYER_1
 62
   250
 10
-38.9112
 20
-125.0979
 30
0.0
  0
VERTEX
  5
DC7
  8
LAYER_1
 62
   250
 10
-38.7281
 20
-124.876
 30
0.0
  0
VERTEX
  5
DC8
  8
LAYER_1
 62
   250
 10
-38.5061
 20
-124.6928
 30
0.0
  0
VERTEX
  5
DC9
  8
LAYER_1
 62
   250
 10
-38.2513
 20
-124.5545
 30
0.0
  0
VERTEX
  5
DCA
  8
LAYER_1
 62
   250
 10
-37.9697
 20
-124.4671
 30
0.0
  0
VERTEX
  5
DCB
  8
LAYER_1
 62
   250
 10
-37.6674
 20
-124.4366
 30
0.0
  0
VERTEX
  5
DCC
  8
LAYER_1
 62
   250
 10
-37.3651
 20
-124.4671
 30
0.0
  0
VERTEX
  5
DCD
  8
LAYER_1
 62
   250
 10
-37.0835
 20
-124.5545
 30
0.0
  0
VERTEX
  5
DCE
  8
LAYER_1
 62
   250
 10
-36.8287
 20
-124.6928
 30
0.0
  0
VERTEX
  5
DCF
  8
LAYER_1
 62
   250
 10
-36.6067
 20
-124.876
 30
0.0
  0
VERTEX
  5
DD0
  8
LAYER_1
 62
   250
 10
-36.4236
 20
-125.0979
 30
0.0
  0
VERTEX
  5
DD1
  8
LAYER_1
 62
   250
 10
-36.2853
 20
-125.3527
 30
0.0
  0
VERTEX
  5
DD2
  8
LAYER_1
 62
   250
 10
-36.1979
 20
-125.6343
 30
0.0
  0
VERTEX
  5
DD3
  8
LAYER_1
 62
   250
 10
-36.1674
 20
-125.9366
 30
0.0
  0
SEQEND
  5
DD4
  8
LAYER_1
 62
   250
  0
POLYLINE
  5
A6
  8
LAYER_1
 62
   250
 66
     1
 10
0.0
 20
0.0
 30
0.0
 70
     1
  0
VERTEX
  5
DD5
  8
LAYER_1
 62
   250
 10
-15.6674
 20
-125.9366
 30
0.0
  0
VERTEX
  5
DD6
  8
LAYER_1
 62
   250
 10
-15.6674
 20
-125.9366
 30
0.0
  0
VERTEX
  5
DD7
  8
LAYER_1
 62
   250
 10
-15.698
 20
-126.2379
 30
0.0
  0
VERTEX
  5
DD8
  8
LAYER_1
 62
   250
 10
-15.7857
 20
-126.519
 30
0.0
  0
VERTEX
  5
DD9
  8
LAYER_1
 62
   250
 10
-15.9245
 20
-126.7738
 30
0.0
  0
VERTEX
  5
DDA
  8
LAYER_1
 62
   250
 10
-16.108
 20
-126.996
 30
0.0
  0
VERTEX
  5
DDB
  8
LAYER_1
 62
   250
 10
-16.3302
 20
-127.1795
 30
0.0
  0
VERTEX
  5
DDC
  8
LAYER_1
 62
   250
 10
-16.5849
 20
-127.3182
 30
0.0
  0
VERTEX
  5
DDD
  8
LAYER_1
 62
   250
 10
-16.8661
 20
-127.406
 30
0.0
  0
VERTEX
  5
DDE
  8
LAYER_1
 62
   250
 10
-17.1674
 20
-127.4366
 30
0.0
  0
VERTEX
  5
DDF
  8
LAYER_1
 62
   250
 10
-23.1673
 20
-127.4366
 30
0.0
  0
VERTEX
  5
DE0
  8
LAYER_1
 62
   250
 10
-23.4687
 20
-127.406
 30
0.0
  0
VERTEX
  5
DE1
  8
LAYER_1
 62
   250
 10
-23.7498
 20
-127.3182
 30
0.0
  0
VERTEX
  5
DE2
  8
LAYER_1
 62
   250
 10
-24.0045
 20
-127.1795
 30
0.0
  0
VERTEX
  5
DE3
  8
LAYER_1
 62
   250
 10
-24.2268
 20
-126.996
 30
0.0
  0
VERTEX
  5
DE4
  8
LAYER_1
 62
   250
 10
-24.4103
 20
-126.7738
 30
0.0
  0
VERTEX
  5
DE5
  8
LAYER_1
 62
   250
 10
-24.549
 20
-126.519
 30
0.0
  0
VERTEX
  5
DE6
  8
LAYER_1
 62
   250
 10
-24.6368
 20
-126.2379
 30
0.0
  0
VERTEX
  5
DE7
  8
LAYER_1
 62
   250
 10
-24.6674
 20
-125.9366
 30
0.0
  0
VERTEX
  5
DE8
  8
LAYER_1
 62
   250
 10
-24.6674
 20
-125.9366
 30
0.0
  0
VERTEX
  5
DE9
  8
LAYER_1
 62
   250
 10
-24.6368
 20
-125.6353
 30
0.0
  0
VERTEX
  5
DEA
  8
LAYER_1
 62
   250
 10
-24.549
 20
-125.3542
 30
0.0
  0
VERTEX
  5
DEB
  8
LAYER_1
 62
   250
 10
-24.4103
 20
-125.0994
 30
0.0
  0
VERTEX
  5
DEC
  8
LAYER_1
 62
   250
 10
-24.2268
 20
-124.8772
 30
0.0
  0
VERTEX
  5
DED
  8
LAYER_1
 62
   250
 10
-24.0045
 20
-124.6937
 30
0.0
  0
VERTEX
  5
DEE
  8
LAYER_1
 62
   250
 10
-23.7498
 20
-124.555
 30
0.0
  0
VERTEX
  5
DEF
  8
LAYER_1
 62
   250
 10
-23.4687
 20
-124.4672
 30
0.0
  0
VERTEX
  5
DF0
  8
LAYER_1
 62
   250
 10
-23.1673
 20
-124.4366
 30
0.0
  0
VERTEX
  5
DF1
  8
LAYER_1
 62
   250
 10
-17.1674
 20
-124.4366
 30
0.0
  0
VERTEX
  5
DF2
  8
LAYER_1
 62
   250
 10
-16.8661
 20
-124.4672
 30
0.0
  0
VERTEX
  5
DF3
  8
LAYER_1
 62
   250
 10
-16.5849
 20
-124.555
 30
0.0
  0
VERTEX
  5
DF4
  8
LAYER_1
 62
   250
 10
-16.3302
 20
-124.6937
 30
0.0
  0
VERTEX
  5
DF5
  8
LAYER_1
 62
   250
 10
-16.108
 20
-124.8772
 30
0.0
  0
VERTEX
  5
DF6
  8
LAYER_1
 62
   250
 10
-15.9245
 20
-125.0994
 30
0.0
  0
VERTEX
  5
DF7
  8
LAYER_1
 62
   250
 10
-15.7857
 20
-125.3542
 30
0.0
  0
VERTEX
  5
DF8
  8
LAYER_1
 62
   250
 10
-15.698
 20
-125.6353
 30
0.0
  0
VERTEX
  5
DF9
  8
LAYER_1
 62
   250
 10
-15.6674
 20
-125.9366
 30
0.0
  0
SEQEND
  5
DFA
  8
LAYER_1
 62
   250
  0
POLYLINE
  5
A7
  8
LAYER_1
 62
   250
 66
     1
 10
0.0
 20
0.0
 30
0.0
 70
     1
  0
VERTEX
  5
DFB
  8
LAYER_1
 62
   250
 10
-51.6674
 20
-120.4367
 30
0.0
  0
VERTEX
  5
DFC
  8
LAYER_1
 62
   250
 10
-51.6674
 20
-115.9366
 30
0.0
  0
VERTEX
  5
DFD
  8
LAYER_1
 62
   250
 10
-41.6674
 20
-115.9366
 30
0.0
  0
VERTEX
  5
DFE
  8
LAYER_1
 62
   250
 10
-41.6674
 20
-135.9366
 30
0.0
  0
VERTEX
  5
DFF
  8
LAYER_1
 62
   250
 10
-51.6674
 20
-135.9366
 30
0.0
  0
VERTEX
  5
E00
  8
LAYER_1
 62
   250
 10
-51.6674
 20
-131.4367
 30
0.0
  0
VERTEX
  5
E01
  8
LAYER_1
 62
   250
 10
-76.5924
 20
-131.4367
 30
0.0
  0
VERTEX
  5
E02
  8
LAYER_1
 62
   250
 10
-77.0092
 20
-131.3944
 30
0.0
  0
VERTEX
  5
E03
  8
LAYER_1
 62
   250
 10
-77.3981
 20
-131.273
 30
0.0
  0
VERTEX
  5
E04
  8
LAYER_1
 62
   250
 10
-77.7505
 20
-131.0811
 30
0.0
  0
VERTEX
  5
E05
  8
LAYER_1
 62
   250
 10
-78.0579
 20
-130.8272
 30
0.0
  0
VERTEX
  5
E06
  8
LAYER_1
 62
   250
 10
-78.3118
 20
-130.5198
 30
0.0
  0
VERTEX
  5
E07
  8
LAYER_1
 62
   250
 10
-78.5037
 20
-130.1674
 30
0.0
  0
VERTEX
  5
E08
  8
LAYER_1
 62
   250
 10
-78.6251
 20
-129.7785
 30
0.0
  0
VERTEX
  5
E09
  8
LAYER_1
 62
   250
 10
-78.6674
 20
-129.3617
 30
0.0
  0
VERTEX
  5
E0A
  8
LAYER_1
 62
   250
 10
-78.6674
 20
-122.5117
 30
0.0
  0
VERTEX
  5
E0B
  8
LAYER_1
 62
   250
 10
-78.6251
 20
-122.0949
 30
0.0
  0
VERTEX
  5
E0C
  8
LAYER_1
 62
   250
 10
-78.5037
 20
-121.706
 30
0.0
  0
VERTEX
  5
E0D
  8
LAYER_1
 62
   250
 10
-78.3118
 20
-121.3536
 30
0.0
  0
VERTEX
  5
E0E
  8
LAYER_1
 62
   250
 10
-78.0579
 20
-121.0462
 30
0.0
  0
VERTEX
  5
E0F
  8
LAYER_1
 62
   250
 10
-77.7505
 20
-120.7923
 30
0.0
  0
VERTEX
  5
E10
  8
LAYER_1
 62
   250
 10
-77.3981
 20
-120.6004
 30
0.0
  0
VERTEX
  5
E11
  8
LAYER_1
 62
   250
 10
-77.0092
 20
-120.479
 30
0.0
  0
VERTEX
  5
E12
  8
LAYER_1
 62
   250
 10
-76.5924
 20
-120.4367
 30
0.0
  0
VERTEX
  5
E13
  8
LAYER_1
 62
   250
 10
-51.6674
 20
-120.4367
 30
0.0
  0
SEQEND
  5
E14
  8
LAYER_1
 62
   250
  0
POLYLINE
  5
A8
  8
LAYER_1
 62
   250
 66
     1
 10
0.0
 20
0.0
 30
0.0
 70
     1
  0
VERTEX
  5
E15
  8
LAYER_1
 62
   250
 10
-73.1674
 20
-125.9367
 30
0.0
  0
VERTEX
  5
E16
  8
LAYER_1
 62
   250
 10
-73.1979
 20
-126.239
 30
0.0
  0
VERTEX
  5
E17
  8
LAYER_1
 62
   250
 10
-73.2853
 20
-126.5206
 30
0.0
  0
VERTEX
  5
E18
  8
LAYER_1
 62
   250
 10
-73.4236
 20
-126.7754
 30
0.0
  0
VERTEX
  5
E19
  8
LAYER_1
 62
   250
 10
-73.6067
 20
-126.9974
 30
0.0
  0
VERTEX
  5
E1A
  8
LAYER_1
 62
   250
 10
-73.8287
 20
-127.1805
 30
0.0
  0
VERTEX
  5
E1B
  8
LAYER_1
 62
   250
 10
-74.0835
 20
-127.3188
 30
0.0
  0
VERTEX
  5
E1C
  8
LAYER_1
 62
   250
 10
-74.3651
 20
-127.4062
 30
0.0
  0
VERTEX
  5
E1D
  8
LAYER_1
 62
   250
 10
-74.6674
 20
-127.4367
 30
0.0
  0
VERTEX
  5
E1E
  8
LAYER_1
 62
   250
 10
-74.9697
 20
-127.4062
 30
0.0
  0
VERTEX
  5
E1F
  8
LAYER_1
 62
   250
 10
-75.2513
 20
-127.3188
 30
0.0
  0
VERTEX
  5
E20
  8
LAYER_1
 62
   250
 10
-75.5061
 20
-127.1805
 30
0.0
  0
VERTEX
  5
E21
  8
LAYER_1
 62
   250
 10
-75.7281
 20
-126.9974
 30
0.0
  0
VERTEX
  5
E22
  8
LAYER_1
 62
   250
 10
-75.9112
 20
-126.7754
 30
0.0
  0
VERTEX
  5
E23
  8
LAYER_1
 62
   250
 10
-76.0495
 20
-126.5206
 30
0.0
  0
VERTEX
  5
E24
  8
LAYER_1
 62
   250
 10
-76.1369
 20
-126.239
 30
0.0
  0
VERTEX
  5
E25
  8
LAYER_1
 62
   250
 10
-76.1674
 20
-125.9367
 30
0.0
  0
VERTEX
  5
E26
  8
LAYER_1
 62
   250
 10
-76.1369
 20
-125.6344
 30
0.0
  0
VERTEX
  5
E27
  8
LAYER_1
 62
   250
 10
-76.0495
 20
-125.3528
 30
0.0
  0
VERTEX
  5
E28
  8
LAYER_1
 62
   250
 10
-75.9112
 20
-125.098
 30
0.0
  0
VERTEX
  5
E29
  8
LAYER_1
 62
   250
 10
-75.7281
 20
-124.8761
 30
0.0
  0
VERTEX
  5
E2A
  8
LAYER_1
 62
   250
 10
-75.5061
 20
-124.6929
 30
0.0
  0
VERTEX
  5
E2B
  8
LAYER_1
 62
   250
 10
-75.2513
 20
-124.5546
 30
0.0
  0
VERTEX
  5
E2C
  8
LAYER_1
 62
   250
 10
-74.9697
 20
-124.4672
 30
0.0
  0
VERTEX
  5
E2D
  8
LAYER_1
 62
   250
 10
-74.6674
 20
-124.4367
 30
0.0
  0
VERTEX
  5
E2E
  8
LAYER_1
 62
   250
 10
-74.3651
 20
-124.4672
 30
0.0
  0
VERTEX
  5
E2F
  8
LAYER_1
 62
   250
 10
-74.0835
 20
-124.5546
 30
0.0
  0
VERTEX
  5
E30
  8
LAYER_1
 62
   250
 10
-73.8287
 20
-124.6929
 30
0.0
  0
VERTEX
  5
E31
  8
LAYER_1
 62
   250
 10
-73.6067
 20
-124.8761
 30
0.0
  0
VERTEX
  5
E32
  8
LAYER_1
 62
   250
 10
-73.4236
 20
-125.098
 30
0.0
  0
VERTEX
  5
E33
  8
LAYER_1
 62
   250
 10
-73.2853
 20
-125.3528
 30
0.0
  0
VERTEX
  5
E34
  8
LAYER_1
 62
   250
 10
-73.1979
 20
-125.6344
 30
0.0
  0
VERTEX
  5
E35
  8
LAYER_1
 62
   250
 10
-73.1674
 20
-125.9367
 30
0.0
  0
SEQEND
  5
E36
  8
LAYER_1
 62
   250
  0
POLYLINE
  5
A9
  8
LAYER_1
 62
   250
 66
     1
 10
0.0
 20
0.0
 30
0.0
 70
     1
  0
VERTEX
  5
E37
  8
LAYER_1
 62
   250
 10
-52.6674
 20
-125.9367
 30
0.0
  0
VERTEX
  5
E38
  8
LAYER_1
 62
   250
 10
-52.6674
 20
-125.9367
 30
0.0
  0
VERTEX
  5
E39
  8
LAYER_1
 62
   250
 10
-52.698
 20
-126.238
 30
0.0
  0
VERTEX
  5
E3A
  8
LAYER_1
 62
   250
 10
-52.7857
 20
-126.5191
 30
0.0
  0
VERTEX
  5
E3B
  8
LAYER_1
 62
   250
 10
-52.9245
 20
-126.7739
 30
0.0
  0
VERTEX
  5
E3C
  8
LAYER_1
 62
   250
 10
-53.108
 20
-126.9961
 30
0.0
  0
VERTEX
  5
E3D
  8
LAYER_1
 62
   250
 10
-53.3302
 20
-127.1796
 30
0.0
  0
VERTEX
  5
E3E
  8
LAYER_1
 62
   250
 10
-53.5849
 20
-127.3183
 30
0.0
  0
VERTEX
  5
E3F
  8
LAYER_1
 62
   250
 10
-53.8661
 20
-127.4061
 30
0.0
  0
VERTEX
  5
E40
  8
LAYER_1
 62
   250
 10
-54.1674
 20
-127.4367
 30
0.0
  0
VERTEX
  5
E41
  8
LAYER_1
 62
   250
 10
-60.1673
 20
-127.4367
 30
0.0
  0
VERTEX
  5
E42
  8
LAYER_1
 62
   250
 10
-60.4687
 20
-127.4061
 30
0.0
  0
VERTEX
  5
E43
  8
LAYER_1
 62
   250
 10
-60.7498
 20
-127.3183
 30
0.0
  0
VERTEX
  5
E44
  8
LAYER_1
 62
   250
 10
-61.0045
 20
-127.1796
 30
0.0
  0
VERTEX
  5
E45
  8
LAYER_1
 62
   250
 10
-61.2268
 20
-126.9961
 30
0.0
  0
VERTEX
  5
E46
  8
LAYER_1
 62
   250
 10
-61.4103
 20
-126.7739
 30
0.0
  0
VERTEX
  5
E47
  8
LAYER_1
 62
   250
 10
-61.549
 20
-126.5191
 30
0.0
  0
VERTEX
  5
E48
  8
LAYER_1
 62
   250
 10
-61.6368
 20
-126.238
 30
0.0
  0
VERTEX
  5
E49
  8
LAYER_1
 62
   250
 10
-61.6674
 20
-125.9367
 30
0.0
  0
VERTEX
  5
E4A
  8
LAYER_1
 62
   250
 10
-61.6674
 20
-125.9367
 30
0.0
  0
VERTEX
  5
E4B
  8
LAYER_1
 62
   250
 10
-61.6368
 20
-125.6354
 30
0.0
  0
VERTEX
  5
E4C
  8
LAYER_1
 62
   250
 10
-61.549
 20
-125.3543
 30
0.0
  0
VERTEX
  5
E4D
  8
LAYER_1
 62
   250
 10
-61.4103
 20
-125.0995
 30
0.0
  0
VERTEX
  5
E4E
  8
LAYER_1
 62
   250
 10
-61.2268
 20
-124.8773
 30
0.0
  0
VERTEX
  5
E4F
  8
LAYER_1
 62
   250
 10
-61.0045
 20
-124.6938
 30
0.0
  0
VERTEX
  5
E50
  8
LAYER_1
 62
   250
 10
-60.7498
 20
-124.5551
 30
0.0
  0
VERTEX
  5
E51
  8
LAYER_1
 62
   250
 10
-60.4687
 20
-124.4673
 30
0.0
  0
VERTEX
  5
E52
  8
LAYER_1
 62
   250
 10
-60.1673
 20
-124.4367
 30
0.0
  0
VERTEX
  5
E53
  8
LAYER_1
 62
   250
 10
-54.1674
 20
-124.4367
 30
0.0
  0
VERTEX
  5
E54
  8
LAYER_1
 62
   250
 10
-53.8661
 20
-124.4673
 30
0.0
  0
VERTEX
  5
E55
  8
LAYER_1
 62
   250
 10
-53.5849
 20
-124.5551
 30
0.0
  0
VERTEX
  5
E56
  8
LAYER_1
 62
   250
 10
-53.3302
 20
-124.6938
 30
0.0
  0
VERTEX
  5
E57
  8
LAYER_1
 62
   250
 10
-53.108
 20
-124.8773
 30
0.0
  0
VERTEX
  5
E58
  8
LAYER_1
 62
   250
 10
-52.9245
 20
-125.0995
 30
0.0
  0
VERTEX
  5
E59
  8
LAYER_1
 62
   250
 10
-52.7857
 20
-125.3543
 30
0.0
  0
VERTEX
  5
E5A
  8
LAYER_1
 62
   250
 10
-52.698
 20
-125.6354
 30
0.0
  0
VERTEX
  5
E5B
  8
LAYER_1
 62
   250
 10
-52.6674
 20
-125.9367
 30
0.0
  0
SEQEND
  5
E5C
  8
LAYER_1
 62
   250
  0
POLYLINE
  5
AA
  8
LAYER_1
 62
   250
 66
     1
 10
0.0
 20
0.0
 30
0.0
 70
     1
  0
VERTEX
  5
E5D
  8
LAYER_1
 62
   250
 10
14.7057
 20
128.5639
 30
0.0
  0
VERTEX
  5
E5E
  8
LAYER_1
 62
   250
 10
14.7057
 20
124.0638
 30
0.0
  0
VERTEX
  5
E5F
  8
LAYER_1
 62
   250
 10
4.7057
 20
124.0638
 30
0.0
  0
VERTEX
  5
E60
  8
LAYER_1
 62
   250
 10
4.7057
 20
144.0638
 30
0.0
  0
VERTEX
  5
E61
  8
LAYER_1
 62
   250
 10
14.7057
 20
144.0638
 30
0.0
  0
VERTEX
  5
E62
  8
LAYER_1
 62
   250
 10
14.7057
 20
139.5639
 30
0.0
  0
VERTEX
  5
E63
  8
LAYER_1
 62
   250
 10
39.6307
 20
139.5639
 30
0.0
  0
VERTEX
  5
E64
  8
LAYER_1
 62
   250
 10
40.0475
 20
139.5216
 30
0.0
  0
VERTEX
  5
E65
  8
LAYER_1
 62
   250
 10
40.4364
 20
139.4002
 30
0.0
  0
VERTEX
  5
E66
  8
LAYER_1
 62
   250
 10
40.7888
 20
139.2083
 30
0.0
  0
VERTEX
  5
E67
  8
LAYER_1
 62
   250
 10
41.0962
 20
138.9544
 30
0.0
  0
VERTEX
  5
E68
  8
LAYER_1
 62
   250
 10
41.3501
 20
138.647
 30
0.0
  0
VERTEX
  5
E69
  8
LAYER_1
 62
   250
 10
41.542
 20
138.2946
 30
0.0
  0
VERTEX
  5
E6A
  8
LAYER_1
 62
   250
 10
41.6634
 20
137.9057
 30
0.0
  0
VERTEX
  5
E6B
  8
LAYER_1
 62
   250
 10
41.7057
 20
137.4889
 30
0.0
  0
VERTEX
  5
E6C
  8
LAYER_1
 62
   250
 10
41.7057
 20
130.6389
 30
0.0
  0
VERTEX
  5
E6D
  8
LAYER_1
 62
   250
 10
41.6634
 20
130.2221
 30
0.0
  0
VERTEX
  5
E6E
  8
LAYER_1
 62
   250
 10
41.542
 20
129.8332
 30
0.0
  0
VERTEX
  5
E6F
  8
LAYER_1
 62
   250
 10
41.3501
 20
129.4808
 30
0.0
  0
VERTEX
  5
E70
  8
LAYER_1
 62
   250
 10
41.0962
 20
129.1734
 30
0.0
  0
VERTEX
  5
E71
  8
LAYER_1
 62
   250
 10
40.7888
 20
128.9195
 30
0.0
  0
VERTEX
  5
E72
  8
LAYER_1
 62
   250
 10
40.4364
 20
128.7276
 30
0.0
  0
VERTEX
  5
E73
  8
LAYER_1
 62
   250
 10
40.0475
 20
128.6062
 30
0.0
  0
VERTEX
  5
E74
  8
LAYER_1
 62
   250
 10
39.6307
 20
128.5639
 30
0.0
  0
VERTEX
  5
E75
  8
LAYER_1
 62
   250
 10
14.7057
 20
128.5639
 30
0.0
  0
SEQEND
  5
E76
  8
LAYER_1
 62
   250
  0
POLYLINE
  5
AB
  8
LAYER_1
 62
   250
 66
     1
 10
0.0
 20
0.0
 30
0.0
 70
     1
  0
VERTEX
  5
E77
  8
LAYER_1
 62
   250
 10
36.2057
 20
134.0639
 30
0.0
  0
VERTEX
  5
E78
  8
LAYER_1
 62
   250
 10
36.2362
 20
134.3662
 30
0.0
  0
VERTEX
  5
E79
  8
LAYER_1
 62
   250
 10
36.3236
 20
134.6478
 30
0.0
  0
VERTEX
  5
E7A
  8
LAYER_1
 62
   250
 10
36.4619
 20
134.9026
 30
0.0
  0
VERTEX
  5
E7B
  8
LAYER_1
 62
   250
 10
36.645
 20
135.1246
 30
0.0
  0
VERTEX
  5
E7C
  8
LAYER_1
 62
   250
 10
36.867
 20
135.3077
 30
0.0
  0
VERTEX
  5
E7D
  8
LAYER_1
 62
   250
 10
37.1218
 20
135.446
 30
0.0
  0
VERTEX
  5
E7E
  8
LAYER_1
 62
   250
 10
37.4034
 20
135.5334
 30
0.0
  0
VERTEX
  5
E7F
  8
LAYER_1
 62
   250
 10
37.7057
 20
135.5639
 30
0.0
  0
VERTEX
  5
E80
  8
LAYER_1
 62
   250
 10
38.008
 20
135.5334
 30
0.0
  0
VERTEX
  5
E81
  8
LAYER_1
 62
   250
 10
38.2896
 20
135.446
 30
0.0
  0
VERTEX
  5
E82
  8
LAYER_1
 62
   250
 10
38.5444
 20
135.3077
 30
0.0
  0
VERTEX
  5
E83
  8
LAYER_1
 62
   250
 10
38.7664
 20
135.1246
 30
0.0
  0
VERTEX
  5
E84
  8
LAYER_1
 62
   250
 10
38.9495
 20
134.9026
 30
0.0
  0
VERTEX
  5
E85
  8
LAYER_1
 62
   250
 10
39.0878
 20
134.6478
 30
0.0
  0
VERTEX
  5
E86
  8
LAYER_1
 62
   250
 10
39.1752
 20
134.3662
 30
0.0
  0
VERTEX
  5
E87
  8
LAYER_1
 62
   250
 10
39.2057
 20
134.0639
 30
0.0
  0
VERTEX
  5
E88
  8
LAYER_1
 62
   250
 10
39.1752
 20
133.7616
 30
0.0
  0
VERTEX
  5
E89
  8
LAYER_1
 62
   250
 10
39.0878
 20
133.48
 30
0.0
  0
VERTEX
  5
E8A
  8
LAYER_1
 62
   250
 10
38.9495
 20
133.2252
 30
0.0
  0
VERTEX
  5
E8B
  8
LAYER_1
 62
   250
 10
38.7664
 20
133.0033
 30
0.0
  0
VERTEX
  5
E8C
  8
LAYER_1
 62
   250
 10
38.5444
 20
132.8201
 30
0.0
  0
VERTEX
  5
E8D
  8
LAYER_1
 62
   250
 10
38.2896
 20
132.6818
 30
0.0
  0
VERTEX
  5
E8E
  8
LAYER_1
 62
   250
 10
38.008
 20
132.5944
 30
0.0
  0
VERTEX
  5
E8F
  8
LAYER_1
 62
   250
 10
37.7057
 20
132.5639
 30
0.0
  0
VERTEX
  5
E90
  8
LAYER_1
 62
   250
 10
37.4034
 20
132.5944
 30
0.0
  0
VERTEX
  5
E91
  8
LAYER_1
 62
   250
 10
37.1218
 20
132.6818
 30
0.0
  0
VERTEX
  5
E92
  8
LAYER_1
 62
   250
 10
36.867
 20
132.8201
 30
0.0
  0
VERTEX
  5
E93
  8
LAYER_1
 62
   250
 10
36.645
 20
133.0033
 30
0.0
  0
VERTEX
  5
E94
  8
LAYER_1
 62
   250
 10
36.4619
 20
133.2252
 30
0.0
  0
VERTEX
  5
E95
  8
LAYER_1
 62
   250
 10
36.3236
 20
133.48
 30
0.0
  0
VERTEX
  5
E96
  8
LAYER_1
 62
   250
 10
36.2362
 20
133.7616
 30
0.0
  0
VERTEX
  5
E97
  8
LAYER_1
 62
   250
 10
36.2057
 20
134.0639
 30
0.0
  0
SEQEND
  5
E98
  8
LAYER_1
 62
   250
  0
POLYLINE
  5
AC
  8
LAYER_1
 62
   250
 66
     1
 10
0.0
 20
0.0
 30
0.0
 70
     1
  0
VERTEX
  5
E99
  8
LAYER_1
 62
   250
 10
15.7057
 20
134.0639
 30
0.0
  0
VERTEX
  5
E9A
  8
LAYER_1
 62
   250
 10
15.7057
 20
134.0639
 30
0.0
  0
VERTEX
  5
E9B
  8
LAYER_1
 62
   250
 10
15.7363
 20
134.3652
 30
0.0
  0
VERTEX
  5
E9C
  8
LAYER_1
 62
   250
 10
15.824
 20
134.6463
 30
0.0
  0
VERTEX
  5
E9D
  8
LAYER_1
 62
   250
 10
15.9628
 20
134.9011
 30
0.0
  0
VERTEX
  5
E9E
  8
LAYER_1
 62
   250
 10
16.1463
 20
135.1233
 30
0.0
  0
VERTEX
  5
E9F
  8
LAYER_1
 62
   250
 10
16.3685
 20
135.3068
 30
0.0
  0
VERTEX
  5
EA0
  8
LAYER_1
 62
   250
 10
16.6232
 20
135.4455
 30
0.0
  0
VERTEX
  5
EA1
  8
LAYER_1
 62
   250
 10
16.9044
 20
135.5333
 30
0.0
  0
VERTEX
  5
EA2
  8
LAYER_1
 62
   250
 10
17.2057
 20
135.5639
 30
0.0
  0
VERTEX
  5
EA3
  8
LAYER_1
 62
   250
 10
23.2056
 20
135.5639
 30
0.0
  0
VERTEX
  5
EA4
  8
LAYER_1
 62
   250
 10
23.507
 20
135.5333
 30
0.0
  0
VERTEX
  5
EA5
  8
LAYER_1
 62
   250
 10
23.7881
 20
135.4455
 30
0.0
  0
VERTEX
  5
EA6
  8
LAYER_1
 62
   250
 10
24.0428
 20
135.3068
 30
0.0
  0
VERTEX
  5
EA7
  8
LAYER_1
 62
   250
 10
24.2651
 20
135.1233
 30
0.0
  0
VERTEX
  5
EA8
  8
LAYER_1
 62
   250
 10
24.4486
 20
134.9011
 30
0.0
  0
VERTEX
  5
EA9
  8
LAYER_1
 62
   250
 10
24.5873
 20
134.6463
 30
0.0
  0
VERTEX
  5
EAA
  8
LAYER_1
 62
   250
 10
24.6751
 20
134.3652
 30
0.0
  0
VERTEX
  5
EAB
  8
LAYER_1
 62
   250
 10
24.7057
 20
134.0639
 30
0.0
  0
VERTEX
  5
EAC
  8
LAYER_1
 62
   250
 10
24.7057
 20
134.0639
 30
0.0
  0
VERTEX
  5
EAD
  8
LAYER_1
 62
   250
 10
24.6751
 20
133.7626
 30
0.0
  0
VERTEX
  5
EAE
  8
LAYER_1
 62
   250
 10
24.5873
 20
133.4815
 30
0.0
  0
VERTEX
  5
EAF
  8
LAYER_1
 62
   250
 10
24.4486
 20
133.2267
 30
0.0
  0
VERTEX
  5
EB0
  8
LAYER_1
 62
   250
 10
24.2651
 20
133.0045
 30
0.0
  0
VERTEX
  5
EB1
  8
LAYER_1
 62
   250
 10
24.0428
 20
132.821
 30
0.0
  0
VERTEX
  5
EB2
  8
LAYER_1
 62
   250
 10
23.7881
 20
132.6823
 30
0.0
  0
VERTEX
  5
EB3
  8
LAYER_1
 62
   250
 10
23.507
 20
132.5945
 30
0.0
  0
VERTEX
  5
EB4
  8
LAYER_1
 62
   250
 10
23.2056
 20
132.5639
 30
0.0
  0
VERTEX
  5
EB5
  8
LAYER_1
 62
   250
 10
17.2057
 20
132.5639
 30
0.0
  0
VERTEX
  5
EB6
  8
LAYER_1
 62
   250
 10
16.9044
 20
132.5945
 30
0.0
  0
VERTEX
  5
EB7
  8
LAYER_1
 62
   250
 10
16.6232
 20
132.6823
 30
0.0
  0
VERTEX
  5
EB8
  8
LAYER_1
 62
   250
 10
16.3685
 20
132.821
 30
0.0
  0
VERTEX
  5
EB9
  8
LAYER_1
 62
   250
 10
16.1463
 20
133.0045
 30
0.0
  0
VERTEX
  5
EBA
  8
LAYER_1
 62
   250
 10
15.9628
 20
133.2267
 30
0.0
  0
VERTEX
  5
EBB
  8
LAYER_1
 62
   250
 10
15.824
 20
133.4815
 30
0.0
  0
VERTEX
  5
EBC
  8
LAYER_1
 62
   250
 10
15.7363
 20
133.7626
 30
0.0
  0
VERTEX
  5
EBD
  8
LAYER_1
 62
   250
 10
15.7057
 20
134.0639
 30
0.0
  0
SEQEND
  5
EBE
  8
LAYER_1
 62
   250
  0
POLYLINE
  5
AD
  8
LAYER_1
 62
   250
 66
     1
 10
0.0
 20
0.0
 30
0.0
 70
     1
  0
VERTEX
  5
EBF
  8
LAYER_1
 62
   250
 10
51.7057
 20
128.564
 30
0.0
  0
VERTEX
  5
EC0
  8
LAYER_1
 62
   250
 10
51.7057
 20
124.0639
 30
0.0
  0
VERTEX
  5
EC1
  8
LAYER_1
 62
   250
 10
41.7057
 20
124.0639
 30
0.0
  0
VERTEX
  5
EC2
  8
LAYER_1
 62
   250
 10
41.7057
 20
144.0639
 30
0.0
  0
VERTEX
  5
EC3
  8
LAYER_1
 62
   250
 10
51.7057
 20
144.0639
 30
0.0
  0
VERTEX
  5
EC4
  8
LAYER_1
 62
   250
 10
51.7057
 20
139.564
 30
0.0
  0
VERTEX
  5
EC5
  8
LAYER_1
 62
   250
 10
76.6307
 20
139.564
 30
0.0
  0
VERTEX
  5
EC6
  8
LAYER_1
 62
   250
 10
77.0475
 20
139.5217
 30
0.0
  0
VERTEX
  5
EC7
  8
LAYER_1
 62
   250
 10
77.4364
 20
139.4003
 30
0.0
  0
VERTEX
  5
EC8
  8
LAYER_1
 62
   250
 10
77.7888
 20
139.2084
 30
0.0
  0
VERTEX
  5
EC9
  8
LAYER_1
 62
   250
 10
78.0962
 20
138.9545
 30
0.0
  0
VERTEX
  5
ECA
  8
LAYER_1
 62
   250
 10
78.3501
 20
138.6471
 30
0.0
  0
VERTEX
  5
ECB
  8
LAYER_1
 62
   250
 10
78.542
 20
138.2947
 30
0.0
  0
VERTEX
  5
ECC
  8
LAYER_1
 62
   250
 10
78.6634
 20
137.9058
 30
0.0
  0
VERTEX
  5
ECD
  8
LAYER_1
 62
   250
 10
78.7057
 20
137.489
 30
0.0
  0
VERTEX
  5
ECE
  8
LAYER_1
 62
   250
 10
78.7057
 20
130.639
 30
0.0
  0
VERTEX
  5
ECF
  8
LAYER_1
 62
   250
 10
78.6634
 20
130.2222
 30
0.0
  0
VERTEX
  5
ED0
  8
LAYER_1
 62
   250
 10
78.542
 20
129.8333
 30
0.0
  0
VERTEX
  5
ED1
  8
LAYER_1
 62
   250
 10
78.3501
 20
129.4809
 30
0.0
  0
VERTEX
  5
ED2
  8
LAYER_1
 62
   250
 10
78.0962
 20
129.1735
 30
0.0
  0
VERTEX
  5
ED3
  8
LAYER_1
 62
   250
 10
77.7888
 20
128.9196
 30
0.0
  0
VERTEX
  5
ED4
  8
LAYER_1
 62
   250
 10
77.4364
 20
128.7277
 30
0.0
  0
VERTEX
  5
ED5
  8
LAYER_1
 62
   250
 10
77.0475
 20
128.6063
 30
0.0
  0
VERTEX
  5
ED6
  8
LAYER_1
 62
   250
 10
76.6307
 20
128.564
 30
0.0
  0
VERTEX
  5
ED7
  8
LAYER_1
 62
   250
 10
51.7057
 20
128.564
 30
0.0
  0
SEQEND
  5
ED8
  8
LAYER_1
 62
   250
  0
POLYLINE
  5
AE
  8
LAYER_1
 62
   250
 66
     1
 10
0.0
 20
0.0
 30
0.0
 70
     1
  0
VERTEX
  5
ED9
  8
LAYER_1
 62
   250
 10
73.2057
 20
134.064
 30
0.0
  0
VERTEX
  5
EDA
  8
LAYER_1
 62
   250
 10
73.2362
 20
134.3663
 30
0.0
  0
VERTEX
  5
EDB
  8
LAYER_1
 62
   250
 10
73.3236
 20
134.6479
 30
0.0
  0
VERTEX
  5
EDC
  8
LAYER_1
 62
   250
 10
73.4619
 20
134.9027
 30
0.0
  0
VERTEX
  5
EDD
  8
LAYER_1
 62
   250
 10
73.645
 20
135.1247
 30
0.0
  0
VERTEX
  5
EDE
  8
LAYER_1
 62
   250
 10
73.867
 20
135.3078
 30
0.0
  0
VERTEX
  5
EDF
  8
LAYER_1
 62
   250
 10
74.1218
 20
135.4461
 30
0.0
  0
VERTEX
  5
EE0
  8
LAYER_1
 62
   250
 10
74.4034
 20
135.5335
 30
0.0
  0
VERTEX
  5
EE1
  8
LAYER_1
 62
   250
 10
74.7057
 20
135.564
 30
0.0
  0
VERTEX
  5
EE2
  8
LAYER_1
 62
   250
 10
75.008
 20
135.5335
 30
0.0
  0
VERTEX
  5
EE3
  8
LAYER_1
 62
   250
 10
75.2896
 20
135.4461
 30
0.0
  0
VERTEX
  5
EE4
  8
LAYER_1
 62
   250
 10
75.5444
 20
135.3078
 30
0.0
  0
VERTEX
  5
EE5
  8
LAYER_1
 62
   250
 10
75.7664
 20
135.1247
 30
0.0
  0
VERTEX
  5
EE6
  8
LAYER_1
 62
   250
 10
75.9495
 20
134.9027
 30
0.0
  0
VERTEX
  5
EE7
  8
LAYER_1
 62
   250
 10
76.0878
 20
134.6479
 30
0.0
  0
VERTEX
  5
EE8
  8
LAYER_1
 62
   250
 10
76.1752
 20
134.3663
 30
0.0
  0
VERTEX
  5
EE9
  8
LAYER_1
 62
   250
 10
76.2057
 20
134.064
 30
0.0
  0
VERTEX
  5
EEA
  8
LAYER_1
 62
   250
 10
76.1752
 20
133.7617
 30
0.0
  0
VERTEX
  5
EEB
  8
LAYER_1
 62
   250
 10
76.0878
 20
133.4801
 30
0.0
  0
VERTEX
  5
EEC
  8
LAYER_1
 62
   250
 10
75.9495
 20
133.2253
 30
0.0
  0
VERTEX
  5
EED
  8
LAYER_1
 62
   250
 10
75.7664
 20
133.0034
 30
0.0
  0
VERTEX
  5
EEE
  8
LAYER_1
 62
   250
 10
75.5444
 20
132.8202
 30
0.0
  0
VERTEX
  5
EEF
  8
LAYER_1
 62
   250
 10
75.2896
 20
132.6819
 30
0.0
  0
VERTEX
  5
EF0
  8
LAYER_1
 62
   250
 10
75.008
 20
132.5945
 30
0.0
  0
VERTEX
  5
EF1
  8
LAYER_1
 62
   250
 10
74.7057
 20
132.564
 30
0.0
  0
VERTEX
  5
EF2
  8
LAYER_1
 62
   250
 10
74.4034
 20
132.5945
 30
0.0
  0
VERTEX
  5
EF3
  8
LAYER_1
 62
   250
 10
74.1218
 20
132.6819
 30
0.0
  0
VERTEX
  5
EF4
  8
LAYER_1
 62
   250
 10
73.867
 20
132.8202
 30
0.0
  0
VERTEX
  5
EF5
  8
LAYER_1
 62
   250
 10
73.645
 20
133.0034
 30
0.0
  0
VERTEX
  5
EF6
  8
LAYER_1
 62
   250
 10
73.4619
 20
133.2253
 30
0.0
  0
VERTEX
  5
EF7
  8
LAYER_1
 62
   250
 10
73.3236
 20
133.4801
 30
0.0
  0
VERTEX
  5
EF8
  8
LAYER_1
 62
   250
 10
73.2362
 20
133.7617
 30
0.0
  0
VERTEX
  5
EF9
  8
LAYER_1
 62
   250
 10
73.2057
 20
134.064
 30
0.0
  0
SEQEND
  5
EFA
  8
LAYER_1
 62
   250
  0
POLYLINE
  5
AF
  8
LAYER_1
 62
   250
 66
     1
 10
0.0
 20
0.0
 30
0.0
 70
     1
  0
VERTEX
  5
EFB
  8
LAYER_1
 62
   250
 10
52.7057
 20
134.064
 30
0.0
  0
VERTEX
  5
EFC
  8
LAYER_1
 62
   250
 10
52.7057
 20
134.064
 30
0.0
  0
VERTEX
  5
EFD
  8
LAYER_1
 62
   250
 10
52.7363
 20
134.3653
 30
0.0
  0
VERTEX
  5
EFE
  8
LAYER_1
 62
   250
 10
52.824
 20
134.6464
 30
0.0
  0
VERTEX
  5
EFF
  8
LAYER_1
 62
   250
 10
52.9628
 20
134.9012
 30
0.0
  0
VERTEX
  5
F00
  8
LAYER_1
 62
   250
 10
53.1463
 20
135.1234
 30
0.0
  0
VERTEX
  5
F01
  8
LAYER_1
 62
   250
 10
53.3685
 20
135.3069
 30
0.0
  0
VERTEX
  5
F02
  8
LAYER_1
 62
   250
 10
53.6232
 20
135.4456
 30
0.0
  0
VERTEX
  5
F03
  8
LAYER_1
 62
   250
 10
53.9044
 20
135.5334
 30
0.0
  0
VERTEX
  5
F04
  8
LAYER_1
 62
   250
 10
54.2057
 20
135.564
 30
0.0
  0
VERTEX
  5
F05
  8
LAYER_1
 62
   250
 10
60.2056
 20
135.564
 30
0.0
  0
VERTEX
  5
F06
  8
LAYER_1
 62
   250
 10
60.507
 20
135.5334
 30
0.0
  0
VERTEX
  5
F07
  8
LAYER_1
 62
   250
 10
60.7881
 20
135.4456
 30
0.0
  0
VERTEX
  5
F08
  8
LAYER_1
 62
   250
 10
61.0428
 20
135.3069
 30
0.0
  0
VERTEX
  5
F09
  8
LAYER_1
 62
   250
 10
61.2651
 20
135.1234
 30
0.0
  0
VERTEX
  5
F0A
  8
LAYER_1
 62
   250
 10
61.4486
 20
134.9012
 30
0.0
  0
VERTEX
  5
F0B
  8
LAYER_1
 62
   250
 10
61.5873
 20
134.6464
 30
0.0
  0
VERTEX
  5
F0C
  8
LAYER_1
 62
   250
 10
61.6751
 20
134.3653
 30
0.0
  0
VERTEX
  5
F0D
  8
LAYER_1
 62
   250
 10
61.7057
 20
134.064
 30
0.0
  0
VERTEX
  5
F0E
  8
LAYER_1
 62
   250
 10
61.7057
 20
134.064
 30
0.0
  0
VERTEX
  5
F0F
  8
LAYER_1
 62
   250
 10
61.6751
 20
133.7627
 30
0.0
  0
VERTEX
  5
F10
  8
LAYER_1
 62
   250
 10
61.5873
 20
133.4816
 30
0.0
  0
VERTEX
  5
F11
  8
LAYER_1
 62
   250
 10
61.4486
 20
133.2268
 30
0.0
  0
VERTEX
  5
F12
  8
LAYER_1
 62
   250
 10
61.2651
 20
133.0046
 30
0.0
  0
VERTEX
  5
F13
  8
LAYER_1
 62
   250
 10
61.0428
 20
132.8211
 30
0.0
  0
VERTEX
  5
F14
  8
LAYER_1
 62
   250
 10
60.7881
 20
132.6824
 30
0.0
  0
VERTEX
  5
F15
  8
LAYER_1
 62
   250
 10
60.507
 20
132.5946
 30
0.0
  0
VERTEX
  5
F16
  8
LAYER_1
 62
   250
 10
60.2056
 20
132.564
 30
0.0
  0
VERTEX
  5
F17
  8
LAYER_1
 62
   250
 10
54.2057
 20
132.564
 30
0.0
  0
VERTEX
  5
F18
  8
LAYER_1
 62
   250
 10
53.9044
 20
132.5946
 30
0.0
  0
VERTEX
  5
F19
  8
LAYER_1
 62
   250
 10
53.6232
 20
132.6824
 30
0.0
  0
VERTEX
  5
F1A
  8
LAYER_1
 62
   250
 10
53.3685
 20
132.8211
 30
0.0
  0
VERTEX
  5
F1B
  8
LAYER_1
 62
   250
 10
53.1463
 20
133.0046
 30
0.0
  0
VERTEX
  5
F1C
  8
LAYER_1
 62
   250
 10
52.9628
 20
133.2268
 30
0.0
  0
VERTEX
  5
F1D
  8
LAYER_1
 62
   250
 10
52.824
 20
133.4816
 30
0.0
  0
VERTEX
  5
F1E
  8
LAYER_1
 62
   250
 10
52.7363
 20
133.7627
 30
0.0
  0
VERTEX
  5
F1F
  8
LAYER_1
 62
   250
 10
52.7057
 20
134.064
 30
0.0
  0
SEQEND
  5
F20
  8
LAYER_1
 62
   250
  0
ENDSEC
  0
EOF
