  0
SECTION
  2
HEADER
  9
$ACADVER
  1
AC1021
  9
$ACADMAINTVER
 70
    25
  9
$DWGCODEPAGE
  3
ANSI_936
  9
$INSBASE
 10
0.0
 20
0.0
 30
0.0
  9
$EXTMIN
 10
-101.8156
 20
-2.5988
 30
0.0
  9
$EXTMAX
 10
35.9209
 20
147.0727
 30
0.0
  9
$LIMMIN
 10
0.0
 20
0.0
  9
$LIMMAX
 10
12.0
 20
9.0
  9
$ORTHOMODE
 70
     0
  9
$REGENMODE
 70
     1
  9
$FILLMODE
 70
     1
  9
$QTEXTMODE
 70
     0
  9
$MIRRTEXT
 70
     1
  9
$LTSCALE
 40
1.0
  9
$ATTMODE
 70
     1
  9
$TEXTSIZE
 40
0.2
  9
$TRACEWID
 40
0.05
  9
$TEXTSTYLE
  7
Standard
  9
$CLAYER
  8
0
  9
$CELTYPE
  6
ByLayer
  9
$CECOLOR
 62
   256
  9
$CELTSCALE
 40
1.0
  9
$DISPSILH
 70
     0
  9
$DIMSCALE
 40
1.0
  9
$DIMASZ
 40
0.18
  9
$DIMEXO
 40
0.0625
  9
$DIMDLI
 40
0.38
  9
$DIMRND
 40
0.0
  9
$DIMDLE
 40
0.0
  9
$DIMEXE
 40
0.18
  9
$DIMTP
 40
0.0
  9
$DIMTM
 40
0.0
  9
$DIMTXT
 40
0.18
  9
$DIMCEN
 40
0.09
  9
$DIMTSZ
 40
0.0
  9
$DIMTOL
 70
     0
  9
$DIMLIM
 70
     0
  9
$DIMTIH
 70
     1
  9
$DIMTOH
 70
     1
  9
$DIMSE1
 70
     0
  9
$DIMSE2
 70
     0
  9
$DIMTAD
 70
     0
  9
$DIMZIN
 70
     0
  9
$DIMBLK
  1

  9
$DIMASO
 70
     1
  9
$DIMSHO
 70
     1
  9
$DIMPOST
  1

  9
$DIMAPOST
  1

  9
$DIMALT
 70
     0
  9
$DIMALTD
 70
     2
  9
$DIMALTF
 40
25.4
  9
$DIMLFAC
 40
1.0
  9
$DIMTOFL
 70
     0
  9
$DIMTVP
 40
0.0
  9
$DIMTIX
 70
     0
  9
$DIMSOXD
 70
     0
  9
$DIMSAH
 70
     0
  9
$DIMBLK1
  1

  9
$DIMBLK2
  1

  9
$DIMSTYLE
  2
Standard
  9
$DIMCLRD
 70
     0
  9
$DIMCLRE
 70
     0
  9
$DIMCLRT
 70
     0
  9
$DIMTFAC
 40
1.0
  9
$DIMGAP
 40
0.09
  9
$DIMJUST
 70
     0
  9
$DIMSD1
 70
     0
  9
$DIMSD2
 70
     0
  9
$DIMTOLJ
 70
     1
  9
$DIMTZIN
 70
     0
  9
$DIMALTZ
 70
     0
  9
$DIMALTTZ
 70
     0
  9
$DIMUPT
 70
     0
  9
$DIMDEC
 70
     4
  9
$DIMTDEC
 70
     4
  9
$DIMALTU
 70
     2
  9
$DIMALTTD
 70
     2
  9
$DIMTXSTY
  7
Standard
  9
$DIMAUNIT
 70
     0
  9
$DIMADEC
 70
     0
  9
$DIMALTRND
 40
0.0
  9
$DIMAZIN
 70
     0
  9
$DIMDSEP
 70
    46
  9
$DIMATFIT
 70
     3
  9
$DIMFRAC
 70
     0
  9
$DIMLDRBLK
  1

  9
$DIMLUNIT
 70
     2
  9
$DIMLWD
 70
    -2
  9
$DIMLWE
 70
    -2
  9
$DIMTMOVE
 70
     0
  9
$DIMFXL
 40
1.0
  9
$DIMFXLON
 70
     0
  9
$DIMJOGANG
 40
0.7853981633974483
  9
$DIMTFILL
 70
     0
  9
$DIMTFILLCLR
 70
     0
  9
$DIMARCSYM
 70
     0
  9
$DIMLTYPE
  6

  9
$DIMLTEX1
  6

  9
$DIMLTEX2
  6

  9
$LUNITS
 70
     2
  9
$LUPREC
 70
     4
  9
$SKETCHINC
 40
0.1
  9
$FILLETRAD
 40
0.5
  9
$AUNITS
 70
     0
  9
$AUPREC
 70
     0
  9
$MENU
  1
.
  9
$ELEVATION
 40
0.0
  9
$PELEVATION
 40
0.0
  9
$THICKNESS
 40
0.0
  9
$LIMCHECK
 70
     0
  9
$CHAMFERA
 40
0.5
  9
$CHAMFERB
 40
0.5
  9
$CHAMFERC
 40
1.0
  9
$CHAMFERD
 40
0.0
  9
$SKPOLY
 70
     0
  9
$TDCREATE
 40
2457537.655174966
  9
$TDUCREATE
 40
2457537.321841632
  9
$TDUPDATE
 40
2457537.655174977
  9
$TDUUPDATE
 40
2457537.321841644
  9
$TDINDWG
 40
0.0000000116
  9
$TDUSRTIMER
 40
0.0000000116
  9
$USRTIMER
 70
     1
  9
$ANGBASE
 50
0.0
  9
$ANGDIR
 70
     0
  9
$PDMODE
 70
     0
  9
$PDSIZE
 40
0.0
  9
$PLINEWID
 40
0.0
  9
$SPLFRAME
 70
     0
  9
$SPLINETYPE
 70
     6
  9
$SPLINESEGS
 70
     8
  9
$HANDSEED
  5
217
  9
$SURFTAB1
 70
     6
  9
$SURFTAB2
 70
     6
  9
$SURFTYPE
 70
     6
  9
$SURFU
 70
     6
  9
$SURFV
 70
     6
  9
$UCSBASE
  2

  9
$UCSNAME
  2

  9
$UCSORG
 10
0.0
 20
0.0
 30
0.0
  9
$UCSXDIR
 10
1.0
 20
0.0
 30
0.0
  9
$UCSYDIR
 10
0.0
 20
1.0
 30
0.0
  9
$UCSORTHOREF
  2

  9
$UCSORTHOVIEW
 70
     0
  9
$UCSORGTOP
 10
0.0
 20
0.0
 30
0.0
  9
$UCSORGBOTTOM
 10
0.0
 20
0.0
 30
0.0
  9
$UCSORGLEFT
 10
0.0
 20
0.0
 30
0.0
  9
$UCSORGRIGHT
 10
0.0
 20
0.0
 30
0.0
  9
$UCSORGFRONT
 10
0.0
 20
0.0
 30
0.0
  9
$UCSORGBACK
 10
0.0
 20
0.0
 30
0.0
  9
$PUCSBASE
  2

  9
$PUCSNAME
  2

  9
$PUCSORG
 10
0.0
 20
0.0
 30
0.0
  9
$PUCSXDIR
 10
1.0
 20
0.0
 30
0.0
  9
$PUCSYDIR
 10
0.0
 20
1.0
 30
0.0
  9
$PUCSORTHOREF
  2

  9
$PUCSORTHOVIEW
 70
     0
  9
$PUCSORGTOP
 10
0.0
 20
0.0
 30
0.0
  9
$PUCSORGBOTTOM
 10
0.0
 20
0.0
 30
0.0
  9
$PUCSORGLEFT
 10
0.0
 20
0.0
 30
0.0
  9
$PUCSORGRIGHT
 10
0.0
 20
0.0
 30
0.0
  9
$PUCSORGFRONT
 10
0.0
 20
0.0
 30
0.0
  9
$PUCSORGBACK
 10
0.0
 20
0.0
 30
0.0
  9
$USERI1
 70
     0
  9
$USERI2
 70
     0
  9
$USERI3
 70
     0
  9
$USERI4
 70
     0
  9
$USERI5
 70
     0
  9
$USERR1
 40
0.0
  9
$USERR2
 40
0.0
  9
$USERR3
 40
0.0
  9
$USERR4
 40
0.0
  9
$USERR5
 40
0.0
  9
$WORLDVIEW
 70
     1
  9
$SHADEDGE
 70
     3
  9
$SHADEDIF
 70
    70
  9
$TILEMODE
 70
     1
  9
$MAXACTVP
 70
    64
  9
$PINSBASE
 10
0.0
 20
0.0
 30
0.0
  9
$PLIMCHECK
 70
     0
  9
$PEXTMIN
 10
1.000000000000000E+20
 20
1.000000000000000E+20
 30
1.000000000000000E+20
  9
$PEXTMAX
 10
-1.000000000000000E+20
 20
-1.000000000000000E+20
 30
-1.000000000000000E+20
  9
$PLIMMIN
 10
0.0
 20
0.0
  9
$PLIMMAX
 10
12.0
 20
9.0
  9
$UNITMODE
 70
     0
  9
$VISRETAIN
 70
     1
  9
$PLINEGEN
 70
     0
  9
$PSLTSCALE
 70
     1
  9
$TREEDEPTH
 70
  3020
  9
$CMLSTYLE
  2
Standard
  9
$CMLJUST
 70
     0
  9
$CMLSCALE
 40
1.0
  9
$PROXYGRAPHICS
 70
     1
  9
$MEASUREMENT
 70
     0
  9
$CELWEIGHT
370
    -1
  9
$ENDCAPS
280
     0
  9
$JOINSTYLE
280
     0
  9
$LWDISPLAY
290
     0
  9
$INSUNITS
 70
     4
  9
$HYPERLINKBASE
  1

  9
$STYLESHEET
  1

  9
$XEDIT
290
     1
  9
$CEPSNTYPE
380
     0
  9
$PSTYLEMODE
290
     1
  9
$FINGERPRINTGUID
  2
{32615CD3-C9BC-4FEF-86B9-1417B50276F6}
  9
$VERSIONGUID
  2
{FAEB1C32-E019-11D5-929B-00C0DF256EC4}
  9
$EXTNAMES
290
     1
  9
$PSVPSCALE
 40
0.0
  9
$OLESTARTUP
290
     0
  9
$SORTENTS
280
   127
  9
$INDEXCTL
280
     0
  9
$HIDETEXT
280
     1
  9
$XCLIPFRAME
290
     0
  9
$HALOGAP
280
     0
  9
$OBSCOLOR
 70
   257
  9
$OBSLTYPE
280
     0
  9
$INTERSECTIONDISPLAY
280
     0
  9
$INTERSECTIONCOLOR
 70
   257
  9
$DIMASSOC
280
     2
  9
$PROJECTNAME
  1

  9
$CAMERADISPLAY
290
     0
  9
$LENSLENGTH
 40
50.0
  9
$CAMERAHEIGHT
 40
0.0
  9
$STEPSPERSEC
 40
2.0
  9
$STEPSIZE
 40
6.0
  9
$3DDWFPREC
 40
2.0
  9
$PSOLWIDTH
 40
0.25
  9
$PSOLHEIGHT
 40
4.0
  9
$LOFTANG1
 40
1.570796326794897
  9
$LOFTANG2
 40
1.570796326794897
  9
$LOFTMAG1
 40
0.0
  9
$LOFTMAG2
 40
0.0
  9
$LOFTPARAM
 70
     7
  9
$LOFTNORMALS
280
     1
  9
$LATITUDE
 40
37.795
  9
$LONGITUDE
 40
-122.394
  9
$NORTHDIRECTION
 40
0.0
  9
$TIMEZONE
 70
 -8000
  9
$LIGHTGLYPHDISPLAY
280
     1
  9
$TILEMODELIGHTSYNCH
280
     1
  9
$SOLIDHIST
280
     1
  9
$SHOWHIST
280
     1
  9
$DWFFRAME
280
     2
  9
$DGNFRAME
280
     2
  9
$REALWORLDSCALE
290
     1
  9
$INTERFERECOLOR
 62
   256
  9
$CSHADOW
280
     0
  9
$SHADOWPLANELOCATION
 40
0.0
  0
ENDSEC
  0
SECTION
  2
CLASSES
  0
CLASS
  1
ACDBDICTIONARYWDFLT
  2
AcDbDictionaryWithDefault
  3
ObjectDBX Classes
 90
        0
 91
        3
280
     0
281
     0
  0
CLASS
  1
VISUALSTYLE
  2
AcDbVisualStyle
  3
ObjectDBX Classes
 90
     4095
 91
        3
280
     0
281
     0
  0
CLASS
  1
SCALE
  2
AcDbScale
  3
ObjectDBX Classes
 90
     1153
 91
        3
280
     0
281
     0
  0
ENDSEC
  0
SECTION
  2
TABLES
  0
TABLE
  2
VPORT
  5
8
330
0
100
AcDbSymbolTable
 70
     1
  0
VPORT
  5
29
330
8
100
AcDbSymbolTableRecord
100
AcDbViewportTableRecord
  2
*Active
 70
     0
 10
0.0
 20
0.0
 11
1.0
 21
1.0
 12
10.42990654205607
 22
4.5
 13
0.0
 23
0.0
 14
0.5
 24
0.5
 15
0.5
 25
0.5
 16
0.0
 26
0.0
 36
1.0
 17
0.0
 27
0.0
 37
0.0
 40
9.0
 41
1.972972972850329
 42
50.0
 43
0.0
 44
0.0
 50
0.0
 51
0.0
 71
     0
 72
   100
 73
     1
 74
     3
 75
     0
 76
     0
 77
     0
 78
     0
281
     0
 65
     1
110
0.0
120
0.0
130
0.0
111
1.0
121
0.0
131
0.0
112
0.0
122
1.0
132
0.0
 79
     0
146
0.0
 60
     3
 61
     5
292
     1
282
     1
141
0.0
142
0.0
 63
   256
  0
ENDTAB
  0
TABLE
  2
LTYPE
  5
5
330
0
100
AcDbSymbolTable
 70
     1
  0
LTYPE
  5
14
330
5
100
AcDbSymbolTableRecord
100
AcDbLinetypeTableRecord
  2
ByBlock
 70
     0
  3

 72
    65
 73
     0
 40
0.0
  0
LTYPE
  5
15
330
5
100
AcDbSymbolTableRecord
100
AcDbLinetypeTableRecord
  2
ByLayer
 70
     0
  3

 72
    65
 73
     0
 40
0.0
  0
LTYPE
  5
16
330
5
100
AcDbSymbolTableRecord
100
AcDbLinetypeTableRecord
  2
Continuous
 70
     0
  3
Solid line
 72
    65
 73
     0
 40
0.0
  0
ENDTAB
  0
TABLE
  2
LAYER
  5
2
330
0
100
AcDbSymbolTable
 70
     2
  0
LAYER
  5
10
330
2
100
AcDbSymbolTableRecord
100
AcDbLayerTableRecord
  2
0
 70
     0
 62
     7
  6
Continuous
370
    -3
390
F
347
0
  0
LAYER
  5
5E
330
2
100
AcDbSymbolTableRecord
100
AcDbLayerTableRecord
  2
layer 1
 70
     0
 62
     7
  6
Continuous
370
    -3
390
F
347
0
  0
ENDTAB
  0
TABLE
  2
STYLE
  5
3
330
0
100
AcDbSymbolTable
 70
     1
  0
STYLE
  5
11
330
3
100
AcDbSymbolTableRecord
100
AcDbTextStyleTableRecord
  2
Standard
 70
     0
 40
0.0
 41
1.0
 50
0.0
 71
     0
 42
0.2
  3
txt
  4

  0
ENDTAB
  0
TABLE
  2
VIEW
  5
6
330
0
100
AcDbSymbolTable
 70
     0
  0
ENDTAB
  0
TABLE
  2
UCS
  5
7
330
0
100
AcDbSymbolTable
 70
     0
  0
ENDTAB
  0
TABLE
  2
APPID
  5
9
330
0
100
AcDbSymbolTable
 70
     2
  0
APPID
  5
12
330
9
100
AcDbSymbolTableRecord
100
AcDbRegAppTableRecord
  2
ACAD
 70
     0
  0
APPID
  5
5D
330
9
100
AcDbSymbolTableRecord
100
AcDbRegAppTableRecord
  2
ODA
 70
     0
  0
ENDTAB
  0
TABLE
  2
DIMSTYLE
  5
A
330
0
100
AcDbSymbolTable
 70
     1
100
AcDbDimStyleTable
  0
DIMSTYLE
105
27
330
A
100
AcDbSymbolTableRecord
100
AcDbDimStyleTableRecord
  2
Standard
 70
     0
340
11
  0
ENDTAB
  0
TABLE
  2
BLOCK_RECORD
  5
1
330
0
100
AcDbSymbolTable
 70
     1
  0
BLOCK_RECORD
  5
1F
330
1
100
AcDbSymbolTableRecord
100
AcDbBlockTableRecord
  2
*Model_Space
340
22
 70
     0
280
     1
281
     0
  0
BLOCK_RECORD
  5
1B
330
1
100
AcDbSymbolTableRecord
100
AcDbBlockTableRecord
  2
*Paper_Space
340
1E
 70
     0
280
     1
281
     0
  0
BLOCK_RECORD
  5
23
330
1
100
AcDbSymbolTableRecord
100
AcDbBlockTableRecord
  2
*Paper_Space0
340
26
 70
     0
280
     1
281
     0
  0
ENDTAB
  0
ENDSEC
  0
SECTION
  2
BLOCKS
  0
BLOCK
  5
20
330
1F
100
AcDbEntity
  8
0
100
AcDbBlockBegin
  2
*Model_Space
 70
     0
 10
0.0
 20
0.0
 30
0.0
  3
*Model_Space
  1

  0
ENDBLK
  5
21
330
1F
100
AcDbEntity
  8
0
100
AcDbBlockEnd
  0
BLOCK
  5
1C
330
1B
100
AcDbEntity
 67
     1
  8
0
100
AcDbBlockBegin
  2
*Paper_Space
 70
     0
 10
0.0
 20
0.0
 30
0.0
  3
*Paper_Space
  1

  0
ENDBLK
  5
1D
330
1B
100
AcDbEntity
 67
     1
  8
0
100
AcDbBlockEnd
  0
BLOCK
  5
24
330
23
100
AcDbEntity
  8
0
100
AcDbBlockBegin
  2
*Paper_Space0
 70
     0
 10
0.0
 20
0.0
 30
0.0
  3
*Paper_Space0
  1

  0
ENDBLK
  5
25
330
23
100
AcDbEntity
  8
0
100
AcDbBlockEnd
  0
ENDSEC
  0
SECTION
  2
ENTITIES
  0
SPLINE
  5
5F
330
1F
100
AcDbEntity
  8
layer 1
370
     9
100
AcDbSpline
210
0.0
220
0.0
230
1.0
 70
    27
 71
     3
 72
     8
 73
     4
 74
     0
 42
0.0000000001
 43
0.0000000001
 40
0.0
 40
0.0
 40
0.0
 40
0.0
 40
1.0
 40
1.0
 40
1.0
 40
1.0
 10
0.437
 20
140.8314
 30
0.0
 10
0.437
 20
140.8314
 30
0.0
 10
0.437
 20
140.8314
 30
0.0
 10
0.437
 20
140.8314
 30
0.0
  0
SPLINE
  5
60
330
1F
100
AcDbEntity
  8
layer 1
370
     9
100
AcDbSpline
210
0.0
220
0.0
230
1.0
 70
    24
 71
     3
 72
     8
 73
     4
 74
     0
 42
0.0000000001
 43
0.0000000001
 40
0.0
 40
0.0
 40
0.0
 40
0.0
 40
1.0
 40
1.0
 40
1.0
 40
1.0
 10
-1.5631
 20
140.8314
 30
0.0
 10
-1.5631
 20
140.8314
 30
0.0
 10
0.437
 20
140.8314
 30
0.0
 10
0.437
 20
140.8314
 30
0.0
  0
SPLINE
  5
61
330
1F
100
AcDbEntity
  8
layer 1
370
     9
100
AcDbSpline
210
0.0
220
0.0
230
1.0
 70
    27
 71
     3
 72
     8
 73
     4
 74
     0
 42
0.0000000001
 43
0.0000000001
 40
0.0
 40
0.0
 40
0.0
 40
0.0
 40
1.0
 40
1.0
 40
1.0
 40
1.0
 10
0.437
 20
140.8314
 30
0.0
 10
0.437
 20
140.8314
 30
0.0
 10
0.437
 20
140.8314
 30
0.0
 10
0.437
 20
140.8314
 30
0.0
  0
SPLINE
  5
62
330
1F
100
AcDbEntity
  8
layer 1
370
     9
100
AcDbSpline
210
0.0
220
0.0
230
1.0
 70
    24
 71
     3
 72
     8
 73
     4
 74
     0
 42
0.0000000001
 43
0.0000000001
 40
0.0
 40
0.0
 40
0.0
 40
0.0
 40
1.0
 40
1.0
 40
1.0
 40
1.0
 10
0.437
 20
145.8136
 30
0.0
 10
0.437
 20
145.8136
 30
0.0
 10
0.437
 20
140.8314
 30
0.0
 10
0.437
 20
140.8314
 30
0.0
  0
SPLINE
  5
63
330
1F
100
AcDbEntity
  8
layer 1
370
     9
100
AcDbSpline
210
0.0
220
0.0
230
1.0
 70
    27
 71
     3
 72
     8
 73
     4
 74
     0
 42
0.0000000001
 43
0.0000000001
 40
0.0
 40
0.0
 40
0.0
 40
0.0
 40
1.0
 40
1.0
 40
1.0
 40
1.0
 10
13.137
 20
140.8314
 30
0.0
 10
13.137
 20
140.8314
 30
0.0
 10
13.137
 20
140.8314
 30
0.0
 10
13.137
 20
140.8314
 30
0.0
  0
SPLINE
  5
64
330
1F
100
AcDbEntity
  8
layer 1
370
     9
100
AcDbSpline
210
0.0
220
0.0
230
1.0
 70
    24
 71
     3
 72
     8
 73
     4
 74
     0
 42
0.0000000001
 43
0.0000000001
 40
0.0
 40
0.0
 40
0.0
 40
0.0
 40
1.0
 40
1.0
 40
1.0
 40
1.0
 10
13.137
 20
140.8314
 30
0.0
 10
13.137
 20
140.8314
 30
0.0
 10
13.137
 20
145.8136
 30
0.0
 10
13.137
 20
145.8136
 30
0.0
  0
SPLINE
  5
65
330
1F
100
AcDbEntity
  8
layer 1
370
     9
100
AcDbSpline
210
0.0
220
0.0
230
1.0
 70
    27
 71
     3
 72
     8
 73
     4
 74
     0
 42
0.0000000001
 43
0.0000000001
 40
0.0
 40
0.0
 40
0.0
 40
0.0
 40
1.0
 40
1.0
 40
1.0
 40
1.0
 10
15.137
 20
140.8314
 30
0.0
 10
15.137
 20
140.8314
 30
0.0
 10
15.137
 20
140.8314
 30
0.0
 10
15.137
 20
140.8314
 30
0.0
  0
SPLINE
  5
66
330
1F
100
AcDbEntity
  8
layer 1
370
     9
100
AcDbSpline
210
0.0
220
0.0
230
1.0
 70
    24
 71
     3
 72
     8
 73
     4
 74
     0
 42
0.0000000001
 43
0.0000000001
 40
0.0
 40
0.0
 40
0.0
 40
0.0
 40
1.0
 40
1.0
 40
1.0
 40
1.0
 10
13.137
 20
140.8314
 30
0.0
 10
13.137
 20
140.8314
 30
0.0
 10
15.137
 20
140.8314
 30
0.0
 10
15.137
 20
140.8314
 30
0.0
  0
SPLINE
  5
67
330
1F
100
AcDbEntity
  8
layer 1
370
     9
100
AcDbSpline
210
0.0
220
0.0
230
1.0
 70
    27
 71
     3
 72
     8
 73
     4
 74
     0
 42
0.0000000001
 43
0.0000000001
 40
0.0
 40
0.0
 40
0.0
 40
0.0
 40
1.0
 40
1.0
 40
1.0
 40
1.0
 10
16.137
 20
136.8136
 30
0.0
 10
16.137
 20
136.8136
 30
0.0
 10
16.137
 20
136.8136
 30
0.0
 10
16.137
 20
136.8136
 30
0.0
  0
SPLINE
  5
68
330
1F
100
AcDbEntity
  8
layer 1
370
     9
100
AcDbSpline
210
0.0
220
0.0
230
1.0
 70
    24
 71
     3
 72
     8
 73
     4
 74
     0
 42
0.0000000001
 43
0.0000000001
 40
0.0
 40
0.0
 40
0.0
 40
0.0
 40
1.0
 40
1.0
 40
1.0
 40
1.0
 10
16.137
 20
139.8314
 30
0.0
 10
16.137
 20
139.8314
 30
0.0
 10
16.137
 20
136.8136
 30
0.0
 10
16.137
 20
136.8136
 30
0.0
  0
SPLINE
  5
69
330
1F
100
AcDbEntity
  8
layer 1
370
     9
100
AcDbSpline
210
0.0
220
0.0
230
1.0
 70
    27
 71
     3
 72
     8
 73
     4
 74
     0
 42
0.0000000001
 43
0.0000000001
 40
0.0
 40
0.0
 40
0.0
 40
0.0
 40
1.0
 40
1.0
 40
1.0
 40
1.0
 10
15.137
 20
135.8136
 30
0.0
 10
15.137
 20
135.8136
 30
0.0
 10
15.137
 20
135.8136
 30
0.0
 10
15.137
 20
135.8136
 30
0.0
  0
SPLINE
  5
6A
330
1F
100
AcDbEntity
  8
layer 1
370
     9
100
AcDbSpline
210
0.0
220
0.0
230
1.0
 70
    24
 71
     3
 72
     8
 73
     4
 74
     0
 42
0.0000000001
 43
0.0000000001
 40
0.0
 40
0.0
 40
0.0
 40
0.0
 40
1.0
 40
1.0
 40
1.0
 40
1.0
 10
15.137
 20
135.8136
 30
0.0
 10
15.137
 20
135.8136
 30
0.0
 10
13.137
 20
135.8136
 30
0.0
 10
13.137
 20
135.8136
 30
0.0
  0
SPLINE
  5
6B
330
1F
100
AcDbEntity
  8
layer 1
370
     9
100
AcDbSpline
210
0.0
220
0.0
230
1.0
 70
    27
 71
     3
 72
     8
 73
     4
 74
     0
 42
0.0000000001
 43
0.0000000001
 40
0.0
 40
0.0
 40
0.0
 40
0.0
 40
1.0
 40
1.0
 40
1.0
 40
1.0
 10
13.137
 20
66.4536
 30
0.0
 10
13.137
 20
66.4536
 30
0.0
 10
13.137
 20
66.4536
 30
0.0
 10
13.137
 20
66.4536
 30
0.0
  0
SPLINE
  5
6C
330
1F
100
AcDbEntity
  8
layer 1
370
     9
100
AcDbSpline
210
0.0
220
0.0
230
1.0
 70
    24
 71
     3
 72
     8
 73
     4
 74
     0
 42
0.0000000001
 43
0.0000000001
 40
0.0
 40
0.0
 40
0.0
 40
0.0
 40
1.0
 40
1.0
 40
1.0
 40
1.0
 10
13.137
 20
135.8136
 30
0.0
 10
13.137
 20
135.8136
 30
0.0
 10
13.137
 20
66.4536
 30
0.0
 10
13.137
 20
66.4536
 30
0.0
  0
SPLINE
  5
6D
330
1F
100
AcDbEntity
  8
layer 1
370
     9
100
AcDbSpline
210
0.0
220
0.0
230
1.0
 70
    27
 71
     3
 72
     8
 73
     4
 74
     0
 42
0.0000000001
 43
0.0000000001
 40
0.0
 40
0.0
 40
0.0
 40
0.0
 40
1.0
 40
1.0
 40
1.0
 40
1.0
 10
15.137
 20
66.4536
 30
0.0
 10
15.137
 20
66.4536
 30
0.0
 10
15.137
 20
66.4536
 30
0.0
 10
15.137
 20
66.4536
 30
0.0
  0
SPLINE
  5
6E
330
1F
100
AcDbEntity
  8
layer 1
370
     9
100
AcDbSpline
210
0.0
220
0.0
230
1.0
 70
    24
 71
     3
 72
     8
 73
     4
 74
     0
 42
0.0000000001
 43
0.0000000001
 40
0.0
 40
0.0
 40
0.0
 40
0.0
 40
1.0
 40
1.0
 40
1.0
 40
1.0
 10
13.137
 20
66.4536
 30
0.0
 10
13.137
 20
66.4536
 30
0.0
 10
15.137
 20
66.4536
 30
0.0
 10
15.137
 20
66.4536
 30
0.0
  0
SPLINE
  5
6F
330
1F
100
AcDbEntity
  8
layer 1
370
     9
100
AcDbSpline
210
0.0
220
0.0
230
1.0
 70
    27
 71
     3
 72
     8
 73
     4
 74
     0
 42
0.0000000001
 43
0.0000000001
 40
0.0
 40
0.0
 40
0.0
 40
0.0
 40
1.0
 40
1.0
 40
1.0
 40
1.0
 10
16.137
 20
62.4536
 30
0.0
 10
16.137
 20
62.4536
 30
0.0
 10
16.137
 20
62.4536
 30
0.0
 10
16.137
 20
62.4536
 30
0.0
  0
SPLINE
  5
70
330
1F
100
AcDbEntity
  8
layer 1
370
     9
100
AcDbSpline
210
0.0
220
0.0
230
1.0
 70
    24
 71
     3
 72
     8
 73
     4
 74
     0
 42
0.0000000001
 43
0.0000000001
 40
0.0
 40
0.0
 40
0.0
 40
0.0
 40
1.0
 40
1.0
 40
1.0
 40
1.0
 10
16.137
 20
65.4536
 30
0.0
 10
16.137
 20
65.4536
 30
0.0
 10
16.137
 20
62.4536
 30
0.0
 10
16.137
 20
62.4536
 30
0.0
  0
SPLINE
  5
71
330
1F
100
AcDbEntity
  8
layer 1
370
     9
100
AcDbSpline
210
0.0
220
0.0
230
1.0
 70
    27
 71
     3
 72
     8
 73
     4
 74
     0
 42
0.0000000001
 43
0.0000000001
 40
0.0
 40
0.0
 40
0.0
 40
0.0
 40
1.0
 40
1.0
 40
1.0
 40
1.0
 10
15.137
 20
61.4536
 30
0.0
 10
15.137
 20
61.4536
 30
0.0
 10
15.137
 20
61.4536
 30
0.0
 10
15.137
 20
61.4536
 30
0.0
  0
SPLINE
  5
72
330
1F
100
AcDbEntity
  8
layer 1
370
     9
100
AcDbSpline
210
0.0
220
0.0
230
1.0
 70
    24
 71
     3
 72
     8
 73
     4
 74
     0
 42
0.0000000001
 43
0.0000000001
 40
0.0
 40
0.0
 40
0.0
 40
0.0
 40
1.0
 40
1.0
 40
1.0
 40
1.0
 10
15.137
 20
61.4536
 30
0.0
 10
15.137
 20
61.4536
 30
0.0
 10
13.137
 20
61.4536
 30
0.0
 10
13.137
 20
61.4536
 30
0.0
  0
SPLINE
  5
73
330
1F
100
AcDbEntity
  8
layer 1
370
     9
100
AcDbSpline
210
0.0
220
0.0
230
1.0
 70
    27
 71
     3
 72
     8
 73
     4
 74
     0
 42
0.0000000001
 43
0.0000000001
 40
0.0
 40
0.0
 40
0.0
 40
0.0
 40
1.0
 40
1.0
 40
1.0
 40
1.0
 10
13.137
 20
59.4536
 30
0.0
 10
13.137
 20
59.4536
 30
0.0
 10
13.137
 20
59.4536
 30
0.0
 10
13.137
 20
59.4536
 30
0.0
  0
SPLINE
  5
74
330
1F
100
AcDbEntity
  8
layer 1
370
     9
100
AcDbSpline
210
0.0
220
0.0
230
1.0
 70
    24
 71
     3
 72
     8
 73
     4
 74
     0
 42
0.0000000001
 43
0.0000000001
 40
0.0
 40
0.0
 40
0.0
 40
0.0
 40
1.0
 40
1.0
 40
1.0
 40
1.0
 10
13.137
 20
59.4536
 30
0.0
 10
13.137
 20
59.4536
 30
0.0
 10
13.137
 20
61.4536
 30
0.0
 10
13.137
 20
61.4536
 30
0.0
  0
SPLINE
  5
75
330
1F
100
AcDbEntity
  8
layer 1
370
     9
100
AcDbSpline
210
0.0
220
0.0
230
1.0
 70
    27
 71
     3
 72
     8
 73
     4
 74
     0
 42
0.0000000001
 43
0.0000000001
 40
0.0
 40
0.0
 40
0.0
 40
0.0
 40
1.0
 40
1.0
 40
1.0
 40
1.0
 10
13.137
 20
59.4536
 30
0.0
 10
13.137
 20
59.4536
 30
0.0
 10
13.137
 20
59.4536
 30
0.0
 10
13.137
 20
59.4536
 30
0.0
  0
SPLINE
  5
76
330
1F
100
AcDbEntity
  8
layer 1
370
     9
100
AcDbSpline
210
0.0
220
0.0
230
1.0
 70
    24
 71
     3
 72
     8
 73
     4
 74
     0
 42
0.0000000001
 43
0.0000000001
 40
0.0
 40
0.0
 40
0.0
 40
0.0
 40
1.0
 40
1.0
 40
1.0
 40
1.0
 10
13.137
 20
59.4536
 30
0.0
 10
13.137
 20
59.4536
 30
0.0
 10
0.437
 20
59.4536
 30
0.0
 10
0.437
 20
59.4536
 30
0.0
  0
SPLINE
  5
77
330
1F
100
AcDbEntity
  8
layer 1
370
     9
100
AcDbSpline
210
0.0
220
0.0
230
1.0
 70
    27
 71
     3
 72
     8
 73
     4
 74
     0
 42
0.0000000001
 43
0.0000000001
 40
0.0
 40
0.0
 40
0.0
 40
0.0
 40
1.0
 40
1.0
 40
1.0
 40
1.0
 10
0.437
 20
59.4536
 30
0.0
 10
0.437
 20
59.4536
 30
0.0
 10
0.437
 20
59.4536
 30
0.0
 10
0.437
 20
59.4536
 30
0.0
  0
SPLINE
  5
78
330
1F
100
AcDbEntity
  8
layer 1
370
     9
100
AcDbSpline
210
0.0
220
0.0
230
1.0
 70
    24
 71
     3
 72
     8
 73
     4
 74
     0
 42
0.0000000001
 43
0.0000000001
 40
0.0
 40
0.0
 40
0.0
 40
0.0
 40
1.0
 40
1.0
 40
1.0
 40
1.0
 10
0.437
 20
61.4536
 30
0.0
 10
0.437
 20
61.4536
 30
0.0
 10
0.437
 20
59.4536
 30
0.0
 10
0.437
 20
59.4536
 30
0.0
  0
SPLINE
  5
79
330
1F
100
AcDbEntity
  8
layer 1
370
     9
100
AcDbSpline
210
0.0
220
0.0
230
1.0
 70
    27
 71
     3
 72
     8
 73
     4
 74
     0
 42
0.0000000001
 43
0.0000000001
 40
0.0
 40
0.0
 40
0.0
 40
0.0
 40
1.0
 40
1.0
 40
1.0
 40
1.0
 10
0.437
 20
61.4536
 30
0.0
 10
0.437
 20
61.4536
 30
0.0
 10
0.437
 20
61.4536
 30
0.0
 10
0.437
 20
61.4536
 30
0.0
  0
SPLINE
  5
7A
330
1F
100
AcDbEntity
  8
layer 1
370
     9
100
AcDbSpline
210
0.0
220
0.0
230
1.0
 70
    24
 71
     3
 72
     8
 73
     4
 74
     0
 42
0.0000000001
 43
0.0000000001
 40
0.0
 40
0.0
 40
0.0
 40
0.0
 40
1.0
 40
1.0
 40
1.0
 40
1.0
 10
0.437
 20
61.4536
 30
0.0
 10
0.437
 20
61.4536
 30
0.0
 10
-1.5631
 20
61.4536
 30
0.0
 10
-1.5631
 20
61.4536
 30
0.0
  0
SPLINE
  5
7B
330
1F
100
AcDbEntity
  8
layer 1
370
     9
100
AcDbSpline
210
0.0
220
0.0
230
1.0
 70
    27
 71
     3
 72
     8
 73
     4
 74
     0
 42
0.0000000001
 43
0.0000000001
 40
0.0
 40
0.0
 40
0.0
 40
0.0
 40
1.0
 40
1.0
 40
1.0
 40
1.0
 10
-2.5631
 20
62.4536
 30
0.0
 10
-2.5631
 20
62.4536
 30
0.0
 10
-2.5631
 20
62.4536
 30
0.0
 10
-2.5631
 20
62.4536
 30
0.0
  0
SPLINE
  5
7C
330
1F
100
AcDbEntity
  8
layer 1
370
     9
100
AcDbSpline
210
0.0
220
0.0
230
1.0
 70
    24
 71
     3
 72
     8
 73
     4
 74
     0
 42
0.0000000001
 43
0.0000000001
 40
0.0
 40
0.0
 40
0.0
 40
0.0
 40
1.0
 40
1.0
 40
1.0
 40
1.0
 10
-2.5631
 20
65.4536
 30
0.0
 10
-2.5631
 20
65.4536
 30
0.0
 10
-2.5631
 20
62.4536
 30
0.0
 10
-2.5631
 20
62.4536
 30
0.0
  0
SPLINE
  5
7D
330
1F
100
AcDbEntity
  8
layer 1
370
     9
100
AcDbSpline
210
0.0
220
0.0
230
1.0
 70
    27
 71
     3
 72
     8
 73
     4
 74
     0
 42
0.0000000001
 43
0.0000000001
 40
0.0
 40
0.0
 40
0.0
 40
0.0
 40
1.0
 40
1.0
 40
1.0
 40
1.0
 10
0.437
 20
66.4536
 30
0.0
 10
0.437
 20
66.4536
 30
0.0
 10
0.437
 20
66.4536
 30
0.0
 10
0.437
 20
66.4536
 30
0.0
  0
SPLINE
  5
7E
330
1F
100
AcDbEntity
  8
layer 1
370
     9
100
AcDbSpline
210
0.0
220
0.0
230
1.0
 70
    24
 71
     3
 72
     8
 73
     4
 74
     0
 42
0.0000000001
 43
0.0000000001
 40
0.0
 40
0.0
 40
0.0
 40
0.0
 40
1.0
 40
1.0
 40
1.0
 40
1.0
 10
-1.5631
 20
66.4536
 30
0.0
 10
-1.5631
 20
66.4536
 30
0.0
 10
0.437
 20
66.4536
 30
0.0
 10
0.437
 20
66.4536
 30
0.0
  0
SPLINE
  5
7F
330
1F
100
AcDbEntity
  8
layer 1
370
     9
100
AcDbSpline
210
0.0
220
0.0
230
1.0
 70
    27
 71
     3
 72
     8
 73
     4
 74
     0
 42
0.0000000001
 43
0.0000000001
 40
0.0
 40
0.0
 40
0.0
 40
0.0
 40
1.0
 40
1.0
 40
1.0
 40
1.0
 10
0.437
 20
66.4536
 30
0.0
 10
0.437
 20
66.4536
 30
0.0
 10
0.437
 20
66.4536
 30
0.0
 10
0.437
 20
66.4536
 30
0.0
  0
SPLINE
  5
80
330
1F
100
AcDbEntity
  8
layer 1
370
     9
100
AcDbSpline
210
0.0
220
0.0
230
1.0
 70
    24
 71
     3
 72
     8
 73
     4
 74
     0
 42
0.0000000001
 43
0.0000000001
 40
0.0
 40
0.0
 40
0.0
 40
0.0
 40
1.0
 40
1.0
 40
1.0
 40
1.0
 10
0.437
 20
135.8136
 30
0.0
 10
0.437
 20
135.8136
 30
0.0
 10
0.437
 20
66.4536
 30
0.0
 10
0.437
 20
66.4536
 30
0.0
  0
SPLINE
  5
81
330
1F
100
AcDbEntity
  8
layer 1
370
     9
100
AcDbSpline
210
0.0
220
0.0
230
1.0
 70
    27
 71
     3
 72
     8
 73
     4
 74
     0
 42
0.0000000001
 43
0.0000000001
 40
0.0
 40
0.0
 40
0.0
 40
0.0
 40
1.0
 40
1.0
 40
1.0
 40
1.0
 10
0.437
 20
135.8136
 30
0.0
 10
0.437
 20
135.8136
 30
0.0
 10
0.437
 20
135.8136
 30
0.0
 10
0.437
 20
135.8136
 30
0.0
  0
SPLINE
  5
82
330
1F
100
AcDbEntity
  8
layer 1
370
     9
100
AcDbSpline
210
0.0
220
0.0
230
1.0
 70
    24
 71
     3
 72
     8
 73
     4
 74
     0
 42
0.0000000001
 43
0.0000000001
 40
0.0
 40
0.0
 40
0.0
 40
0.0
 40
1.0
 40
1.0
 40
1.0
 40
1.0
 10
0.437
 20
135.8136
 30
0.0
 10
0.437
 20
135.8136
 30
0.0
 10
-1.5631
 20
135.8136
 30
0.0
 10
-1.5631
 20
135.8136
 30
0.0
  0
SPLINE
  5
83
330
1F
100
AcDbEntity
  8
layer 1
370
     9
100
AcDbSpline
210
0.0
220
0.0
230
1.0
 70
    27
 71
     3
 72
     8
 73
     4
 74
     0
 42
0.0000000001
 43
0.0000000001
 40
0.0
 40
0.0
 40
0.0
 40
0.0
 40
1.0
 40
1.0
 40
1.0
 40
1.0
 10
-2.5631
 20
136.8136
 30
0.0
 10
-2.5631
 20
136.8136
 30
0.0
 10
-2.5631
 20
136.8136
 30
0.0
 10
-2.5631
 20
136.8136
 30
0.0
  0
SPLINE
  5
84
330
1F
100
AcDbEntity
  8
layer 1
370
     9
100
AcDbSpline
210
0.0
220
0.0
230
1.0
 70
    24
 71
     3
 72
     8
 73
     4
 74
     0
 42
0.0000000001
 43
0.0000000001
 40
0.0
 40
0.0
 40
0.0
 40
0.0
 40
1.0
 40
1.0
 40
1.0
 40
1.0
 10
-2.5631
 20
139.8314
 30
0.0
 10
-2.5631
 20
139.8314
 30
0.0
 10
-2.5631
 20
136.8136
 30
0.0
 10
-2.5631
 20
136.8136
 30
0.0
  0
SPLINE
  5
85
330
1F
100
AcDbEntity
  8
layer 1
370
     9
100
AcDbSpline
210
0.0
220
0.0
230
1.0
 70
    27
 71
     3
 72
     8
 73
     4
 74
     0
 42
0.0000000001
 43
0.0000000001
 40
0.0
 40
0.0
 40
0.0
 40
0.0
 40
1.0
 40
1.0
 40
1.0
 40
1.0
 10
13.137
 20
145.8136
 30
0.0
 10
13.137
 20
145.8136
 30
0.0
 10
13.137
 20
145.8136
 30
0.0
 10
13.137
 20
145.8136
 30
0.0
  0
SPLINE
  5
86
330
1F
100
AcDbEntity
  8
layer 1
370
     9
100
AcDbSpline
210
0.0
220
0.0
230
1.0
 70
    24
 71
     3
 72
     8
 73
     4
 74
     0
 42
0.0000000001
 43
0.0000000001
 40
0.0
 40
0.0
 40
0.0
 40
0.0
 40
1.0
 40
1.0
 40
1.0
 40
1.0
 10
13.137
 20
145.8136
 30
0.0
 10
13.137
 20
145.8136
 30
0.0
 10
0.437
 20
145.8136
 30
0.0
 10
0.437
 20
145.8136
 30
0.0
  0
SPLINE
  5
87
330
1F
100
AcDbEntity
  8
layer 1
370
     9
100
AcDbSpline
210
0.0
220
0.0
230
1.0
 70
     8
 71
     3
 72
     8
 73
     4
 74
     0
 42
0.0000000001
 43
0.0000000001
 40
0.0
 40
0.0
 40
0.0
 40
0.0
 40
1.0
 40
1.0
 40
1.0
 40
1.0
 10
15.137
 20
135.8136
 30
0.0
 10
15.6892
 20
135.8136
 30
0.0
 10
16.1369
 20
136.2613
 30
0.0
 10
16.1369
 20
136.8136
 30
0.0
  0
SPLINE
  5
88
330
1F
100
AcDbEntity
  8
layer 1
370
     9
100
AcDbSpline
210
0.0
220
0.0
230
1.0
 70
     8
 71
     3
 72
    12
 73
     8
 74
     0
 42
0.0000000001
 43
0.0000000001
 40
0.0
 40
0.0
 40
0.0
 40
0.0
 40
0.5
 40
0.5
 40
0.5
 40
0.5
 40
1.0
 40
1.0
 40
1.0
 40
1.0
 10
16.1369
 20
65.4536
 30
0.0
 10
16.1369
 20
65.7188
 30
0.0
 10
16.0316
 20
65.9732
 30
0.0
 10
15.8441
 20
66.1607
 30
0.0
 10
15.8441
 20
66.1607
 30
0.0
 10
15.6565
 20
66.3482
 30
0.0
 10
15.4022
 20
66.4536
 30
0.0
 10
15.137
 20
66.4536
 30
0.0
  0
SPLINE
  5
89
330
1F
100
AcDbEntity
  8
layer 1
370
     9
100
AcDbSpline
210
0.0
220
0.0
230
1.0
 70
     8
 71
     3
 72
     8
 73
     4
 74
     0
 42
0.0000000001
 43
0.0000000001
 40
0.0
 40
0.0
 40
0.0
 40
0.0
 40
1.0
 40
1.0
 40
1.0
 40
1.0
 10
15.137
 20
61.4536
 30
0.0
 10
15.6892
 20
61.4536
 30
0.0
 10
16.1369
 20
61.9013
 30
0.0
 10
16.1369
 20
62.4536
 30
0.0
  0
SPLINE
  5
8A
330
1F
100
AcDbEntity
  8
layer 1
370
     9
100
AcDbSpline
210
0.0
220
0.0
230
1.0
 70
     8
 71
     3
 72
    12
 73
     8
 74
     0
 42
0.0000000001
 43
0.0000000001
 40
0.0
 40
0.0
 40
0.0
 40
0.0
 40
0.5
 40
0.5
 40
0.5
 40
0.5
 40
1.0
 40
1.0
 40
1.0
 40
1.0
 10
16.1369
 20
139.8314
 30
0.0
 10
16.1369
 20
140.0966
 30
0.0
 10
16.0316
 20
140.351
 30
0.0
 10
15.8441
 20
140.5385
 30
0.0
 10
15.8441
 20
140.5385
 30
0.0
 10
15.6565
 20
140.726
 30
0.0
 10
15.4022
 20
140.8314
 30
0.0
 10
15.137
 20
140.8314
 30
0.0
  0
SPLINE
  5
8B
330
1F
100
AcDbEntity
  8
layer 1
370
     9
100
AcDbSpline
210
0.0
220
0.0
230
1.0
 70
     8
 71
     3
 72
     8
 73
     4
 74
     0
 42
0.0000000001
 43
0.0000000001
 40
0.0
 40
0.0
 40
0.0
 40
0.0
 40
1.0
 40
1.0
 40
1.0
 40
1.0
 10
-2.563
 20
136.8136
 30
0.0
 10
-2.563
 20
136.2613
 30
0.0
 10
-2.1153
 20
135.8136
 30
0.0
 10
-1.5631
 20
135.8136
 30
0.0
  0
SPLINE
  5
8C
330
1F
100
AcDbEntity
  8
layer 1
370
     9
100
AcDbSpline
210
0.0
220
0.0
230
1.0
 70
     8
 71
     3
 72
    12
 73
     8
 74
     0
 42
0.0000000001
 43
0.0000000001
 40
0.0
 40
0.0
 40
0.0
 40
0.0
 40
0.5
 40
0.5
 40
0.5
 40
0.5
 40
1.0
 40
1.0
 40
1.0
 40
1.0
 10
-1.5631
 20
66.4536
 30
0.0
 10
-1.8283
 20
66.4536
 30
0.0
 10
-2.0826
 20
66.3482
 30
0.0
 10
-2.2702
 20
66.1607
 30
0.0
 10
-2.2702
 20
66.1607
 30
0.0
 10
-2.4577
 20
65.9732
 30
0.0
 10
-2.563
 20
65.7188
 30
0.0
 10
-2.563
 20
65.4536
 30
0.0
  0
SPLINE
  5
8D
330
1F
100
AcDbEntity
  8
layer 1
370
     9
100
AcDbSpline
210
0.0
220
0.0
230
1.0
 70
     8
 71
     3
 72
     8
 73
     4
 74
     0
 42
0.0000000001
 43
0.0000000001
 40
0.0
 40
0.0
 40
0.0
 40
0.0
 40
1.0
 40
1.0
 40
1.0
 40
1.0
 10
-2.563
 20
62.4536
 30
0.0
 10
-2.563
 20
61.9013
 30
0.0
 10
-2.1153
 20
61.4536
 30
0.0
 10
-1.5631
 20
61.4536
 30
0.0
  0
SPLINE
  5
8E
330
1F
100
AcDbEntity
  8
layer 1
370
     9
100
AcDbSpline
210
0.0
220
0.0
230
1.0
 70
     8
 71
     3
 72
    12
 73
     8
 74
     0
 42
0.0000000001
 43
0.0000000001
 40
0.0
 40
0.0
 40
0.0
 40
0.0
 40
0.5
 40
0.5
 40
0.5
 40
0.5
 40
1.0
 40
1.0
 40
1.0
 40
1.0
 10
-1.5631
 20
140.8314
 30
0.0
 10
-1.8283
 20
140.8314
 30
0.0
 10
-2.0826
 20
140.726
 30
0.0
 10
-2.2702
 20
140.5385
 30
0.0
 10
-2.2702
 20
140.5385
 30
0.0
 10
-2.4577
 20
140.351
 30
0.0
 10
-2.563
 20
140.0966
 30
0.0
 10
-2.563
 20
139.8314
 30
0.0
  0
SPLINE
  5
8F
330
1F
100
AcDbEntity
  8
layer 1
370
     9
100
AcDbSpline
210
0.0
220
0.0
230
1.0
 70
    27
 71
     3
 72
     8
 73
     4
 74
     0
 42
0.0000000001
 43
0.0000000001
 40
0.0
 40
0.0
 40
0.0
 40
0.0
 40
1.0
 40
1.0
 40
1.0
 40
1.0
 10
20.0206
 20
140.8314
 30
0.0
 10
20.0206
 20
140.8314
 30
0.0
 10
20.0206
 20
140.8314
 30
0.0
 10
20.0206
 20
140.8314
 30
0.0
  0
SPLINE
  5
90
330
1F
100
AcDbEntity
  8
layer 1
370
     9
100
AcDbSpline
210
0.0
220
0.0
230
1.0
 70
    24
 71
     3
 72
     8
 73
     4
 74
     0
 42
0.0000000001
 43
0.0000000001
 40
0.0
 40
0.0
 40
0.0
 40
0.0
 40
1.0
 40
1.0
 40
1.0
 40
1.0
 10
18.0205
 20
140.8314
 30
0.0
 10
18.0205
 20
140.8314
 30
0.0
 10
20.0206
 20
140.8314
 30
0.0
 10
20.0206
 20
140.8314
 30
0.0
  0
SPLINE
  5
91
330
1F
100
AcDbEntity
  8
layer 1
370
     9
100
AcDbSpline
210
0.0
220
0.0
230
1.0
 70
    27
 71
     3
 72
     8
 73
     4
 74
     0
 42
0.0000000001
 43
0.0000000001
 40
0.0
 40
0.0
 40
0.0
 40
0.0
 40
1.0
 40
1.0
 40
1.0
 40
1.0
 10
20.0206
 20
140.8314
 30
0.0
 10
20.0206
 20
140.8314
 30
0.0
 10
20.0206
 20
140.8314
 30
0.0
 10
20.0206
 20
140.8314
 30
0.0
  0
SPLINE
  5
92
330
1F
100
AcDbEntity
  8
layer 1
370
     9
100
AcDbSpline
210
0.0
220
0.0
230
1.0
 70
    24
 71
     3
 72
     8
 73
     4
 74
     0
 42
0.0000000001
 43
0.0000000001
 40
0.0
 40
0.0
 40
0.0
 40
0.0
 40
1.0
 40
1.0
 40
1.0
 40
1.0
 10
20.0206
 20
145.8136
 30
0.0
 10
20.0206
 20
145.8136
 30
0.0
 10
20.0206
 20
140.8314
 30
0.0
 10
20.0206
 20
140.8314
 30
0.0
  0
SPLINE
  5
93
330
1F
100
AcDbEntity
  8
layer 1
370
     9
100
AcDbSpline
210
0.0
220
0.0
230
1.0
 70
    27
 71
     3
 72
     8
 73
     4
 74
     0
 42
0.0000000001
 43
0.0000000001
 40
0.0
 40
0.0
 40
0.0
 40
0.0
 40
1.0
 40
1.0
 40
1.0
 40
1.0
 10
32.7206
 20
140.8314
 30
0.0
 10
32.7206
 20
140.8314
 30
0.0
 10
32.7206
 20
140.8314
 30
0.0
 10
32.7206
 20
140.8314
 30
0.0
  0
SPLINE
  5
94
330
1F
100
AcDbEntity
  8
layer 1
370
     9
100
AcDbSpline
210
0.0
220
0.0
230
1.0
 70
    24
 71
     3
 72
     8
 73
     4
 74
     0
 42
0.0000000001
 43
0.0000000001
 40
0.0
 40
0.0
 40
0.0
 40
0.0
 40
1.0
 40
1.0
 40
1.0
 40
1.0
 10
32.7206
 20
140.8314
 30
0.0
 10
32.7206
 20
140.8314
 30
0.0
 10
32.7206
 20
145.8136
 30
0.0
 10
32.7206
 20
145.8136
 30
0.0
  0
SPLINE
  5
95
330
1F
100
AcDbEntity
  8
layer 1
370
     9
100
AcDbSpline
210
0.0
220
0.0
230
1.0
 70
    27
 71
     3
 72
     8
 73
     4
 74
     0
 42
0.0000000001
 43
0.0000000001
 40
0.0
 40
0.0
 40
0.0
 40
0.0
 40
1.0
 40
1.0
 40
1.0
 40
1.0
 10
34.7206
 20
140.8314
 30
0.0
 10
34.7206
 20
140.8314
 30
0.0
 10
34.7206
 20
140.8314
 30
0.0
 10
34.7206
 20
140.8314
 30
0.0
  0
SPLINE
  5
96
330
1F
100
AcDbEntity
  8
layer 1
370
     9
100
AcDbSpline
210
0.0
220
0.0
230
1.0
 70
    24
 71
     3
 72
     8
 73
     4
 74
     0
 42
0.0000000001
 43
0.0000000001
 40
0.0
 40
0.0
 40
0.0
 40
0.0
 40
1.0
 40
1.0
 40
1.0
 40
1.0
 10
32.7206
 20
140.8314
 30
0.0
 10
32.7206
 20
140.8314
 30
0.0
 10
34.7206
 20
140.8314
 30
0.0
 10
34.7206
 20
140.8314
 30
0.0
  0
SPLINE
  5
97
330
1F
100
AcDbEntity
  8
layer 1
370
     9
100
AcDbSpline
210
0.0
220
0.0
230
1.0
 70
    27
 71
     3
 72
     8
 73
     4
 74
     0
 42
0.0000000001
 43
0.0000000001
 40
0.0
 40
0.0
 40
0.0
 40
0.0
 40
1.0
 40
1.0
 40
1.0
 40
1.0
 10
35.7206
 20
136.8136
 30
0.0
 10
35.7206
 20
136.8136
 30
0.0
 10
35.7206
 20
136.8136
 30
0.0
 10
35.7206
 20
136.8136
 30
0.0
  0
SPLINE
  5
98
330
1F
100
AcDbEntity
  8
layer 1
370
     9
100
AcDbSpline
210
0.0
220
0.0
230
1.0
 70
    24
 71
     3
 72
     8
 73
     4
 74
     0
 42
0.0000000001
 43
0.0000000001
 40
0.0
 40
0.0
 40
0.0
 40
0.0
 40
1.0
 40
1.0
 40
1.0
 40
1.0
 10
35.7206
 20
139.8314
 30
0.0
 10
35.7206
 20
139.8314
 30
0.0
 10
35.7206
 20
136.8136
 30
0.0
 10
35.7206
 20
136.8136
 30
0.0
  0
SPLINE
  5
99
330
1F
100
AcDbEntity
  8
layer 1
370
     9
100
AcDbSpline
210
0.0
220
0.0
230
1.0
 70
    27
 71
     3
 72
     8
 73
     4
 74
     0
 42
0.0000000001
 43
0.0000000001
 40
0.0
 40
0.0
 40
0.0
 40
0.0
 40
1.0
 40
1.0
 40
1.0
 40
1.0
 10
34.7206
 20
135.8136
 30
0.0
 10
34.7206
 20
135.8136
 30
0.0
 10
34.7206
 20
135.8136
 30
0.0
 10
34.7206
 20
135.8136
 30
0.0
  0
SPLINE
  5
9A
330
1F
100
AcDbEntity
  8
layer 1
370
     9
100
AcDbSpline
210
0.0
220
0.0
230
1.0
 70
    24
 71
     3
 72
     8
 73
     4
 74
     0
 42
0.0000000001
 43
0.0000000001
 40
0.0
 40
0.0
 40
0.0
 40
0.0
 40
1.0
 40
1.0
 40
1.0
 40
1.0
 10
34.7206
 20
135.8136
 30
0.0
 10
34.7206
 20
135.8136
 30
0.0
 10
32.7206
 20
135.8136
 30
0.0
 10
32.7206
 20
135.8136
 30
0.0
  0
SPLINE
  5
9B
330
1F
100
AcDbEntity
  8
layer 1
370
     9
100
AcDbSpline
210
0.0
220
0.0
230
1.0
 70
    27
 71
     3
 72
     8
 73
     4
 74
     0
 42
0.0000000001
 43
0.0000000001
 40
0.0
 40
0.0
 40
0.0
 40
0.0
 40
1.0
 40
1.0
 40
1.0
 40
1.0
 10
32.7206
 20
66.4537
 30
0.0
 10
32.7206
 20
66.4537
 30
0.0
 10
32.7206
 20
66.4537
 30
0.0
 10
32.7206
 20
66.4537
 30
0.0
  0
SPLINE
  5
9C
330
1F
100
AcDbEntity
  8
layer 1
370
     9
100
AcDbSpline
210
0.0
220
0.0
230
1.0
 70
    24
 71
     3
 72
     8
 73
     4
 74
     0
 42
0.0000000001
 43
0.0000000001
 40
0.0
 40
0.0
 40
0.0
 40
0.0
 40
1.0
 40
1.0
 40
1.0
 40
1.0
 10
32.7206
 20
135.8136
 30
0.0
 10
32.7206
 20
135.8136
 30
0.0
 10
32.7206
 20
66.4537
 30
0.0
 10
32.7206
 20
66.4537
 30
0.0
  0
SPLINE
  5
9D
330
1F
100
AcDbEntity
  8
layer 1
370
     9
100
AcDbSpline
210
0.0
220
0.0
230
1.0
 70
    24
 71
     3
 72
     8
 73
     4
 74
     0
 42
0.0000000001
 43
0.0000000001
 40
0.0
 40
0.0
 40
0.0
 40
0.0
 40
1.0
 40
1.0
 40
1.0
 40
1.0
 10
32.7206
 20
66.4537
 30
0.0
 10
32.7206
 20
66.4537
 30
0.0
 10
34.7206
 20
66.4537
 30
0.0
 10
34.7206
 20
66.4537
 30
0.0
  0
SPLINE
  5
9E
330
1F
100
AcDbEntity
  8
layer 1
370
     9
100
AcDbSpline
210
0.0
220
0.0
230
1.0
 70
    24
 71
     3
 72
     8
 73
     4
 74
     0
 42
0.0000000001
 43
0.0000000001
 40
0.0
 40
0.0
 40
0.0
 40
0.0
 40
1.0
 40
1.0
 40
1.0
 40
1.0
 10
35.7206
 20
65.4537
 30
0.0
 10
35.7206
 20
65.4537
 30
0.0
 10
35.7206
 20
62.4537
 30
0.0
 10
35.7206
 20
62.4537
 30
0.0
  0
SPLINE
  5
9F
330
1F
100
AcDbEntity
  8
layer 1
370
     9
100
AcDbSpline
210
0.0
220
0.0
230
1.0
 70
    24
 71
     3
 72
     8
 73
     4
 74
     0
 42
0.0000000001
 43
0.0000000001
 40
0.0
 40
0.0
 40
0.0
 40
0.0
 40
1.0
 40
1.0
 40
1.0
 40
1.0
 10
34.7206
 20
61.4537
 30
0.0
 10
34.7206
 20
61.4537
 30
0.0
 10
32.7206
 20
61.4537
 30
0.0
 10
32.7206
 20
61.4537
 30
0.0
  0
SPLINE
  5
A0
330
1F
100
AcDbEntity
  8
layer 1
370
     9
100
AcDbSpline
210
0.0
220
0.0
230
1.0
 70
    24
 71
     3
 72
     8
 73
     4
 74
     0
 42
0.0000000001
 43
0.0000000001
 40
0.0
 40
0.0
 40
0.0
 40
0.0
 40
1.0
 40
1.0
 40
1.0
 40
1.0
 10
32.7206
 20
59.4537
 30
0.0
 10
32.7206
 20
59.4537
 30
0.0
 10
32.7206
 20
61.4537
 30
0.0
 10
32.7206
 20
61.4537
 30
0.0
  0
SPLINE
  5
A1
330
1F
100
AcDbEntity
  8
layer 1
370
     9
100
AcDbSpline
210
0.0
220
0.0
230
1.0
 70
    24
 71
     3
 72
     8
 73
     4
 74
     0
 42
0.0000000001
 43
0.0000000001
 40
0.0
 40
0.0
 40
0.0
 40
0.0
 40
1.0
 40
1.0
 40
1.0
 40
1.0
 10
32.7206
 20
59.4537
 30
0.0
 10
32.7206
 20
59.4537
 30
0.0
 10
20.0206
 20
59.4537
 30
0.0
 10
20.0206
 20
59.4537
 30
0.0
  0
SPLINE
  5
A2
330
1F
100
AcDbEntity
  8
layer 1
370
     9
100
AcDbSpline
210
0.0
220
0.0
230
1.0
 70
    24
 71
     3
 72
     8
 73
     4
 74
     0
 42
0.0000000001
 43
0.0000000001
 40
0.0
 40
0.0
 40
0.0
 40
0.0
 40
1.0
 40
1.0
 40
1.0
 40
1.0
 10
20.0206
 20
61.4537
 30
0.0
 10
20.0206
 20
61.4537
 30
0.0
 10
20.0206
 20
59.4537
 30
0.0
 10
20.0206
 20
59.4537
 30
0.0
  0
SPLINE
  5
A3
330
1F
100
AcDbEntity
  8
layer 1
370
     9
100
AcDbSpline
210
0.0
220
0.0
230
1.0
 70
    24
 71
     3
 72
     8
 73
     4
 74
     0
 42
0.0000000001
 43
0.0000000001
 40
0.0
 40
0.0
 40
0.0
 40
0.0
 40
1.0
 40
1.0
 40
1.0
 40
1.0
 10
20.0206
 20
61.4537
 30
0.0
 10
20.0206
 20
61.4537
 30
0.0
 10
18.0205
 20
61.4537
 30
0.0
 10
18.0205
 20
61.4537
 30
0.0
  0
SPLINE
  5
A4
330
1F
100
AcDbEntity
  8
layer 1
370
     9
100
AcDbSpline
210
0.0
220
0.0
230
1.0
 70
    24
 71
     3
 72
     8
 73
     4
 74
     0
 42
0.0000000001
 43
0.0000000001
 40
0.0
 40
0.0
 40
0.0
 40
0.0
 40
1.0
 40
1.0
 40
1.0
 40
1.0
 10
17.0205
 20
65.4537
 30
0.0
 10
17.0205
 20
65.4537
 30
0.0
 10
17.0205
 20
62.4537
 30
0.0
 10
17.0205
 20
62.4537
 30
0.0
  0
SPLINE
  5
A5
330
1F
100
AcDbEntity
  8
layer 1
370
     9
100
AcDbSpline
210
0.0
220
0.0
230
1.0
 70
    24
 71
     3
 72
     8
 73
     4
 74
     0
 42
0.0000000001
 43
0.0000000001
 40
0.0
 40
0.0
 40
0.0
 40
0.0
 40
1.0
 40
1.0
 40
1.0
 40
1.0
 10
18.0205
 20
66.4537
 30
0.0
 10
18.0205
 20
66.4537
 30
0.0
 10
20.0206
 20
66.4537
 30
0.0
 10
20.0206
 20
66.4537
 30
0.0
  0
SPLINE
  5
A6
330
1F
100
AcDbEntity
  8
layer 1
370
     9
100
AcDbSpline
210
0.0
220
0.0
230
1.0
 70
    27
 71
     3
 72
     8
 73
     4
 74
     0
 42
0.0000000001
 43
0.0000000001
 40
0.0
 40
0.0
 40
0.0
 40
0.0
 40
1.0
 40
1.0
 40
1.0
 40
1.0
 10
20.0206
 20
66.4537
 30
0.0
 10
20.0206
 20
66.4537
 30
0.0
 10
20.0206
 20
66.4537
 30
0.0
 10
20.0206
 20
66.4537
 30
0.0
  0
SPLINE
  5
A7
330
1F
100
AcDbEntity
  8
layer 1
370
     9
100
AcDbSpline
210
0.0
220
0.0
230
1.0
 70
    24
 71
     3
 72
     8
 73
     4
 74
     0
 42
0.0000000001
 43
0.0000000001
 40
0.0
 40
0.0
 40
0.0
 40
0.0
 40
1.0
 40
1.0
 40
1.0
 40
1.0
 10
20.0206
 20
135.8136
 30
0.0
 10
20.0206
 20
135.8136
 30
0.0
 10
20.0206
 20
66.4537
 30
0.0
 10
20.0206
 20
66.4537
 30
0.0
  0
SPLINE
  5
A8
330
1F
100
AcDbEntity
  8
layer 1
370
     9
100
AcDbSpline
210
0.0
220
0.0
230
1.0
 70
    27
 71
     3
 72
     8
 73
     4
 74
     0
 42
0.0000000001
 43
0.0000000001
 40
0.0
 40
0.0
 40
0.0
 40
0.0
 40
1.0
 40
1.0
 40
1.0
 40
1.0
 10
20.0206
 20
135.8136
 30
0.0
 10
20.0206
 20
135.8136
 30
0.0
 10
20.0206
 20
135.8136
 30
0.0
 10
20.0206
 20
135.8136
 30
0.0
  0
SPLINE
  5
A9
330
1F
100
AcDbEntity
  8
layer 1
370
     9
100
AcDbSpline
210
0.0
220
0.0
230
1.0
 70
    24
 71
     3
 72
     8
 73
     4
 74
     0
 42
0.0000000001
 43
0.0000000001
 40
0.0
 40
0.0
 40
0.0
 40
0.0
 40
1.0
 40
1.0
 40
1.0
 40
1.0
 10
20.0206
 20
135.8136
 30
0.0
 10
20.0206
 20
135.8136
 30
0.0
 10
18.0205
 20
135.8136
 30
0.0
 10
18.0205
 20
135.8136
 30
0.0
  0
SPLINE
  5
AA
330
1F
100
AcDbEntity
  8
layer 1
370
     9
100
AcDbSpline
210
0.0
220
0.0
230
1.0
 70
    27
 71
     3
 72
     8
 73
     4
 74
     0
 42
0.0000000001
 43
0.0000000001
 40
0.0
 40
0.0
 40
0.0
 40
0.0
 40
1.0
 40
1.0
 40
1.0
 40
1.0
 10
17.0205
 20
136.8136
 30
0.0
 10
17.0205
 20
136.8136
 30
0.0
 10
17.0205
 20
136.8136
 30
0.0
 10
17.0205
 20
136.8136
 30
0.0
  0
SPLINE
  5
AB
330
1F
100
AcDbEntity
  8
layer 1
370
     9
100
AcDbSpline
210
0.0
220
0.0
230
1.0
 70
    24
 71
     3
 72
     8
 73
     4
 74
     0
 42
0.0000000001
 43
0.0000000001
 40
0.0
 40
0.0
 40
0.0
 40
0.0
 40
1.0
 40
1.0
 40
1.0
 40
1.0
 10
17.0205
 20
139.8314
 30
0.0
 10
17.0205
 20
139.8314
 30
0.0
 10
17.0205
 20
136.8136
 30
0.0
 10
17.0205
 20
136.8136
 30
0.0
  0
SPLINE
  5
AC
330
1F
100
AcDbEntity
  8
layer 1
370
     9
100
AcDbSpline
210
0.0
220
0.0
230
1.0
 70
    27
 71
     3
 72
     8
 73
     4
 74
     0
 42
0.0000000001
 43
0.0000000001
 40
0.0
 40
0.0
 40
0.0
 40
0.0
 40
1.0
 40
1.0
 40
1.0
 40
1.0
 10
32.7206
 20
145.8136
 30
0.0
 10
32.7206
 20
145.8136
 30
0.0
 10
32.7206
 20
145.8136
 30
0.0
 10
32.7206
 20
145.8136
 30
0.0
  0
SPLINE
  5
AD
330
1F
100
AcDbEntity
  8
layer 1
370
     9
100
AcDbSpline
210
0.0
220
0.0
230
1.0
 70
    24
 71
     3
 72
     8
 73
     4
 74
     0
 42
0.0000000001
 43
0.0000000001
 40
0.0
 40
0.0
 40
0.0
 40
0.0
 40
1.0
 40
1.0
 40
1.0
 40
1.0
 10
32.7206
 20
145.8136
 30
0.0
 10
32.7206
 20
145.8136
 30
0.0
 10
20.0206
 20
145.8136
 30
0.0
 10
20.0206
 20
145.8136
 30
0.0
  0
SPLINE
  5
AE
330
1F
100
AcDbEntity
  8
layer 1
370
     9
100
AcDbSpline
210
0.0
220
0.0
230
1.0
 70
     8
 71
     3
 72
    12
 73
     8
 74
     0
 42
0.0000000001
 43
0.0000000001
 40
0.0
 40
0.0
 40
0.0
 40
0.0
 40
0.5
 40
0.5
 40
0.5
 40
0.5
 40
1.0
 40
1.0
 40
1.0
 40
1.0
 10
34.7206
 20
135.8136
 30
0.0
 10
34.9858
 20
135.8136
 30
0.0
 10
35.2401
 20
135.919
 30
0.0
 10
35.4277
 20
136.1065
 30
0.0
 10
35.4277
 20
136.1065
 30
0.0
 10
35.6152
 20
136.294
 30
0.0
 10
35.7205
 20
136.5484
 30
0.0
 10
35.7205
 20
136.8136
 30
0.0
  0
SPLINE
  5
AF
330
1F
100
AcDbEntity
  8
layer 1
370
     9
100
AcDbSpline
210
0.0
220
0.0
230
1.0
 70
     8
 71
     3
 72
    12
 73
     8
 74
     0
 42
0.0000000001
 43
0.0000000001
 40
0.0
 40
0.0
 40
0.0
 40
0.0
 40
0.5
 40
0.5
 40
0.5
 40
0.5
 40
1.0
 40
1.0
 40
1.0
 40
1.0
 10
35.7205
 20
65.4537
 30
0.0
 10
35.7205
 20
65.7189
 30
0.0
 10
35.6152
 20
65.9733
 30
0.0
 10
35.4277
 20
66.1608
 30
0.0
 10
35.4277
 20
66.1608
 30
0.0
 10
35.2401
 20
66.3483
 30
0.0
 10
34.9858
 20
66.4537
 30
0.0
 10
34.7206
 20
66.4537
 30
0.0
  0
SPLINE
  5
B0
330
1F
100
AcDbEntity
  8
layer 1
370
     9
100
AcDbSpline
210
0.0
220
0.0
230
1.0
 70
     8
 71
     3
 72
    12
 73
     8
 74
     0
 42
0.0000000001
 43
0.0000000001
 40
0.0
 40
0.0
 40
0.0
 40
0.0
 40
0.5
 40
0.5
 40
0.5
 40
0.5
 40
1.0
 40
1.0
 40
1.0
 40
1.0
 10
34.7206
 20
61.4537
 30
0.0
 10
34.9858
 20
61.4537
 30
0.0
 10
35.2401
 20
61.5591
 30
0.0
 10
35.4277
 20
61.7466
 30
0.0
 10
35.4277
 20
61.7466
 30
0.0
 10
35.6152
 20
61.9341
 30
0.0
 10
35.7205
 20
62.1885
 30
0.0
 10
35.7205
 20
62.4537
 30
0.0
  0
SPLINE
  5
B1
330
1F
100
AcDbEntity
  8
layer 1
370
     9
100
AcDbSpline
210
0.0
220
0.0
230
1.0
 70
     8
 71
     3
 72
    12
 73
     8
 74
     0
 42
0.0000000001
 43
0.0000000001
 40
0.0
 40
0.0
 40
0.0
 40
0.0
 40
0.5
 40
0.5
 40
0.5
 40
0.5
 40
1.0
 40
1.0
 40
1.0
 40
1.0
 10
35.7205
 20
139.8314
 30
0.0
 10
35.7205
 20
140.0966
 30
0.0
 10
35.6152
 20
140.351
 30
0.0
 10
35.4277
 20
140.5385
 30
0.0
 10
35.4277
 20
140.5385
 30
0.0
 10
35.2401
 20
140.726
 30
0.0
 10
34.9858
 20
140.8314
 30
0.0
 10
34.7206
 20
140.8314
 30
0.0
  0
SPLINE
  5
B2
330
1F
100
AcDbEntity
  8
layer 1
370
     9
100
AcDbSpline
210
0.0
220
0.0
230
1.0
 70
     8
 71
     3
 72
     8
 73
     4
 74
     0
 42
0.0000000001
 43
0.0000000001
 40
0.0
 40
0.0
 40
0.0
 40
0.0
 40
1.0
 40
1.0
 40
1.0
 40
1.0
 10
17.0206
 20
136.8136
 30
0.0
 10
17.0206
 20
136.2613
 30
0.0
 10
17.4683
 20
135.8136
 30
0.0
 10
18.0205
 20
135.8136
 30
0.0
  0
SPLINE
  5
B3
330
1F
100
AcDbEntity
  8
layer 1
370
     9
100
AcDbSpline
210
0.0
220
0.0
230
1.0
 70
     8
 71
     3
 72
    12
 73
     8
 74
     0
 42
0.0000000001
 43
0.0000000001
 40
0.0
 40
0.0
 40
0.0
 40
0.0
 40
0.5
 40
0.5
 40
0.5
 40
0.5
 40
1.0
 40
1.0
 40
1.0
 40
1.0
 10
18.0205
 20
66.4537
 30
0.0
 10
17.7553
 20
66.4537
 30
0.0
 10
17.501
 20
66.3483
 30
0.0
 10
17.3134
 20
66.1608
 30
0.0
 10
17.3134
 20
66.1608
 30
0.0
 10
17.1259
 20
65.9733
 30
0.0
 10
17.0206
 20
65.7189
 30
0.0
 10
17.0206
 20
65.4537
 30
0.0
  0
SPLINE
  5
B4
330
1F
100
AcDbEntity
  8
layer 1
370
     9
100
AcDbSpline
210
0.0
220
0.0
230
1.0
 70
     8
 71
     3
 72
    12
 73
     8
 74
     0
 42
0.0000000001
 43
0.0000000001
 40
0.0
 40
0.0
 40
0.0
 40
0.0
 40
0.5
 40
0.5
 40
0.5
 40
0.5
 40
1.0
 40
1.0
 40
1.0
 40
1.0
 10
17.0206
 20
62.4537
 30
0.0
 10
17.0206
 20
62.1885
 30
0.0
 10
17.1259
 20
61.9341
 30
0.0
 10
17.3134
 20
61.7466
 30
0.0
 10
17.3134
 20
61.7466
 30
0.0
 10
17.501
 20
61.5591
 30
0.0
 10
17.7553
 20
61.4537
 30
0.0
 10
18.0206
 20
61.4537
 30
0.0
  0
SPLINE
  5
B5
330
1F
100
AcDbEntity
  8
layer 1
370
     9
100
AcDbSpline
210
0.0
220
0.0
230
1.0
 70
     8
 71
     3
 72
    12
 73
     8
 74
     0
 42
0.0000000001
 43
0.0000000001
 40
0.0
 40
0.0
 40
0.0
 40
0.0
 40
0.5
 40
0.5
 40
0.5
 40
0.5
 40
1.0
 40
1.0
 40
1.0
 40
1.0
 10
18.0205
 20
140.8314
 30
0.0
 10
17.7553
 20
140.8314
 30
0.0
 10
17.501
 20
140.726
 30
0.0
 10
17.3134
 20
140.5385
 30
0.0
 10
17.3134
 20
140.5385
 30
0.0
 10
17.1259
 20
140.351
 30
0.0
 10
17.0206
 20
140.0966
 30
0.0
 10
17.0206
 20
139.8314
 30
0.0
  0
SPLINE
  5
B6
330
1F
100
AcDbEntity
  8
layer 1
370
     9
100
AcDbSpline
210
0.0
220
0.0
230
1.0
 70
    24
 71
     3
 72
     8
 73
     4
 74
     0
 42
0.0000000001
 43
0.0000000001
 40
0.0
 40
0.0
 40
0.0
 40
0.0
 40
1.0
 40
1.0
 40
1.0
 40
1.0
 10
17.1828
 20
-2.5607
 30
0.0
 10
17.1828
 20
-2.5607
 30
0.0
 10
17.1828
 20
1.4393
 30
0.0
 10
17.1828
 20
1.4393
 30
0.0
  0
SPLINE
  5
B7
330
1F
100
AcDbEntity
  8
layer 1
370
     9
100
AcDbSpline
210
0.0
220
0.0
230
1.0
 70
    24
 71
     3
 72
     8
 73
     4
 74
     0
 42
0.0000000001
 43
0.0000000001
 40
0.0
 40
0.0
 40
0.0
 40
0.0
 40
1.0
 40
1.0
 40
1.0
 40
1.0
 10
35.8828
 20
-2.5607
 30
0.0
 10
35.8828
 20
-2.5607
 30
0.0
 10
17.1828
 20
-2.5607
 30
0.0
 10
17.1828
 20
-2.5607
 30
0.0
  0
SPLINE
  5
B8
330
1F
100
AcDbEntity
  8
layer 1
370
     9
100
AcDbSpline
210
0.0
220
0.0
230
1.0
 70
    24
 71
     3
 72
     8
 73
     4
 74
     0
 42
0.0000000001
 43
0.0000000001
 40
0.0
 40
0.0
 40
0.0
 40
0.0
 40
1.0
 40
1.0
 40
1.0
 40
1.0
 10
35.8828
 20
-2.5607
 30
0.0
 10
35.8828
 20
-2.5607
 30
0.0
 10
35.8828
 20
1.4393
 30
0.0
 10
35.8828
 20
1.4393
 30
0.0
  0
SPLINE
  5
B9
330
1F
100
AcDbEntity
  8
layer 1
370
     9
100
AcDbSpline
210
0.0
220
0.0
230
1.0
 70
    24
 71
     3
 72
     8
 73
     4
 74
     0
 42
0.0000000001
 43
0.0000000001
 40
0.0
 40
0.0
 40
0.0
 40
0.0
 40
1.0
 40
1.0
 40
1.0
 40
1.0
 10
34.8828
 20
2.4393
 30
0.0
 10
34.8828
 20
2.4393
 30
0.0
 10
32.8828
 20
2.4393
 30
0.0
 10
32.8828
 20
2.4393
 30
0.0
  0
SPLINE
  5
BA
330
1F
100
AcDbEntity
  8
layer 1
370
     9
100
AcDbSpline
210
0.0
220
0.0
230
1.0
 70
    24
 71
     3
 72
     8
 73
     4
 74
     0
 42
0.0000000001
 43
0.0000000001
 40
0.0
 40
0.0
 40
0.0
 40
0.0
 40
1.0
 40
1.0
 40
1.0
 40
1.0
 10
32.8828
 20
2.4393
 30
0.0
 10
32.8828
 20
2.4393
 30
0.0
 10
32.8828
 20
4.7443
 30
0.0
 10
32.8828
 20
4.7443
 30
0.0
  0
SPLINE
  5
BB
330
1F
100
AcDbEntity
  8
layer 1
370
     9
100
AcDbSpline
210
0.0
220
0.0
230
1.0
 70
    24
 71
     3
 72
     8
 73
     4
 74
     0
 42
0.0000000001
 43
0.0000000001
 40
0.0
 40
0.0
 40
0.0
 40
0.0
 40
1.0
 40
1.0
 40
1.0
 40
1.0
 10
32.8828
 20
4.7443
 30
0.0
 10
32.8828
 20
4.7443
 30
0.0
 10
26.8828
 20
4.7443
 30
0.0
 10
26.8828
 20
4.7443
 30
0.0
  0
SPLINE
  5
BC
330
1F
100
AcDbEntity
  8
layer 1
370
     9
100
AcDbSpline
210
0.0
220
0.0
230
1.0
 70
    27
 71
     3
 72
     8
 73
     4
 74
     0
 42
0.0000000001
 43
0.0000000001
 40
0.0
 40
0.0
 40
0.0
 40
0.0
 40
1.0
 40
1.0
 40
1.0
 40
1.0
 10
26.8828
 20
19.6502
 30
0.0
 10
26.8828
 20
19.6502
 30
0.0
 10
26.8828
 20
19.6502
 30
0.0
 10
26.8828
 20
19.6502
 30
0.0
  0
SPLINE
  5
BD
330
1F
100
AcDbEntity
  8
layer 1
370
     9
100
AcDbSpline
210
0.0
220
0.0
230
1.0
 70
    24
 71
     3
 72
     8
 73
     4
 74
     0
 42
0.0000000001
 43
0.0000000001
 40
0.0
 40
0.0
 40
0.0
 40
0.0
 40
1.0
 40
1.0
 40
1.0
 40
1.0
 10
26.8828
 20
19.6502
 30
0.0
 10
26.8828
 20
19.6502
 30
0.0
 10
26.8828
 20
4.7443
 30
0.0
 10
26.8828
 20
4.7443
 30
0.0
  0
SPLINE
  5
BE
330
1F
100
AcDbEntity
  8
layer 1
370
     9
100
AcDbSpline
210
0.0
220
0.0
230
1.0
 70
    27
 71
     3
 72
     8
 73
     4
 74
     0
 42
0.0000000001
 43
0.0000000001
 40
0.0
 40
0.0
 40
0.0
 40
0.0
 40
1.0
 40
1.0
 40
1.0
 40
1.0
 10
32.8828
 20
19.6502
 30
0.0
 10
32.8828
 20
19.6502
 30
0.0
 10
32.8828
 20
19.6502
 30
0.0
 10
32.8828
 20
19.6502
 30
0.0
  0
SPLINE
  5
BF
330
1F
100
AcDbEntity
  8
layer 1
370
     9
100
AcDbSpline
210
0.0
220
0.0
230
1.0
 70
    24
 71
     3
 72
     8
 73
     4
 74
     0
 42
0.0000000001
 43
0.0000000001
 40
0.0
 40
0.0
 40
0.0
 40
0.0
 40
1.0
 40
1.0
 40
1.0
 40
1.0
 10
26.8828
 20
19.6502
 30
0.0
 10
26.8828
 20
19.6502
 30
0.0
 10
32.8828
 20
19.6502
 30
0.0
 10
32.8828
 20
19.6502
 30
0.0
  0
SPLINE
  5
C0
330
1F
100
AcDbEntity
  8
layer 1
370
     9
100
AcDbSpline
210
0.0
220
0.0
230
1.0
 70
    27
 71
     3
 72
     8
 73
     4
 74
     0
 42
0.0000000001
 43
0.0000000001
 40
0.0
 40
0.0
 40
0.0
 40
0.0
 40
1.0
 40
1.0
 40
1.0
 40
1.0
 10
32.8828
 20
21.7442
 30
0.0
 10
32.8828
 20
21.7442
 30
0.0
 10
32.8828
 20
21.7442
 30
0.0
 10
32.8828
 20
21.7442
 30
0.0
  0
SPLINE
  5
C1
330
1F
100
AcDbEntity
  8
layer 1
370
     9
100
AcDbSpline
210
0.0
220
0.0
230
1.0
 70
    24
 71
     3
 72
     8
 73
     4
 74
     0
 42
0.0000000001
 43
0.0000000001
 40
0.0
 40
0.0
 40
0.0
 40
0.0
 40
1.0
 40
1.0
 40
1.0
 40
1.0
 10
32.8828
 20
19.6502
 30
0.0
 10
32.8828
 20
19.6502
 30
0.0
 10
32.8828
 20
21.7442
 30
0.0
 10
32.8828
 20
21.7442
 30
0.0
  0
SPLINE
  5
C2
330
1F
100
AcDbEntity
  8
layer 1
370
     9
100
AcDbSpline
210
0.0
220
0.0
230
1.0
 70
    27
 71
     3
 72
     8
 73
     4
 74
     0
 42
0.0000000001
 43
0.0000000001
 40
0.0
 40
0.0
 40
0.0
 40
0.0
 40
1.0
 40
1.0
 40
1.0
 40
1.0
 10
32.8828
 20
21.7442
 30
0.0
 10
32.8828
 20
21.7442
 30
0.0
 10
32.8828
 20
21.7442
 30
0.0
 10
32.8828
 20
21.7442
 30
0.0
  0
SPLINE
  5
C3
330
1F
100
AcDbEntity
  8
layer 1
370
     9
100
AcDbSpline
210
0.0
220
0.0
230
1.0
 70
    24
 71
     3
 72
     8
 73
     4
 74
     0
 42
0.0000000001
 43
0.0000000001
 40
0.0
 40
0.0
 40
0.0
 40
0.0
 40
1.0
 40
1.0
 40
1.0
 40
1.0
 10
32.8828
 20
21.7442
 30
0.0
 10
32.8828
 20
21.7442
 30
0.0
 10
26.8828
 20
21.7442
 30
0.0
 10
26.8828
 20
21.7442
 30
0.0
  0
SPLINE
  5
C4
330
1F
100
AcDbEntity
  8
layer 1
370
     9
100
AcDbSpline
210
0.0
220
0.0
230
1.0
 70
    27
 71
     3
 72
     8
 73
     4
 74
     0
 42
0.0000000001
 43
0.0000000001
 40
0.0
 40
0.0
 40
0.0
 40
0.0
 40
1.0
 40
1.0
 40
1.0
 40
1.0
 10
26.8828
 20
38.7442
 30
0.0
 10
26.8828
 20
38.7442
 30
0.0
 10
26.8828
 20
38.7442
 30
0.0
 10
26.8828
 20
38.7442
 30
0.0
  0
SPLINE
  5
C5
330
1F
100
AcDbEntity
  8
layer 1
370
     9
100
AcDbSpline
210
0.0
220
0.0
230
1.0
 70
    24
 71
     3
 72
     8
 73
     4
 74
     0
 42
0.0000000001
 43
0.0000000001
 40
0.0
 40
0.0
 40
0.0
 40
0.0
 40
1.0
 40
1.0
 40
1.0
 40
1.0
 10
26.8828
 20
38.7442
 30
0.0
 10
26.8828
 20
38.7442
 30
0.0
 10
26.8828
 20
21.7442
 30
0.0
 10
26.8828
 20
21.7442
 30
0.0
  0
SPLINE
  5
C6
330
1F
100
AcDbEntity
  8
layer 1
370
     9
100
AcDbSpline
210
0.0
220
0.0
230
1.0
 70
    27
 71
     3
 72
     8
 73
     4
 74
     0
 42
0.0000000001
 43
0.0000000001
 40
0.0
 40
0.0
 40
0.0
 40
0.0
 40
1.0
 40
1.0
 40
1.0
 40
1.0
 10
32.8828
 20
38.7442
 30
0.0
 10
32.8828
 20
38.7442
 30
0.0
 10
32.8828
 20
38.7442
 30
0.0
 10
32.8828
 20
38.7442
 30
0.0
  0
SPLINE
  5
C7
330
1F
100
AcDbEntity
  8
layer 1
370
     9
100
AcDbSpline
210
0.0
220
0.0
230
1.0
 70
    24
 71
     3
 72
     8
 73
     4
 74
     0
 42
0.0000000001
 43
0.0000000001
 40
0.0
 40
0.0
 40
0.0
 40
0.0
 40
1.0
 40
1.0
 40
1.0
 40
1.0
 10
26.8828
 20
38.7442
 30
0.0
 10
26.8828
 20
38.7442
 30
0.0
 10
32.8828
 20
38.7442
 30
0.0
 10
32.8828
 20
38.7442
 30
0.0
  0
SPLINE
  5
C8
330
1F
100
AcDbEntity
  8
layer 1
370
     9
100
AcDbSpline
210
0.0
220
0.0
230
1.0
 70
    27
 71
     3
 72
     8
 73
     4
 74
     0
 42
0.0000000001
 43
0.0000000001
 40
0.0
 40
0.0
 40
0.0
 40
0.0
 40
1.0
 40
1.0
 40
1.0
 40
1.0
 10
32.8828
 20
53.0492
 30
0.0
 10
32.8828
 20
53.0492
 30
0.0
 10
32.8828
 20
53.0492
 30
0.0
 10
32.8828
 20
53.0492
 30
0.0
  0
SPLINE
  5
C9
330
1F
100
AcDbEntity
  8
layer 1
370
     9
100
AcDbSpline
210
0.0
220
0.0
230
1.0
 70
    24
 71
     3
 72
     8
 73
     4
 74
     0
 42
0.0000000001
 43
0.0000000001
 40
0.0
 40
0.0
 40
0.0
 40
0.0
 40
1.0
 40
1.0
 40
1.0
 40
1.0
 10
32.8828
 20
38.7442
 30
0.0
 10
32.8828
 20
38.7442
 30
0.0
 10
32.8828
 20
53.0492
 30
0.0
 10
32.8828
 20
53.0492
 30
0.0
  0
SPLINE
  5
CA
330
1F
100
AcDbEntity
  8
layer 1
370
     9
100
AcDbSpline
210
0.0
220
0.0
230
1.0
 70
    27
 71
     3
 72
     8
 73
     4
 74
     0
 42
0.0000000001
 43
0.0000000001
 40
0.0
 40
0.0
 40
0.0
 40
0.0
 40
1.0
 40
1.0
 40
1.0
 40
1.0
 10
34.8828
 20
53.0492
 30
0.0
 10
34.8828
 20
53.0492
 30
0.0
 10
34.8828
 20
53.0492
 30
0.0
 10
34.8828
 20
53.0492
 30
0.0
  0
SPLINE
  5
CB
330
1F
100
AcDbEntity
  8
layer 1
370
     9
100
AcDbSpline
210
0.0
220
0.0
230
1.0
 70
    24
 71
     3
 72
     8
 73
     4
 74
     0
 42
0.0000000001
 43
0.0000000001
 40
0.0
 40
0.0
 40
0.0
 40
0.0
 40
1.0
 40
1.0
 40
1.0
 40
1.0
 10
32.8828
 20
53.0492
 30
0.0
 10
32.8828
 20
53.0492
 30
0.0
 10
34.8828
 20
53.0492
 30
0.0
 10
34.8828
 20
53.0492
 30
0.0
  0
SPLINE
  5
CC
330
1F
100
AcDbEntity
  8
layer 1
370
     9
100
AcDbSpline
210
0.0
220
0.0
230
1.0
 70
    27
 71
     3
 72
     8
 73
     4
 74
     0
 42
0.0000000001
 43
0.0000000001
 40
0.0
 40
0.0
 40
0.0
 40
0.0
 40
1.0
 40
1.0
 40
1.0
 40
1.0
 10
35.8828
 20
58.0492
 30
0.0
 10
35.8828
 20
58.0492
 30
0.0
 10
35.8828
 20
58.0492
 30
0.0
 10
35.8828
 20
58.0492
 30
0.0
  0
SPLINE
  5
CD
330
1F
100
AcDbEntity
  8
layer 1
370
     9
100
AcDbSpline
210
0.0
220
0.0
230
1.0
 70
    24
 71
     3
 72
     8
 73
     4
 74
     0
 42
0.0000000001
 43
0.0000000001
 40
0.0
 40
0.0
 40
0.0
 40
0.0
 40
1.0
 40
1.0
 40
1.0
 40
1.0
 10
35.8828
 20
54.0492
 30
0.0
 10
35.8828
 20
54.0492
 30
0.0
 10
35.8828
 20
58.0492
 30
0.0
 10
35.8828
 20
58.0492
 30
0.0
  0
SPLINE
  5
CE
330
1F
100
AcDbEntity
  8
layer 1
370
     9
100
AcDbSpline
210
0.0
220
0.0
230
1.0
 70
    27
 71
     3
 72
     8
 73
     4
 74
     0
 42
0.0000000001
 43
0.0000000001
 40
0.0
 40
0.0
 40
0.0
 40
0.0
 40
1.0
 40
1.0
 40
1.0
 40
1.0
 10
35.8828
 20
58.0492
 30
0.0
 10
35.8828
 20
58.0492
 30
0.0
 10
35.8828
 20
58.0492
 30
0.0
 10
35.8828
 20
58.0492
 30
0.0
  0
SPLINE
  5
CF
330
1F
100
AcDbEntity
  8
layer 1
370
     9
100
AcDbSpline
210
0.0
220
0.0
230
1.0
 70
    24
 71
     3
 72
     8
 73
     4
 74
     0
 42
0.0000000001
 43
0.0000000001
 40
0.0
 40
0.0
 40
0.0
 40
0.0
 40
1.0
 40
1.0
 40
1.0
 40
1.0
 10
35.8828
 20
58.0492
 30
0.0
 10
35.8828
 20
58.0492
 30
0.0
 10
17.1828
 20
58.0492
 30
0.0
 10
17.1828
 20
58.0492
 30
0.0
  0
SPLINE
  5
D0
330
1F
100
AcDbEntity
  8
layer 1
370
     9
100
AcDbSpline
210
0.0
220
0.0
230
1.0
 70
    27
 71
     3
 72
     8
 73
     4
 74
     0
 42
0.0000000001
 43
0.0000000001
 40
0.0
 40
0.0
 40
0.0
 40
0.0
 40
1.0
 40
1.0
 40
1.0
 40
1.0
 10
17.1828
 20
58.0492
 30
0.0
 10
17.1828
 20
58.0492
 30
0.0
 10
17.1828
 20
58.0492
 30
0.0
 10
17.1828
 20
58.0492
 30
0.0
  0
SPLINE
  5
D1
330
1F
100
AcDbEntity
  8
layer 1
370
     9
100
AcDbSpline
210
0.0
220
0.0
230
1.0
 70
    24
 71
     3
 72
     8
 73
     4
 74
     0
 42
0.0000000001
 43
0.0000000001
 40
0.0
 40
0.0
 40
0.0
 40
0.0
 40
1.0
 40
1.0
 40
1.0
 40
1.0
 10
17.1828
 20
54.0492
 30
0.0
 10
17.1828
 20
54.0492
 30
0.0
 10
17.1828
 20
58.0492
 30
0.0
 10
17.1828
 20
58.0492
 30
0.0
  0
SPLINE
  5
D2
330
1F
100
AcDbEntity
  8
layer 1
370
     9
100
AcDbSpline
210
0.0
220
0.0
230
1.0
 70
    27
 71
     3
 72
     8
 73
     4
 74
     0
 42
0.0000000001
 43
0.0000000001
 40
0.0
 40
0.0
 40
0.0
 40
0.0
 40
1.0
 40
1.0
 40
1.0
 40
1.0
 10
20.1828
 20
53.0492
 30
0.0
 10
20.1828
 20
53.0492
 30
0.0
 10
20.1828
 20
53.0492
 30
0.0
 10
20.1828
 20
53.0492
 30
0.0
  0
SPLINE
  5
D3
330
1F
100
AcDbEntity
  8
layer 1
370
     9
100
AcDbSpline
210
0.0
220
0.0
230
1.0
 70
    24
 71
     3
 72
     8
 73
     4
 74
     0
 42
0.0000000001
 43
0.0000000001
 40
0.0
 40
0.0
 40
0.0
 40
0.0
 40
1.0
 40
1.0
 40
1.0
 40
1.0
 10
18.1828
 20
53.0492
 30
0.0
 10
18.1828
 20
53.0492
 30
0.0
 10
20.1828
 20
53.0492
 30
0.0
 10
20.1828
 20
53.0492
 30
0.0
  0
SPLINE
  5
D4
330
1F
100
AcDbEntity
  8
layer 1
370
     9
100
AcDbSpline
210
0.0
220
0.0
230
1.0
 70
    24
 71
     3
 72
     8
 73
     4
 74
     0
 42
0.0000000001
 43
0.0000000001
 40
0.0
 40
0.0
 40
0.0
 40
0.0
 40
1.0
 40
1.0
 40
1.0
 40
1.0
 10
20.1828
 20
2.4393
 30
0.0
 10
20.1828
 20
2.4393
 30
0.0
 10
20.1828
 20
53.0492
 30
0.0
 10
20.1828
 20
53.0492
 30
0.0
  0
SPLINE
  5
D5
330
1F
100
AcDbEntity
  8
layer 1
370
     9
100
AcDbSpline
210
0.0
220
0.0
230
1.0
 70
    24
 71
     3
 72
     8
 73
     4
 74
     0
 42
0.0000000001
 43
0.0000000001
 40
0.0
 40
0.0
 40
0.0
 40
0.0
 40
1.0
 40
1.0
 40
1.0
 40
1.0
 10
20.1828
 20
2.4393
 30
0.0
 10
20.1828
 20
2.4393
 30
0.0
 10
18.1828
 20
2.4393
 30
0.0
 10
18.1828
 20
2.4393
 30
0.0
  0
SPLINE
  5
D6
330
1F
100
AcDbEntity
  8
layer 1
370
     9
100
AcDbSpline
210
0.0
220
0.0
230
1.0
 70
    27
 71
     3
 72
     8
 73
     4
 74
     0
 42
0.0000000001
 43
0.0000000001
 40
0.0
 40
0.0
 40
0.0
 40
0.0
 40
1.0
 40
1.0
 40
1.0
 40
1.0
 10
25.8828
 20
50.2344
 30
0.0
 10
25.8828
 20
50.2344
 30
0.0
 10
25.8828
 20
50.2344
 30
0.0
 10
25.8828
 20
50.2344
 30
0.0
  0
SPLINE
  5
D7
330
1F
100
AcDbEntity
  8
layer 1
370
     9
100
AcDbSpline
210
0.0
220
0.0
230
1.0
 70
    24
 71
     3
 72
     8
 73
     4
 74
     0
 42
0.0000000001
 43
0.0000000001
 40
0.0
 40
0.0
 40
0.0
 40
0.0
 40
1.0
 40
1.0
 40
1.0
 40
1.0
 10
21.8828
 20
50.2344
 30
0.0
 10
21.8828
 20
50.2344
 30
0.0
 10
25.8828
 20
50.2344
 30
0.0
 10
25.8828
 20
50.2344
 30
0.0
  0
SPLINE
  5
D8
330
1F
100
AcDbEntity
  8
layer 1
370
     9
100
AcDbSpline
210
0.0
220
0.0
230
1.0
 70
    27
 71
     3
 72
     8
 73
     4
 74
     0
 42
0.0000000001
 43
0.0000000001
 40
0.0
 40
0.0
 40
0.0
 40
0.0
 40
1.0
 40
1.0
 40
1.0
 40
1.0
 10
25.8828
 20
50.2344
 30
0.0
 10
25.8828
 20
50.2344
 30
0.0
 10
25.8828
 20
50.2344
 30
0.0
 10
25.8828
 20
50.2344
 30
0.0
  0
SPLINE
  5
D9
330
1F
100
AcDbEntity
  8
layer 1
370
     9
100
AcDbSpline
210
0.0
220
0.0
230
1.0
 70
    24
 71
     3
 72
     8
 73
     4
 74
     0
 42
0.0000000001
 43
0.0000000001
 40
0.0
 40
0.0
 40
0.0
 40
0.0
 40
1.0
 40
1.0
 40
1.0
 40
1.0
 10
25.8828
 20
39.2344
 30
0.0
 10
25.8828
 20
39.2344
 30
0.0
 10
25.8828
 20
50.2344
 30
0.0
 10
25.8828
 20
50.2344
 30
0.0
  0
SPLINE
  5
DA
330
1F
100
AcDbEntity
  8
layer 1
370
     9
100
AcDbSpline
210
0.0
220
0.0
230
1.0
 70
    27
 71
     3
 72
     8
 73
     4
 74
     0
 42
0.0000000001
 43
0.0000000001
 40
0.0
 40
0.0
 40
0.0
 40
0.0
 40
1.0
 40
1.0
 40
1.0
 40
1.0
 10
25.8828
 20
39.2344
 30
0.0
 10
25.8828
 20
39.2344
 30
0.0
 10
25.8828
 20
39.2344
 30
0.0
 10
25.8828
 20
39.2344
 30
0.0
  0
SPLINE
  5
DB
330
1F
100
AcDbEntity
  8
layer 1
370
     9
100
AcDbSpline
210
0.0
220
0.0
230
1.0
 70
    24
 71
     3
 72
     8
 73
     4
 74
     0
 42
0.0000000001
 43
0.0000000001
 40
0.0
 40
0.0
 40
0.0
 40
0.0
 40
1.0
 40
1.0
 40
1.0
 40
1.0
 10
25.8828
 20
39.2344
 30
0.0
 10
25.8828
 20
39.2344
 30
0.0
 10
21.8828
 20
39.2344
 30
0.0
 10
21.8828
 20
39.2344
 30
0.0
  0
SPLINE
  5
DC
330
1F
100
AcDbEntity
  8
layer 1
370
     9
100
AcDbSpline
210
0.0
220
0.0
230
1.0
 70
    27
 71
     3
 72
     8
 73
     4
 74
     0
 42
0.0000000001
 43
0.0000000001
 40
0.0
 40
0.0
 40
0.0
 40
0.0
 40
1.0
 40
1.0
 40
1.0
 40
1.0
 10
21.8828
 20
50.2344
 30
0.0
 10
21.8828
 20
50.2344
 30
0.0
 10
21.8828
 20
50.2344
 30
0.0
 10
21.8828
 20
50.2344
 30
0.0
  0
SPLINE
  5
DD
330
1F
100
AcDbEntity
  8
layer 1
370
     9
100
AcDbSpline
210
0.0
220
0.0
230
1.0
 70
    24
 71
     3
 72
     8
 73
     4
 74
     0
 42
0.0000000001
 43
0.0000000001
 40
0.0
 40
0.0
 40
0.0
 40
0.0
 40
1.0
 40
1.0
 40
1.0
 40
1.0
 10
21.8828
 20
39.2344
 30
0.0
 10
21.8828
 20
39.2344
 30
0.0
 10
21.8828
 20
50.2344
 30
0.0
 10
21.8828
 20
50.2344
 30
0.0
  0
SPLINE
  5
DE
330
1F
100
AcDbEntity
  8
layer 1
370
     9
100
AcDbSpline
210
0.0
220
0.0
230
1.0
 70
     8
 71
     3
 72
     8
 73
     4
 74
     0
 42
0.0000000001
 43
0.0000000001
 40
0.0
 40
0.0
 40
0.0
 40
0.0
 40
1.0
 40
1.0
 40
1.0
 40
1.0
 10
34.8828
 20
53.0492
 30
0.0
 10
35.4351
 20
53.0492
 30
0.0
 10
35.8828
 20
53.4969
 30
0.0
 10
35.8828
 20
54.0491
 30
0.0
  0
SPLINE
  5
DF
330
1F
100
AcDbEntity
  8
layer 1
370
     9
100
AcDbSpline
210
0.0
220
0.0
230
1.0
 70
     8
 71
     3
 72
     8
 73
     4
 74
     0
 42
0.0000000001
 43
0.0000000001
 40
0.0
 40
0.0
 40
0.0
 40
0.0
 40
1.0
 40
1.0
 40
1.0
 40
1.0
 10
35.8828
 20
1.4393
 30
0.0
 10
35.8828
 20
1.9915
 30
0.0
 10
35.4351
 20
2.4392
 30
0.0
 10
34.8828
 20
2.4392
 30
0.0
  0
SPLINE
  5
E0
330
1F
100
AcDbEntity
  8
layer 1
370
     9
100
AcDbSpline
210
0.0
220
0.0
230
1.0
 70
     8
 71
     3
 72
    12
 73
     8
 74
     0
 42
0.0000000001
 43
0.0000000001
 40
0.0
 40
0.0
 40
0.0
 40
0.0
 40
0.5
 40
0.5
 40
0.5
 40
0.5
 40
1.0
 40
1.0
 40
1.0
 40
1.0
 10
17.1828
 20
54.0492
 30
0.0
 10
17.1828
 20
53.7839
 30
0.0
 10
17.2882
 20
53.5296
 30
0.0
 10
17.4757
 20
53.342
 30
0.0
 10
17.4757
 20
53.342
 30
0.0
 10
17.6632
 20
53.1545
 30
0.0
 10
17.9176
 20
53.0492
 30
0.0
 10
18.1828
 20
53.0492
 30
0.0
  0
SPLINE
  5
E1
330
1F
100
AcDbEntity
  8
layer 1
370
     9
100
AcDbSpline
210
0.0
220
0.0
230
1.0
 70
     8
 71
     3
 72
    12
 73
     8
 74
     0
 42
0.0000000001
 43
0.0000000001
 40
0.0
 40
0.0
 40
0.0
 40
0.0
 40
0.5
 40
0.5
 40
0.5
 40
0.5
 40
1.0
 40
1.0
 40
1.0
 40
1.0
 10
18.1828
 20
2.4392
 30
0.0
 10
17.9176
 20
2.4392
 30
0.0
 10
17.6632
 20
2.3339
 30
0.0
 10
17.4757
 20
2.1464
 30
0.0
 10
17.4757
 20
2.1464
 30
0.0
 10
17.2882
 20
1.9588
 30
0.0
 10
17.1828
 20
1.7045
 30
0.0
 10
17.1828
 20
1.4393
 30
0.0
  0
SPLINE
  5
E2
330
1F
100
AcDbEntity
  8
layer 1
370
     9
100
AcDbSpline
210
0.0
220
0.0
230
1.0
 70
    24
 71
     3
 72
     8
 73
     4
 74
     0
 42
0.0000000001
 43
0.0000000001
 40
0.0
 40
0.0
 40
0.0
 40
0.0
 40
1.0
 40
1.0
 40
1.0
 40
1.0
 10
-2.8172
 20
-2.5607
 30
0.0
 10
-2.8172
 20
-2.5607
 30
0.0
 10
-2.8172
 20
1.4393
 30
0.0
 10
-2.8172
 20
1.4393
 30
0.0
  0
SPLINE
  5
E3
330
1F
100
AcDbEntity
  8
layer 1
370
     9
100
AcDbSpline
210
0.0
220
0.0
230
1.0
 70
    24
 71
     3
 72
     8
 73
     4
 74
     0
 42
0.0000000001
 43
0.0000000001
 40
0.0
 40
0.0
 40
0.0
 40
0.0
 40
1.0
 40
1.0
 40
1.0
 40
1.0
 10
15.8828
 20
-2.5607
 30
0.0
 10
15.8828
 20
-2.5607
 30
0.0
 10
-2.8172
 20
-2.5607
 30
0.0
 10
-2.8172
 20
-2.5607
 30
0.0
  0
SPLINE
  5
E4
330
1F
100
AcDbEntity
  8
layer 1
370
     9
100
AcDbSpline
210
0.0
220
0.0
230
1.0
 70
    24
 71
     3
 72
     8
 73
     4
 74
     0
 42
0.0000000001
 43
0.0000000001
 40
0.0
 40
0.0
 40
0.0
 40
0.0
 40
1.0
 40
1.0
 40
1.0
 40
1.0
 10
15.8828
 20
-2.5607
 30
0.0
 10
15.8828
 20
-2.5607
 30
0.0
 10
15.8828
 20
1.4393
 30
0.0
 10
15.8828
 20
1.4393
 30
0.0
  0
SPLINE
  5
E5
330
1F
100
AcDbEntity
  8
layer 1
370
     9
100
AcDbSpline
210
0.0
220
0.0
230
1.0
 70
    24
 71
     3
 72
     8
 73
     4
 74
     0
 42
0.0000000001
 43
0.0000000001
 40
0.0
 40
0.0
 40
0.0
 40
0.0
 40
1.0
 40
1.0
 40
1.0
 40
1.0
 10
14.8828
 20
2.4393
 30
0.0
 10
14.8828
 20
2.4393
 30
0.0
 10
12.8828
 20
2.4393
 30
0.0
 10
12.8828
 20
2.4393
 30
0.0
  0
SPLINE
  5
E6
330
1F
100
AcDbEntity
  8
layer 1
370
     9
100
AcDbSpline
210
0.0
220
0.0
230
1.0
 70
    24
 71
     3
 72
     8
 73
     4
 74
     0
 42
0.0000000001
 43
0.0000000001
 40
0.0
 40
0.0
 40
0.0
 40
0.0
 40
1.0
 40
1.0
 40
1.0
 40
1.0
 10
12.8828
 20
2.4393
 30
0.0
 10
12.8828
 20
2.4393
 30
0.0
 10
12.8828
 20
11.1553
 30
0.0
 10
12.8828
 20
11.1553
 30
0.0
  0
SPLINE
  5
E7
330
1F
100
AcDbEntity
  8
layer 1
370
     9
100
AcDbSpline
210
0.0
220
0.0
230
1.0
 70
    24
 71
     3
 72
     8
 73
     4
 74
     0
 42
0.0000000001
 43
0.0000000001
 40
0.0
 40
0.0
 40
0.0
 40
0.0
 40
1.0
 40
1.0
 40
1.0
 40
1.0
 10
12.8828
 20
11.1553
 30
0.0
 10
12.8828
 20
11.1553
 30
0.0
 10
6.8828
 20
11.1553
 30
0.0
 10
6.8828
 20
11.1553
 30
0.0
  0
SPLINE
  5
E8
330
1F
100
AcDbEntity
  8
layer 1
370
     9
100
AcDbSpline
210
0.0
220
0.0
230
1.0
 70
    27
 71
     3
 72
     8
 73
     4
 74
     0
 42
0.0000000001
 43
0.0000000001
 40
0.0
 40
0.0
 40
0.0
 40
0.0
 40
1.0
 40
1.0
 40
1.0
 40
1.0
 10
6.8828
 20
41.3332
 30
0.0
 10
6.8828
 20
41.3332
 30
0.0
 10
6.8828
 20
41.3332
 30
0.0
 10
6.8828
 20
41.3332
 30
0.0
  0
SPLINE
  5
E9
330
1F
100
AcDbEntity
  8
layer 1
370
     9
100
AcDbSpline
210
0.0
220
0.0
230
1.0
 70
    24
 71
     3
 72
     8
 73
     4
 74
     0
 42
0.0000000001
 43
0.0000000001
 40
0.0
 40
0.0
 40
0.0
 40
0.0
 40
1.0
 40
1.0
 40
1.0
 40
1.0
 10
6.8828
 20
41.3332
 30
0.0
 10
6.8828
 20
41.3332
 30
0.0
 10
6.8828
 20
11.1553
 30
0.0
 10
6.8828
 20
11.1553
 30
0.0
  0
SPLINE
  5
EA
330
1F
100
AcDbEntity
  8
layer 1
370
     9
100
AcDbSpline
210
0.0
220
0.0
230
1.0
 70
    27
 71
     3
 72
     8
 73
     4
 74
     0
 42
0.0000000001
 43
0.0000000001
 40
0.0
 40
0.0
 40
0.0
 40
0.0
 40
1.0
 40
1.0
 40
1.0
 40
1.0
 10
12.8828
 20
41.3332
 30
0.0
 10
12.8828
 20
41.3332
 30
0.0
 10
12.8828
 20
41.3332
 30
0.0
 10
12.8828
 20
41.3332
 30
0.0
  0
SPLINE
  5
EB
330
1F
100
AcDbEntity
  8
layer 1
370
     9
100
AcDbSpline
210
0.0
220
0.0
230
1.0
 70
    24
 71
     3
 72
     8
 73
     4
 74
     0
 42
0.0000000001
 43
0.0000000001
 40
0.0
 40
0.0
 40
0.0
 40
0.0
 40
1.0
 40
1.0
 40
1.0
 40
1.0
 10
6.8828
 20
41.3332
 30
0.0
 10
6.8828
 20
41.3332
 30
0.0
 10
12.8828
 20
41.3332
 30
0.0
 10
12.8828
 20
41.3332
 30
0.0
  0
SPLINE
  5
EC
330
1F
100
AcDbEntity
  8
layer 1
370
     9
100
AcDbSpline
210
0.0
220
0.0
230
1.0
 70
    27
 71
     3
 72
     8
 73
     4
 74
     0
 42
0.0000000001
 43
0.0000000001
 40
0.0
 40
0.0
 40
0.0
 40
0.0
 40
1.0
 40
1.0
 40
1.0
 40
1.0
 10
12.8828
 20
53.0492
 30
0.0
 10
12.8828
 20
53.0492
 30
0.0
 10
12.8828
 20
53.0492
 30
0.0
 10
12.8828
 20
53.0492
 30
0.0
  0
SPLINE
  5
ED
330
1F
100
AcDbEntity
  8
layer 1
370
     9
100
AcDbSpline
210
0.0
220
0.0
230
1.0
 70
    24
 71
     3
 72
     8
 73
     4
 74
     0
 42
0.0000000001
 43
0.0000000001
 40
0.0
 40
0.0
 40
0.0
 40
0.0
 40
1.0
 40
1.0
 40
1.0
 40
1.0
 10
12.8828
 20
41.3332
 30
0.0
 10
12.8828
 20
41.3332
 30
0.0
 10
12.8828
 20
53.0492
 30
0.0
 10
12.8828
 20
53.0492
 30
0.0
  0
SPLINE
  5
EE
330
1F
100
AcDbEntity
  8
layer 1
370
     9
100
AcDbSpline
210
0.0
220
0.0
230
1.0
 70
    27
 71
     3
 72
     8
 73
     4
 74
     0
 42
0.0000000001
 43
0.0000000001
 40
0.0
 40
0.0
 40
0.0
 40
0.0
 40
1.0
 40
1.0
 40
1.0
 40
1.0
 10
14.8828
 20
53.0492
 30
0.0
 10
14.8828
 20
53.0492
 30
0.0
 10
14.8828
 20
53.0492
 30
0.0
 10
14.8828
 20
53.0492
 30
0.0
  0
SPLINE
  5
EF
330
1F
100
AcDbEntity
  8
layer 1
370
     9
100
AcDbSpline
210
0.0
220
0.0
230
1.0
 70
    24
 71
     3
 72
     8
 73
     4
 74
     0
 42
0.0000000001
 43
0.0000000001
 40
0.0
 40
0.0
 40
0.0
 40
0.0
 40
1.0
 40
1.0
 40
1.0
 40
1.0
 10
12.8828
 20
53.0492
 30
0.0
 10
12.8828
 20
53.0492
 30
0.0
 10
14.8828
 20
53.0492
 30
0.0
 10
14.8828
 20
53.0492
 30
0.0
  0
SPLINE
  5
F0
330
1F
100
AcDbEntity
  8
layer 1
370
     9
100
AcDbSpline
210
0.0
220
0.0
230
1.0
 70
    27
 71
     3
 72
     8
 73
     4
 74
     0
 42
0.0000000001
 43
0.0000000001
 40
0.0
 40
0.0
 40
0.0
 40
0.0
 40
1.0
 40
1.0
 40
1.0
 40
1.0
 10
15.8828
 20
58.0492
 30
0.0
 10
15.8828
 20
58.0492
 30
0.0
 10
15.8828
 20
58.0492
 30
0.0
 10
15.8828
 20
58.0492
 30
0.0
  0
SPLINE
  5
F1
330
1F
100
AcDbEntity
  8
layer 1
370
     9
100
AcDbSpline
210
0.0
220
0.0
230
1.0
 70
    24
 71
     3
 72
     8
 73
     4
 74
     0
 42
0.0000000001
 43
0.0000000001
 40
0.0
 40
0.0
 40
0.0
 40
0.0
 40
1.0
 40
1.0
 40
1.0
 40
1.0
 10
15.8828
 20
54.0492
 30
0.0
 10
15.8828
 20
54.0492
 30
0.0
 10
15.8828
 20
58.0492
 30
0.0
 10
15.8828
 20
58.0492
 30
0.0
  0
SPLINE
  5
F2
330
1F
100
AcDbEntity
  8
layer 1
370
     9
100
AcDbSpline
210
0.0
220
0.0
230
1.0
 70
    27
 71
     3
 72
     8
 73
     4
 74
     0
 42
0.0000000001
 43
0.0000000001
 40
0.0
 40
0.0
 40
0.0
 40
0.0
 40
1.0
 40
1.0
 40
1.0
 40
1.0
 10
15.8828
 20
58.0492
 30
0.0
 10
15.8828
 20
58.0492
 30
0.0
 10
15.8828
 20
58.0492
 30
0.0
 10
15.8828
 20
58.0492
 30
0.0
  0
SPLINE
  5
F3
330
1F
100
AcDbEntity
  8
layer 1
370
     9
100
AcDbSpline
210
0.0
220
0.0
230
1.0
 70
    24
 71
     3
 72
     8
 73
     4
 74
     0
 42
0.0000000001
 43
0.0000000001
 40
0.0
 40
0.0
 40
0.0
 40
0.0
 40
1.0
 40
1.0
 40
1.0
 40
1.0
 10
15.8828
 20
58.0492
 30
0.0
 10
15.8828
 20
58.0492
 30
0.0
 10
-2.8172
 20
58.0492
 30
0.0
 10
-2.8172
 20
58.0492
 30
0.0
  0
SPLINE
  5
F4
330
1F
100
AcDbEntity
  8
layer 1
370
     9
100
AcDbSpline
210
0.0
220
0.0
230
1.0
 70
    27
 71
     3
 72
     8
 73
     4
 74
     0
 42
0.0000000001
 43
0.0000000001
 40
0.0
 40
0.0
 40
0.0
 40
0.0
 40
1.0
 40
1.0
 40
1.0
 40
1.0
 10
-2.8172
 20
58.0492
 30
0.0
 10
-2.8172
 20
58.0492
 30
0.0
 10
-2.8172
 20
58.0492
 30
0.0
 10
-2.8172
 20
58.0492
 30
0.0
  0
SPLINE
  5
F5
330
1F
100
AcDbEntity
  8
layer 1
370
     9
100
AcDbSpline
210
0.0
220
0.0
230
1.0
 70
    24
 71
     3
 72
     8
 73
     4
 74
     0
 42
0.0000000001
 43
0.0000000001
 40
0.0
 40
0.0
 40
0.0
 40
0.0
 40
1.0
 40
1.0
 40
1.0
 40
1.0
 10
-2.8172
 20
54.0492
 30
0.0
 10
-2.8172
 20
54.0492
 30
0.0
 10
-2.8172
 20
58.0492
 30
0.0
 10
-2.8172
 20
58.0492
 30
0.0
  0
SPLINE
  5
F6
330
1F
100
AcDbEntity
  8
layer 1
370
     9
100
AcDbSpline
210
0.0
220
0.0
230
1.0
 70
    27
 71
     3
 72
     8
 73
     4
 74
     0
 42
0.0000000001
 43
0.0000000001
 40
0.0
 40
0.0
 40
0.0
 40
0.0
 40
1.0
 40
1.0
 40
1.0
 40
1.0
 10
0.1828
 20
53.0492
 30
0.0
 10
0.1828
 20
53.0492
 30
0.0
 10
0.1828
 20
53.0492
 30
0.0
 10
0.1828
 20
53.0492
 30
0.0
  0
SPLINE
  5
F7
330
1F
100
AcDbEntity
  8
layer 1
370
     9
100
AcDbSpline
210
0.0
220
0.0
230
1.0
 70
    24
 71
     3
 72
     8
 73
     4
 74
     0
 42
0.0000000001
 43
0.0000000001
 40
0.0
 40
0.0
 40
0.0
 40
0.0
 40
1.0
 40
1.0
 40
1.0
 40
1.0
 10
-1.8172
 20
53.0492
 30
0.0
 10
-1.8172
 20
53.0492
 30
0.0
 10
0.1828
 20
53.0492
 30
0.0
 10
0.1828
 20
53.0492
 30
0.0
  0
SPLINE
  5
F8
330
1F
100
AcDbEntity
  8
layer 1
370
     9
100
AcDbSpline
210
0.0
220
0.0
230
1.0
 70
    27
 71
     3
 72
     8
 73
     4
 74
     0
 42
0.0000000001
 43
0.0000000001
 40
0.0
 40
0.0
 40
0.0
 40
0.0
 40
1.0
 40
1.0
 40
1.0
 40
1.0
 10
0.1828
 20
53.0492
 30
0.0
 10
0.1828
 20
53.0492
 30
0.0
 10
0.1828
 20
53.0492
 30
0.0
 10
0.1828
 20
53.0492
 30
0.0
  0
SPLINE
  5
F9
330
1F
100
AcDbEntity
  8
layer 1
370
     9
100
AcDbSpline
210
0.0
220
0.0
230
1.0
 70
    24
 71
     3
 72
     8
 73
     4
 74
     0
 42
0.0000000001
 43
0.0000000001
 40
0.0
 40
0.0
 40
0.0
 40
0.0
 40
1.0
 40
1.0
 40
1.0
 40
1.0
 10
0.1828
 20
46.1992
 30
0.0
 10
0.1828
 20
46.1992
 30
0.0
 10
0.1828
 20
53.0492
 30
0.0
 10
0.1828
 20
53.0492
 30
0.0
  0
SPLINE
  5
FA
330
1F
100
AcDbEntity
  8
layer 1
370
     9
100
AcDbSpline
210
0.0
220
0.0
230
1.0
 70
    27
 71
     3
 72
     8
 73
     4
 74
     0
 42
0.0000000001
 43
0.0000000001
 40
0.0
 40
0.0
 40
0.0
 40
0.0
 40
1.0
 40
1.0
 40
1.0
 40
1.0
 10
4.1828
 20
46.1992
 30
0.0
 10
4.1828
 20
46.1992
 30
0.0
 10
4.1828
 20
46.1992
 30
0.0
 10
4.1828
 20
46.1992
 30
0.0
  0
SPLINE
  5
FB
330
1F
100
AcDbEntity
  8
layer 1
370
     9
100
AcDbSpline
210
0.0
220
0.0
230
1.0
 70
    24
 71
     3
 72
     8
 73
     4
 74
     0
 42
0.0000000001
 43
0.0000000001
 40
0.0
 40
0.0
 40
0.0
 40
0.0
 40
1.0
 40
1.0
 40
1.0
 40
1.0
 10
0.1828
 20
46.1992
 30
0.0
 10
0.1828
 20
46.1992
 30
0.0
 10
4.1828
 20
46.1992
 30
0.0
 10
4.1828
 20
46.1992
 30
0.0
  0
SPLINE
  5
FC
330
1F
100
AcDbEntity
  8
layer 1
370
     9
100
AcDbSpline
210
0.0
220
0.0
230
1.0
 70
    27
 71
     3
 72
     8
 73
     4
 74
     0
 42
0.0000000001
 43
0.0000000001
 40
0.0
 40
0.0
 40
0.0
 40
0.0
 40
1.0
 40
1.0
 40
1.0
 40
1.0
 10
5.1828
 20
45.1992
 30
0.0
 10
5.1828
 20
45.1992
 30
0.0
 10
5.1828
 20
45.1992
 30
0.0
 10
5.1828
 20
45.1992
 30
0.0
  0
SPLINE
  5
FD
330
1F
100
AcDbEntity
  8
layer 1
370
     9
100
AcDbSpline
210
0.0
220
0.0
230
1.0
 70
    24
 71
     3
 72
     8
 73
     4
 74
     0
 42
0.0000000001
 43
0.0000000001
 40
0.0
 40
0.0
 40
0.0
 40
0.0
 40
1.0
 40
1.0
 40
1.0
 40
1.0
 10
5.1828
 20
45.1992
 30
0.0
 10
5.1828
 20
45.1992
 30
0.0
 10
5.1828
 20
30.7442
 30
0.0
 10
5.1828
 20
30.7442
 30
0.0
  0
SPLINE
  5
FE
330
1F
100
AcDbEntity
  8
layer 1
370
     9
100
AcDbSpline
210
0.0
220
0.0
230
1.0
 70
    27
 71
     3
 72
     8
 73
     4
 74
     0
 42
0.0000000001
 43
0.0000000001
 40
0.0
 40
0.0
 40
0.0
 40
0.0
 40
1.0
 40
1.0
 40
1.0
 40
1.0
 10
4.1828
 20
29.7442
 30
0.0
 10
4.1828
 20
29.7442
 30
0.0
 10
4.1828
 20
29.7442
 30
0.0
 10
4.1828
 20
29.7442
 30
0.0
  0
SPLINE
  5
FF
330
1F
100
AcDbEntity
  8
layer 1
370
     9
100
AcDbSpline
210
0.0
220
0.0
230
1.0
 70
    24
 71
     3
 72
     8
 73
     4
 74
     0
 42
0.0000000001
 43
0.0000000001
 40
0.0
 40
0.0
 40
0.0
 40
0.0
 40
1.0
 40
1.0
 40
1.0
 40
1.0
 10
4.1828
 20
29.7442
 30
0.0
 10
4.1828
 20
29.7442
 30
0.0
 10
0.1828
 20
29.7442
 30
0.0
 10
0.1828
 20
29.7442
 30
0.0
  0
SPLINE
  5
100
330
1F
100
AcDbEntity
  8
layer 1
370
     9
100
AcDbSpline
210
0.0
220
0.0
230
1.0
 70
    24
 71
     3
 72
     8
 73
     4
 74
     0
 42
0.0000000001
 43
0.0000000001
 40
0.0
 40
0.0
 40
0.0
 40
0.0
 40
1.0
 40
1.0
 40
1.0
 40
1.0
 10
0.1828
 20
2.4393
 30
0.0
 10
0.1828
 20
2.4393
 30
0.0
 10
0.1828
 20
29.7442
 30
0.0
 10
0.1828
 20
29.7442
 30
0.0
  0
SPLINE
  5
101
330
1F
100
AcDbEntity
  8
layer 1
370
     9
100
AcDbSpline
210
0.0
220
0.0
230
1.0
 70
    24
 71
     3
 72
     8
 73
     4
 74
     0
 42
0.0000000001
 43
0.0000000001
 40
0.0
 40
0.0
 40
0.0
 40
0.0
 40
1.0
 40
1.0
 40
1.0
 40
1.0
 10
0.1828
 20
2.4393
 30
0.0
 10
0.1828
 20
2.4393
 30
0.0
 10
-1.8172
 20
2.4393
 30
0.0
 10
-1.8172
 20
2.4393
 30
0.0
  0
SPLINE
  5
102
330
1F
100
AcDbEntity
  8
layer 1
370
     9
100
AcDbSpline
210
0.0
220
0.0
230
1.0
 70
     8
 71
     3
 72
     8
 73
     4
 74
     0
 42
0.0000000001
 43
0.0000000001
 40
0.0
 40
0.0
 40
0.0
 40
0.0
 40
1.0
 40
1.0
 40
1.0
 40
1.0
 10
4.1828
 20
29.7442
 30
0.0
 10
4.7351
 20
29.7442
 30
0.0
 10
5.1828
 20
30.1919
 30
0.0
 10
5.1828
 20
30.7441
 30
0.0
  0
SPLINE
  5
103
330
1F
100
AcDbEntity
  8
layer 1
370
     9
100
AcDbSpline
210
0.0
220
0.0
230
1.0
 70
     8
 71
     3
 72
     8
 73
     4
 74
     0
 42
0.0000000001
 43
0.0000000001
 40
0.0
 40
0.0
 40
0.0
 40
0.0
 40
1.0
 40
1.0
 40
1.0
 40
1.0
 10
5.1828
 20
45.1992
 30
0.0
 10
5.1828
 20
45.7514
 30
0.0
 10
4.7351
 20
46.1991
 30
0.0
 10
4.1828
 20
46.1991
 30
0.0
  0
SPLINE
  5
104
330
1F
100
AcDbEntity
  8
layer 1
370
     9
100
AcDbSpline
210
0.0
220
0.0
230
1.0
 70
     8
 71
     3
 72
     8
 73
     4
 74
     0
 42
0.0000000001
 43
0.0000000001
 40
0.0
 40
0.0
 40
0.0
 40
0.0
 40
1.0
 40
1.0
 40
1.0
 40
1.0
 10
14.8828
 20
53.0492
 30
0.0
 10
15.4351
 20
53.0492
 30
0.0
 10
15.8828
 20
53.4969
 30
0.0
 10
15.8828
 20
54.0491
 30
0.0
  0
SPLINE
  5
105
330
1F
100
AcDbEntity
  8
layer 1
370
     9
100
AcDbSpline
210
0.0
220
0.0
230
1.0
 70
     8
 71
     3
 72
    12
 73
     8
 74
     0
 42
0.0000000001
 43
0.0000000001
 40
0.0
 40
0.0
 40
0.0
 40
0.0
 40
0.5
 40
0.5
 40
0.5
 40
0.5
 40
1.0
 40
1.0
 40
1.0
 40
1.0
 10
15.8828
 20
1.4393
 30
0.0
 10
15.8828
 20
1.7045
 30
0.0
 10
15.7774
 20
1.9588
 30
0.0
 10
15.5899
 20
2.1464
 30
0.0
 10
15.5899
 20
2.1464
 30
0.0
 10
15.4024
 20
2.3339
 30
0.0
 10
15.148
 20
2.4392
 30
0.0
 10
14.8828
 20
2.4392
 30
0.0
  0
SPLINE
  5
106
330
1F
100
AcDbEntity
  8
layer 1
370
     9
100
AcDbSpline
210
0.0
220
0.0
230
1.0
 70
     8
 71
     3
 72
    12
 73
     8
 74
     0
 42
0.0000000001
 43
0.0000000001
 40
0.0
 40
0.0
 40
0.0
 40
0.0
 40
0.5
 40
0.5
 40
0.5
 40
0.5
 40
1.0
 40
1.0
 40
1.0
 40
1.0
 10
-2.8172
 20
54.0492
 30
0.0
 10
-2.8172
 20
53.7839
 30
0.0
 10
-2.7118
 20
53.5296
 30
0.0
 10
-2.5243
 20
53.342
 30
0.0
 10
-2.5243
 20
53.342
 30
0.0
 10
-2.3368
 20
53.1545
 30
0.0
 10
-2.0824
 20
53.0492
 30
0.0
 10
-1.8172
 20
53.0492
 30
0.0
  0
SPLINE
  5
107
330
1F
100
AcDbEntity
  8
layer 1
370
     9
100
AcDbSpline
210
0.0
220
0.0
230
1.0
 70
     8
 71
     3
 72
    12
 73
     8
 74
     0
 42
0.0000000001
 43
0.0000000001
 40
0.0
 40
0.0
 40
0.0
 40
0.0
 40
0.5
 40
0.5
 40
0.5
 40
0.5
 40
1.0
 40
1.0
 40
1.0
 40
1.0
 10
-1.8172
 20
2.4392
 30
0.0
 10
-2.0824
 20
2.4392
 30
0.0
 10
-2.3368
 20
2.3339
 30
0.0
 10
-2.5243
 20
2.1464
 30
0.0
 10
-2.5243
 20
2.1464
 30
0.0
 10
-2.7118
 20
1.9588
 30
0.0
 10
-2.8172
 20
1.7045
 30
0.0
 10
-2.8172
 20
1.4393
 30
0.0
  0
SPLINE
  5
108
330
1F
100
AcDbEntity
  8
layer 1
370
     9
100
AcDbSpline
210
0.0
220
0.0
230
1.0
 70
    27
 71
     3
 72
     8
 73
     4
 74
     0
 42
0.0000000001
 43
0.0000000001
 40
0.0
 40
0.0
 40
0.0
 40
0.0
 40
1.0
 40
1.0
 40
1.0
 40
1.0
 10
-94.9
 20
97.2297
 30
0.0
 10
-94.9
 20
97.2297
 30
0.0
 10
-94.9
 20
97.2297
 30
0.0
 10
-94.9
 20
97.2297
 30
0.0
  0
SPLINE
  5
109
330
1F
100
AcDbEntity
  8
layer 1
370
     9
100
AcDbSpline
210
0.0
220
0.0
230
1.0
 70
    24
 71
     3
 72
     8
 73
     4
 74
     0
 42
0.0000000001
 43
0.0000000001
 40
0.0
 40
0.0
 40
0.0
 40
0.0
 40
1.0
 40
1.0
 40
1.0
 40
1.0
 10
-94.9
 20
97.2297
 30
0.0
 10
-94.9
 20
97.2297
 30
0.0
 10
-94.9
 20
100.7297
 30
0.0
 10
-94.9
 20
100.7297
 30
0.0
  0
SPLINE
  5
10A
330
1F
100
AcDbEntity
  8
layer 1
370
     9
100
AcDbSpline
210
0.0
220
0.0
230
1.0
 70
    27
 71
     3
 72
     8
 73
     4
 74
     0
 42
0.0000000001
 43
0.0000000001
 40
0.0
 40
0.0
 40
0.0
 40
0.0
 40
1.0
 40
1.0
 40
1.0
 40
1.0
 10
-99.9226
 20
97.2297
 30
0.0
 10
-99.9226
 20
97.2297
 30
0.0
 10
-99.9226
 20
97.2297
 30
0.0
 10
-99.9226
 20
97.2297
 30
0.0
  0
SPLINE
  5
10B
330
1F
100
AcDbEntity
  8
layer 1
370
     9
100
AcDbSpline
210
0.0
220
0.0
230
1.0
 70
    24
 71
     3
 72
     8
 73
     4
 74
     0
 42
0.0000000001
 43
0.0000000001
 40
0.0
 40
0.0
 40
0.0
 40
0.0
 40
1.0
 40
1.0
 40
1.0
 40
1.0
 10
-94.9
 20
97.2297
 30
0.0
 10
-94.9
 20
97.2297
 30
0.0
 10
-99.9226
 20
97.2297
 30
0.0
 10
-99.9226
 20
97.2297
 30
0.0
  0
SPLINE
  5
10C
330
1F
100
AcDbEntity
  8
layer 1
370
     9
100
AcDbSpline
210
0.0
220
0.0
230
1.0
 70
    27
 71
     3
 72
     8
 73
     4
 74
     0
 42
0.0000000001
 43
0.0000000001
 40
0.0
 40
0.0
 40
0.0
 40
0.0
 40
1.0
 40
1.0
 40
1.0
 40
1.0
 10
-99.9226
 20
97.2297
 30
0.0
 10
-99.9226
 20
97.2297
 30
0.0
 10
-99.9226
 20
97.2297
 30
0.0
 10
-99.9226
 20
97.2297
 30
0.0
  0
SPLINE
  5
10D
330
1F
100
AcDbEntity
  8
layer 1
370
     9
100
AcDbSpline
210
0.0
220
0.0
230
1.0
 70
    24
 71
     3
 72
     8
 73
     4
 74
     0
 42
0.0000000001
 43
0.0000000001
 40
0.0
 40
0.0
 40
0.0
 40
0.0
 40
1.0
 40
1.0
 40
1.0
 40
1.0
 10
-99.9226
 20
97.2297
 30
0.0
 10
-99.9226
 20
97.2297
 30
0.0
 10
-99.9226
 20
100.7297
 30
0.0
 10
-99.9226
 20
100.7297
 30
0.0
  0
SPLINE
  5
10E
330
1F
100
AcDbEntity
  8
layer 1
370
     9
100
AcDbSpline
210
0.0
220
0.0
230
1.0
 70
    27
 71
     3
 72
     8
 73
     4
 74
     0
 42
0.0000000001
 43
0.0000000001
 40
0.0
 40
0.0
 40
0.0
 40
0.0
 40
1.0
 40
1.0
 40
1.0
 40
1.0
 10
-99.9226
 20
100.7297
 30
0.0
 10
-99.9226
 20
100.7297
 30
0.0
 10
-99.9226
 20
100.7297
 30
0.0
 10
-99.9226
 20
100.7297
 30
0.0
  0
SPLINE
  5
10F
330
1F
100
AcDbEntity
  8
layer 1
370
     9
100
AcDbSpline
210
0.0
220
0.0
230
1.0
 70
    24
 71
     3
 72
     8
 73
     4
 74
     0
 42
0.0000000001
 43
0.0000000001
 40
0.0
 40
0.0
 40
0.0
 40
0.0
 40
1.0
 40
1.0
 40
1.0
 40
1.0
 10
-99.9226
 20
100.7297
 30
0.0
 10
-99.9226
 20
100.7297
 30
0.0
 10
-98.9226
 20
100.7297
 30
0.0
 10
-98.9226
 20
100.7297
 30
0.0
  0
SPLINE
  5
110
330
1F
100
AcDbEntity
  8
layer 1
370
     9
100
AcDbSpline
210
0.0
220
0.0
230
1.0
 70
    27
 71
     3
 72
     8
 73
     4
 74
     0
 42
0.0000000001
 43
0.0000000001
 40
0.0
 40
0.0
 40
0.0
 40
0.0
 40
1.0
 40
1.0
 40
1.0
 40
1.0
 10
-98.9226
 20
100.7297
 30
0.0
 10
-98.9226
 20
100.7297
 30
0.0
 10
-98.9226
 20
100.7297
 30
0.0
 10
-98.9226
 20
100.7297
 30
0.0
  0
SPLINE
  5
111
330
1F
100
AcDbEntity
  8
layer 1
370
     9
100
AcDbSpline
210
0.0
220
0.0
230
1.0
 70
    24
 71
     3
 72
     8
 73
     4
 74
     0
 42
0.0000000001
 43
0.0000000001
 40
0.0
 40
0.0
 40
0.0
 40
0.0
 40
1.0
 40
1.0
 40
1.0
 40
1.0
 10
-98.9226
 20
100.7297
 30
0.0
 10
-98.9226
 20
100.7297
 30
0.0
 10
-98.9226
 20
104.7297
 30
0.0
 10
-98.9226
 20
104.7297
 30
0.0
  0
SPLINE
  5
112
330
1F
100
AcDbEntity
  8
layer 1
370
     9
100
AcDbSpline
210
0.0
220
0.0
230
1.0
 70
    27
 71
     3
 72
     8
 73
     4
 74
     0
 42
0.0000000001
 43
0.0000000001
 40
0.0
 40
0.0
 40
0.0
 40
0.0
 40
1.0
 40
1.0
 40
1.0
 40
1.0
 10
-97.9226
 20
105.7297
 30
0.0
 10
-97.9226
 20
105.7297
 30
0.0
 10
-97.9226
 20
105.7297
 30
0.0
 10
-97.9226
 20
105.7297
 30
0.0
  0
SPLINE
  5
113
330
1F
100
AcDbEntity
  8
layer 1
370
     9
100
AcDbSpline
210
0.0
220
0.0
230
1.0
 70
    24
 71
     3
 72
     8
 73
     4
 74
     0
 42
0.0000000001
 43
0.0000000001
 40
0.0
 40
0.0
 40
0.0
 40
0.0
 40
1.0
 40
1.0
 40
1.0
 40
1.0
 10
-96.9
 20
105.7297
 30
0.0
 10
-96.9
 20
105.7297
 30
0.0
 10
-97.9226
 20
105.7297
 30
0.0
 10
-97.9226
 20
105.7297
 30
0.0
  0
SPLINE
  5
114
330
1F
100
AcDbEntity
  8
layer 1
370
     9
100
AcDbSpline
210
0.0
220
0.0
230
1.0
 70
    27
 71
     3
 72
     8
 73
     4
 74
     0
 42
0.0000000001
 43
0.0000000001
 40
0.0
 40
0.0
 40
0.0
 40
0.0
 40
1.0
 40
1.0
 40
1.0
 40
1.0
 10
-95.9
 20
100.7297
 30
0.0
 10
-95.9
 20
100.7297
 30
0.0
 10
-95.9
 20
100.7297
 30
0.0
 10
-95.9
 20
100.7297
 30
0.0
  0
SPLINE
  5
115
330
1F
100
AcDbEntity
  8
layer 1
370
     9
100
AcDbSpline
210
0.0
220
0.0
230
1.0
 70
    24
 71
     3
 72
     8
 73
     4
 74
     0
 42
0.0000000001
 43
0.0000000001
 40
0.0
 40
0.0
 40
0.0
 40
0.0
 40
1.0
 40
1.0
 40
1.0
 40
1.0
 10
-95.9
 20
104.7297
 30
0.0
 10
-95.9
 20
104.7297
 30
0.0
 10
-95.9
 20
100.7297
 30
0.0
 10
-95.9
 20
100.7297
 30
0.0
  0
SPLINE
  5
116
330
1F
100
AcDbEntity
  8
layer 1
370
     9
100
AcDbSpline
210
0.0
220
0.0
230
1.0
 70
    27
 71
     3
 72
     8
 73
     4
 74
     0
 42
0.0000000001
 43
0.0000000001
 40
0.0
 40
0.0
 40
0.0
 40
0.0
 40
1.0
 40
1.0
 40
1.0
 40
1.0
 10
-95.9
 20
100.7297
 30
0.0
 10
-95.9
 20
100.7297
 30
0.0
 10
-95.9
 20
100.7297
 30
0.0
 10
-95.9
 20
100.7297
 30
0.0
  0
SPLINE
  5
117
330
1F
100
AcDbEntity
  8
layer 1
370
     9
100
AcDbSpline
210
0.0
220
0.0
230
1.0
 70
    24
 71
     3
 72
     8
 73
     4
 74
     0
 42
0.0000000001
 43
0.0000000001
 40
0.0
 40
0.0
 40
0.0
 40
0.0
 40
1.0
 40
1.0
 40
1.0
 40
1.0
 10
-95.9
 20
100.7297
 30
0.0
 10
-95.9
 20
100.7297
 30
0.0
 10
-94.9
 20
100.7297
 30
0.0
 10
-94.9
 20
100.7297
 30
0.0
  0
SPLINE
  5
118
330
1F
100
AcDbEntity
  8
layer 1
370
     9
100
AcDbSpline
210
0.0
220
0.0
230
1.0
 70
     8
 71
     3
 72
     8
 73
     4
 74
     0
 42
0.0000000001
 43
0.0000000001
 40
0.0
 40
0.0
 40
0.0
 40
0.0
 40
1.0
 40
1.0
 40
1.0
 40
1.0
 10
-97.9226
 20
105.7297
 30
0.0
 10
-98.4749
 20
105.7297
 30
0.0
 10
-98.9226
 20
105.282
 30
0.0
 10
-98.9226
 20
104.7298
 30
0.0
  0
SPLINE
  5
119
330
1F
100
AcDbEntity
  8
layer 1
370
     9
100
AcDbSpline
210
0.0
220
0.0
230
1.0
 70
     8
 71
     3
 72
    12
 73
     8
 74
     0
 42
0.0000000001
 43
0.0000000001
 40
0.0
 40
0.0
 40
0.0
 40
0.0
 40
0.5
 40
0.5
 40
0.5
 40
0.5
 40
1.0
 40
1.0
 40
1.0
 40
1.0
 10
-95.9
 20
104.7297
 30
0.0
 10
-95.9
 20
104.995
 30
0.0
 10
-96.0054
 20
105.2493
 30
0.0
 10
-96.1929
 20
105.4369
 30
0.0
 10
-96.1929
 20
105.4369
 30
0.0
 10
-96.3804
 20
105.6244
 30
0.0
 10
-96.6348
 20
105.7297
 30
0.0
 10
-96.9
 20
105.7297
 30
0.0
  0
SPLINE
  5
11A
330
1F
100
AcDbEntity
  8
layer 1
370
     9
100
AcDbSpline
210
0.0
220
0.0
230
1.0
 70
    27
 71
     3
 72
     8
 73
     4
 74
     0
 42
0.0000000001
 43
0.0000000001
 40
0.0
 40
0.0
 40
0.0
 40
0.0
 40
1.0
 40
1.0
 40
1.0
 40
1.0
 10
-90.9
 20
106.7297
 30
0.0
 10
-90.9
 20
106.7297
 30
0.0
 10
-90.9
 20
106.7297
 30
0.0
 10
-90.9
 20
106.7297
 30
0.0
  0
SPLINE
  5
11B
330
1F
100
AcDbEntity
  8
layer 1
370
     9
100
AcDbSpline
210
0.0
220
0.0
230
1.0
 70
    24
 71
     3
 72
     8
 73
     4
 74
     0
 42
0.0000000001
 43
0.0000000001
 40
0.0
 40
0.0
 40
0.0
 40
0.0
 40
1.0
 40
1.0
 40
1.0
 40
1.0
 10
-90.9
 20
110.2297
 30
0.0
 10
-90.9
 20
110.2297
 30
0.0
 10
-90.9
 20
106.7297
 30
0.0
 10
-90.9
 20
106.7297
 30
0.0
  0
SPLINE
  5
11C
330
1F
100
AcDbEntity
  8
layer 1
370
     9
100
AcDbSpline
210
0.0
220
0.0
230
1.0
 70
    27
 71
     3
 72
     8
 73
     4
 74
     0
 42
0.0000000001
 43
0.0000000001
 40
0.0
 40
0.0
 40
0.0
 40
0.0
 40
1.0
 40
1.0
 40
1.0
 40
1.0
 10
-95.9226
 20
110.2297
 30
0.0
 10
-95.9226
 20
110.2297
 30
0.0
 10
-95.9226
 20
110.2297
 30
0.0
 10
-95.9226
 20
110.2297
 30
0.0
  0
SPLINE
  5
11D
330
1F
100
AcDbEntity
  8
layer 1
370
     9
100
AcDbSpline
210
0.0
220
0.0
230
1.0
 70
    24
 71
     3
 72
     8
 73
     4
 74
     0
 42
0.0000000001
 43
0.0000000001
 40
0.0
 40
0.0
 40
0.0
 40
0.0
 40
1.0
 40
1.0
 40
1.0
 40
1.0
 10
-90.9
 20
110.2297
 30
0.0
 10
-90.9
 20
110.2297
 30
0.0
 10
-95.9226
 20
110.2297
 30
0.0
 10
-95.9226
 20
110.2297
 30
0.0
  0
SPLINE
  5
11E
330
1F
100
AcDbEntity
  8
layer 1
370
     9
100
AcDbSpline
210
0.0
220
0.0
230
1.0
 70
    27
 71
     3
 72
     8
 73
     4
 74
     0
 42
0.0000000001
 43
0.0000000001
 40
0.0
 40
0.0
 40
0.0
 40
0.0
 40
1.0
 40
1.0
 40
1.0
 40
1.0
 10
-95.9226
 20
106.7297
 30
0.0
 10
-95.9226
 20
106.7297
 30
0.0
 10
-95.9226
 20
106.7297
 30
0.0
 10
-95.9226
 20
106.7297
 30
0.0
  0
SPLINE
  5
11F
330
1F
100
AcDbEntity
  8
layer 1
370
     9
100
AcDbSpline
210
0.0
220
0.0
230
1.0
 70
    24
 71
     3
 72
     8
 73
     4
 74
     0
 42
0.0000000001
 43
0.0000000001
 40
0.0
 40
0.0
 40
0.0
 40
0.0
 40
1.0
 40
1.0
 40
1.0
 40
1.0
 10
-95.9226
 20
110.2297
 30
0.0
 10
-95.9226
 20
110.2297
 30
0.0
 10
-95.9226
 20
106.7297
 30
0.0
 10
-95.9226
 20
106.7297
 30
0.0
  0
SPLINE
  5
120
330
1F
100
AcDbEntity
  8
layer 1
370
     9
100
AcDbSpline
210
0.0
220
0.0
230
1.0
 70
    27
 71
     3
 72
     8
 73
     4
 74
     0
 42
0.0000000001
 43
0.0000000001
 40
0.0
 40
0.0
 40
0.0
 40
0.0
 40
1.0
 40
1.0
 40
1.0
 40
1.0
 10
-95.9226
 20
106.7297
 30
0.0
 10
-95.9226
 20
106.7297
 30
0.0
 10
-95.9226
 20
106.7297
 30
0.0
 10
-95.9226
 20
106.7297
 30
0.0
  0
SPLINE
  5
121
330
1F
100
AcDbEntity
  8
layer 1
370
     9
100
AcDbSpline
210
0.0
220
0.0
230
1.0
 70
    24
 71
     3
 72
     8
 73
     4
 74
     0
 42
0.0000000001
 43
0.0000000001
 40
0.0
 40
0.0
 40
0.0
 40
0.0
 40
1.0
 40
1.0
 40
1.0
 40
1.0
 10
-95.9226
 20
106.7297
 30
0.0
 10
-95.9226
 20
106.7297
 30
0.0
 10
-94.9226
 20
106.7297
 30
0.0
 10
-94.9226
 20
106.7297
 30
0.0
  0
SPLINE
  5
122
330
1F
100
AcDbEntity
  8
layer 1
370
     9
100
AcDbSpline
210
0.0
220
0.0
230
1.0
 70
    27
 71
     3
 72
     8
 73
     4
 74
     0
 42
0.0000000001
 43
0.0000000001
 40
0.0
 40
0.0
 40
0.0
 40
0.0
 40
1.0
 40
1.0
 40
1.0
 40
1.0
 10
-94.9226
 20
102.7297
 30
0.0
 10
-94.9226
 20
102.7297
 30
0.0
 10
-94.9226
 20
102.7297
 30
0.0
 10
-94.9226
 20
102.7297
 30
0.0
  0
SPLINE
  5
123
330
1F
100
AcDbEntity
  8
layer 1
370
     9
100
AcDbSpline
210
0.0
220
0.0
230
1.0
 70
    24
 71
     3
 72
     8
 73
     4
 74
     0
 42
0.0000000001
 43
0.0000000001
 40
0.0
 40
0.0
 40
0.0
 40
0.0
 40
1.0
 40
1.0
 40
1.0
 40
1.0
 10
-94.9226
 20
106.7297
 30
0.0
 10
-94.9226
 20
106.7297
 30
0.0
 10
-94.9226
 20
102.7297
 30
0.0
 10
-94.9226
 20
102.7297
 30
0.0
  0
SPLINE
  5
124
330
1F
100
AcDbEntity
  8
layer 1
370
     9
100
AcDbSpline
210
0.0
220
0.0
230
1.0
 70
    27
 71
     3
 72
     8
 73
     4
 74
     0
 42
0.0000000001
 43
0.0000000001
 40
0.0
 40
0.0
 40
0.0
 40
0.0
 40
1.0
 40
1.0
 40
1.0
 40
1.0
 10
-93.9226
 20
101.7297
 30
0.0
 10
-93.9226
 20
101.7297
 30
0.0
 10
-93.9226
 20
101.7297
 30
0.0
 10
-93.9226
 20
101.7297
 30
0.0
  0
SPLINE
  5
125
330
1F
100
AcDbEntity
  8
layer 1
370
     9
100
AcDbSpline
210
0.0
220
0.0
230
1.0
 70
    24
 71
     3
 72
     8
 73
     4
 74
     0
 42
0.0000000001
 43
0.0000000001
 40
0.0
 40
0.0
 40
0.0
 40
0.0
 40
1.0
 40
1.0
 40
1.0
 40
1.0
 10
-92.9
 20
101.7297
 30
0.0
 10
-92.9
 20
101.7297
 30
0.0
 10
-93.9226
 20
101.7297
 30
0.0
 10
-93.9226
 20
101.7297
 30
0.0
  0
SPLINE
  5
126
330
1F
100
AcDbEntity
  8
layer 1
370
     9
100
AcDbSpline
210
0.0
220
0.0
230
1.0
 70
    27
 71
     3
 72
     8
 73
     4
 74
     0
 42
0.0000000001
 43
0.0000000001
 40
0.0
 40
0.0
 40
0.0
 40
0.0
 40
1.0
 40
1.0
 40
1.0
 40
1.0
 10
-91.9
 20
102.7297
 30
0.0
 10
-91.9
 20
102.7297
 30
0.0
 10
-91.9
 20
102.7297
 30
0.0
 10
-91.9
 20
102.7297
 30
0.0
  0
SPLINE
  5
127
330
1F
100
AcDbEntity
  8
layer 1
370
     9
100
AcDbSpline
210
0.0
220
0.0
230
1.0
 70
    24
 71
     3
 72
     8
 73
     4
 74
     0
 42
0.0000000001
 43
0.0000000001
 40
0.0
 40
0.0
 40
0.0
 40
0.0
 40
1.0
 40
1.0
 40
1.0
 40
1.0
 10
-91.9
 20
102.7297
 30
0.0
 10
-91.9
 20
102.7297
 30
0.0
 10
-91.9
 20
106.7297
 30
0.0
 10
-91.9
 20
106.7297
 30
0.0
  0
SPLINE
  5
128
330
1F
100
AcDbEntity
  8
layer 1
370
     9
100
AcDbSpline
210
0.0
220
0.0
230
1.0
 70
    27
 71
     3
 72
     8
 73
     4
 74
     0
 42
0.0000000001
 43
0.0000000001
 40
0.0
 40
0.0
 40
0.0
 40
0.0
 40
1.0
 40
1.0
 40
1.0
 40
1.0
 10
-91.9
 20
106.7297
 30
0.0
 10
-91.9
 20
106.7297
 30
0.0
 10
-91.9
 20
106.7297
 30
0.0
 10
-91.9
 20
106.7297
 30
0.0
  0
SPLINE
  5
129
330
1F
100
AcDbEntity
  8
layer 1
370
     9
100
AcDbSpline
210
0.0
220
0.0
230
1.0
 70
    24
 71
     3
 72
     8
 73
     4
 74
     0
 42
0.0000000001
 43
0.0000000001
 40
0.0
 40
0.0
 40
0.0
 40
0.0
 40
1.0
 40
1.0
 40
1.0
 40
1.0
 10
-91.9
 20
106.7297
 30
0.0
 10
-91.9
 20
106.7297
 30
0.0
 10
-90.9
 20
106.7297
 30
0.0
 10
-90.9
 20
106.7297
 30
0.0
  0
SPLINE
  5
12A
330
1F
100
AcDbEntity
  8
layer 1
370
     9
100
AcDbSpline
210
0.0
220
0.0
230
1.0
 70
     8
 71
     3
 72
    12
 73
     8
 74
     0
 42
0.0000000001
 43
0.0000000001
 40
0.0
 40
0.0
 40
0.0
 40
0.0
 40
0.5
 40
0.5
 40
0.5
 40
0.5
 40
1.0
 40
1.0
 40
1.0
 40
1.0
 10
-94.9226
 20
102.7298
 30
0.0
 10
-94.9226
 20
102.4645
 30
0.0
 10
-94.8172
 20
102.2102
 30
0.0
 10
-94.6297
 20
102.0226
 30
0.0
 10
-94.6297
 20
102.0226
 30
0.0
 10
-94.4422
 20
101.8351
 30
0.0
 10
-94.1878
 20
101.7298
 30
0.0
 10
-93.9226
 20
101.7298
 30
0.0
  0
SPLINE
  5
12B
330
1F
100
AcDbEntity
  8
layer 1
370
     9
100
AcDbSpline
210
0.0
220
0.0
230
1.0
 70
     8
 71
     3
 72
    12
 73
     8
 74
     0
 42
0.0000000001
 43
0.0000000001
 40
0.0
 40
0.0
 40
0.0
 40
0.0
 40
0.5
 40
0.5
 40
0.5
 40
0.5
 40
1.0
 40
1.0
 40
1.0
 40
1.0
 10
-92.9
 20
101.7298
 30
0.0
 10
-92.6348
 20
101.7298
 30
0.0
 10
-92.3804
 20
101.8351
 30
0.0
 10
-92.1929
 20
102.0226
 30
0.0
 10
-92.1929
 20
102.0226
 30
0.0
 10
-92.0054
 20
102.2102
 30
0.0
 10
-91.9
 20
102.4645
 30
0.0
 10
-91.9
 20
102.7297
 30
0.0
  0
SPLINE
  5
12C
330
1F
100
AcDbEntity
  8
layer 1
370
     9
100
AcDbSpline
210
0.0
220
0.0
230
1.0
 70
    27
 71
     3
 72
     8
 73
     4
 74
     0
 42
0.0000000001
 43
0.0000000001
 40
0.0
 40
0.0
 40
0.0
 40
0.0
 40
1.0
 40
1.0
 40
1.0
 40
1.0
 10
-3.4175
 20
86.4247
 30
0.0
 10
-3.4175
 20
86.4247
 30
0.0
 10
-3.4175
 20
86.4247
 30
0.0
 10
-3.4175
 20
86.4247
 30
0.0
  0
SPLINE
  5
12D
330
1F
100
AcDbEntity
  8
layer 1
370
     9
100
AcDbSpline
210
0.0
220
0.0
230
1.0
 70
    24
 71
     3
 72
     8
 73
     4
 74
     0
 42
0.0000000001
 43
0.0000000001
 40
0.0
 40
0.0
 40
0.0
 40
0.0
 40
1.0
 40
1.0
 40
1.0
 40
1.0
 10
-3.4175
 20
141.0346
 30
0.0
 10
-3.4175
 20
141.0346
 30
0.0
 10
-3.4175
 20
86.4247
 30
0.0
 10
-3.4175
 20
86.4247
 30
0.0
  0
SPLINE
  5
12E
330
1F
100
AcDbEntity
  8
layer 1
370
     9
100
AcDbSpline
210
0.0
220
0.0
230
1.0
 70
     8
 71
     3
 72
    12
 73
     8
 74
     0
 42
0.0000000001
 43
0.0000000001
 40
0.0
 40
0.0
 40
0.0
 40
0.0
 40
0.5
 40
0.5
 40
0.5
 40
0.5
 40
1.0
 40
1.0
 40
1.0
 40
1.0
 10
-9.4175
 20
80.4248
 30
0.0
 10
-7.8262
 20
80.4248
 30
0.0
 10
-6.3001
 20
81.0569
 30
0.0
 10
-5.1749
 20
82.1821
 30
0.0
 10
-5.1749
 20
82.1821
 30
0.0
 10
-4.0496
 20
83.3073
 30
0.0
 10
-3.4175
 20
84.8335
 30
0.0
 10
-3.4175
 20
86.4247
 30
0.0
  0
SPLINE
  5
12F
330
1F
100
AcDbEntity
  8
layer 1
370
     9
100
AcDbSpline
210
0.0
220
0.0
230
1.0
 70
    24
 71
     3
 72
     8
 73
     4
 74
     0
 42
0.0000000001
 43
0.0000000001
 40
0.0
 40
0.0
 40
0.0
 40
0.0
 40
1.0
 40
1.0
 40
1.0
 40
1.0
 10
-9.4175
 20
80.4247
 30
0.0
 10
-9.4175
 20
80.4247
 30
0.0
 10
-95.7774
 20
80.4247
 30
0.0
 10
-95.7774
 20
80.4247
 30
0.0
  0
SPLINE
  5
130
330
1F
100
AcDbEntity
  8
layer 1
370
     9
100
AcDbSpline
210
0.0
220
0.0
230
1.0
 70
     8
 71
     3
 72
    12
 73
     8
 74
     0
 42
0.0000000001
 43
0.0000000001
 40
0.0
 40
0.0
 40
0.0
 40
0.0
 40
0.5
 40
0.5
 40
0.5
 40
0.5
 40
1.0
 40
1.0
 40
1.0
 40
1.0
 10
-101.7774
 20
86.4247
 30
0.0
 10
-101.7774
 20
84.8335
 30
0.0
 10
-101.1453
 20
83.3073
 30
0.0
 10
-100.02
 20
82.1821
 30
0.0
 10
-100.02
 20
82.1821
 30
0.0
 10
-98.8948
 20
81.0569
 30
0.0
 10
-97.3687
 20
80.4248
 30
0.0
 10
-95.7774
 20
80.4248
 30
0.0
  0
SPLINE
  5
131
330
1F
100
AcDbEntity
  8
layer 1
370
     9
100
AcDbSpline
210
0.0
220
0.0
230
1.0
 70
    27
 71
     3
 72
     8
 73
     4
 74
     0
 42
0.0000000001
 43
0.0000000001
 40
0.0
 40
0.0
 40
0.0
 40
0.0
 40
1.0
 40
1.0
 40
1.0
 40
1.0
 10
-101.7774
 20
114.7298
 30
0.0
 10
-101.7774
 20
114.7298
 30
0.0
 10
-101.7774
 20
114.7298
 30
0.0
 10
-101.7774
 20
114.7298
 30
0.0
  0
SPLINE
  5
132
330
1F
100
AcDbEntity
  8
layer 1
370
     9
100
AcDbSpline
210
0.0
220
0.0
230
1.0
 70
    24
 71
     3
 72
     8
 73
     4
 74
     0
 42
0.0000000001
 43
0.0000000001
 40
0.0
 40
0.0
 40
0.0
 40
0.0
 40
1.0
 40
1.0
 40
1.0
 40
1.0
 10
-101.7774
 20
114.7298
 30
0.0
 10
-101.7774
 20
114.7298
 30
0.0
 10
-101.7774
 20
141.0346
 30
0.0
 10
-101.7774
 20
141.0346
 30
0.0
  0
SPLINE
  5
133
330
1F
100
AcDbEntity
  8
layer 1
370
     9
100
AcDbSpline
210
0.0
220
0.0
230
1.0
 70
     8
 71
     3
 72
     8
 73
     4
 74
     0
 42
0.0000000001
 43
0.0000000001
 40
0.0
 40
0.0
 40
0.0
 40
0.0
 40
1.0
 40
1.0
 40
1.0
 40
1.0
 10
-95.7774
 20
147.0346
 30
0.0
 10
-99.0911
 20
147.0346
 30
0.0
 10
-101.7774
 20
144.3484
 30
0.0
 10
-101.7774
 20
141.0347
 30
0.0
  0
SPLINE
  5
134
330
1F
100
AcDbEntity
  8
layer 1
370
     9
100
AcDbSpline
210
0.0
220
0.0
230
1.0
 70
    24
 71
     3
 72
     8
 73
     4
 74
     0
 42
0.0000000001
 43
0.0000000001
 40
0.0
 40
0.0
 40
0.0
 40
0.0
 40
1.0
 40
1.0
 40
1.0
 40
1.0
 10
-95.7774
 20
147.0346
 30
0.0
 10
-95.7774
 20
147.0346
 30
0.0
 10
-9.4175
 20
147.0346
 30
0.0
 10
-9.4175
 20
147.0346
 30
0.0
  0
SPLINE
  5
135
330
1F
100
AcDbEntity
  8
layer 1
370
     9
100
AcDbSpline
210
0.0
220
0.0
230
1.0
 70
     8
 71
     3
 72
    12
 73
     8
 74
     0
 42
0.0000000001
 43
0.0000000001
 40
0.0
 40
0.0
 40
0.0
 40
0.0
 40
0.5
 40
0.5
 40
0.5
 40
0.5
 40
1.0
 40
1.0
 40
1.0
 40
1.0
 10
-3.4175
 20
141.0346
 30
0.0
 10
-3.4175
 20
142.6259
 30
0.0
 10
-4.0496
 20
144.1521
 30
0.0
 10
-5.1749
 20
145.2773
 30
0.0
 10
-5.1749
 20
145.2773
 30
0.0
 10
-6.3001
 20
146.4025
 30
0.0
 10
-7.8262
 20
147.0346
 30
0.0
 10
-9.4175
 20
147.0346
 30
0.0
  0
SPLINE
  5
136
330
1F
100
AcDbEntity
  8
layer 1
370
     9
100
AcDbSpline
210
0.0
220
0.0
230
1.0
 70
    24
 71
     3
 72
     8
 73
     4
 74
     0
 42
0.0000000001
 43
0.0000000001
 40
0.0
 40
0.0
 40
0.0
 40
0.0
 40
1.0
 40
1.0
 40
1.0
 40
1.0
 10
-88.8776
 20
143.9344
 30
0.0
 10
-88.8776
 20
143.9344
 30
0.0
 10
-93.6772
 20
143.9344
 30
0.0
 10
-93.6772
 20
143.9344
 30
0.0
  0
SPLINE
  5
137
330
1F
100
AcDbEntity
  8
layer 1
370
     9
100
AcDbSpline
210
0.0
220
0.0
230
1.0
 70
    24
 71
     3
 72
     8
 73
     4
 74
     0
 42
0.0000000001
 43
0.0000000001
 40
0.0
 40
0.0
 40
0.0
 40
0.0
 40
1.0
 40
1.0
 40
1.0
 40
1.0
 10
-93.6772
 20
143.9344
 30
0.0
 10
-93.6772
 20
143.9344
 30
0.0
 10
-93.6772
 20
141.1348
 30
0.0
 10
-93.6772
 20
141.1348
 30
0.0
  0
SPLINE
  5
138
330
1F
100
AcDbEntity
  8
layer 1
370
     9
100
AcDbSpline
210
0.0
220
0.0
230
1.0
 70
    24
 71
     3
 72
     8
 73
     4
 74
     0
 42
0.0000000001
 43
0.0000000001
 40
0.0
 40
0.0
 40
0.0
 40
0.0
 40
1.0
 40
1.0
 40
1.0
 40
1.0
 10
-93.6772
 20
141.1348
 30
0.0
 10
-93.6772
 20
141.1348
 30
0.0
 10
-88.8776
 20
141.1348
 30
0.0
 10
-88.8776
 20
141.1348
 30
0.0
  0
SPLINE
  5
139
330
1F
100
AcDbEntity
  8
layer 1
370
     9
100
AcDbSpline
210
0.0
220
0.0
230
1.0
 70
    24
 71
     3
 72
     8
 73
     4
 74
     0
 42
0.0000000001
 43
0.0000000001
 40
0.0
 40
0.0
 40
0.0
 40
0.0
 40
1.0
 40
1.0
 40
1.0
 40
1.0
 10
-88.8776
 20
141.1348
 30
0.0
 10
-88.8776
 20
141.1348
 30
0.0
 10
-88.8776
 20
143.9344
 30
0.0
 10
-88.8776
 20
143.9344
 30
0.0
  0
SPLINE
  5
13A
330
1F
100
AcDbEntity
  8
layer 1
370
     9
100
AcDbSpline
210
0.0
220
0.0
230
1.0
 70
    27
 71
     3
 72
     8
 73
     4
 74
     0
 42
0.0000000001
 43
0.0000000001
 40
0.0
 40
0.0
 40
0.0
 40
0.0
 40
1.0
 40
1.0
 40
1.0
 40
1.0
 10
-93.6772
 20
86.3245
 30
0.0
 10
-93.6772
 20
86.3245
 30
0.0
 10
-93.6772
 20
86.3245
 30
0.0
 10
-93.6772
 20
86.3245
 30
0.0
  0
SPLINE
  5
13B
330
1F
100
AcDbEntity
  8
layer 1
370
     9
100
AcDbSpline
210
0.0
220
0.0
230
1.0
 70
    24
 71
     3
 72
     8
 73
     4
 74
     0
 42
0.0000000001
 43
0.0000000001
 40
0.0
 40
0.0
 40
0.0
 40
0.0
 40
1.0
 40
1.0
 40
1.0
 40
1.0
 10
-88.8776
 20
86.3245
 30
0.0
 10
-88.8776
 20
86.3245
 30
0.0
 10
-93.6772
 20
86.3245
 30
0.0
 10
-93.6772
 20
86.3245
 30
0.0
  0
SPLINE
  5
13C
330
1F
100
AcDbEntity
  8
layer 1
370
     9
100
AcDbSpline
210
0.0
220
0.0
230
1.0
 70
    27
 71
     3
 72
     8
 73
     4
 74
     0
 42
0.0000000001
 43
0.0000000001
 40
0.0
 40
0.0
 40
0.0
 40
0.0
 40
1.0
 40
1.0
 40
1.0
 40
1.0
 10
-93.6772
 20
83.5249
 30
0.0
 10
-93.6772
 20
83.5249
 30
0.0
 10
-93.6772
 20
83.5249
 30
0.0
 10
-93.6772
 20
83.5249
 30
0.0
  0
SPLINE
  5
13D
330
1F
100
AcDbEntity
  8
layer 1
370
     9
100
AcDbSpline
210
0.0
220
0.0
230
1.0
 70
    24
 71
     3
 72
     8
 73
     4
 74
     0
 42
0.0000000001
 43
0.0000000001
 40
0.0
 40
0.0
 40
0.0
 40
0.0
 40
1.0
 40
1.0
 40
1.0
 40
1.0
 10
-93.6772
 20
86.3245
 30
0.0
 10
-93.6772
 20
86.3245
 30
0.0
 10
-93.6772
 20
83.5249
 30
0.0
 10
-93.6772
 20
83.5249
 30
0.0
  0
SPLINE
  5
13E
330
1F
100
AcDbEntity
  8
layer 1
370
     9
100
AcDbSpline
210
0.0
220
0.0
230
1.0
 70
    27
 71
     3
 72
     8
 73
     4
 74
     0
 42
0.0000000001
 43
0.0000000001
 40
0.0
 40
0.0
 40
0.0
 40
0.0
 40
1.0
 40
1.0
 40
1.0
 40
1.0
 10
-93.6772
 20
83.5249
 30
0.0
 10
-93.6772
 20
83.5249
 30
0.0
 10
-93.6772
 20
83.5249
 30
0.0
 10
-93.6772
 20
83.5249
 30
0.0
  0
SPLINE
  5
13F
330
1F
100
AcDbEntity
  8
layer 1
370
     9
100
AcDbSpline
210
0.0
220
0.0
230
1.0
 70
    24
 71
     3
 72
     8
 73
     4
 74
     0
 42
0.0000000001
 43
0.0000000001
 40
0.0
 40
0.0
 40
0.0
 40
0.0
 40
1.0
 40
1.0
 40
1.0
 40
1.0
 10
-93.6772
 20
83.5249
 30
0.0
 10
-93.6772
 20
83.5249
 30
0.0
 10
-88.8776
 20
83.5249
 30
0.0
 10
-88.8776
 20
83.5249
 30
0.0
  0
SPLINE
  5
140
330
1F
100
AcDbEntity
  8
layer 1
370
     9
100
AcDbSpline
210
0.0
220
0.0
230
1.0
 70
    27
 71
     3
 72
     8
 73
     4
 74
     0
 42
0.0000000001
 43
0.0000000001
 40
0.0
 40
0.0
 40
0.0
 40
0.0
 40
1.0
 40
1.0
 40
1.0
 40
1.0
 10
-88.8776
 20
83.5249
 30
0.0
 10
-88.8776
 20
83.5249
 30
0.0
 10
-88.8776
 20
83.5249
 30
0.0
 10
-88.8776
 20
83.5249
 30
0.0
  0
SPLINE
  5
141
330
1F
100
AcDbEntity
  8
layer 1
370
     9
100
AcDbSpline
210
0.0
220
0.0
230
1.0
 70
    24
 71
     3
 72
     8
 73
     4
 74
     0
 42
0.0000000001
 43
0.0000000001
 40
0.0
 40
0.0
 40
0.0
 40
0.0
 40
1.0
 40
1.0
 40
1.0
 40
1.0
 10
-88.8776
 20
83.5249
 30
0.0
 10
-88.8776
 20
83.5249
 30
0.0
 10
-88.8776
 20
86.3245
 30
0.0
 10
-88.8776
 20
86.3245
 30
0.0
  0
SPLINE
  5
142
330
1F
100
AcDbEntity
  8
layer 1
370
     9
100
AcDbSpline
210
0.0
220
0.0
230
1.0
 70
    24
 71
     3
 72
     8
 73
     4
 74
     0
 42
0.0000000001
 43
0.0000000001
 40
0.0
 40
0.0
 40
0.0
 40
0.0
 40
1.0
 40
1.0
 40
1.0
 40
1.0
 10
-95.8776
 20
143.9344
 30
0.0
 10
-95.8776
 20
143.9344
 30
0.0
 10
-98.6772
 20
143.9344
 30
0.0
 10
-98.6772
 20
143.9344
 30
0.0
  0
SPLINE
  5
143
330
1F
100
AcDbEntity
  8
layer 1
370
     9
100
AcDbSpline
210
0.0
220
0.0
230
1.0
 70
    24
 71
     3
 72
     8
 73
     4
 74
     0
 42
0.0000000001
 43
0.0000000001
 40
0.0
 40
0.0
 40
0.0
 40
0.0
 40
1.0
 40
1.0
 40
1.0
 40
1.0
 10
-98.6772
 20
143.9344
 30
0.0
 10
-98.6772
 20
143.9344
 30
0.0
 10
-98.6772
 20
139.1348
 30
0.0
 10
-98.6772
 20
139.1348
 30
0.0
  0
SPLINE
  5
144
330
1F
100
AcDbEntity
  8
layer 1
370
     9
100
AcDbSpline
210
0.0
220
0.0
230
1.0
 70
    24
 71
     3
 72
     8
 73
     4
 74
     0
 42
0.0000000001
 43
0.0000000001
 40
0.0
 40
0.0
 40
0.0
 40
0.0
 40
1.0
 40
1.0
 40
1.0
 40
1.0
 10
-98.6772
 20
139.1348
 30
0.0
 10
-98.6772
 20
139.1348
 30
0.0
 10
-95.8776
 20
139.1348
 30
0.0
 10
-95.8776
 20
139.1348
 30
0.0
  0
SPLINE
  5
145
330
1F
100
AcDbEntity
  8
layer 1
370
     9
100
AcDbSpline
210
0.0
220
0.0
230
1.0
 70
    24
 71
     3
 72
     8
 73
     4
 74
     0
 42
0.0000000001
 43
0.0000000001
 40
0.0
 40
0.0
 40
0.0
 40
0.0
 40
1.0
 40
1.0
 40
1.0
 40
1.0
 10
-95.8776
 20
139.1348
 30
0.0
 10
-95.8776
 20
139.1348
 30
0.0
 10
-95.8776
 20
143.9344
 30
0.0
 10
-95.8776
 20
143.9344
 30
0.0
  0
SPLINE
  5
146
330
1F
100
AcDbEntity
  8
layer 1
370
     9
100
AcDbSpline
210
0.0
220
0.0
230
1.0
 70
    27
 71
     3
 72
     8
 73
     4
 74
     0
 42
0.0000000001
 43
0.0000000001
 40
0.0
 40
0.0
 40
0.0
 40
0.0
 40
1.0
 40
1.0
 40
1.0
 40
1.0
 10
-98.6772
 20
88.3245
 30
0.0
 10
-98.6772
 20
88.3245
 30
0.0
 10
-98.6772
 20
88.3245
 30
0.0
 10
-98.6772
 20
88.3245
 30
0.0
  0
SPLINE
  5
147
330
1F
100
AcDbEntity
  8
layer 1
370
     9
100
AcDbSpline
210
0.0
220
0.0
230
1.0
 70
    24
 71
     3
 72
     8
 73
     4
 74
     0
 42
0.0000000001
 43
0.0000000001
 40
0.0
 40
0.0
 40
0.0
 40
0.0
 40
1.0
 40
1.0
 40
1.0
 40
1.0
 10
-95.8776
 20
88.3245
 30
0.0
 10
-95.8776
 20
88.3245
 30
0.0
 10
-98.6772
 20
88.3245
 30
0.0
 10
-98.6772
 20
88.3245
 30
0.0
  0
SPLINE
  5
148
330
1F
100
AcDbEntity
  8
layer 1
370
     9
100
AcDbSpline
210
0.0
220
0.0
230
1.0
 70
    27
 71
     3
 72
     8
 73
     4
 74
     0
 42
0.0000000001
 43
0.0000000001
 40
0.0
 40
0.0
 40
0.0
 40
0.0
 40
1.0
 40
1.0
 40
1.0
 40
1.0
 10
-98.6772
 20
83.5249
 30
0.0
 10
-98.6772
 20
83.5249
 30
0.0
 10
-98.6772
 20
83.5249
 30
0.0
 10
-98.6772
 20
83.5249
 30
0.0
  0
SPLINE
  5
149
330
1F
100
AcDbEntity
  8
layer 1
370
     9
100
AcDbSpline
210
0.0
220
0.0
230
1.0
 70
    24
 71
     3
 72
     8
 73
     4
 74
     0
 42
0.0000000001
 43
0.0000000001
 40
0.0
 40
0.0
 40
0.0
 40
0.0
 40
1.0
 40
1.0
 40
1.0
 40
1.0
 10
-98.6772
 20
88.3245
 30
0.0
 10
-98.6772
 20
88.3245
 30
0.0
 10
-98.6772
 20
83.5249
 30
0.0
 10
-98.6772
 20
83.5249
 30
0.0
  0
SPLINE
  5
14A
330
1F
100
AcDbEntity
  8
layer 1
370
     9
100
AcDbSpline
210
0.0
220
0.0
230
1.0
 70
    27
 71
     3
 72
     8
 73
     4
 74
     0
 42
0.0000000001
 43
0.0000000001
 40
0.0
 40
0.0
 40
0.0
 40
0.0
 40
1.0
 40
1.0
 40
1.0
 40
1.0
 10
-98.6772
 20
83.5249
 30
0.0
 10
-98.6772
 20
83.5249
 30
0.0
 10
-98.6772
 20
83.5249
 30
0.0
 10
-98.6772
 20
83.5249
 30
0.0
  0
SPLINE
  5
14B
330
1F
100
AcDbEntity
  8
layer 1
370
     9
100
AcDbSpline
210
0.0
220
0.0
230
1.0
 70
    24
 71
     3
 72
     8
 73
     4
 74
     0
 42
0.0000000001
 43
0.0000000001
 40
0.0
 40
0.0
 40
0.0
 40
0.0
 40
1.0
 40
1.0
 40
1.0
 40
1.0
 10
-98.6772
 20
83.5249
 30
0.0
 10
-98.6772
 20
83.5249
 30
0.0
 10
-95.8776
 20
83.5249
 30
0.0
 10
-95.8776
 20
83.5249
 30
0.0
  0
SPLINE
  5
14C
330
1F
100
AcDbEntity
  8
layer 1
370
     9
100
AcDbSpline
210
0.0
220
0.0
230
1.0
 70
    27
 71
     3
 72
     8
 73
     4
 74
     0
 42
0.0000000001
 43
0.0000000001
 40
0.0
 40
0.0
 40
0.0
 40
0.0
 40
1.0
 40
1.0
 40
1.0
 40
1.0
 10
-95.8776
 20
83.5249
 30
0.0
 10
-95.8776
 20
83.5249
 30
0.0
 10
-95.8776
 20
83.5249
 30
0.0
 10
-95.8776
 20
83.5249
 30
0.0
  0
SPLINE
  5
14D
330
1F
100
AcDbEntity
  8
layer 1
370
     9
100
AcDbSpline
210
0.0
220
0.0
230
1.0
 70
    24
 71
     3
 72
     8
 73
     4
 74
     0
 42
0.0000000001
 43
0.0000000001
 40
0.0
 40
0.0
 40
0.0
 40
0.0
 40
1.0
 40
1.0
 40
1.0
 40
1.0
 10
-95.8776
 20
83.5249
 30
0.0
 10
-95.8776
 20
83.5249
 30
0.0
 10
-95.8776
 20
88.3245
 30
0.0
 10
-95.8776
 20
88.3245
 30
0.0
  0
SPLINE
  5
14E
330
1F
100
AcDbEntity
  8
layer 1
370
     9
100
AcDbSpline
210
0.0
220
0.0
230
1.0
 70
    27
 71
     3
 72
     8
 73
     4
 74
     0
 42
0.0000000001
 43
0.0000000001
 40
0.0
 40
0.0
 40
0.0
 40
0.0
 40
1.0
 40
1.0
 40
1.0
 40
1.0
 10
-9.3173
 20
143.9344
 30
0.0
 10
-9.3173
 20
143.9344
 30
0.0
 10
-9.3173
 20
143.9344
 30
0.0
 10
-9.3173
 20
143.9344
 30
0.0
  0
SPLINE
  5
14F
330
1F
100
AcDbEntity
  8
layer 1
370
     9
100
AcDbSpline
210
0.0
220
0.0
230
1.0
 70
    24
 71
     3
 72
     8
 73
     4
 74
     0
 42
0.0000000001
 43
0.0000000001
 40
0.0
 40
0.0
 40
0.0
 40
0.0
 40
1.0
 40
1.0
 40
1.0
 40
1.0
 10
-6.5177
 20
143.9344
 30
0.0
 10
-6.5177
 20
143.9344
 30
0.0
 10
-9.3173
 20
143.9344
 30
0.0
 10
-9.3173
 20
143.9344
 30
0.0
  0
SPLINE
  5
150
330
1F
100
AcDbEntity
  8
layer 1
370
     9
100
AcDbSpline
210
0.0
220
0.0
230
1.0
 70
    27
 71
     3
 72
     8
 73
     4
 74
     0
 42
0.0000000001
 43
0.0000000001
 40
0.0
 40
0.0
 40
0.0
 40
0.0
 40
1.0
 40
1.0
 40
1.0
 40
1.0
 10
-9.3173
 20
139.1348
 30
0.0
 10
-9.3173
 20
139.1348
 30
0.0
 10
-9.3173
 20
139.1348
 30
0.0
 10
-9.3173
 20
139.1348
 30
0.0
  0
SPLINE
  5
151
330
1F
100
AcDbEntity
  8
layer 1
370
     9
100
AcDbSpline
210
0.0
220
0.0
230
1.0
 70
    24
 71
     3
 72
     8
 73
     4
 74
     0
 42
0.0000000001
 43
0.0000000001
 40
0.0
 40
0.0
 40
0.0
 40
0.0
 40
1.0
 40
1.0
 40
1.0
 40
1.0
 10
-9.3173
 20
143.9344
 30
0.0
 10
-9.3173
 20
143.9344
 30
0.0
 10
-9.3173
 20
139.1348
 30
0.0
 10
-9.3173
 20
139.1348
 30
0.0
  0
SPLINE
  5
152
330
1F
100
AcDbEntity
  8
layer 1
370
     9
100
AcDbSpline
210
0.0
220
0.0
230
1.0
 70
    27
 71
     3
 72
     8
 73
     4
 74
     0
 42
0.0000000001
 43
0.0000000001
 40
0.0
 40
0.0
 40
0.0
 40
0.0
 40
1.0
 40
1.0
 40
1.0
 40
1.0
 10
-9.3173
 20
139.1348
 30
0.0
 10
-9.3173
 20
139.1348
 30
0.0
 10
-9.3173
 20
139.1348
 30
0.0
 10
-9.3173
 20
139.1348
 30
0.0
  0
SPLINE
  5
153
330
1F
100
AcDbEntity
  8
layer 1
370
     9
100
AcDbSpline
210
0.0
220
0.0
230
1.0
 70
    24
 71
     3
 72
     8
 73
     4
 74
     0
 42
0.0000000001
 43
0.0000000001
 40
0.0
 40
0.0
 40
0.0
 40
0.0
 40
1.0
 40
1.0
 40
1.0
 40
1.0
 10
-9.3173
 20
139.1348
 30
0.0
 10
-9.3173
 20
139.1348
 30
0.0
 10
-6.5177
 20
139.1348
 30
0.0
 10
-6.5177
 20
139.1348
 30
0.0
  0
SPLINE
  5
154
330
1F
100
AcDbEntity
  8
layer 1
370
     9
100
AcDbSpline
210
0.0
220
0.0
230
1.0
 70
    27
 71
     3
 72
     8
 73
     4
 74
     0
 42
0.0000000001
 43
0.0000000001
 40
0.0
 40
0.0
 40
0.0
 40
0.0
 40
1.0
 40
1.0
 40
1.0
 40
1.0
 10
-6.5177
 20
139.1348
 30
0.0
 10
-6.5177
 20
139.1348
 30
0.0
 10
-6.5177
 20
139.1348
 30
0.0
 10
-6.5177
 20
139.1348
 30
0.0
  0
SPLINE
  5
155
330
1F
100
AcDbEntity
  8
layer 1
370
     9
100
AcDbSpline
210
0.0
220
0.0
230
1.0
 70
    24
 71
     3
 72
     8
 73
     4
 74
     0
 42
0.0000000001
 43
0.0000000001
 40
0.0
 40
0.0
 40
0.0
 40
0.0
 40
1.0
 40
1.0
 40
1.0
 40
1.0
 10
-6.5177
 20
139.1348
 30
0.0
 10
-6.5177
 20
139.1348
 30
0.0
 10
-6.5177
 20
143.9344
 30
0.0
 10
-6.5177
 20
143.9344
 30
0.0
  0
SPLINE
  5
156
330
1F
100
AcDbEntity
  8
layer 1
370
     9
100
AcDbSpline
210
0.0
220
0.0
230
1.0
 70
    24
 71
     3
 72
     8
 73
     4
 74
     0
 42
0.0000000001
 43
0.0000000001
 40
0.0
 40
0.0
 40
0.0
 40
0.0
 40
1.0
 40
1.0
 40
1.0
 40
1.0
 10
-6.5177
 20
88.3245
 30
0.0
 10
-6.5177
 20
88.3245
 30
0.0
 10
-9.3173
 20
88.3245
 30
0.0
 10
-9.3173
 20
88.3245
 30
0.0
  0
SPLINE
  5
157
330
1F
100
AcDbEntity
  8
layer 1
370
     9
100
AcDbSpline
210
0.0
220
0.0
230
1.0
 70
    24
 71
     3
 72
     8
 73
     4
 74
     0
 42
0.0000000001
 43
0.0000000001
 40
0.0
 40
0.0
 40
0.0
 40
0.0
 40
1.0
 40
1.0
 40
1.0
 40
1.0
 10
-9.3173
 20
88.3245
 30
0.0
 10
-9.3173
 20
88.3245
 30
0.0
 10
-9.3173
 20
83.5248
 30
0.0
 10
-9.3173
 20
83.5248
 30
0.0
  0
SPLINE
  5
158
330
1F
100
AcDbEntity
  8
layer 1
370
     9
100
AcDbSpline
210
0.0
220
0.0
230
1.0
 70
    24
 71
     3
 72
     8
 73
     4
 74
     0
 42
0.0000000001
 43
0.0000000001
 40
0.0
 40
0.0
 40
0.0
 40
0.0
 40
1.0
 40
1.0
 40
1.0
 40
1.0
 10
-9.3173
 20
83.5248
 30
0.0
 10
-9.3173
 20
83.5248
 30
0.0
 10
-6.5177
 20
83.5248
 30
0.0
 10
-6.5177
 20
83.5248
 30
0.0
  0
SPLINE
  5
159
330
1F
100
AcDbEntity
  8
layer 1
370
     9
100
AcDbSpline
210
0.0
220
0.0
230
1.0
 70
    24
 71
     3
 72
     8
 73
     4
 74
     0
 42
0.0000000001
 43
0.0000000001
 40
0.0
 40
0.0
 40
0.0
 40
0.0
 40
1.0
 40
1.0
 40
1.0
 40
1.0
 10
-6.5177
 20
83.5248
 30
0.0
 10
-6.5177
 20
83.5248
 30
0.0
 10
-6.5177
 20
88.3245
 30
0.0
 10
-6.5177
 20
88.3245
 30
0.0
  0
SPLINE
  5
15A
330
1F
100
AcDbEntity
  8
layer 1
370
     9
100
AcDbSpline
210
0.0
220
0.0
230
1.0
 70
    24
 71
     3
 72
     8
 73
     4
 74
     0
 42
0.0000000001
 43
0.0000000001
 40
0.0
 40
0.0
 40
0.0
 40
0.0
 40
1.0
 40
1.0
 40
1.0
 40
1.0
 10
-14.5177
 20
86.3245
 30
0.0
 10
-14.5177
 20
86.3245
 30
0.0
 10
-19.3173
 20
86.3245
 30
0.0
 10
-19.3173
 20
86.3245
 30
0.0
  0
SPLINE
  5
15B
330
1F
100
AcDbEntity
  8
layer 1
370
     9
100
AcDbSpline
210
0.0
220
0.0
230
1.0
 70
    24
 71
     3
 72
     8
 73
     4
 74
     0
 42
0.0000000001
 43
0.0000000001
 40
0.0
 40
0.0
 40
0.0
 40
0.0
 40
1.0
 40
1.0
 40
1.0
 40
1.0
 10
-19.3173
 20
86.3245
 30
0.0
 10
-19.3173
 20
86.3245
 30
0.0
 10
-19.3173
 20
83.5249
 30
0.0
 10
-19.3173
 20
83.5249
 30
0.0
  0
SPLINE
  5
15C
330
1F
100
AcDbEntity
  8
layer 1
370
     9
100
AcDbSpline
210
0.0
220
0.0
230
1.0
 70
    24
 71
     3
 72
     8
 73
     4
 74
     0
 42
0.0000000001
 43
0.0000000001
 40
0.0
 40
0.0
 40
0.0
 40
0.0
 40
1.0
 40
1.0
 40
1.0
 40
1.0
 10
-19.3173
 20
83.5249
 30
0.0
 10
-19.3173
 20
83.5249
 30
0.0
 10
-14.5177
 20
83.5249
 30
0.0
 10
-14.5177
 20
83.5249
 30
0.0
  0
SPLINE
  5
15D
330
1F
100
AcDbEntity
  8
layer 1
370
     9
100
AcDbSpline
210
0.0
220
0.0
230
1.0
 70
    24
 71
     3
 72
     8
 73
     4
 74
     0
 42
0.0000000001
 43
0.0000000001
 40
0.0
 40
0.0
 40
0.0
 40
0.0
 40
1.0
 40
1.0
 40
1.0
 40
1.0
 10
-14.5177
 20
83.5249
 30
0.0
 10
-14.5177
 20
83.5249
 30
0.0
 10
-14.5177
 20
86.3245
 30
0.0
 10
-14.5177
 20
86.3245
 30
0.0
  0
SPLINE
  5
15E
330
1F
100
AcDbEntity
  8
layer 1
370
     9
100
AcDbSpline
210
0.0
220
0.0
230
1.0
 70
    27
 71
     3
 72
     8
 73
     4
 74
     0
 42
0.0000000001
 43
0.0000000001
 40
0.0
 40
0.0
 40
0.0
 40
0.0
 40
1.0
 40
1.0
 40
1.0
 40
1.0
 10
-19.3173
 20
143.9344
 30
0.0
 10
-19.3173
 20
143.9344
 30
0.0
 10
-19.3173
 20
143.9344
 30
0.0
 10
-19.3173
 20
143.9344
 30
0.0
  0
SPLINE
  5
15F
330
1F
100
AcDbEntity
  8
layer 1
370
     9
100
AcDbSpline
210
0.0
220
0.0
230
1.0
 70
    24
 71
     3
 72
     8
 73
     4
 74
     0
 42
0.0000000001
 43
0.0000000001
 40
0.0
 40
0.0
 40
0.0
 40
0.0
 40
1.0
 40
1.0
 40
1.0
 40
1.0
 10
-14.5177
 20
143.9344
 30
0.0
 10
-14.5177
 20
143.9344
 30
0.0
 10
-19.3173
 20
143.9344
 30
0.0
 10
-19.3173
 20
143.9344
 30
0.0
  0
SPLINE
  5
160
330
1F
100
AcDbEntity
  8
layer 1
370
     9
100
AcDbSpline
210
0.0
220
0.0
230
1.0
 70
    27
 71
     3
 72
     8
 73
     4
 74
     0
 42
0.0000000001
 43
0.0000000001
 40
0.0
 40
0.0
 40
0.0
 40
0.0
 40
1.0
 40
1.0
 40
1.0
 40
1.0
 10
-19.3173
 20
141.1348
 30
0.0
 10
-19.3173
 20
141.1348
 30
0.0
 10
-19.3173
 20
141.1348
 30
0.0
 10
-19.3173
 20
141.1348
 30
0.0
  0
SPLINE
  5
161
330
1F
100
AcDbEntity
  8
layer 1
370
     9
100
AcDbSpline
210
0.0
220
0.0
230
1.0
 70
    24
 71
     3
 72
     8
 73
     4
 74
     0
 42
0.0000000001
 43
0.0000000001
 40
0.0
 40
0.0
 40
0.0
 40
0.0
 40
1.0
 40
1.0
 40
1.0
 40
1.0
 10
-19.3173
 20
143.9344
 30
0.0
 10
-19.3173
 20
143.9344
 30
0.0
 10
-19.3173
 20
141.1348
 30
0.0
 10
-19.3173
 20
141.1348
 30
0.0
  0
SPLINE
  5
162
330
1F
100
AcDbEntity
  8
layer 1
370
     9
100
AcDbSpline
210
0.0
220
0.0
230
1.0
 70
    27
 71
     3
 72
     8
 73
     4
 74
     0
 42
0.0000000001
 43
0.0000000001
 40
0.0
 40
0.0
 40
0.0
 40
0.0
 40
1.0
 40
1.0
 40
1.0
 40
1.0
 10
-19.3173
 20
141.1348
 30
0.0
 10
-19.3173
 20
141.1348
 30
0.0
 10
-19.3173
 20
141.1348
 30
0.0
 10
-19.3173
 20
141.1348
 30
0.0
  0
SPLINE
  5
163
330
1F
100
AcDbEntity
  8
layer 1
370
     9
100
AcDbSpline
210
0.0
220
0.0
230
1.0
 70
    24
 71
     3
 72
     8
 73
     4
 74
     0
 42
0.0000000001
 43
0.0000000001
 40
0.0
 40
0.0
 40
0.0
 40
0.0
 40
1.0
 40
1.0
 40
1.0
 40
1.0
 10
-19.3173
 20
141.1348
 30
0.0
 10
-19.3173
 20
141.1348
 30
0.0
 10
-14.5177
 20
141.1348
 30
0.0
 10
-14.5177
 20
141.1348
 30
0.0
  0
SPLINE
  5
164
330
1F
100
AcDbEntity
  8
layer 1
370
     9
100
AcDbSpline
210
0.0
220
0.0
230
1.0
 70
    27
 71
     3
 72
     8
 73
     4
 74
     0
 42
0.0000000001
 43
0.0000000001
 40
0.0
 40
0.0
 40
0.0
 40
0.0
 40
1.0
 40
1.0
 40
1.0
 40
1.0
 10
-14.5177
 20
141.1348
 30
0.0
 10
-14.5177
 20
141.1348
 30
0.0
 10
-14.5177
 20
141.1348
 30
0.0
 10
-14.5177
 20
141.1348
 30
0.0
  0
SPLINE
  5
165
330
1F
100
AcDbEntity
  8
layer 1
370
     9
100
AcDbSpline
210
0.0
220
0.0
230
1.0
 70
    24
 71
     3
 72
     8
 73
     4
 74
     0
 42
0.0000000001
 43
0.0000000001
 40
0.0
 40
0.0
 40
0.0
 40
0.0
 40
1.0
 40
1.0
 40
1.0
 40
1.0
 10
-14.5177
 20
141.1348
 30
0.0
 10
-14.5177
 20
141.1348
 30
0.0
 10
-14.5177
 20
143.9344
 30
0.0
 10
-14.5177
 20
143.9344
 30
0.0
  0
SPLINE
  5
166
330
1F
100
AcDbEntity
  8
layer 1
370
     9
100
AcDbSpline
210
0.0
220
0.0
230
1.0
 70
     8
 71
     3
 72
    20
 73
    16
 74
     0
 42
0.0000000001
 43
0.0000000001
 40
0.0
 40
0.0
 40
0.0
 40
0.0
 40
0.25
 40
0.25
 40
0.25
 40
0.25
 40
0.5
 40
0.5
 40
0.5
 40
0.5
 40
0.75
 40
0.75
 40
0.75
 40
0.75
 40
1.0
 40
1.0
 40
1.0
 40
1.0
 10
-91.5624
 20
92.7747
 30
0.0
 10
-91.5624
 20
91.9463
 30
0.0
 10
-90.8908
 20
91.2748
 30
0.0
 10
-90.0624
 20
91.2748
 30
0.0
 10
-90.0624
 20
91.2748
 30
0.0
 10
-89.234
 20
91.2747
 30
0.0
 10
-88.5624
 20
91.9463
 30
0.0
 10
-88.5624
 20
92.7747
 30
0.0
 10
-88.5624
 20
92.7747
 30
0.0
 10
-88.5624
 20
93.6032
 30
0.0
 10
-89.234
 20
94.2747
 30
0.0
 10
-90.0624
 20
94.2747
 30
0.0
 10
-90.0624
 20
94.2747
 30
0.0
 10
-90.8908
 20
94.2748
 30
0.0
 10
-91.5624
 20
93.6032
 30
0.0
 10
-91.5624
 20
92.7748
 30
0.0
  0
SPLINE
  5
167
330
1F
100
AcDbEntity
  8
layer 1
370
     9
100
AcDbSpline
210
0.0
220
0.0
230
1.0
 70
    11
 71
     3
 72
    20
 73
    16
 74
     0
 42
0.0000000001
 43
0.0000000001
 40
0.0
 40
0.0
 40
0.0
 40
0.0
 40
0.25
 40
0.25
 40
0.25
 40
0.25
 40
0.5
 40
0.5
 40
0.5
 40
0.5
 40
0.75
 40
0.75
 40
0.75
 40
0.75
 40
1.0
 40
1.0
 40
1.0
 40
1.0
 10
-91.5624
 20
134.6847
 30
0.0
 10
-91.5624
 20
133.8562
 30
0.0
 10
-90.8908
 20
133.1847
 30
0.0
 10
-90.0624
 20
133.1847
 30
0.0
 10
-90.0624
 20
133.1847
 30
0.0
 10
-89.234
 20
133.1846
 30
0.0
 10
-88.5624
 20
133.8562
 30
0.0
 10
-88.5624
 20
134.6846
 30
0.0
 10
-88.5624
 20
134.6846
 30
0.0
 10
-88.5624
 20
135.5131
 30
0.0
 10
-89.234
 20
136.1846
 30
0.0
 10
-90.0624
 20
136.1846
 30
0.0
 10
-90.0624
 20
136.1846
 30
0.0
 10
-90.8908
 20
136.1847
 30
0.0
 10
-91.5624
 20
135.5131
 30
0.0
 10
-91.5624
 20
134.6847
 30
0.0
  0
SPLINE
  5
168
330
1F
100
AcDbEntity
  8
layer 1
370
     9
100
AcDbSpline
210
0.0
220
0.0
230
1.0
 70
     8
 71
     3
 72
    20
 73
    16
 74
     0
 42
0.0000000001
 43
0.0000000001
 40
0.0
 40
0.0
 40
0.0
 40
0.0
 40
0.25
 40
0.25
 40
0.25
 40
0.25
 40
0.5
 40
0.5
 40
0.5
 40
0.5
 40
0.75
 40
0.75
 40
0.75
 40
0.75
 40
1.0
 40
1.0
 40
1.0
 40
1.0
 10
-25.5224
 20
137.8596
 30
0.0
 10
-25.5224
 20
137.0312
 30
0.0
 10
-24.8508
 20
136.3597
 30
0.0
 10
-24.0224
 20
136.3597
 30
0.0
 10
-24.0224
 20
136.3597
 30
0.0
 10
-23.194
 20
136.3596
 30
0.0
 10
-22.5224
 20
137.0312
 30
0.0
 10
-22.5224
 20
137.8596
 30
0.0
 10
-22.5224
 20
137.8596
 30
0.0
 10
-22.5224
 20
138.6881
 30
0.0
 10
-23.194
 20
139.3596
 30
0.0
 10
-24.0224
 20
139.3596
 30
0.0
 10
-24.0224
 20
139.3596
 30
0.0
 10
-24.8508
 20
139.3597
 30
0.0
 10
-25.5224
 20
138.6881
 30
0.0
 10
-25.5224
 20
137.8597
 30
0.0
  0
SPLINE
  5
169
330
1F
100
AcDbEntity
  8
layer 1
370
     9
100
AcDbSpline
210
0.0
220
0.0
230
1.0
 70
     8
 71
     3
 72
    20
 73
    16
 74
     0
 42
0.0000000001
 43
0.0000000001
 40
0.0
 40
0.0
 40
0.0
 40
0.0
 40
0.25
 40
0.25
 40
0.25
 40
0.25
 40
0.5
 40
0.5
 40
0.5
 40
0.5
 40
0.75
 40
0.75
 40
0.75
 40
0.75
 40
1.0
 40
1.0
 40
1.0
 40
1.0
 10
-25.5224
 20
89.5997
 30
0.0
 10
-25.5224
 20
88.7713
 30
0.0
 10
-24.8508
 20
88.0998
 30
0.0
 10
-24.0224
 20
88.0998
 30
0.0
 10
-24.0224
 20
88.0998
 30
0.0
 10
-23.194
 20
88.0997
 30
0.0
 10
-22.5224
 20
88.7713
 30
0.0
 10
-22.5224
 20
89.5997
 30
0.0
 10
-22.5224
 20
89.5997
 30
0.0
 10
-22.5224
 20
90.4282
 30
0.0
 10
-23.194
 20
91.0997
 30
0.0
 10
-24.0224
 20
91.0997
 30
0.0
 10
-24.0224
 20
91.0997
 30
0.0
 10
-24.8508
 20
91.0998
 30
0.0
 10
-25.5224
 20
90.4282
 30
0.0
 10
-25.5224
 20
89.5998
 30
0.0
  0
SPLINE
  5
16A
330
1F
100
AcDbEntity
  8
layer 1
370
     9
100
AcDbSpline
210
0.0
220
0.0
230
1.0
 70
    27
 71
     3
 72
     8
 73
     4
 74
     0
 42
0.0000000001
 43
0.0000000001
 40
0.0
 40
0.0
 40
0.0
 40
0.0
 40
1.0
 40
1.0
 40
1.0
 40
1.0
 10
-98.7774
 20
111.7297
 30
0.0
 10
-98.7774
 20
111.7297
 30
0.0
 10
-98.7774
 20
111.7297
 30
0.0
 10
-98.7774
 20
111.7297
 30
0.0
  0
SPLINE
  5
16B
330
1F
100
AcDbEntity
  8
layer 1
370
     9
100
AcDbSpline
210
0.0
220
0.0
230
1.0
 70
    24
 71
     3
 72
     8
 73
     4
 74
     0
 42
0.0000000001
 43
0.0000000001
 40
0.0
 40
0.0
 40
0.0
 40
0.0
 40
1.0
 40
1.0
 40
1.0
 40
1.0
 10
-91.0624
 20
111.7297
 30
0.0
 10
-91.0624
 20
111.7297
 30
0.0
 10
-98.7774
 20
111.7297
 30
0.0
 10
-98.7774
 20
111.7297
 30
0.0
  0
SPLINE
  5
16C
330
1F
100
AcDbEntity
  8
layer 1
370
     9
100
AcDbSpline
210
0.0
220
0.0
230
1.0
 70
    27
 71
     3
 72
     8
 73
     4
 74
     0
 42
0.0000000001
 43
0.0000000001
 40
0.0
 40
0.0
 40
0.0
 40
0.0
 40
1.0
 40
1.0
 40
1.0
 40
1.0
 10
-98.7774
 20
95.2747
 30
0.0
 10
-98.7774
 20
95.2747
 30
0.0
 10
-98.7774
 20
95.2747
 30
0.0
 10
-98.7774
 20
95.2747
 30
0.0
  0
SPLINE
  5
16D
330
1F
100
AcDbEntity
  8
layer 1
370
     9
100
AcDbSpline
210
0.0
220
0.0
230
1.0
 70
    24
 71
     3
 72
     8
 73
     4
 74
     0
 42
0.0000000001
 43
0.0000000001
 40
0.0
 40
0.0
 40
0.0
 40
0.0
 40
1.0
 40
1.0
 40
1.0
 40
1.0
 10
-98.7774
 20
95.2747
 30
0.0
 10
-98.7774
 20
95.2747
 30
0.0
 10
-91.0624
 20
95.2747
 30
0.0
 10
-91.0624
 20
95.2747
 30
0.0
  0
SPLINE
  5
16E
330
1F
100
AcDbEntity
  8
layer 1
370
     9
100
AcDbSpline
210
0.0
220
0.0
230
1.0
 70
    27
 71
     3
 72
     8
 73
     4
 74
     0
 42
0.0000000001
 43
0.0000000001
 40
0.0
 40
0.0
 40
0.0
 40
0.0
 40
1.0
 40
1.0
 40
1.0
 40
1.0
 10
-90.0624
 20
96.2747
 30
0.0
 10
-90.0624
 20
96.2747
 30
0.0
 10
-90.0624
 20
96.2747
 30
0.0
 10
-90.0624
 20
96.2747
 30
0.0
  0
SPLINE
  5
16F
330
1F
100
AcDbEntity
  8
layer 1
370
     9
100
AcDbSpline
210
0.0
220
0.0
230
1.0
 70
    24
 71
     3
 72
     8
 73
     4
 74
     0
 42
0.0000000001
 43
0.0000000001
 40
0.0
 40
0.0
 40
0.0
 40
0.0
 40
1.0
 40
1.0
 40
1.0
 40
1.0
 10
-90.0624
 20
110.7297
 30
0.0
 10
-90.0624
 20
110.7297
 30
0.0
 10
-90.0624
 20
96.2747
 30
0.0
 10
-90.0624
 20
96.2747
 30
0.0
  0
SPLINE
  5
170
330
1F
100
AcDbEntity
  8
layer 1
370
     9
100
AcDbSpline
210
0.0
220
0.0
230
1.0
 70
    27
 71
     3
 72
     8
 73
     4
 74
     0
 42
0.0000000001
 43
0.0000000001
 40
0.0
 40
0.0
 40
0.0
 40
0.0
 40
1.0
 40
1.0
 40
1.0
 40
1.0
 10
-101.7774
 20
86.4247
 30
0.0
 10
-101.7774
 20
86.4247
 30
0.0
 10
-101.7774
 20
86.4247
 30
0.0
 10
-101.7774
 20
86.4247
 30
0.0
  0
SPLINE
  5
171
330
1F
100
AcDbEntity
  8
layer 1
370
     9
100
AcDbSpline
210
0.0
220
0.0
230
1.0
 70
    24
 71
     3
 72
     8
 73
     4
 74
     0
 42
0.0000000001
 43
0.0000000001
 40
0.0
 40
0.0
 40
0.0
 40
0.0
 40
1.0
 40
1.0
 40
1.0
 40
1.0
 10
-101.7774
 20
86.4247
 30
0.0
 10
-101.7774
 20
86.4247
 30
0.0
 10
-101.7774
 20
92.2747
 30
0.0
 10
-101.7774
 20
92.2747
 30
0.0
  0
SPLINE
  5
172
330
1F
100
AcDbEntity
  8
layer 1
370
     9
100
AcDbSpline
210
0.0
220
0.0
230
1.0
 70
     8
 71
     3
 72
    12
 73
     8
 74
     0
 42
0.0000000001
 43
0.0000000001
 40
0.0
 40
0.0
 40
0.0
 40
0.0
 40
0.5
 40
0.5
 40
0.5
 40
0.5
 40
1.0
 40
1.0
 40
1.0
 40
1.0
 10
-101.7774
 20
114.7298
 30
0.0
 10
-101.7774
 20
113.9341
 30
0.0
 10
-101.4613
 20
113.171
 30
0.0
 10
-100.8987
 20
112.6084
 30
0.0
 10
-100.8987
 20
112.6084
 30
0.0
 10
-100.3361
 20
112.0458
 30
0.0
 10
-99.573
 20
111.7298
 30
0.0
 10
-98.7774
 20
111.7298
 30
0.0
  0
SPLINE
  5
173
330
1F
100
AcDbEntity
  8
layer 1
370
     9
100
AcDbSpline
210
0.0
220
0.0
230
1.0
 70
     8
 71
     3
 72
     8
 73
     4
 74
     0
 42
0.0000000001
 43
0.0000000001
 40
0.0
 40
0.0
 40
0.0
 40
0.0
 40
1.0
 40
1.0
 40
1.0
 40
1.0
 10
-98.7774
 20
95.2747
 30
0.0
 10
-100.4342
 20
95.2747
 30
0.0
 10
-101.7774
 20
93.9316
 30
0.0
 10
-101.7774
 20
92.2748
 30
0.0
  0
SPLINE
  5
174
330
1F
100
AcDbEntity
  8
layer 1
370
     9
100
AcDbSpline
210
0.0
220
0.0
230
1.0
 70
     8
 71
     3
 72
    12
 73
     8
 74
     0
 42
0.0000000001
 43
0.0000000001
 40
0.0
 40
0.0
 40
0.0
 40
0.0
 40
0.5
 40
0.5
 40
0.5
 40
0.5
 40
1.0
 40
1.0
 40
1.0
 40
1.0
 10
-91.0624
 20
95.2748
 30
0.0
 10
-90.7972
 20
95.2748
 30
0.0
 10
-90.5428
 20
95.3801
 30
0.0
 10
-90.3553
 20
95.5676
 30
0.0
 10
-90.3553
 20
95.5676
 30
0.0
 10
-90.1678
 20
95.7552
 30
0.0
 10
-90.0624
 20
96.0095
 30
0.0
 10
-90.0624
 20
96.2747
 30
0.0
  0
SPLINE
  5
175
330
1F
100
AcDbEntity
  8
layer 1
370
     9
100
AcDbSpline
210
0.0
220
0.0
230
1.0
 70
     8
 71
     3
 72
    12
 73
     8
 74
     0
 42
0.0000000001
 43
0.0000000001
 40
0.0
 40
0.0
 40
0.0
 40
0.0
 40
0.5
 40
0.5
 40
0.5
 40
0.5
 40
1.0
 40
1.0
 40
1.0
 40
1.0
 10
-90.0624
 20
110.7297
 30
0.0
 10
-90.0624
 20
110.995
 30
0.0
 10
-90.1678
 20
111.2493
 30
0.0
 10
-90.3553
 20
111.4369
 30
0.0
 10
-90.3553
 20
111.4369
 30
0.0
 10
-90.5428
 20
111.6244
 30
0.0
 10
-90.7972
 20
111.7297
 30
0.0
 10
-91.0624
 20
111.7297
 30
0.0
  0
SPLINE
  5
176
330
1F
100
AcDbEntity
  8
layer 1
370
     9
100
AcDbSpline
210
0.0
220
0.0
230
1.0
 70
    24
 71
     3
 72
     8
 73
     4
 74
     0
 42
0.0000000001
 43
0.0000000001
 40
0.0
 40
0.0
 40
0.0
 40
0.0
 40
1.0
 40
1.0
 40
1.0
 40
1.0
 10
-67.2246
 20
66.5914
 30
0.0
 10
-67.2246
 20
66.5914
 30
0.0
 10
-67.2246
 20
62.5965
 30
0.0
 10
-67.2246
 20
62.5965
 30
0.0
  0
SPLINE
  5
177
330
1F
100
AcDbEntity
  8
layer 1
370
     9
100
AcDbSpline
210
0.0
220
0.0
230
1.0
 70
    24
 71
     3
 72
     8
 73
     4
 74
     0
 42
0.0000000001
 43
0.0000000001
 40
0.0
 40
0.0
 40
0.0
 40
0.0
 40
1.0
 40
1.0
 40
1.0
 40
1.0
 10
-67.2246
 20
62.5965
 30
0.0
 10
-67.2246
 20
62.5965
 30
0.0
 10
-49.2895
 20
62.5965
 30
0.0
 10
-49.2895
 20
62.5965
 30
0.0
  0
SPLINE
  5
178
330
1F
100
AcDbEntity
  8
layer 1
370
     9
100
AcDbSpline
210
0.0
220
0.0
230
1.0
 70
    27
 71
     3
 72
     8
 73
     4
 74
     0
 42
0.0000000001
 43
0.0000000001
 40
0.0
 40
0.0
 40
0.0
 40
0.0
 40
1.0
 40
1.0
 40
1.0
 40
1.0
 10
-49.2895
 20
62.5965
 30
0.0
 10
-49.2895
 20
62.5965
 30
0.0
 10
-49.2895
 20
62.5965
 30
0.0
 10
-49.2895
 20
62.5965
 30
0.0
  0
SPLINE
  5
179
330
1F
100
AcDbEntity
  8
layer 1
370
     9
100
AcDbSpline
210
0.0
220
0.0
230
1.0
 70
    24
 71
     3
 72
     8
 73
     4
 74
     0
 42
0.0000000001
 43
0.0000000001
 40
0.0
 40
0.0
 40
0.0
 40
0.0
 40
1.0
 40
1.0
 40
1.0
 40
1.0
 10
-49.2895
 20
62.5965
 30
0.0
 10
-49.2895
 20
62.5965
 30
0.0
 10
-49.2895
 20
66.5914
 30
0.0
 10
-49.2895
 20
66.5914
 30
0.0
  0
SPLINE
  5
17A
330
1F
100
AcDbEntity
  8
layer 1
370
     9
100
AcDbSpline
210
0.0
220
0.0
230
1.0
 70
    24
 71
     3
 72
     8
 73
     4
 74
     0
 42
0.0000000001
 43
0.0000000001
 40
0.0
 40
0.0
 40
0.0
 40
0.0
 40
1.0
 40
1.0
 40
1.0
 40
1.0
 10
-67.2246
 20
66.5914
 30
0.0
 10
-67.2246
 20
66.5914
 30
0.0
 10
-86.7894
 20
66.5914
 30
0.0
 10
-86.7894
 20
66.5914
 30
0.0
  0
SPLINE
  5
17B
330
1F
100
AcDbEntity
  8
layer 1
370
     9
100
AcDbSpline
210
0.0
220
0.0
230
1.0
 70
    27
 71
     3
 72
     8
 73
     4
 74
     0
 42
0.0000000001
 43
0.0000000001
 40
0.0
 40
0.0
 40
0.0
 40
0.0
 40
1.0
 40
1.0
 40
1.0
 40
1.0
 10
-49.2895
 20
66.5914
 30
0.0
 10
-49.2895
 20
66.5914
 30
0.0
 10
-49.2895
 20
66.5914
 30
0.0
 10
-49.2895
 20
66.5914
 30
0.0
  0
SPLINE
  5
17C
330
1F
100
AcDbEntity
  8
layer 1
370
     9
100
AcDbSpline
210
0.0
220
0.0
230
1.0
 70
    24
 71
     3
 72
     8
 73
     4
 74
     0
 42
0.0000000001
 43
0.0000000001
 40
0.0
 40
0.0
 40
0.0
 40
0.0
 40
1.0
 40
1.0
 40
1.0
 40
1.0
 10
-27.2896
 20
66.5914
 30
0.0
 10
-27.2896
 20
66.5914
 30
0.0
 10
-49.2895
 20
66.5914
 30
0.0
 10
-49.2895
 20
66.5914
 30
0.0
  0
SPLINE
  5
17D
330
1F
100
AcDbEntity
  8
layer 1
370
     9
100
AcDbSpline
210
0.0
220
0.0
230
1.0
 70
    24
 71
     3
 72
     8
 73
     4
 74
     0
 42
0.0000000001
 43
0.0000000001
 40
0.0
 40
0.0
 40
0.0
 40
0.0
 40
1.0
 40
1.0
 40
1.0
 40
1.0
 10
-8.7613
 20
41.4809
 30
0.0
 10
-8.7613
 20
41.4809
 30
0.0
 10
-12.2613
 20
41.4809
 30
0.0
 10
-12.2613
 20
41.4809
 30
0.0
  0
SPLINE
  5
17E
330
1F
100
AcDbEntity
  8
layer 1
370
     9
100
AcDbSpline
210
0.0
220
0.0
230
1.0
 70
    24
 71
     3
 72
     8
 73
     4
 74
     0
 42
0.0000000001
 43
0.0000000001
 40
0.0
 40
0.0
 40
0.0
 40
0.0
 40
1.0
 40
1.0
 40
1.0
 40
1.0
 10
-8.7613
 20
36.4584
 30
0.0
 10
-8.7613
 20
36.4584
 30
0.0
 10
-12.2613
 20
36.4584
 30
0.0
 10
-12.2613
 20
36.4584
 30
0.0
  0
SPLINE
  5
17F
330
1F
100
AcDbEntity
  8
layer 1
370
     9
100
AcDbSpline
210
0.0
220
0.0
230
1.0
 70
    24
 71
     3
 72
     8
 73
     4
 74
     0
 42
0.0000000001
 43
0.0000000001
 40
0.0
 40
0.0
 40
0.0
 40
0.0
 40
1.0
 40
1.0
 40
1.0
 40
1.0
 10
-8.7613
 20
36.4584
 30
0.0
 10
-8.7613
 20
36.4584
 30
0.0
 10
-8.7613
 20
41.4809
 30
0.0
 10
-8.7613
 20
41.4809
 30
0.0
  0
SPLINE
  5
180
330
1F
100
AcDbEntity
  8
layer 1
370
     9
100
AcDbSpline
210
0.0
220
0.0
230
1.0
 70
    24
 71
     3
 72
     8
 73
     4
 74
     0
 42
0.0000000001
 43
0.0000000001
 40
0.0
 40
0.0
 40
0.0
 40
0.0
 40
1.0
 40
1.0
 40
1.0
 40
1.0
 10
-12.2613
 20
41.4809
 30
0.0
 10
-12.2613
 20
41.4809
 30
0.0
 10
-12.2613
 20
40.4809
 30
0.0
 10
-12.2613
 20
40.4809
 30
0.0
  0
SPLINE
  5
181
330
1F
100
AcDbEntity
  8
layer 1
370
     9
100
AcDbSpline
210
0.0
220
0.0
230
1.0
 70
    24
 71
     3
 72
     8
 73
     4
 74
     0
 42
0.0000000001
 43
0.0000000001
 40
0.0
 40
0.0
 40
0.0
 40
0.0
 40
1.0
 40
1.0
 40
1.0
 40
1.0
 10
-12.2613
 20
40.4809
 30
0.0
 10
-12.2613
 20
40.4809
 30
0.0
 10
-16.2613
 20
40.4809
 30
0.0
 10
-16.2613
 20
40.4809
 30
0.0
  0
SPLINE
  5
182
330
1F
100
AcDbEntity
  8
layer 1
370
     9
100
AcDbSpline
210
0.0
220
0.0
230
1.0
 70
    24
 71
     3
 72
     8
 73
     4
 74
     0
 42
0.0000000001
 43
0.0000000001
 40
0.0
 40
0.0
 40
0.0
 40
0.0
 40
1.0
 40
1.0
 40
1.0
 40
1.0
 10
-17.2613
 20
38.4584
 30
0.0
 10
-17.2613
 20
38.4584
 30
0.0
 10
-17.2613
 20
39.4809
 30
0.0
 10
-17.2613
 20
39.4809
 30
0.0
  0
SPLINE
  5
183
330
1F
100
AcDbEntity
  8
layer 1
370
     9
100
AcDbSpline
210
0.0
220
0.0
230
1.0
 70
    24
 71
     3
 72
     8
 73
     4
 74
     0
 42
0.0000000001
 43
0.0000000001
 40
0.0
 40
0.0
 40
0.0
 40
0.0
 40
1.0
 40
1.0
 40
1.0
 40
1.0
 10
-16.2613
 20
37.4584
 30
0.0
 10
-16.2613
 20
37.4584
 30
0.0
 10
-12.2613
 20
37.4584
 30
0.0
 10
-12.2613
 20
37.4584
 30
0.0
  0
SPLINE
  5
184
330
1F
100
AcDbEntity
  8
layer 1
370
     9
100
AcDbSpline
210
0.0
220
0.0
230
1.0
 70
    24
 71
     3
 72
     8
 73
     4
 74
     0
 42
0.0000000001
 43
0.0000000001
 40
0.0
 40
0.0
 40
0.0
 40
0.0
 40
1.0
 40
1.0
 40
1.0
 40
1.0
 10
-12.2613
 20
37.4584
 30
0.0
 10
-12.2613
 20
37.4584
 30
0.0
 10
-12.2613
 20
36.4584
 30
0.0
 10
-12.2613
 20
36.4584
 30
0.0
  0
SPLINE
  5
185
330
1F
100
AcDbEntity
  8
layer 1
370
     9
100
AcDbSpline
210
0.0
220
0.0
230
1.0
 70
     8
 71
     3
 72
    12
 73
     8
 74
     0
 42
0.0000000001
 43
0.0000000001
 40
0.0
 40
0.0
 40
0.0
 40
0.0
 40
0.5
 40
0.5
 40
0.5
 40
0.5
 40
1.0
 40
1.0
 40
1.0
 40
1.0
 10
-17.2613
 20
38.4584
 30
0.0
 10
-17.2613
 20
38.1931
 30
0.0
 10
-17.1559
 20
37.9388
 30
0.0
 10
-16.9684
 20
37.7512
 30
0.0
 10
-16.9684
 20
37.7512
 30
0.0
 10
-16.7809
 20
37.5637
 30
0.0
 10
-16.5265
 20
37.4584
 30
0.0
 10
-16.2613
 20
37.4584
 30
0.0
  0
SPLINE
  5
186
330
1F
100
AcDbEntity
  8
layer 1
370
     9
100
AcDbSpline
210
0.0
220
0.0
230
1.0
 70
     8
 71
     3
 72
    12
 73
     8
 74
     0
 42
0.0000000001
 43
0.0000000001
 40
0.0
 40
0.0
 40
0.0
 40
0.0
 40
0.5
 40
0.5
 40
0.5
 40
0.5
 40
1.0
 40
1.0
 40
1.0
 40
1.0
 10
-16.2613
 20
40.4809
 30
0.0
 10
-16.5265
 20
40.4809
 30
0.0
 10
-16.7809
 20
40.3756
 30
0.0
 10
-16.9684
 20
40.1881
 30
0.0
 10
-16.9684
 20
40.1881
 30
0.0
 10
-17.1559
 20
40.0005
 30
0.0
 10
-17.2613
 20
39.7462
 30
0.0
 10
-17.2613
 20
39.4809
 30
0.0
  0
SPLINE
  5
187
330
1F
100
AcDbEntity
  8
layer 1
370
     9
100
AcDbSpline
210
0.0
220
0.0
230
1.0
 70
    27
 71
     3
 72
     8
 73
     4
 74
     0
 42
0.0000000001
 43
0.0000000001
 40
0.0
 40
0.0
 40
0.0
 40
0.0
 40
1.0
 40
1.0
 40
1.0
 40
1.0
 10
-12.2613
 20
48.9807
 30
0.0
 10
-12.2613
 20
48.9807
 30
0.0
 10
-12.2613
 20
48.9807
 30
0.0
 10
-12.2613
 20
48.9807
 30
0.0
  0
SPLINE
  5
188
330
1F
100
AcDbEntity
  8
layer 1
370
     9
100
AcDbSpline
210
0.0
220
0.0
230
1.0
 70
    24
 71
     3
 72
     8
 73
     4
 74
     0
 42
0.0000000001
 43
0.0000000001
 40
0.0
 40
0.0
 40
0.0
 40
0.0
 40
1.0
 40
1.0
 40
1.0
 40
1.0
 10
-8.7613
 20
48.9807
 30
0.0
 10
-8.7613
 20
48.9807
 30
0.0
 10
-12.2613
 20
48.9807
 30
0.0
 10
-12.2613
 20
48.9807
 30
0.0
  0
SPLINE
  5
189
330
1F
100
AcDbEntity
  8
layer 1
370
     9
100
AcDbSpline
210
0.0
220
0.0
230
1.0
 70
    24
 71
     3
 72
     8
 73
     4
 74
     0
 42
0.0000000001
 43
0.0000000001
 40
0.0
 40
0.0
 40
0.0
 40
0.0
 40
1.0
 40
1.0
 40
1.0
 40
1.0
 10
-8.7613
 20
43.9584
 30
0.0
 10
-8.7613
 20
43.9584
 30
0.0
 10
-12.2613
 20
43.9584
 30
0.0
 10
-12.2613
 20
43.9584
 30
0.0
  0
SPLINE
  5
18A
330
1F
100
AcDbEntity
  8
layer 1
370
     9
100
AcDbSpline
210
0.0
220
0.0
230
1.0
 70
    24
 71
     3
 72
     8
 73
     4
 74
     0
 42
0.0000000001
 43
0.0000000001
 40
0.0
 40
0.0
 40
0.0
 40
0.0
 40
1.0
 40
1.0
 40
1.0
 40
1.0
 10
-8.7613
 20
43.9584
 30
0.0
 10
-8.7613
 20
43.9584
 30
0.0
 10
-8.7613
 20
48.9807
 30
0.0
 10
-8.7613
 20
48.9807
 30
0.0
  0
SPLINE
  5
18B
330
1F
100
AcDbEntity
  8
layer 1
370
     9
100
AcDbSpline
210
0.0
220
0.0
230
1.0
 70
    27
 71
     3
 72
     8
 73
     4
 74
     0
 42
0.0000000001
 43
0.0000000001
 40
0.0
 40
0.0
 40
0.0
 40
0.0
 40
1.0
 40
1.0
 40
1.0
 40
1.0
 10
-12.2613
 20
47.9807
 30
0.0
 10
-12.2613
 20
47.9807
 30
0.0
 10
-12.2613
 20
47.9807
 30
0.0
 10
-12.2613
 20
47.9807
 30
0.0
  0
SPLINE
  5
18C
330
1F
100
AcDbEntity
  8
layer 1
370
     9
100
AcDbSpline
210
0.0
220
0.0
230
1.0
 70
    24
 71
     3
 72
     8
 73
     4
 74
     0
 42
0.0000000001
 43
0.0000000001
 40
0.0
 40
0.0
 40
0.0
 40
0.0
 40
1.0
 40
1.0
 40
1.0
 40
1.0
 10
-12.2613
 20
48.9807
 30
0.0
 10
-12.2613
 20
48.9807
 30
0.0
 10
-12.2613
 20
47.9807
 30
0.0
 10
-12.2613
 20
47.9807
 30
0.0
  0
SPLINE
  5
18D
330
1F
100
AcDbEntity
  8
layer 1
370
     9
100
AcDbSpline
210
0.0
220
0.0
230
1.0
 70
    27
 71
     3
 72
     8
 73
     4
 74
     0
 42
0.0000000001
 43
0.0000000001
 40
0.0
 40
0.0
 40
0.0
 40
0.0
 40
1.0
 40
1.0
 40
1.0
 40
1.0
 10
-16.2613
 20
47.9807
 30
0.0
 10
-16.2613
 20
47.9807
 30
0.0
 10
-16.2613
 20
47.9807
 30
0.0
 10
-16.2613
 20
47.9807
 30
0.0
  0
SPLINE
  5
18E
330
1F
100
AcDbEntity
  8
layer 1
370
     9
100
AcDbSpline
210
0.0
220
0.0
230
1.0
 70
    24
 71
     3
 72
     8
 73
     4
 74
     0
 42
0.0000000001
 43
0.0000000001
 40
0.0
 40
0.0
 40
0.0
 40
0.0
 40
1.0
 40
1.0
 40
1.0
 40
1.0
 10
-12.2613
 20
47.9807
 30
0.0
 10
-12.2613
 20
47.9807
 30
0.0
 10
-16.2613
 20
47.9807
 30
0.0
 10
-16.2613
 20
47.9807
 30
0.0
  0
SPLINE
  5
18F
330
1F
100
AcDbEntity
  8
layer 1
370
     9
100
AcDbSpline
210
0.0
220
0.0
230
1.0
 70
    27
 71
     3
 72
     8
 73
     4
 74
     0
 42
0.0000000001
 43
0.0000000001
 40
0.0
 40
0.0
 40
0.0
 40
0.0
 40
1.0
 40
1.0
 40
1.0
 40
1.0
 10
-17.2613
 20
45.9582
 30
0.0
 10
-17.2613
 20
45.9582
 30
0.0
 10
-17.2613
 20
45.9582
 30
0.0
 10
-17.2613
 20
45.9582
 30
0.0
  0
SPLINE
  5
190
330
1F
100
AcDbEntity
  8
layer 1
370
     9
100
AcDbSpline
210
0.0
220
0.0
230
1.0
 70
    24
 71
     3
 72
     8
 73
     4
 74
     0
 42
0.0000000001
 43
0.0000000001
 40
0.0
 40
0.0
 40
0.0
 40
0.0
 40
1.0
 40
1.0
 40
1.0
 40
1.0
 10
-17.2613
 20
45.9582
 30
0.0
 10
-17.2613
 20
45.9582
 30
0.0
 10
-17.2613
 20
46.9807
 30
0.0
 10
-17.2613
 20
46.9807
 30
0.0
  0
SPLINE
  5
191
330
1F
100
AcDbEntity
  8
layer 1
370
     9
100
AcDbSpline
210
0.0
220
0.0
230
1.0
 70
    24
 71
     3
 72
     8
 73
     4
 74
     0
 42
0.0000000001
 43
0.0000000001
 40
0.0
 40
0.0
 40
0.0
 40
0.0
 40
1.0
 40
1.0
 40
1.0
 40
1.0
 10
-16.2613
 20
44.9584
 30
0.0
 10
-16.2613
 20
44.9584
 30
0.0
 10
-12.2613
 20
44.9584
 30
0.0
 10
-12.2613
 20
44.9584
 30
0.0
  0
SPLINE
  5
192
330
1F
100
AcDbEntity
  8
layer 1
370
     9
100
AcDbSpline
210
0.0
220
0.0
230
1.0
 70
    24
 71
     3
 72
     8
 73
     4
 74
     0
 42
0.0000000001
 43
0.0000000001
 40
0.0
 40
0.0
 40
0.0
 40
0.0
 40
1.0
 40
1.0
 40
1.0
 40
1.0
 10
-12.2613
 20
44.9584
 30
0.0
 10
-12.2613
 20
44.9584
 30
0.0
 10
-12.2613
 20
43.9584
 30
0.0
 10
-12.2613
 20
43.9584
 30
0.0
  0
SPLINE
  5
193
330
1F
100
AcDbEntity
  8
layer 1
370
     9
100
AcDbSpline
210
0.0
220
0.0
230
1.0
 70
     8
 71
     3
 72
     8
 73
     4
 74
     0
 42
0.0000000001
 43
0.0000000001
 40
0.0
 40
0.0
 40
0.0
 40
0.0
 40
1.0
 40
1.0
 40
1.0
 40
1.0
 10
-17.2613
 20
45.9582
 30
0.0
 10
-17.2613
 20
45.4061
 30
0.0
 10
-16.8136
 20
44.9584
 30
0.0
 10
-16.2613
 20
44.9584
 30
0.0
  0
SPLINE
  5
194
330
1F
100
AcDbEntity
  8
layer 1
370
     9
100
AcDbSpline
210
0.0
220
0.0
230
1.0
 70
     8
 71
     3
 72
     8
 73
     4
 74
     0
 42
0.0000000001
 43
0.0000000001
 40
0.0
 40
0.0
 40
0.0
 40
0.0
 40
1.0
 40
1.0
 40
1.0
 40
1.0
 10
-16.2613
 20
47.9807
 30
0.0
 10
-16.8136
 20
47.9807
 30
0.0
 10
-17.2613
 20
47.533
 30
0.0
 10
-17.2613
 20
46.9808
 30
0.0
  0
SPLINE
  5
195
330
1F
100
AcDbEntity
  8
layer 1
370
     9
100
AcDbSpline
210
0.0
220
0.0
230
1.0
 70
    24
 71
     3
 72
     8
 73
     4
 74
     0
 42
0.0000000001
 43
0.0000000001
 40
0.0
 40
0.0
 40
0.0
 40
0.0
 40
1.0
 40
1.0
 40
1.0
 40
1.0
 10
-26.818
 20
41.4809
 30
0.0
 10
-26.818
 20
41.4809
 30
0.0
 10
-23.318
 20
41.4809
 30
0.0
 10
-23.318
 20
41.4809
 30
0.0
  0
SPLINE
  5
196
330
1F
100
AcDbEntity
  8
layer 1
370
     9
100
AcDbSpline
210
0.0
220
0.0
230
1.0
 70
    24
 71
     3
 72
     8
 73
     4
 74
     0
 42
0.0000000001
 43
0.0000000001
 40
0.0
 40
0.0
 40
0.0
 40
0.0
 40
1.0
 40
1.0
 40
1.0
 40
1.0
 10
-26.818
 20
36.4584
 30
0.0
 10
-26.818
 20
36.4584
 30
0.0
 10
-23.318
 20
36.4584
 30
0.0
 10
-23.318
 20
36.4584
 30
0.0
  0
SPLINE
  5
197
330
1F
100
AcDbEntity
  8
layer 1
370
     9
100
AcDbSpline
210
0.0
220
0.0
230
1.0
 70
    24
 71
     3
 72
     8
 73
     4
 74
     0
 42
0.0000000001
 43
0.0000000001
 40
0.0
 40
0.0
 40
0.0
 40
0.0
 40
1.0
 40
1.0
 40
1.0
 40
1.0
 10
-26.818
 20
36.4584
 30
0.0
 10
-26.818
 20
36.4584
 30
0.0
 10
-26.818
 20
41.4809
 30
0.0
 10
-26.818
 20
41.4809
 30
0.0
  0
SPLINE
  5
198
330
1F
100
AcDbEntity
  8
layer 1
370
     9
100
AcDbSpline
210
0.0
220
0.0
230
1.0
 70
    24
 71
     3
 72
     8
 73
     4
 74
     0
 42
0.0000000001
 43
0.0000000001
 40
0.0
 40
0.0
 40
0.0
 40
0.0
 40
1.0
 40
1.0
 40
1.0
 40
1.0
 10
-23.318
 20
41.4809
 30
0.0
 10
-23.318
 20
41.4809
 30
0.0
 10
-23.318
 20
40.4809
 30
0.0
 10
-23.318
 20
40.4809
 30
0.0
  0
SPLINE
  5
199
330
1F
100
AcDbEntity
  8
layer 1
370
     9
100
AcDbSpline
210
0.0
220
0.0
230
1.0
 70
    24
 71
     3
 72
     8
 73
     4
 74
     0
 42
0.0000000001
 43
0.0000000001
 40
0.0
 40
0.0
 40
0.0
 40
0.0
 40
1.0
 40
1.0
 40
1.0
 40
1.0
 10
-23.318
 20
40.4809
 30
0.0
 10
-23.318
 20
40.4809
 30
0.0
 10
-19.318
 20
40.4809
 30
0.0
 10
-19.318
 20
40.4809
 30
0.0
  0
SPLINE
  5
19A
330
1F
100
AcDbEntity
  8
layer 1
370
     9
100
AcDbSpline
210
0.0
220
0.0
230
1.0
 70
    24
 71
     3
 72
     8
 73
     4
 74
     0
 42
0.0000000001
 43
0.0000000001
 40
0.0
 40
0.0
 40
0.0
 40
0.0
 40
1.0
 40
1.0
 40
1.0
 40
1.0
 10
-18.318
 20
38.4584
 30
0.0
 10
-18.318
 20
38.4584
 30
0.0
 10
-18.318
 20
39.4809
 30
0.0
 10
-18.318
 20
39.4809
 30
0.0
  0
SPLINE
  5
19B
330
1F
100
AcDbEntity
  8
layer 1
370
     9
100
AcDbSpline
210
0.0
220
0.0
230
1.0
 70
    24
 71
     3
 72
     8
 73
     4
 74
     0
 42
0.0000000001
 43
0.0000000001
 40
0.0
 40
0.0
 40
0.0
 40
0.0
 40
1.0
 40
1.0
 40
1.0
 40
1.0
 10
-19.318
 20
37.4584
 30
0.0
 10
-19.318
 20
37.4584
 30
0.0
 10
-23.318
 20
37.4584
 30
0.0
 10
-23.318
 20
37.4584
 30
0.0
  0
SPLINE
  5
19C
330
1F
100
AcDbEntity
  8
layer 1
370
     9
100
AcDbSpline
210
0.0
220
0.0
230
1.0
 70
    24
 71
     3
 72
     8
 73
     4
 74
     0
 42
0.0000000001
 43
0.0000000001
 40
0.0
 40
0.0
 40
0.0
 40
0.0
 40
1.0
 40
1.0
 40
1.0
 40
1.0
 10
-23.318
 20
37.4584
 30
0.0
 10
-23.318
 20
37.4584
 30
0.0
 10
-23.318
 20
36.4584
 30
0.0
 10
-23.318
 20
36.4584
 30
0.0
  0
SPLINE
  5
19D
330
1F
100
AcDbEntity
  8
layer 1
370
     9
100
AcDbSpline
210
0.0
220
0.0
230
1.0
 70
     8
 71
     3
 72
    12
 73
     8
 74
     0
 42
0.0000000001
 43
0.0000000001
 40
0.0
 40
0.0
 40
0.0
 40
0.0
 40
0.5
 40
0.5
 40
0.5
 40
0.5
 40
1.0
 40
1.0
 40
1.0
 40
1.0
 10
-19.318
 20
37.4584
 30
0.0
 10
-19.0528
 20
37.4584
 30
0.0
 10
-18.7984
 20
37.5637
 30
0.0
 10
-18.6109
 20
37.7512
 30
0.0
 10
-18.6109
 20
37.7512
 30
0.0
 10
-18.4234
 20
37.9388
 30
0.0
 10
-18.318
 20
38.1931
 30
0.0
 10
-18.318
 20
38.4584
 30
0.0
  0
SPLINE
  5
19E
330
1F
100
AcDbEntity
  8
layer 1
370
     9
100
AcDbSpline
210
0.0
220
0.0
230
1.0
 70
     8
 71
     3
 72
    12
 73
     8
 74
     0
 42
0.0000000001
 43
0.0000000001
 40
0.0
 40
0.0
 40
0.0
 40
0.0
 40
0.5
 40
0.5
 40
0.5
 40
0.5
 40
1.0
 40
1.0
 40
1.0
 40
1.0
 10
-18.318
 20
39.4809
 30
0.0
 10
-18.318
 20
39.7462
 30
0.0
 10
-18.4234
 20
40.0005
 30
0.0
 10
-18.6109
 20
40.1881
 30
0.0
 10
-18.6109
 20
40.1881
 30
0.0
 10
-18.7984
 20
40.3756
 30
0.0
 10
-19.0528
 20
40.4809
 30
0.0
 10
-19.318
 20
40.4809
 30
0.0
  0
SPLINE
  5
19F
330
1F
100
AcDbEntity
  8
layer 1
370
     9
100
AcDbSpline
210
0.0
220
0.0
230
1.0
 70
    27
 71
     3
 72
     8
 73
     4
 74
     0
 42
0.0000000001
 43
0.0000000001
 40
0.0
 40
0.0
 40
0.0
 40
0.0
 40
1.0
 40
1.0
 40
1.0
 40
1.0
 10
-26.818
 20
48.9807
 30
0.0
 10
-26.818
 20
48.9807
 30
0.0
 10
-26.818
 20
48.9807
 30
0.0
 10
-26.818
 20
48.9807
 30
0.0
  0
SPLINE
  5
1A0
330
1F
100
AcDbEntity
  8
layer 1
370
     9
100
AcDbSpline
210
0.0
220
0.0
230
1.0
 70
    24
 71
     3
 72
     8
 73
     4
 74
     0
 42
0.0000000001
 43
0.0000000001
 40
0.0
 40
0.0
 40
0.0
 40
0.0
 40
1.0
 40
1.0
 40
1.0
 40
1.0
 10
-26.818
 20
48.9807
 30
0.0
 10
-26.818
 20
48.9807
 30
0.0
 10
-23.318
 20
48.9807
 30
0.0
 10
-23.318
 20
48.9807
 30
0.0
  0
SPLINE
  5
1A1
330
1F
100
AcDbEntity
  8
layer 1
370
     9
100
AcDbSpline
210
0.0
220
0.0
230
1.0
 70
    24
 71
     3
 72
     8
 73
     4
 74
     0
 42
0.0000000001
 43
0.0000000001
 40
0.0
 40
0.0
 40
0.0
 40
0.0
 40
1.0
 40
1.0
 40
1.0
 40
1.0
 10
-26.818
 20
43.9584
 30
0.0
 10
-26.818
 20
43.9584
 30
0.0
 10
-23.318
 20
43.9584
 30
0.0
 10
-23.318
 20
43.9584
 30
0.0
  0
SPLINE
  5
1A2
330
1F
100
AcDbEntity
  8
layer 1
370
     9
100
AcDbSpline
210
0.0
220
0.0
230
1.0
 70
    24
 71
     3
 72
     8
 73
     4
 74
     0
 42
0.0000000001
 43
0.0000000001
 40
0.0
 40
0.0
 40
0.0
 40
0.0
 40
1.0
 40
1.0
 40
1.0
 40
1.0
 10
-26.818
 20
43.9584
 30
0.0
 10
-26.818
 20
43.9584
 30
0.0
 10
-26.818
 20
48.9807
 30
0.0
 10
-26.818
 20
48.9807
 30
0.0
  0
SPLINE
  5
1A3
330
1F
100
AcDbEntity
  8
layer 1
370
     9
100
AcDbSpline
210
0.0
220
0.0
230
1.0
 70
    27
 71
     3
 72
     8
 73
     4
 74
     0
 42
0.0000000001
 43
0.0000000001
 40
0.0
 40
0.0
 40
0.0
 40
0.0
 40
1.0
 40
1.0
 40
1.0
 40
1.0
 10
-23.318
 20
47.9807
 30
0.0
 10
-23.318
 20
47.9807
 30
0.0
 10
-23.318
 20
47.9807
 30
0.0
 10
-23.318
 20
47.9807
 30
0.0
  0
SPLINE
  5
1A4
330
1F
100
AcDbEntity
  8
layer 1
370
     9
100
AcDbSpline
210
0.0
220
0.0
230
1.0
 70
    24
 71
     3
 72
     8
 73
     4
 74
     0
 42
0.0000000001
 43
0.0000000001
 40
0.0
 40
0.0
 40
0.0
 40
0.0
 40
1.0
 40
1.0
 40
1.0
 40
1.0
 10
-23.318
 20
48.9807
 30
0.0
 10
-23.318
 20
48.9807
 30
0.0
 10
-23.318
 20
47.9807
 30
0.0
 10
-23.318
 20
47.9807
 30
0.0
  0
SPLINE
  5
1A5
330
1F
100
AcDbEntity
  8
layer 1
370
     9
100
AcDbSpline
210
0.0
220
0.0
230
1.0
 70
    27
 71
     3
 72
     8
 73
     4
 74
     0
 42
0.0000000001
 43
0.0000000001
 40
0.0
 40
0.0
 40
0.0
 40
0.0
 40
1.0
 40
1.0
 40
1.0
 40
1.0
 10
-23.318
 20
47.9807
 30
0.0
 10
-23.318
 20
47.9807
 30
0.0
 10
-23.318
 20
47.9807
 30
0.0
 10
-23.318
 20
47.9807
 30
0.0
  0
SPLINE
  5
1A6
330
1F
100
AcDbEntity
  8
layer 1
370
     9
100
AcDbSpline
210
0.0
220
0.0
230
1.0
 70
    24
 71
     3
 72
     8
 73
     4
 74
     0
 42
0.0000000001
 43
0.0000000001
 40
0.0
 40
0.0
 40
0.0
 40
0.0
 40
1.0
 40
1.0
 40
1.0
 40
1.0
 10
-23.318
 20
47.9807
 30
0.0
 10
-23.318
 20
47.9807
 30
0.0
 10
-19.318
 20
47.9807
 30
0.0
 10
-19.318
 20
47.9807
 30
0.0
  0
SPLINE
  5
1A7
330
1F
100
AcDbEntity
  8
layer 1
370
     9
100
AcDbSpline
210
0.0
220
0.0
230
1.0
 70
    27
 71
     3
 72
     8
 73
     4
 74
     0
 42
0.0000000001
 43
0.0000000001
 40
0.0
 40
0.0
 40
0.0
 40
0.0
 40
1.0
 40
1.0
 40
1.0
 40
1.0
 10
-18.318
 20
45.9582
 30
0.0
 10
-18.318
 20
45.9582
 30
0.0
 10
-18.318
 20
45.9582
 30
0.0
 10
-18.318
 20
45.9582
 30
0.0
  0
SPLINE
  5
1A8
330
1F
100
AcDbEntity
  8
layer 1
370
     9
100
AcDbSpline
210
0.0
220
0.0
230
1.0
 70
    24
 71
     3
 72
     8
 73
     4
 74
     0
 42
0.0000000001
 43
0.0000000001
 40
0.0
 40
0.0
 40
0.0
 40
0.0
 40
1.0
 40
1.0
 40
1.0
 40
1.0
 10
-18.318
 20
45.9582
 30
0.0
 10
-18.318
 20
45.9582
 30
0.0
 10
-18.318
 20
46.9807
 30
0.0
 10
-18.318
 20
46.9807
 30
0.0
  0
SPLINE
  5
1A9
330
1F
100
AcDbEntity
  8
layer 1
370
     9
100
AcDbSpline
210
0.0
220
0.0
230
1.0
 70
    24
 71
     3
 72
     8
 73
     4
 74
     0
 42
0.0000000001
 43
0.0000000001
 40
0.0
 40
0.0
 40
0.0
 40
0.0
 40
1.0
 40
1.0
 40
1.0
 40
1.0
 10
-19.318
 20
44.9584
 30
0.0
 10
-19.318
 20
44.9584
 30
0.0
 10
-23.318
 20
44.9584
 30
0.0
 10
-23.318
 20
44.9584
 30
0.0
  0
SPLINE
  5
1AA
330
1F
100
AcDbEntity
  8
layer 1
370
     9
100
AcDbSpline
210
0.0
220
0.0
230
1.0
 70
    24
 71
     3
 72
     8
 73
     4
 74
     0
 42
0.0000000001
 43
0.0000000001
 40
0.0
 40
0.0
 40
0.0
 40
0.0
 40
1.0
 40
1.0
 40
1.0
 40
1.0
 10
-23.318
 20
44.9584
 30
0.0
 10
-23.318
 20
44.9584
 30
0.0
 10
-23.318
 20
43.9584
 30
0.0
 10
-23.318
 20
43.9584
 30
0.0
  0
SPLINE
  5
1AB
330
1F
100
AcDbEntity
  8
layer 1
370
     9
100
AcDbSpline
210
0.0
220
0.0
230
1.0
 70
     8
 71
     3
 72
    12
 73
     8
 74
     0
 42
0.0000000001
 43
0.0000000001
 40
0.0
 40
0.0
 40
0.0
 40
0.0
 40
0.5
 40
0.5
 40
0.5
 40
0.5
 40
1.0
 40
1.0
 40
1.0
 40
1.0
 10
-19.318
 20
44.9584
 30
0.0
 10
-19.0528
 20
44.9584
 30
0.0
 10
-18.7984
 20
45.0637
 30
0.0
 10
-18.6109
 20
45.2512
 30
0.0
 10
-18.6109
 20
45.2512
 30
0.0
 10
-18.4234
 20
45.4388
 30
0.0
 10
-18.318
 20
45.693
 30
0.0
 10
-18.318
 20
45.9582
 30
0.0
  0
SPLINE
  5
1AC
330
1F
100
AcDbEntity
  8
layer 1
370
     9
100
AcDbSpline
210
0.0
220
0.0
230
1.0
 70
     8
 71
     3
 72
    12
 73
     8
 74
     0
 42
0.0000000001
 43
0.0000000001
 40
0.0
 40
0.0
 40
0.0
 40
0.0
 40
0.5
 40
0.5
 40
0.5
 40
0.5
 40
1.0
 40
1.0
 40
1.0
 40
1.0
 10
-18.318
 20
46.9807
 30
0.0
 10
-18.318
 20
47.246
 30
0.0
 10
-18.4234
 20
47.5003
 30
0.0
 10
-18.6109
 20
47.6879
 30
0.0
 10
-18.6109
 20
47.6879
 30
0.0
 10
-18.7984
 20
47.8754
 30
0.0
 10
-19.0528
 20
47.9807
 30
0.0
 10
-19.318
 20
47.9807
 30
0.0
  0
SPLINE
  5
1AD
330
1F
100
AcDbEntity
  8
layer 1
370
     9
100
AcDbSpline
210
0.0
220
0.0
230
1.0
 70
     8
 71
     3
 72
    12
 73
     8
 74
     0
 42
0.0000000001
 43
0.0000000001
 40
0.0
 40
0.0
 40
0.0
 40
0.0
 40
0.5
 40
0.5
 40
0.5
 40
0.5
 40
1.0
 40
1.0
 40
1.0
 40
1.0
 10
-3.4178
 20
32.5916
 30
0.0
 10
-3.4177
 20
33.1221
 30
0.0
 10
-3.6285
 20
33.6308
 30
0.0
 10
-4.0035
 20
34.0059
 30
0.0
 10
-4.0035
 20
34.0059
 30
0.0
 10
-4.3786
 20
34.3809
 30
0.0
 10
-4.8873
 20
34.5916
 30
0.0
 10
-5.4178
 20
34.5916
 30
0.0
  0
SPLINE
  5
1AE
330
1F
100
AcDbEntity
  8
layer 1
370
     9
100
AcDbSpline
210
0.0
220
0.0
230
1.0
 70
    24
 71
     3
 72
     8
 73
     4
 74
     0
 42
0.0000000001
 43
0.0000000001
 40
0.0
 40
0.0
 40
0.0
 40
0.0
 40
1.0
 40
1.0
 40
1.0
 40
1.0
 10
-5.4178
 20
34.5916
 30
0.0
 10
-5.4178
 20
34.5916
 30
0.0
 10
-29.2896
 20
34.5916
 30
0.0
 10
-29.2896
 20
34.5916
 30
0.0
  0
SPLINE
  5
1AF
330
1F
100
AcDbEntity
  8
layer 1
370
     9
100
AcDbSpline
210
0.0
220
0.0
230
1.0
 70
    24
 71
     3
 72
     8
 73
     4
 74
     0
 42
0.0000000001
 43
0.0000000001
 40
0.0
 40
0.0
 40
0.0
 40
0.0
 40
1.0
 40
1.0
 40
1.0
 40
1.0
 10
-29.2896
 20
34.5916
 30
0.0
 10
-29.2896
 20
34.5916
 30
0.0
 10
-29.2896
 20
51.5914
 30
0.0
 10
-29.2896
 20
51.5914
 30
0.0
  0
SPLINE
  5
1B0
330
1F
100
AcDbEntity
  8
layer 1
370
     9
100
AcDbSpline
210
0.0
220
0.0
230
1.0
 70
    27
 71
     3
 72
     8
 73
     4
 74
     0
 42
0.0000000001
 43
0.0000000001
 40
0.0
 40
0.0
 40
0.0
 40
0.0
 40
1.0
 40
1.0
 40
1.0
 40
1.0
 10
-29.2896
 20
51.5914
 30
0.0
 10
-29.2896
 20
51.5914
 30
0.0
 10
-29.2896
 20
51.5914
 30
0.0
 10
-29.2896
 20
51.5914
 30
0.0
  0
SPLINE
  5
1B1
330
1F
100
AcDbEntity
  8
layer 1
370
     9
100
AcDbSpline
210
0.0
220
0.0
230
1.0
 70
    24
 71
     3
 72
     8
 73
     4
 74
     0
 42
0.0000000001
 43
0.0000000001
 40
0.0
 40
0.0
 40
0.0
 40
0.0
 40
1.0
 40
1.0
 40
1.0
 40
1.0
 10
-29.2896
 20
51.5914
 30
0.0
 10
-29.2896
 20
51.5914
 30
0.0
 10
-6.4178
 20
51.5914
 30
0.0
 10
-6.4178
 20
51.5914
 30
0.0
  0
SPLINE
  5
1B2
330
1F
100
AcDbEntity
  8
layer 1
370
     9
100
AcDbSpline
210
0.0
220
0.0
230
1.0
 70
    27
 71
     3
 72
     8
 73
     4
 74
     0
 42
0.0000000001
 43
0.0000000001
 40
0.0
 40
0.0
 40
0.0
 40
0.0
 40
1.0
 40
1.0
 40
1.0
 40
1.0
 10
-6.4178
 20
51.5914
 30
0.0
 10
-6.4178
 20
51.5914
 30
0.0
 10
-6.4178
 20
51.5914
 30
0.0
 10
-6.4178
 20
51.5914
 30
0.0
  0
SPLINE
  5
1B3
330
1F
100
AcDbEntity
  8
layer 1
370
     9
100
AcDbSpline
210
0.0
220
0.0
230
1.0
 70
    24
 71
     3
 72
     8
 73
     4
 74
     0
 42
0.0000000001
 43
0.0000000001
 40
0.0
 40
0.0
 40
0.0
 40
0.0
 40
1.0
 40
1.0
 40
1.0
 40
1.0
 10
-6.4178
 20
51.5914
 30
0.0
 10
-6.4178
 20
51.5914
 30
0.0
 10
-6.4178
 20
53.5914
 30
0.0
 10
-6.4178
 20
53.5914
 30
0.0
  0
SPLINE
  5
1B4
330
1F
100
AcDbEntity
  8
layer 1
370
     9
100
AcDbSpline
210
0.0
220
0.0
230
1.0
 70
    27
 71
     3
 72
     8
 73
     4
 74
     0
 42
0.0000000001
 43
0.0000000001
 40
0.0
 40
0.0
 40
0.0
 40
0.0
 40
1.0
 40
1.0
 40
1.0
 40
1.0
 10
-21.2896
 20
53.5914
 30
0.0
 10
-21.2896
 20
53.5914
 30
0.0
 10
-21.2896
 20
53.5914
 30
0.0
 10
-21.2896
 20
53.5914
 30
0.0
  0
SPLINE
  5
1B5
330
1F
100
AcDbEntity
  8
layer 1
370
     9
100
AcDbSpline
210
0.0
220
0.0
230
1.0
 70
    24
 71
     3
 72
     8
 73
     4
 74
     0
 42
0.0000000001
 43
0.0000000001
 40
0.0
 40
0.0
 40
0.0
 40
0.0
 40
1.0
 40
1.0
 40
1.0
 40
1.0
 10
-6.4178
 20
53.5914
 30
0.0
 10
-6.4178
 20
53.5914
 30
0.0
 10
-21.2896
 20
53.5914
 30
0.0
 10
-21.2896
 20
53.5914
 30
0.0
  0
SPLINE
  5
1B6
330
1F
100
AcDbEntity
  8
layer 1
370
     9
100
AcDbSpline
210
0.0
220
0.0
230
1.0
 70
    27
 71
     3
 72
     8
 73
     4
 74
     0
 42
0.0000000001
 43
0.0000000001
 40
0.0
 40
0.0
 40
0.0
 40
0.0
 40
1.0
 40
1.0
 40
1.0
 40
1.0
 10
-21.2896
 20
53.5914
 30
0.0
 10
-21.2896
 20
53.5914
 30
0.0
 10
-21.2896
 20
53.5914
 30
0.0
 10
-21.2896
 20
53.5914
 30
0.0
  0
SPLINE
  5
1B7
330
1F
100
AcDbEntity
  8
layer 1
370
     9
100
AcDbSpline
210
0.0
220
0.0
230
1.0
 70
    24
 71
     3
 72
     8
 73
     4
 74
     0
 42
0.0000000001
 43
0.0000000001
 40
0.0
 40
0.0
 40
0.0
 40
0.0
 40
1.0
 40
1.0
 40
1.0
 40
1.0
 10
-21.2896
 20
53.5914
 30
0.0
 10
-21.2896
 20
53.5914
 30
0.0
 10
-21.2896
 20
68.5914
 30
0.0
 10
-21.2896
 20
68.5914
 30
0.0
  0
SPLINE
  5
1B8
330
1F
100
AcDbEntity
  8
layer 1
370
     9
100
AcDbSpline
210
0.0
220
0.0
230
1.0
 70
    27
 71
     3
 72
     8
 73
     4
 74
     0
 42
0.0000000001
 43
0.0000000001
 40
0.0
 40
0.0
 40
0.0
 40
0.0
 40
1.0
 40
1.0
 40
1.0
 40
1.0
 10
-21.2896
 20
68.5914
 30
0.0
 10
-21.2896
 20
68.5914
 30
0.0
 10
-21.2896
 20
68.5914
 30
0.0
 10
-21.2896
 20
68.5914
 30
0.0
  0
SPLINE
  5
1B9
330
1F
100
AcDbEntity
  8
layer 1
370
     9
100
AcDbSpline
210
0.0
220
0.0
230
1.0
 70
    24
 71
     3
 72
     8
 73
     4
 74
     0
 42
0.0000000001
 43
0.0000000001
 40
0.0
 40
0.0
 40
0.0
 40
0.0
 40
1.0
 40
1.0
 40
1.0
 40
1.0
 10
-21.2896
 20
68.5914
 30
0.0
 10
-21.2896
 20
68.5914
 30
0.0
 10
-5.4178
 20
68.5914
 30
0.0
 10
-5.4178
 20
68.5914
 30
0.0
  0
SPLINE
  5
1BA
330
1F
100
AcDbEntity
  8
layer 1
370
     9
100
AcDbSpline
210
0.0
220
0.0
230
1.0
 70
     8
 71
     3
 72
    12
 73
     8
 74
     0
 42
0.0000000001
 43
0.0000000001
 40
0.0
 40
0.0
 40
0.0
 40
0.0
 40
0.5
 40
0.5
 40
0.5
 40
0.5
 40
1.0
 40
1.0
 40
1.0
 40
1.0
 10
-5.4178
 20
68.5915
 30
0.0
 10
-4.8873
 20
68.5915
 30
0.0
 10
-4.3786
 20
68.8022
 30
0.0
 10
-4.0035
 20
69.1772
 30
0.0
 10
-4.0035
 20
69.1772
 30
0.0
 10
-3.6285
 20
69.5523
 30
0.0
 10
-3.4178
 20
70.061
 30
0.0
 10
-3.4178
 20
70.5914
 30
0.0
  0
SPLINE
  5
1BB
330
1F
100
AcDbEntity
  8
layer 1
370
     9
100
AcDbSpline
210
0.0
220
0.0
230
1.0
 70
    27
 71
     3
 72
     8
 73
     4
 74
     0
 42
0.0000000001
 43
0.0000000001
 40
0.0
 40
0.0
 40
0.0
 40
0.0
 40
1.0
 40
1.0
 40
1.0
 40
1.0
 10
-3.4178
 20
70.5914
 30
0.0
 10
-3.4178
 20
70.5914
 30
0.0
 10
-3.4178
 20
70.5914
 30
0.0
 10
-3.4178
 20
70.5914
 30
0.0
  0
SPLINE
  5
1BC
330
1F
100
AcDbEntity
  8
layer 1
370
     9
100
AcDbSpline
210
0.0
220
0.0
230
1.0
 70
    24
 71
     3
 72
     8
 73
     4
 74
     0
 42
0.0000000001
 43
0.0000000001
 40
0.0
 40
0.0
 40
0.0
 40
0.0
 40
1.0
 40
1.0
 40
1.0
 40
1.0
 10
-3.4178
 20
70.5914
 30
0.0
 10
-3.4178
 20
70.5914
 30
0.0
 10
-3.4178
 20
72.8964
 30
0.0
 10
-3.4178
 20
72.8964
 30
0.0
  0
SPLINE
  5
1BD
330
1F
100
AcDbEntity
  8
layer 1
370
     9
100
AcDbSpline
210
0.0
220
0.0
230
1.0
 70
     8
 71
     3
 72
    12
 73
     8
 74
     0
 42
0.0000000001
 43
0.0000000001
 40
0.0
 40
0.0
 40
0.0
 40
0.0
 40
0.5
 40
0.5
 40
0.5
 40
0.5
 40
1.0
 40
1.0
 40
1.0
 40
1.0
 10
-3.4178
 20
72.8964
 30
0.0
 10
-3.4177
 20
74.4877
 30
0.0
 10
-4.0499
 20
76.0139
 30
0.0
 10
-5.1751
 20
77.1391
 30
0.0
 10
-5.1751
 20
77.1391
 30
0.0
 10
-6.3003
 20
78.2643
 30
0.0
 10
-7.8265
 20
78.8964
 30
0.0
 10
-9.4178
 20
78.8964
 30
0.0
  0
SPLINE
  5
1BE
330
1F
100
AcDbEntity
  8
layer 1
370
     9
100
AcDbSpline
210
0.0
220
0.0
230
1.0
 70
    27
 71
     3
 72
     8
 73
     4
 74
     0
 42
0.0000000001
 43
0.0000000001
 40
0.0
 40
0.0
 40
0.0
 40
0.0
 40
1.0
 40
1.0
 40
1.0
 40
1.0
 10
-95.7775
 20
78.8964
 30
0.0
 10
-95.7775
 20
78.8964
 30
0.0
 10
-95.7775
 20
78.8964
 30
0.0
 10
-95.7775
 20
78.8964
 30
0.0
  0
SPLINE
  5
1BF
330
1F
100
AcDbEntity
  8
layer 1
370
     9
100
AcDbSpline
210
0.0
220
0.0
230
1.0
 70
    24
 71
     3
 72
     8
 73
     4
 74
     0
 42
0.0000000001
 43
0.0000000001
 40
0.0
 40
0.0
 40
0.0
 40
0.0
 40
1.0
 40
1.0
 40
1.0
 40
1.0
 10
-9.4178
 20
78.8964
 30
0.0
 10
-9.4178
 20
78.8964
 30
0.0
 10
-95.7775
 20
78.8964
 30
0.0
 10
-95.7775
 20
78.8964
 30
0.0
  0
SPLINE
  5
1C0
330
1F
100
AcDbEntity
  8
layer 1
370
     9
100
AcDbSpline
210
0.0
220
0.0
230
1.0
 70
     8
 71
     3
 72
     8
 73
     4
 74
     0
 42
0.0000000001
 43
0.0000000001
 40
0.0
 40
0.0
 40
0.0
 40
0.0
 40
1.0
 40
1.0
 40
1.0
 40
1.0
 10
-95.7775
 20
78.8964
 30
0.0
 10
-99.0912
 20
78.8964
 30
0.0
 10
-101.7775
 20
76.2102
 30
0.0
 10
-101.7775
 20
72.8965
 30
0.0
  0
SPLINE
  5
1C1
330
1F
100
AcDbEntity
  8
layer 1
370
     9
100
AcDbSpline
210
0.0
220
0.0
230
1.0
 70
    24
 71
     3
 72
     8
 73
     4
 74
     0
 42
0.0000000001
 43
0.0000000001
 40
0.0
 40
0.0
 40
0.0
 40
0.0
 40
1.0
 40
1.0
 40
1.0
 40
1.0
 10
-101.7775
 20
72.8964
 30
0.0
 10
-101.7775
 20
72.8964
 30
0.0
 10
-101.7775
 20
18.2866
 30
0.0
 10
-101.7775
 20
18.2866
 30
0.0
  0
SPLINE
  5
1C2
330
1F
100
AcDbEntity
  8
layer 1
370
     9
100
AcDbSpline
210
0.0
220
0.0
230
1.0
 70
     8
 71
     3
 72
    12
 73
     8
 74
     0
 42
0.0000000001
 43
0.0000000001
 40
0.0
 40
0.0
 40
0.0
 40
0.0
 40
0.5
 40
0.5
 40
0.5
 40
0.5
 40
1.0
 40
1.0
 40
1.0
 40
1.0
 10
-101.7775
 20
18.2866
 30
0.0
 10
-101.7775
 20
16.6954
 30
0.0
 10
-101.1454
 20
15.1692
 30
0.0
 10
-100.0202
 20
14.044
 30
0.0
 10
-100.0202
 20
14.044
 30
0.0
 10
-98.895
 20
12.9188
 30
0.0
 10
-97.3688
 20
12.2867
 30
0.0
 10
-95.7775
 20
12.2867
 30
0.0
  0
SPLINE
  5
1C3
330
1F
100
AcDbEntity
  8
layer 1
370
     9
100
AcDbSpline
210
0.0
220
0.0
230
1.0
 70
    27
 71
     3
 72
     8
 73
     4
 74
     0
 42
0.0000000001
 43
0.0000000001
 40
0.0
 40
0.0
 40
0.0
 40
0.0
 40
1.0
 40
1.0
 40
1.0
 40
1.0
 10
-95.7775
 20
12.2866
 30
0.0
 10
-95.7775
 20
12.2866
 30
0.0
 10
-95.7775
 20
12.2866
 30
0.0
 10
-95.7775
 20
12.2866
 30
0.0
  0
SPLINE
  5
1C4
330
1F
100
AcDbEntity
  8
layer 1
370
     9
100
AcDbSpline
210
0.0
220
0.0
230
1.0
 70
    24
 71
     3
 72
     8
 73
     4
 74
     0
 42
0.0000000001
 43
0.0000000001
 40
0.0
 40
0.0
 40
0.0
 40
0.0
 40
1.0
 40
1.0
 40
1.0
 40
1.0
 10
-95.7775
 20
12.2866
 30
0.0
 10
-95.7775
 20
12.2866
 30
0.0
 10
-9.4178
 20
12.2866
 30
0.0
 10
-9.4178
 20
12.2866
 30
0.0
  0
SPLINE
  5
1C5
330
1F
100
AcDbEntity
  8
layer 1
370
     9
100
AcDbSpline
210
0.0
220
0.0
230
1.0
 70
     8
 71
     3
 72
    12
 73
     8
 74
     0
 42
0.0000000001
 43
0.0000000001
 40
0.0
 40
0.0
 40
0.0
 40
0.0
 40
0.5
 40
0.5
 40
0.5
 40
0.5
 40
1.0
 40
1.0
 40
1.0
 40
1.0
 10
-9.4178
 20
12.2867
 30
0.0
 10
-7.8265
 20
12.2867
 30
0.0
 10
-6.3003
 20
12.9188
 30
0.0
 10
-5.1751
 20
14.044
 30
0.0
 10
-5.1751
 20
14.044
 30
0.0
 10
-4.0499
 20
15.1692
 30
0.0
 10
-3.4178
 20
16.6954
 30
0.0
 10
-3.4178
 20
18.2866
 30
0.0
  0
SPLINE
  5
1C6
330
1F
100
AcDbEntity
  8
layer 1
370
     9
100
AcDbSpline
210
0.0
220
0.0
230
1.0
 70
    24
 71
     3
 72
     8
 73
     4
 74
     0
 42
0.0000000001
 43
0.0000000001
 40
0.0
 40
0.0
 40
0.0
 40
0.0
 40
1.0
 40
1.0
 40
1.0
 40
1.0
 10
-3.4178
 20
18.2866
 30
0.0
 10
-3.4178
 20
18.2866
 30
0.0
 10
-3.4178
 20
32.5916
 30
0.0
 10
-3.4178
 20
32.5916
 30
0.0
  0
SPLINE
  5
1C7
330
1F
100
AcDbEntity
  8
layer 1
370
     9
100
AcDbSpline
210
0.0
220
0.0
230
1.0
 70
    24
 71
     3
 72
     8
 73
     4
 74
     0
 42
0.0000000001
 43
0.0000000001
 40
0.0
 40
0.0
 40
0.0
 40
0.0
 40
1.0
 40
1.0
 40
1.0
 40
1.0
 10
-95.7775
 20
75.8964
 30
0.0
 10
-95.7775
 20
75.8964
 30
0.0
 10
-95.7775
 20
70.8964
 30
0.0
 10
-95.7775
 20
70.8964
 30
0.0
  0
SPLINE
  5
1C8
330
1F
100
AcDbEntity
  8
layer 1
370
     9
100
AcDbSpline
210
0.0
220
0.0
230
1.0
 70
    24
 71
     3
 72
     8
 73
     4
 74
     0
 42
0.0000000001
 43
0.0000000001
 40
0.0
 40
0.0
 40
0.0
 40
0.0
 40
1.0
 40
1.0
 40
1.0
 40
1.0
 10
-95.7775
 20
70.8964
 30
0.0
 10
-95.7775
 20
70.8964
 30
0.0
 10
-98.7775
 20
70.8964
 30
0.0
 10
-98.7775
 20
70.8964
 30
0.0
  0
SPLINE
  5
1C9
330
1F
100
AcDbEntity
  8
layer 1
370
     9
100
AcDbSpline
210
0.0
220
0.0
230
1.0
 70
    24
 71
     3
 72
     8
 73
     4
 74
     0
 42
0.0000000001
 43
0.0000000001
 40
0.0
 40
0.0
 40
0.0
 40
0.0
 40
1.0
 40
1.0
 40
1.0
 40
1.0
 10
-98.7775
 20
70.8964
 30
0.0
 10
-98.7775
 20
70.8964
 30
0.0
 10
-98.7775
 20
75.8964
 30
0.0
 10
-98.7775
 20
75.8964
 30
0.0
  0
SPLINE
  5
1CA
330
1F
100
AcDbEntity
  8
layer 1
370
     9
100
AcDbSpline
210
0.0
220
0.0
230
1.0
 70
    24
 71
     3
 72
     8
 73
     4
 74
     0
 42
0.0000000001
 43
0.0000000001
 40
0.0
 40
0.0
 40
0.0
 40
0.0
 40
1.0
 40
1.0
 40
1.0
 40
1.0
 10
-98.7775
 20
75.8964
 30
0.0
 10
-98.7775
 20
75.8964
 30
0.0
 10
-95.7775
 20
75.8964
 30
0.0
 10
-95.7775
 20
75.8964
 30
0.0
  0
SPLINE
  5
1CB
330
1F
100
AcDbEntity
  8
layer 1
370
     9
100
AcDbSpline
210
0.0
220
0.0
230
1.0
 70
    27
 71
     3
 72
     8
 73
     4
 74
     0
 42
0.0000000001
 43
0.0000000001
 40
0.0
 40
0.0
 40
0.0
 40
0.0
 40
1.0
 40
1.0
 40
1.0
 40
1.0
 10
-95.7775
 20
15.2866
 30
0.0
 10
-95.7775
 20
15.2866
 30
0.0
 10
-95.7775
 20
15.2866
 30
0.0
 10
-95.7775
 20
15.2866
 30
0.0
  0
SPLINE
  5
1CC
330
1F
100
AcDbEntity
  8
layer 1
370
     9
100
AcDbSpline
210
0.0
220
0.0
230
1.0
 70
    24
 71
     3
 72
     8
 73
     4
 74
     0
 42
0.0000000001
 43
0.0000000001
 40
0.0
 40
0.0
 40
0.0
 40
0.0
 40
1.0
 40
1.0
 40
1.0
 40
1.0
 10
-95.7775
 20
20.2866
 30
0.0
 10
-95.7775
 20
20.2866
 30
0.0
 10
-95.7775
 20
15.2866
 30
0.0
 10
-95.7775
 20
15.2866
 30
0.0
  0
SPLINE
  5
1CD
330
1F
100
AcDbEntity
  8
layer 1
370
     9
100
AcDbSpline
210
0.0
220
0.0
230
1.0
 70
    27
 71
     3
 72
     8
 73
     4
 74
     0
 42
0.0000000001
 43
0.0000000001
 40
0.0
 40
0.0
 40
0.0
 40
0.0
 40
1.0
 40
1.0
 40
1.0
 40
1.0
 10
-98.7775
 20
15.2866
 30
0.0
 10
-98.7775
 20
15.2866
 30
0.0
 10
-98.7775
 20
15.2866
 30
0.0
 10
-98.7775
 20
15.2866
 30
0.0
  0
SPLINE
  5
1CE
330
1F
100
AcDbEntity
  8
layer 1
370
     9
100
AcDbSpline
210
0.0
220
0.0
230
1.0
 70
    24
 71
     3
 72
     8
 73
     4
 74
     0
 42
0.0000000001
 43
0.0000000001
 40
0.0
 40
0.0
 40
0.0
 40
0.0
 40
1.0
 40
1.0
 40
1.0
 40
1.0
 10
-95.7775
 20
15.2866
 30
0.0
 10
-95.7775
 20
15.2866
 30
0.0
 10
-98.7775
 20
15.2866
 30
0.0
 10
-98.7775
 20
15.2866
 30
0.0
  0
SPLINE
  5
1CF
330
1F
100
AcDbEntity
  8
layer 1
370
     9
100
AcDbSpline
210
0.0
220
0.0
230
1.0
 70
    27
 71
     3
 72
     8
 73
     4
 74
     0
 42
0.0000000001
 43
0.0000000001
 40
0.0
 40
0.0
 40
0.0
 40
0.0
 40
1.0
 40
1.0
 40
1.0
 40
1.0
 10
-98.7775
 20
15.2866
 30
0.0
 10
-98.7775
 20
15.2866
 30
0.0
 10
-98.7775
 20
15.2866
 30
0.0
 10
-98.7775
 20
15.2866
 30
0.0
  0
SPLINE
  5
1D0
330
1F
100
AcDbEntity
  8
layer 1
370
     9
100
AcDbSpline
210
0.0
220
0.0
230
1.0
 70
    24
 71
     3
 72
     8
 73
     4
 74
     0
 42
0.0000000001
 43
0.0000000001
 40
0.0
 40
0.0
 40
0.0
 40
0.0
 40
1.0
 40
1.0
 40
1.0
 40
1.0
 10
-98.7775
 20
15.2866
 30
0.0
 10
-98.7775
 20
15.2866
 30
0.0
 10
-98.7775
 20
20.2866
 30
0.0
 10
-98.7775
 20
20.2866
 30
0.0
  0
SPLINE
  5
1D1
330
1F
100
AcDbEntity
  8
layer 1
370
     9
100
AcDbSpline
210
0.0
220
0.0
230
1.0
 70
    27
 71
     3
 72
     8
 73
     4
 74
     0
 42
0.0000000001
 43
0.0000000001
 40
0.0
 40
0.0
 40
0.0
 40
0.0
 40
1.0
 40
1.0
 40
1.0
 40
1.0
 10
-98.7775
 20
20.2866
 30
0.0
 10
-98.7775
 20
20.2866
 30
0.0
 10
-98.7775
 20
20.2866
 30
0.0
 10
-98.7775
 20
20.2866
 30
0.0
  0
SPLINE
  5
1D2
330
1F
100
AcDbEntity
  8
layer 1
370
     9
100
AcDbSpline
210
0.0
220
0.0
230
1.0
 70
    24
 71
     3
 72
     8
 73
     4
 74
     0
 42
0.0000000001
 43
0.0000000001
 40
0.0
 40
0.0
 40
0.0
 40
0.0
 40
1.0
 40
1.0
 40
1.0
 40
1.0
 10
-98.7775
 20
20.2866
 30
0.0
 10
-98.7775
 20
20.2866
 30
0.0
 10
-95.7775
 20
20.2866
 30
0.0
 10
-95.7775
 20
20.2866
 30
0.0
  0
SPLINE
  5
1D3
330
1F
100
AcDbEntity
  8
layer 1
370
     9
100
AcDbSpline
210
0.0
220
0.0
230
1.0
 70
    27
 71
     3
 72
     8
 73
     4
 74
     0
 42
0.0000000001
 43
0.0000000001
 40
0.0
 40
0.0
 40
0.0
 40
0.0
 40
1.0
 40
1.0
 40
1.0
 40
1.0
 10
-6.4178
 20
70.8964
 30
0.0
 10
-6.4178
 20
70.8964
 30
0.0
 10
-6.4178
 20
70.8964
 30
0.0
 10
-6.4178
 20
70.8964
 30
0.0
  0
SPLINE
  5
1D4
330
1F
100
AcDbEntity
  8
layer 1
370
     9
100
AcDbSpline
210
0.0
220
0.0
230
1.0
 70
    24
 71
     3
 72
     8
 73
     4
 74
     0
 42
0.0000000001
 43
0.0000000001
 40
0.0
 40
0.0
 40
0.0
 40
0.0
 40
1.0
 40
1.0
 40
1.0
 40
1.0
 10
-6.4178
 20
75.8964
 30
0.0
 10
-6.4178
 20
75.8964
 30
0.0
 10
-6.4178
 20
70.8964
 30
0.0
 10
-6.4178
 20
70.8964
 30
0.0
  0
SPLINE
  5
1D5
330
1F
100
AcDbEntity
  8
layer 1
370
     9
100
AcDbSpline
210
0.0
220
0.0
230
1.0
 70
    27
 71
     3
 72
     8
 73
     4
 74
     0
 42
0.0000000001
 43
0.0000000001
 40
0.0
 40
0.0
 40
0.0
 40
0.0
 40
1.0
 40
1.0
 40
1.0
 40
1.0
 10
-9.4178
 20
70.8964
 30
0.0
 10
-9.4178
 20
70.8964
 30
0.0
 10
-9.4178
 20
70.8964
 30
0.0
 10
-9.4178
 20
70.8964
 30
0.0
  0
SPLINE
  5
1D6
330
1F
100
AcDbEntity
  8
layer 1
370
     9
100
AcDbSpline
210
0.0
220
0.0
230
1.0
 70
    24
 71
     3
 72
     8
 73
     4
 74
     0
 42
0.0000000001
 43
0.0000000001
 40
0.0
 40
0.0
 40
0.0
 40
0.0
 40
1.0
 40
1.0
 40
1.0
 40
1.0
 10
-6.4178
 20
70.8964
 30
0.0
 10
-6.4178
 20
70.8964
 30
0.0
 10
-9.4178
 20
70.8964
 30
0.0
 10
-9.4178
 20
70.8964
 30
0.0
  0
SPLINE
  5
1D7
330
1F
100
AcDbEntity
  8
layer 1
370
     9
100
AcDbSpline
210
0.0
220
0.0
230
1.0
 70
    27
 71
     3
 72
     8
 73
     4
 74
     0
 42
0.0000000001
 43
0.0000000001
 40
0.0
 40
0.0
 40
0.0
 40
0.0
 40
1.0
 40
1.0
 40
1.0
 40
1.0
 10
-9.4178
 20
70.8964
 30
0.0
 10
-9.4178
 20
70.8964
 30
0.0
 10
-9.4178
 20
70.8964
 30
0.0
 10
-9.4178
 20
70.8964
 30
0.0
  0
SPLINE
  5
1D8
330
1F
100
AcDbEntity
  8
layer 1
370
     9
100
AcDbSpline
210
0.0
220
0.0
230
1.0
 70
    24
 71
     3
 72
     8
 73
     4
 74
     0
 42
0.0000000001
 43
0.0000000001
 40
0.0
 40
0.0
 40
0.0
 40
0.0
 40
1.0
 40
1.0
 40
1.0
 40
1.0
 10
-9.4178
 20
70.8964
 30
0.0
 10
-9.4178
 20
70.8964
 30
0.0
 10
-9.4178
 20
75.8964
 30
0.0
 10
-9.4178
 20
75.8964
 30
0.0
  0
SPLINE
  5
1D9
330
1F
100
AcDbEntity
  8
layer 1
370
     9
100
AcDbSpline
210
0.0
220
0.0
230
1.0
 70
    27
 71
     3
 72
     8
 73
     4
 74
     0
 42
0.0000000001
 43
0.0000000001
 40
0.0
 40
0.0
 40
0.0
 40
0.0
 40
1.0
 40
1.0
 40
1.0
 40
1.0
 10
-9.4178
 20
75.8964
 30
0.0
 10
-9.4178
 20
75.8964
 30
0.0
 10
-9.4178
 20
75.8964
 30
0.0
 10
-9.4178
 20
75.8964
 30
0.0
  0
SPLINE
  5
1DA
330
1F
100
AcDbEntity
  8
layer 1
370
     9
100
AcDbSpline
210
0.0
220
0.0
230
1.0
 70
    24
 71
     3
 72
     8
 73
     4
 74
     0
 42
0.0000000001
 43
0.0000000001
 40
0.0
 40
0.0
 40
0.0
 40
0.0
 40
1.0
 40
1.0
 40
1.0
 40
1.0
 10
-9.4178
 20
75.8964
 30
0.0
 10
-9.4178
 20
75.8964
 30
0.0
 10
-6.4178
 20
75.8964
 30
0.0
 10
-6.4178
 20
75.8964
 30
0.0
  0
SPLINE
  5
1DB
330
1F
100
AcDbEntity
  8
layer 1
370
     9
100
AcDbSpline
210
0.0
220
0.0
230
1.0
 70
    24
 71
     3
 72
     8
 73
     4
 74
     0
 42
0.0000000001
 43
0.0000000001
 40
0.0
 40
0.0
 40
0.0
 40
0.0
 40
1.0
 40
1.0
 40
1.0
 40
1.0
 10
-6.4178
 20
20.2866
 30
0.0
 10
-6.4178
 20
20.2866
 30
0.0
 10
-6.4178
 20
15.2866
 30
0.0
 10
-6.4178
 20
15.2866
 30
0.0
  0
SPLINE
  5
1DC
330
1F
100
AcDbEntity
  8
layer 1
370
     9
100
AcDbSpline
210
0.0
220
0.0
230
1.0
 70
    24
 71
     3
 72
     8
 73
     4
 74
     0
 42
0.0000000001
 43
0.0000000001
 40
0.0
 40
0.0
 40
0.0
 40
0.0
 40
1.0
 40
1.0
 40
1.0
 40
1.0
 10
-6.4178
 20
15.2866
 30
0.0
 10
-6.4178
 20
15.2866
 30
0.0
 10
-9.4178
 20
15.2866
 30
0.0
 10
-9.4178
 20
15.2866
 30
0.0
  0
SPLINE
  5
1DD
330
1F
100
AcDbEntity
  8
layer 1
370
     9
100
AcDbSpline
210
0.0
220
0.0
230
1.0
 70
    24
 71
     3
 72
     8
 73
     4
 74
     0
 42
0.0000000001
 43
0.0000000001
 40
0.0
 40
0.0
 40
0.0
 40
0.0
 40
1.0
 40
1.0
 40
1.0
 40
1.0
 10
-9.4178
 20
15.2866
 30
0.0
 10
-9.4178
 20
15.2866
 30
0.0
 10
-9.4178
 20
20.2866
 30
0.0
 10
-9.4178
 20
20.2866
 30
0.0
  0
SPLINE
  5
1DE
330
1F
100
AcDbEntity
  8
layer 1
370
     9
100
AcDbSpline
210
0.0
220
0.0
230
1.0
 70
    24
 71
     3
 72
     8
 73
     4
 74
     0
 42
0.0000000001
 43
0.0000000001
 40
0.0
 40
0.0
 40
0.0
 40
0.0
 40
1.0
 40
1.0
 40
1.0
 40
1.0
 10
-9.4178
 20
20.2866
 30
0.0
 10
-9.4178
 20
20.2866
 30
0.0
 10
-6.4178
 20
20.2866
 30
0.0
 10
-6.4178
 20
20.2866
 30
0.0
  0
SPLINE
  5
1DF
330
1F
100
AcDbEntity
  8
layer 1
370
     9
100
AcDbSpline
210
0.0
220
0.0
230
1.0
 70
    27
 71
     3
 72
     8
 73
     4
 74
     0
 42
0.0000000001
 43
0.0000000001
 40
0.0
 40
0.0
 40
0.0
 40
0.0
 40
1.0
 40
1.0
 40
1.0
 40
1.0
 10
-88.7775
 20
15.2866
 30
0.0
 10
-88.7775
 20
15.2866
 30
0.0
 10
-88.7775
 20
15.2866
 30
0.0
 10
-88.7775
 20
15.2866
 30
0.0
  0
SPLINE
  5
1E0
330
1F
100
AcDbEntity
  8
layer 1
370
     9
100
AcDbSpline
210
0.0
220
0.0
230
1.0
 70
    24
 71
     3
 72
     8
 73
     4
 74
     0
 42
0.0000000001
 43
0.0000000001
 40
0.0
 40
0.0
 40
0.0
 40
0.0
 40
1.0
 40
1.0
 40
1.0
 40
1.0
 10
-88.7775
 20
18.2866
 30
0.0
 10
-88.7775
 20
18.2866
 30
0.0
 10
-88.7775
 20
15.2866
 30
0.0
 10
-88.7775
 20
15.2866
 30
0.0
  0
SPLINE
  5
1E1
330
1F
100
AcDbEntity
  8
layer 1
370
     9
100
AcDbSpline
210
0.0
220
0.0
230
1.0
 70
    27
 71
     3
 72
     8
 73
     4
 74
     0
 42
0.0000000001
 43
0.0000000001
 40
0.0
 40
0.0
 40
0.0
 40
0.0
 40
1.0
 40
1.0
 40
1.0
 40
1.0
 10
-93.7775
 20
15.2866
 30
0.0
 10
-93.7775
 20
15.2866
 30
0.0
 10
-93.7775
 20
15.2866
 30
0.0
 10
-93.7775
 20
15.2866
 30
0.0
  0
SPLINE
  5
1E2
330
1F
100
AcDbEntity
  8
layer 1
370
     9
100
AcDbSpline
210
0.0
220
0.0
230
1.0
 70
    24
 71
     3
 72
     8
 73
     4
 74
     0
 42
0.0000000001
 43
0.0000000001
 40
0.0
 40
0.0
 40
0.0
 40
0.0
 40
1.0
 40
1.0
 40
1.0
 40
1.0
 10
-88.7775
 20
15.2866
 30
0.0
 10
-88.7775
 20
15.2866
 30
0.0
 10
-93.7775
 20
15.2866
 30
0.0
 10
-93.7775
 20
15.2866
 30
0.0
  0
SPLINE
  5
1E3
330
1F
100
AcDbEntity
  8
layer 1
370
     9
100
AcDbSpline
210
0.0
220
0.0
230
1.0
 70
    27
 71
     3
 72
     8
 73
     4
 74
     0
 42
0.0000000001
 43
0.0000000001
 40
0.0
 40
0.0
 40
0.0
 40
0.0
 40
1.0
 40
1.0
 40
1.0
 40
1.0
 10
-93.7775
 20
15.2866
 30
0.0
 10
-93.7775
 20
15.2866
 30
0.0
 10
-93.7775
 20
15.2866
 30
0.0
 10
-93.7775
 20
15.2866
 30
0.0
  0
SPLINE
  5
1E4
330
1F
100
AcDbEntity
  8
layer 1
370
     9
100
AcDbSpline
210
0.0
220
0.0
230
1.0
 70
    24
 71
     3
 72
     8
 73
     4
 74
     0
 42
0.0000000001
 43
0.0000000001
 40
0.0
 40
0.0
 40
0.0
 40
0.0
 40
1.0
 40
1.0
 40
1.0
 40
1.0
 10
-93.7775
 20
15.2866
 30
0.0
 10
-93.7775
 20
15.2866
 30
0.0
 10
-93.7775
 20
18.2866
 30
0.0
 10
-93.7775
 20
18.2866
 30
0.0
  0
SPLINE
  5
1E5
330
1F
100
AcDbEntity
  8
layer 1
370
     9
100
AcDbSpline
210
0.0
220
0.0
230
1.0
 70
    27
 71
     3
 72
     8
 73
     4
 74
     0
 42
0.0000000001
 43
0.0000000001
 40
0.0
 40
0.0
 40
0.0
 40
0.0
 40
1.0
 40
1.0
 40
1.0
 40
1.0
 10
-93.7775
 20
18.2866
 30
0.0
 10
-93.7775
 20
18.2866
 30
0.0
 10
-93.7775
 20
18.2866
 30
0.0
 10
-93.7775
 20
18.2866
 30
0.0
  0
SPLINE
  5
1E6
330
1F
100
AcDbEntity
  8
layer 1
370
     9
100
AcDbSpline
210
0.0
220
0.0
230
1.0
 70
    24
 71
     3
 72
     8
 73
     4
 74
     0
 42
0.0000000001
 43
0.0000000001
 40
0.0
 40
0.0
 40
0.0
 40
0.0
 40
1.0
 40
1.0
 40
1.0
 40
1.0
 10
-93.7775
 20
18.2866
 30
0.0
 10
-93.7775
 20
18.2866
 30
0.0
 10
-88.7775
 20
18.2866
 30
0.0
 10
-88.7775
 20
18.2866
 30
0.0
  0
SPLINE
  5
1E7
330
1F
100
AcDbEntity
  8
layer 1
370
     9
100
AcDbSpline
210
0.0
220
0.0
230
1.0
 70
    24
 71
     3
 72
     8
 73
     4
 74
     0
 42
0.0000000001
 43
0.0000000001
 40
0.0
 40
0.0
 40
0.0
 40
0.0
 40
1.0
 40
1.0
 40
1.0
 40
1.0
 10
-88.7775
 20
75.8964
 30
0.0
 10
-88.7775
 20
75.8964
 30
0.0
 10
-88.7775
 20
72.8964
 30
0.0
 10
-88.7775
 20
72.8964
 30
0.0
  0
SPLINE
  5
1E8
330
1F
100
AcDbEntity
  8
layer 1
370
     9
100
AcDbSpline
210
0.0
220
0.0
230
1.0
 70
    24
 71
     3
 72
     8
 73
     4
 74
     0
 42
0.0000000001
 43
0.0000000001
 40
0.0
 40
0.0
 40
0.0
 40
0.0
 40
1.0
 40
1.0
 40
1.0
 40
1.0
 10
-88.7775
 20
72.8964
 30
0.0
 10
-88.7775
 20
72.8964
 30
0.0
 10
-93.7775
 20
72.8964
 30
0.0
 10
-93.7775
 20
72.8964
 30
0.0
  0
SPLINE
  5
1E9
330
1F
100
AcDbEntity
  8
layer 1
370
     9
100
AcDbSpline
210
0.0
220
0.0
230
1.0
 70
    24
 71
     3
 72
     8
 73
     4
 74
     0
 42
0.0000000001
 43
0.0000000001
 40
0.0
 40
0.0
 40
0.0
 40
0.0
 40
1.0
 40
1.0
 40
1.0
 40
1.0
 10
-93.7775
 20
72.8964
 30
0.0
 10
-93.7775
 20
72.8964
 30
0.0
 10
-93.7775
 20
75.8964
 30
0.0
 10
-93.7775
 20
75.8964
 30
0.0
  0
SPLINE
  5
1EA
330
1F
100
AcDbEntity
  8
layer 1
370
     9
100
AcDbSpline
210
0.0
220
0.0
230
1.0
 70
    24
 71
     3
 72
     8
 73
     4
 74
     0
 42
0.0000000001
 43
0.0000000001
 40
0.0
 40
0.0
 40
0.0
 40
0.0
 40
1.0
 40
1.0
 40
1.0
 40
1.0
 10
-93.7775
 20
75.8964
 30
0.0
 10
-93.7775
 20
75.8964
 30
0.0
 10
-88.7775
 20
75.8964
 30
0.0
 10
-88.7775
 20
75.8964
 30
0.0
  0
SPLINE
  5
1EB
330
1F
100
AcDbEntity
  8
layer 1
370
     9
100
AcDbSpline
210
0.0
220
0.0
230
1.0
 70
    24
 71
     3
 72
     8
 73
     4
 74
     0
 42
0.0000000001
 43
0.0000000001
 40
0.0
 40
0.0
 40
0.0
 40
0.0
 40
1.0
 40
1.0
 40
1.0
 40
1.0
 10
-14.4178
 20
18.2866
 30
0.0
 10
-14.4178
 20
18.2866
 30
0.0
 10
-14.4178
 20
15.2866
 30
0.0
 10
-14.4178
 20
15.2866
 30
0.0
  0
SPLINE
  5
1EC
330
1F
100
AcDbEntity
  8
layer 1
370
     9
100
AcDbSpline
210
0.0
220
0.0
230
1.0
 70
    24
 71
     3
 72
     8
 73
     4
 74
     0
 42
0.0000000001
 43
0.0000000001
 40
0.0
 40
0.0
 40
0.0
 40
0.0
 40
1.0
 40
1.0
 40
1.0
 40
1.0
 10
-14.4178
 20
15.2866
 30
0.0
 10
-14.4178
 20
15.2866
 30
0.0
 10
-19.4178
 20
15.2866
 30
0.0
 10
-19.4178
 20
15.2866
 30
0.0
  0
SPLINE
  5
1ED
330
1F
100
AcDbEntity
  8
layer 1
370
     9
100
AcDbSpline
210
0.0
220
0.0
230
1.0
 70
    24
 71
     3
 72
     8
 73
     4
 74
     0
 42
0.0000000001
 43
0.0000000001
 40
0.0
 40
0.0
 40
0.0
 40
0.0
 40
1.0
 40
1.0
 40
1.0
 40
1.0
 10
-19.4178
 20
15.2866
 30
0.0
 10
-19.4178
 20
15.2866
 30
0.0
 10
-19.4178
 20
18.2866
 30
0.0
 10
-19.4178
 20
18.2866
 30
0.0
  0
SPLINE
  5
1EE
330
1F
100
AcDbEntity
  8
layer 1
370
     9
100
AcDbSpline
210
0.0
220
0.0
230
1.0
 70
    24
 71
     3
 72
     8
 73
     4
 74
     0
 42
0.0000000001
 43
0.0000000001
 40
0.0
 40
0.0
 40
0.0
 40
0.0
 40
1.0
 40
1.0
 40
1.0
 40
1.0
 10
-19.4178
 20
18.2866
 30
0.0
 10
-19.4178
 20
18.2866
 30
0.0
 10
-14.4178
 20
18.2866
 30
0.0
 10
-14.4178
 20
18.2866
 30
0.0
  0
SPLINE
  5
1EF
330
1F
100
AcDbEntity
  8
layer 1
370
     9
100
AcDbSpline
210
0.0
220
0.0
230
1.0
 70
    27
 71
     3
 72
     8
 73
     4
 74
     0
 42
0.0000000001
 43
0.0000000001
 40
0.0
 40
0.0
 40
0.0
 40
0.0
 40
1.0
 40
1.0
 40
1.0
 40
1.0
 10
-14.4178
 20
72.8964
 30
0.0
 10
-14.4178
 20
72.8964
 30
0.0
 10
-14.4178
 20
72.8964
 30
0.0
 10
-14.4178
 20
72.8964
 30
0.0
  0
SPLINE
  5
1F0
330
1F
100
AcDbEntity
  8
layer 1
370
     9
100
AcDbSpline
210
0.0
220
0.0
230
1.0
 70
    24
 71
     3
 72
     8
 73
     4
 74
     0
 42
0.0000000001
 43
0.0000000001
 40
0.0
 40
0.0
 40
0.0
 40
0.0
 40
1.0
 40
1.0
 40
1.0
 40
1.0
 10
-14.4178
 20
75.8964
 30
0.0
 10
-14.4178
 20
75.8964
 30
0.0
 10
-14.4178
 20
72.8964
 30
0.0
 10
-14.4178
 20
72.8964
 30
0.0
  0
SPLINE
  5
1F1
330
1F
100
AcDbEntity
  8
layer 1
370
     9
100
AcDbSpline
210
0.0
220
0.0
230
1.0
 70
    27
 71
     3
 72
     8
 73
     4
 74
     0
 42
0.0000000001
 43
0.0000000001
 40
0.0
 40
0.0
 40
0.0
 40
0.0
 40
1.0
 40
1.0
 40
1.0
 40
1.0
 10
-19.4178
 20
72.8964
 30
0.0
 10
-19.4178
 20
72.8964
 30
0.0
 10
-19.4178
 20
72.8964
 30
0.0
 10
-19.4178
 20
72.8964
 30
0.0
  0
SPLINE
  5
1F2
330
1F
100
AcDbEntity
  8
layer 1
370
     9
100
AcDbSpline
210
0.0
220
0.0
230
1.0
 70
    24
 71
     3
 72
     8
 73
     4
 74
     0
 42
0.0000000001
 43
0.0000000001
 40
0.0
 40
0.0
 40
0.0
 40
0.0
 40
1.0
 40
1.0
 40
1.0
 40
1.0
 10
-14.4178
 20
72.8964
 30
0.0
 10
-14.4178
 20
72.8964
 30
0.0
 10
-19.4178
 20
72.8964
 30
0.0
 10
-19.4178
 20
72.8964
 30
0.0
  0
SPLINE
  5
1F3
330
1F
100
AcDbEntity
  8
layer 1
370
     9
100
AcDbSpline
210
0.0
220
0.0
230
1.0
 70
    27
 71
     3
 72
     8
 73
     4
 74
     0
 42
0.0000000001
 43
0.0000000001
 40
0.0
 40
0.0
 40
0.0
 40
0.0
 40
1.0
 40
1.0
 40
1.0
 40
1.0
 10
-19.4178
 20
72.8964
 30
0.0
 10
-19.4178
 20
72.8964
 30
0.0
 10
-19.4178
 20
72.8964
 30
0.0
 10
-19.4178
 20
72.8964
 30
0.0
  0
SPLINE
  5
1F4
330
1F
100
AcDbEntity
  8
layer 1
370
     9
100
AcDbSpline
210
0.0
220
0.0
230
1.0
 70
    24
 71
     3
 72
     8
 73
     4
 74
     0
 42
0.0000000001
 43
0.0000000001
 40
0.0
 40
0.0
 40
0.0
 40
0.0
 40
1.0
 40
1.0
 40
1.0
 40
1.0
 10
-19.4178
 20
72.8964
 30
0.0
 10
-19.4178
 20
72.8964
 30
0.0
 10
-19.4178
 20
75.8964
 30
0.0
 10
-19.4178
 20
75.8964
 30
0.0
  0
SPLINE
  5
1F5
330
1F
100
AcDbEntity
  8
layer 1
370
     9
100
AcDbSpline
210
0.0
220
0.0
230
1.0
 70
    27
 71
     3
 72
     8
 73
     4
 74
     0
 42
0.0000000001
 43
0.0000000001
 40
0.0
 40
0.0
 40
0.0
 40
0.0
 40
1.0
 40
1.0
 40
1.0
 40
1.0
 10
-19.4178
 20
75.8964
 30
0.0
 10
-19.4178
 20
75.8964
 30
0.0
 10
-19.4178
 20
75.8964
 30
0.0
 10
-19.4178
 20
75.8964
 30
0.0
  0
SPLINE
  5
1F6
330
1F
100
AcDbEntity
  8
layer 1
370
     9
100
AcDbSpline
210
0.0
220
0.0
230
1.0
 70
    24
 71
     3
 72
     8
 73
     4
 74
     0
 42
0.0000000001
 43
0.0000000001
 40
0.0
 40
0.0
 40
0.0
 40
0.0
 40
1.0
 40
1.0
 40
1.0
 40
1.0
 10
-19.4178
 20
75.8964
 30
0.0
 10
-19.4178
 20
75.8964
 30
0.0
 10
-14.4178
 20
75.8964
 30
0.0
 10
-14.4178
 20
75.8964
 30
0.0
  0
SPLINE
  5
1F7
330
1F
100
AcDbEntity
  8
layer 1
370
     9
100
AcDbSpline
210
0.0
220
0.0
230
1.0
 70
    27
 71
     3
 72
     8
 73
     4
 74
     0
 42
0.0000000001
 43
0.0000000001
 40
0.0
 40
0.0
 40
0.0
 40
0.0
 40
1.0
 40
1.0
 40
1.0
 40
1.0
 10
-27.2896
 20
66.5914
 30
0.0
 10
-27.2896
 20
66.5914
 30
0.0
 10
-27.2896
 20
66.5914
 30
0.0
 10
-27.2896
 20
66.5914
 30
0.0
  0
SPLINE
  5
1F8
330
1F
100
AcDbEntity
  8
layer 1
370
     9
100
AcDbSpline
210
0.0
220
0.0
230
1.0
 70
    24
 71
     3
 72
     8
 73
     4
 74
     0
 42
0.0000000001
 43
0.0000000001
 40
0.0
 40
0.0
 40
0.0
 40
0.0
 40
1.0
 40
1.0
 40
1.0
 40
1.0
 10
-27.2896
 20
72.5914
 30
0.0
 10
-27.2896
 20
72.5914
 30
0.0
 10
-27.2896
 20
66.5914
 30
0.0
 10
-27.2896
 20
66.5914
 30
0.0
  0
SPLINE
  5
1F9
330
1F
100
AcDbEntity
  8
layer 1
370
     9
100
AcDbSpline
210
0.0
220
0.0
230
1.0
 70
    24
 71
     3
 72
     8
 73
     4
 74
     0
 42
0.0000000001
 43
0.0000000001
 40
0.0
 40
0.0
 40
0.0
 40
0.0
 40
1.0
 40
1.0
 40
1.0
 40
1.0
 10
-86.7894
 20
66.5914
 30
0.0
 10
-86.7894
 20
66.5914
 30
0.0
 10
-86.7894
 20
72.5914
 30
0.0
 10
-86.7894
 20
72.5914
 30
0.0
  0
SPLINE
  5
1FA
330
1F
100
AcDbEntity
  8
layer 1
370
     9
100
AcDbSpline
210
0.0
220
0.0
230
1.0
 70
    24
 71
     3
 72
     8
 73
     4
 74
     0
 42
0.0000000001
 43
0.0000000001
 40
0.0
 40
0.0
 40
0.0
 40
0.0
 40
1.0
 40
1.0
 40
1.0
 40
1.0
 10
-86.7894
 20
72.5914
 30
0.0
 10
-86.7894
 20
72.5914
 30
0.0
 10
-27.2896
 20
72.5914
 30
0.0
 10
-27.2896
 20
72.5914
 30
0.0
  0
SPLINE
  5
1FB
330
1F
100
AcDbEntity
  8
layer 1
370
     9
100
AcDbSpline
210
0.0
220
0.0
230
1.0
 70
    24
 71
     3
 72
     8
 73
     4
 74
     0
 42
0.0000000001
 43
0.0000000001
 40
0.0
 40
0.0
 40
0.0
 40
0.0
 40
1.0
 40
1.0
 40
1.0
 40
1.0
 10
-27.2896
 20
24.5916
 30
0.0
 10
-27.2896
 20
24.5916
 30
0.0
 10
-27.2896
 20
18.5916
 30
0.0
 10
-27.2896
 20
18.5916
 30
0.0
  0
SPLINE
  5
1FC
330
1F
100
AcDbEntity
  8
layer 1
370
     9
100
AcDbSpline
210
0.0
220
0.0
230
1.0
 70
    24
 71
     3
 72
     8
 73
     4
 74
     0
 42
0.0000000001
 43
0.0000000001
 40
0.0
 40
0.0
 40
0.0
 40
0.0
 40
1.0
 40
1.0
 40
1.0
 40
1.0
 10
-27.2896
 20
18.5916
 30
0.0
 10
-27.2896
 20
18.5916
 30
0.0
 10
-86.7894
 20
18.5916
 30
0.0
 10
-86.7894
 20
18.5916
 30
0.0
  0
SPLINE
  5
1FD
330
1F
100
AcDbEntity
  8
layer 1
370
     9
100
AcDbSpline
210
0.0
220
0.0
230
1.0
 70
    27
 71
     3
 72
     8
 73
     4
 74
     0
 42
0.0000000001
 43
0.0000000001
 40
0.0
 40
0.0
 40
0.0
 40
0.0
 40
1.0
 40
1.0
 40
1.0
 40
1.0
 10
-86.7894
 20
18.5916
 30
0.0
 10
-86.7894
 20
18.5916
 30
0.0
 10
-86.7894
 20
18.5916
 30
0.0
 10
-86.7894
 20
18.5916
 30
0.0
  0
SPLINE
  5
1FE
330
1F
100
AcDbEntity
  8
layer 1
370
     9
100
AcDbSpline
210
0.0
220
0.0
230
1.0
 70
    24
 71
     3
 72
     8
 73
     4
 74
     0
 42
0.0000000001
 43
0.0000000001
 40
0.0
 40
0.0
 40
0.0
 40
0.0
 40
1.0
 40
1.0
 40
1.0
 40
1.0
 10
-86.7894
 20
18.5916
 30
0.0
 10
-86.7894
 20
18.5916
 30
0.0
 10
-86.7894
 20
24.5916
 30
0.0
 10
-86.7894
 20
24.5916
 30
0.0
  0
SPLINE
  5
1FF
330
1F
100
AcDbEntity
  8
layer 1
370
     9
100
AcDbSpline
210
0.0
220
0.0
230
1.0
 70
    27
 71
     3
 72
     8
 73
     4
 74
     0
 42
0.0000000001
 43
0.0000000001
 40
0.0
 40
0.0
 40
0.0
 40
0.0
 40
1.0
 40
1.0
 40
1.0
 40
1.0
 10
-86.7894
 20
24.5916
 30
0.0
 10
-86.7894
 20
24.5916
 30
0.0
 10
-86.7894
 20
24.5916
 30
0.0
 10
-86.7894
 20
24.5916
 30
0.0
  0
SPLINE
  5
200
330
1F
100
AcDbEntity
  8
layer 1
370
     9
100
AcDbSpline
210
0.0
220
0.0
230
1.0
 70
    24
 71
     3
 72
     8
 73
     4
 74
     0
 42
0.0000000001
 43
0.0000000001
 40
0.0
 40
0.0
 40
0.0
 40
0.0
 40
1.0
 40
1.0
 40
1.0
 40
1.0
 10
-86.7894
 20
24.5916
 30
0.0
 10
-86.7894
 20
24.5916
 30
0.0
 10
-27.2896
 20
24.5916
 30
0.0
 10
-27.2896
 20
24.5916
 30
0.0
  0
SPLINE
  5
201
330
1F
100
AcDbEntity
  8
layer 1
370
     9
100
AcDbSpline
210
0.0
220
0.0
230
1.0
 70
     8
 71
     3
 72
    20
 73
    16
 74
     0
 42
0.0000000001
 43
0.0000000001
 40
0.0
 40
0.0
 40
0.0
 40
0.0
 40
0.25
 40
0.25
 40
0.25
 40
0.25
 40
0.5
 40
0.5
 40
0.5
 40
0.5
 40
0.75
 40
0.75
 40
0.75
 40
0.75
 40
1.0
 40
1.0
 40
1.0
 40
1.0
 10
-91.5625
 20
24.6366
 30
0.0
 10
-91.5625
 20
23.8082
 30
0.0
 10
-90.891
 20
23.1367
 30
0.0
 10
-90.0626
 20
23.1367
 30
0.0
 10
-90.0626
 20
23.1367
 30
0.0
 10
-89.2341
 20
23.1366
 30
0.0
 10
-88.5626
 20
23.8082
 30
0.0
 10
-88.5626
 20
24.6366
 30
0.0
 10
-88.5626
 20
24.6366
 30
0.0
 10
-88.5625
 20
25.4651
 30
0.0
 10
-89.2341
 20
26.1366
 30
0.0
 10
-90.0625
 20
26.1366
 30
0.0
 10
-90.0625
 20
26.1366
 30
0.0
 10
-90.891
 20
26.1367
 30
0.0
 10
-91.5625
 20
25.4651
 30
0.0
 10
-91.5625
 20
24.6367
 30
0.0
  0
SPLINE
  5
202
330
1F
100
AcDbEntity
  8
layer 1
370
     9
100
AcDbSpline
210
0.0
220
0.0
230
1.0
 70
     8
 71
     3
 72
    20
 73
    16
 74
     0
 42
0.0000000001
 43
0.0000000001
 40
0.0
 40
0.0
 40
0.0
 40
0.0
 40
0.25
 40
0.25
 40
0.25
 40
0.25
 40
0.5
 40
0.5
 40
0.5
 40
0.5
 40
0.75
 40
0.75
 40
0.75
 40
0.75
 40
1.0
 40
1.0
 40
1.0
 40
1.0
 10
-91.5625
 20
66.5464
 30
0.0
 10
-91.5625
 20
65.718
 30
0.0
 10
-90.891
 20
65.0465
 30
0.0
 10
-90.0626
 20
65.0465
 30
0.0
 10
-90.0626
 20
65.0465
 30
0.0
 10
-89.2341
 20
65.0464
 30
0.0
 10
-88.5626
 20
65.718
 30
0.0
 10
-88.5626
 20
66.5464
 30
0.0
 10
-88.5626
 20
66.5464
 30
0.0
 10
-88.5625
 20
67.3749
 30
0.0
 10
-89.2341
 20
68.0464
 30
0.0
 10
-90.0625
 20
68.0464
 30
0.0
 10
-90.0625
 20
68.0464
 30
0.0
 10
-90.891
 20
68.0465
 30
0.0
 10
-91.5625
 20
67.3749
 30
0.0
 10
-91.5625
 20
66.5465
 30
0.0
  0
SPLINE
  5
203
330
1F
100
AcDbEntity
  8
layer 1
370
     9
100
AcDbSpline
210
0.0
220
0.0
230
1.0
 70
     8
 71
     3
 72
    20
 73
    16
 74
     0
 42
0.0000000001
 43
0.0000000001
 40
0.0
 40
0.0
 40
0.0
 40
0.0
 40
0.25
 40
0.25
 40
0.25
 40
0.25
 40
0.5
 40
0.5
 40
0.5
 40
0.5
 40
0.75
 40
0.75
 40
0.75
 40
0.75
 40
1.0
 40
1.0
 40
1.0
 40
1.0
 10
-25.5227
 20
69.7214
 30
0.0
 10
-25.5227
 20
68.893
 30
0.0
 10
-24.8512
 20
68.2215
 30
0.0
 10
-24.0228
 20
68.2215
 30
0.0
 10
-24.0228
 20
68.2215
 30
0.0
 10
-23.1943
 20
68.2214
 30
0.0
 10
-22.5228
 20
68.893
 30
0.0
 10
-22.5228
 20
69.7214
 30
0.0
 10
-22.5228
 20
69.7214
 30
0.0
 10
-22.5227
 20
70.5499
 30
0.0
 10
-23.1943
 20
71.2214
 30
0.0
 10
-24.0227
 20
71.2214
 30
0.0
 10
-24.0227
 20
71.2214
 30
0.0
 10
-24.8512
 20
71.2215
 30
0.0
 10
-25.5227
 20
70.5499
 30
0.0
 10
-25.5227
 20
69.7215
 30
0.0
  0
SPLINE
  5
204
330
1F
100
AcDbEntity
  8
layer 1
370
     9
100
AcDbSpline
210
0.0
220
0.0
230
1.0
 70
     8
 71
     3
 72
    20
 73
    16
 74
     0
 42
0.0000000001
 43
0.0000000001
 40
0.0
 40
0.0
 40
0.0
 40
0.0
 40
0.25
 40
0.25
 40
0.25
 40
0.25
 40
0.5
 40
0.5
 40
0.5
 40
0.5
 40
0.75
 40
0.75
 40
0.75
 40
0.75
 40
1.0
 40
1.0
 40
1.0
 40
1.0
 10
-25.5227
 20
21.4616
 30
0.0
 10
-25.5227
 20
20.6332
 30
0.0
 10
-24.8512
 20
19.9617
 30
0.0
 10
-24.0228
 20
19.9617
 30
0.0
 10
-24.0228
 20
19.9617
 30
0.0
 10
-23.1943
 20
19.9616
 30
0.0
 10
-22.5228
 20
20.6332
 30
0.0
 10
-22.5228
 20
21.4616
 30
0.0
 10
-22.5228
 20
21.4616
 30
0.0
 10
-22.5227
 20
22.2901
 30
0.0
 10
-23.1943
 20
22.9616
 30
0.0
 10
-24.0227
 20
22.9616
 30
0.0
 10
-24.0227
 20
22.9616
 30
0.0
 10
-24.8512
 20
22.9617
 30
0.0
 10
-25.5227
 20
22.2901
 30
0.0
 10
-25.5227
 20
21.4617
 30
0.0
  0
SPLINE
  5
205
330
1F
100
AcDbEntity
  8
layer 1
370
     9
100
AcDbSpline
210
0.0
220
0.0
230
1.0
 70
    27
 71
     3
 72
     8
 73
     4
 74
     0
 42
0.0000000001
 43
0.0000000001
 40
0.0
 40
0.0
 40
0.0
 40
0.0
 40
1.0
 40
1.0
 40
1.0
 40
1.0
 10
-85.9227
 20
27.6633
 30
0.0
 10
-85.9227
 20
27.6633
 30
0.0
 10
-85.9227
 20
27.6633
 30
0.0
 10
-85.9227
 20
27.6633
 30
0.0
  0
SPLINE
  5
206
330
1F
100
AcDbEntity
  8
layer 1
370
     9
100
AcDbSpline
210
0.0
220
0.0
230
1.0
 70
    24
 71
     3
 72
     8
 73
     4
 74
     0
 42
0.0000000001
 43
0.0000000001
 40
0.0
 40
0.0
 40
0.0
 40
0.0
 40
1.0
 40
1.0
 40
1.0
 40
1.0
 10
-82.9002
 20
27.6633
 30
0.0
 10
-82.9002
 20
27.6633
 30
0.0
 10
-85.9227
 20
27.6633
 30
0.0
 10
-85.9227
 20
27.6633
 30
0.0
  0
SPLINE
  5
207
330
1F
100
AcDbEntity
  8
layer 1
370
     9
100
AcDbSpline
210
0.0
220
0.0
230
1.0
 70
    27
 71
     3
 72
     8
 73
     4
 74
     0
 42
0.0000000001
 43
0.0000000001
 40
0.0
 40
0.0
 40
0.0
 40
0.0
 40
1.0
 40
1.0
 40
1.0
 40
1.0
 10
-85.9227
 20
27.6633
 30
0.0
 10
-85.9227
 20
27.6633
 30
0.0
 10
-85.9227
 20
27.6633
 30
0.0
 10
-85.9227
 20
27.6633
 30
0.0
  0
SPLINE
  5
208
330
1F
100
AcDbEntity
  8
layer 1
370
     9
100
AcDbSpline
210
0.0
220
0.0
230
1.0
 70
    24
 71
     3
 72
     8
 73
     4
 74
     0
 42
0.0000000001
 43
0.0000000001
 40
0.0
 40
0.0
 40
0.0
 40
0.0
 40
1.0
 40
1.0
 40
1.0
 40
1.0
 10
-85.9227
 20
30.6633
 30
0.0
 10
-85.9227
 20
30.6633
 30
0.0
 10
-85.9227
 20
27.6633
 30
0.0
 10
-85.9227
 20
27.6633
 30
0.0
  0
SPLINE
  5
209
330
1F
100
AcDbEntity
  8
layer 1
370
     9
100
AcDbSpline
210
0.0
220
0.0
230
1.0
 70
    27
 71
     3
 72
     8
 73
     4
 74
     0
 42
0.0000000001
 43
0.0000000001
 40
0.0
 40
0.0
 40
0.0
 40
0.0
 40
1.0
 40
1.0
 40
1.0
 40
1.0
 10
-85.9227
 20
30.6633
 30
0.0
 10
-85.9227
 20
30.6633
 30
0.0
 10
-85.9227
 20
30.6633
 30
0.0
 10
-85.9227
 20
30.6633
 30
0.0
  0
SPLINE
  5
20A
330
1F
100
AcDbEntity
  8
layer 1
370
     9
100
AcDbSpline
210
0.0
220
0.0
230
1.0
 70
    24
 71
     3
 72
     8
 73
     4
 74
     0
 42
0.0000000001
 43
0.0000000001
 40
0.0
 40
0.0
 40
0.0
 40
0.0
 40
1.0
 40
1.0
 40
1.0
 40
1.0
 10
-85.9227
 20
30.6633
 30
0.0
 10
-85.9227
 20
30.6633
 30
0.0
 10
-82.9002
 20
30.6633
 30
0.0
 10
-82.9002
 20
30.6633
 30
0.0
  0
SPLINE
  5
20B
330
1F
100
AcDbEntity
  8
layer 1
370
     9
100
AcDbSpline
210
0.0
220
0.0
230
1.0
 70
    27
 71
     3
 72
     8
 73
     4
 74
     0
 42
0.0000000001
 43
0.0000000001
 40
0.0
 40
0.0
 40
0.0
 40
0.0
 40
1.0
 40
1.0
 40
1.0
 40
1.0
 10
-82.9002
 20
27.6633
 30
0.0
 10
-82.9002
 20
27.6633
 30
0.0
 10
-82.9002
 20
27.6633
 30
0.0
 10
-82.9002
 20
27.6633
 30
0.0
  0
SPLINE
  5
20C
330
1F
100
AcDbEntity
  8
layer 1
370
     9
100
AcDbSpline
210
0.0
220
0.0
230
1.0
 70
    24
 71
     3
 72
     8
 73
     4
 74
     0
 42
0.0000000001
 43
0.0000000001
 40
0.0
 40
0.0
 40
0.0
 40
0.0
 40
1.0
 40
1.0
 40
1.0
 40
1.0
 10
-82.9002
 20
27.6633
 30
0.0
 10
-82.9002
 20
27.6633
 30
0.0
 10
-82.9002
 20
30.6633
 30
0.0
 10
-82.9002
 20
30.6633
 30
0.0
  0
SPLINE
  5
20D
330
1F
100
AcDbEntity
  8
layer 1
370
     9
100
AcDbSpline
210
0.0
220
0.0
230
1.0
 70
    24
 71
     3
 72
     8
 73
     4
 74
     0
 42
0.0000000001
 43
0.0000000001
 40
0.0
 40
0.0
 40
0.0
 40
0.0
 40
1.0
 40
1.0
 40
1.0
 40
1.0
 10
-16.7613
 20
32.9809
 30
0.0
 10
-16.7613
 20
32.9809
 30
0.0
 10
-16.7613
 20
29.9584
 30
0.0
 10
-16.7613
 20
29.9584
 30
0.0
  0
SPLINE
  5
20E
330
1F
100
AcDbEntity
  8
layer 1
370
     9
100
AcDbSpline
210
0.0
220
0.0
230
1.0
 70
    24
 71
     3
 72
     8
 73
     4
 74
     0
 42
0.0000000001
 43
0.0000000001
 40
0.0
 40
0.0
 40
0.0
 40
0.0
 40
1.0
 40
1.0
 40
1.0
 40
1.0
 10
-19.7613
 20
29.9584
 30
0.0
 10
-19.7613
 20
29.9584
 30
0.0
 10
-16.7613
 20
29.9584
 30
0.0
 10
-16.7613
 20
29.9584
 30
0.0
  0
SPLINE
  5
20F
330
1F
100
AcDbEntity
  8
layer 1
370
     9
100
AcDbSpline
210
0.0
220
0.0
230
1.0
 70
    24
 71
     3
 72
     8
 73
     4
 74
     0
 42
0.0000000001
 43
0.0000000001
 40
0.0
 40
0.0
 40
0.0
 40
0.0
 40
1.0
 40
1.0
 40
1.0
 40
1.0
 10
-19.7613
 20
29.9584
 30
0.0
 10
-19.7613
 20
29.9584
 30
0.0
 10
-19.7613
 20
32.9809
 30
0.0
 10
-19.7613
 20
32.9809
 30
0.0
  0
SPLINE
  5
210
330
1F
100
AcDbEntity
  8
layer 1
370
     9
100
AcDbSpline
210
0.0
220
0.0
230
1.0
 70
    24
 71
     3
 72
     8
 73
     4
 74
     0
 42
0.0000000001
 43
0.0000000001
 40
0.0
 40
0.0
 40
0.0
 40
0.0
 40
1.0
 40
1.0
 40
1.0
 40
1.0
 10
-16.7613
 20
32.9809
 30
0.0
 10
-16.7613
 20
32.9809
 30
0.0
 10
-19.7613
 20
32.9809
 30
0.0
 10
-19.7613
 20
32.9809
 30
0.0
  0
SPLINE
  5
211
330
1F
100
AcDbEntity
  8
layer 1
370
     9
100
AcDbSpline
210
0.0
220
0.0
230
1.0
 70
    24
 71
     3
 72
     8
 73
     4
 74
     0
 42
0.0000000001
 43
0.0000000001
 40
0.0
 40
0.0
 40
0.0
 40
0.0
 40
1.0
 40
1.0
 40
1.0
 40
1.0
 10
-16.7613
 20
23.4809
 30
0.0
 10
-16.7613
 20
23.4809
 30
0.0
 10
-16.7613
 20
20.4584
 30
0.0
 10
-16.7613
 20
20.4584
 30
0.0
  0
SPLINE
  5
212
330
1F
100
AcDbEntity
  8
layer 1
370
     9
100
AcDbSpline
210
0.0
220
0.0
230
1.0
 70
    24
 71
     3
 72
     8
 73
     4
 74
     0
 42
0.0000000001
 43
0.0000000001
 40
0.0
 40
0.0
 40
0.0
 40
0.0
 40
1.0
 40
1.0
 40
1.0
 40
1.0
 10
-19.7613
 20
20.4584
 30
0.0
 10
-19.7613
 20
20.4584
 30
0.0
 10
-16.7613
 20
20.4584
 30
0.0
 10
-16.7613
 20
20.4584
 30
0.0
  0
SPLINE
  5
213
330
1F
100
AcDbEntity
  8
layer 1
370
     9
100
AcDbSpline
210
0.0
220
0.0
230
1.0
 70
    24
 71
     3
 72
     8
 73
     4
 74
     0
 42
0.0000000001
 43
0.0000000001
 40
0.0
 40
0.0
 40
0.0
 40
0.0
 40
1.0
 40
1.0
 40
1.0
 40
1.0
 10
-19.7613
 20
20.4584
 30
0.0
 10
-19.7613
 20
20.4584
 30
0.0
 10
-19.7613
 20
23.4809
 30
0.0
 10
-19.7613
 20
23.4809
 30
0.0
  0
SPLINE
  5
214
330
1F
100
AcDbEntity
  8
layer 1
370
     9
100
AcDbSpline
210
0.0
220
0.0
230
1.0
 70
    24
 71
     3
 72
     8
 73
     4
 74
     0
 42
0.0000000001
 43
0.0000000001
 40
0.0
 40
0.0
 40
0.0
 40
0.0
 40
1.0
 40
1.0
 40
1.0
 40
1.0
 10
-16.7613
 20
23.4809
 30
0.0
 10
-16.7613
 20
23.4809
 30
0.0
 10
-19.7613
 20
23.4809
 30
0.0
 10
-19.7613
 20
23.4809
 30
0.0
  0
ENDSEC
  0
SECTION
  2
OBJECTS
  0
DICTIONARY
  5
C
330
0
100
AcDbDictionary
281
     1
  3
ACAD_GROUP
350
D
  3
ACAD_LAYOUT
350
1A
  3
ACAD_MLEADERSTYLE
350
216
  3
ACAD_MLINESTYLE
350
17
  3
ACAD_PLOTSETTINGS
350
19
  3
ACAD_PLOTSTYLENAME
350
E
  3
ACAD_SCALELIST
350
3B
  3
ACAD_TABLESTYLE
350
215
  3
ACAD_VISUALSTYLE
350
2A
  0
DICTIONARY
  5
D
102
{ACAD_REACTORS
330
C
102
}
330
C
100
AcDbDictionary
281
     1
  0
DICTIONARY
  5
1A
102
{ACAD_REACTORS
330
C
102
}
330
C
100
AcDbDictionary
281
     1
  3
Layout1
350
1E
  3
Layout2
350
26
  3
Model
350
22
  0
DICTIONARY
  5
216
102
{ACAD_REACTORS
330
C
102
}
330
C
100
AcDbDictionary
281
     1
  0
DICTIONARY
  5
17
102
{ACAD_REACTORS
330
C
102
}
330
C
100
AcDbDictionary
281
     1
  3
Standard
350
18
  0
DICTIONARY
  5
19
102
{ACAD_REACTORS
330
C
102
}
330
C
100
AcDbDictionary
281
     1
  0
ACDBDICTIONARYWDFLT
  5
E
102
{ACAD_REACTORS
330
C
102
}
330
C
100
AcDbDictionary
281
     1
  3
Normal
350
F
100
AcDbDictionaryWithDefault
340
F
  0
DICTIONARY
  5
3B
102
{ACAD_REACTORS
330
C
102
}
330
C
100
AcDbDictionary
281
     1
  3
A0
350
3C
  3
A1
350
3D
  3
A2
350
3E
  3
A3
350
3F
  3
A4
350
40
  3
A5
350
41
  3
A6
350
42
  3
A7
350
43
  3
A8
350
44
  3
A9
350
45
  3
B0
350
46
  3
B1
350
47
  3
B2
350
48
  3
B3
350
49
  3
B4
350
4A
  3
B5
350
4B
  3
B6
350
4C
  3
B7
350
4D
  3
B8
350
4E
  3
B9
350
4F
  3
C0
350
50
  3
C1
350
51
  3
C2
350
52
  3
C3
350
53
  3
C4
350
54
  3
C5
350
55
  3
C6
350
56
  3
C7
350
57
  3
C8
350
58
  3
C9
350
59
  3
D0
350
5A
  3
D1
350
5B
  3
D2
350
5C
  0
DICTIONARY
  5
215
102
{ACAD_REACTORS
330
C
102
}
330
C
100
AcDbDictionary
281
     1
  0
DICTIONARY
  5
2A
102
{ACAD_REACTORS
330
C
102
}
330
C
100
AcDbDictionary
281
     1
  3
2dWireframe
350
2F
  3
3D Hidden
350
31
  3
3dWireframe
350
30
  3
Basic
350
32
  3
Brighten
350
36
  3
ColorChange
350
3A
  3
Conceptual
350
34
  3
Dim
350
35
  3
Facepattern
350
39
  3
Flat
350
2B
  3
FlatWithEdges
350
2C
  3
Gouraud
350
2D
  3
GouraudWithEdges
350
2E
  3
Linepattern
350
38
  3
Realistic
350
33
  3
Thicken
350
37
  0
LAYOUT
  5
1E
102
{ACAD_REACTORS
330
1A
102
}
330
1A
100
AcDbPlotSettings
  1

  2
none_device
  4

  6

 40
0.0
 41
0.0
 42
0.0
 43
0.0
 44
0.0
 45
0.0
 46
0.0
 47
0.0
 48
0.0
 49
0.0
140
0.0
141
0.0
142
1.0
143
1.0
 70
   688
 72
     0
 73
     0
 74
     5
  7

 75
    16
 76
     0
 77
     2
 78
   300
147
1.0
148
0.0
149
0.0
100
AcDbLayout
  1
Layout1
 70
     1
 71
     1
 10
0.0
 20
0.0
 11
12.0
 21
9.0
 12
0.0
 22
0.0
 32
0.0
 14
1.000000000000000E+20
 24
1.000000000000000E+20
 34
1.000000000000000E+20
 15
-1.000000000000000E+20
 25
-1.000000000000000E+20
 35
-1.000000000000000E+20
146
0.0
 13
0.0
 23
0.0
 33
0.0
 16
1.0
 26
0.0
 36
0.0
 17
0.0
 27
1.0
 37
0.0
 76
     0
330
1B
  0
LAYOUT
  5
26
102
{ACAD_REACTORS
330
1A
102
}
330
1A
100
AcDbPlotSettings
  1

  2
none_device
  4

  6

 40
0.0
 41
0.0
 42
0.0
 43
0.0
 44
0.0
 45
0.0
 46
0.0
 47
0.0
 48
0.0
 49
0.0
140
0.0
141
0.0
142
1.0
143
1.0
 70
   688
 72
     0
 73
     0
 74
     5
  7

 75
    16
 76
     0
 77
     2
 78
   300
147
1.0
148
0.0
149
0.0
100
AcDbLayout
  1
Layout2
 70
     1
 71
     2
 10
0.0
 20
0.0
 11
0.0
 21
0.0
 12
0.0
 22
0.0
 32
0.0
 14
0.0
 24
0.0
 34
0.0
 15
0.0
 25
0.0
 35
0.0
146
0.0
 13
0.0
 23
0.0
 33
0.0
 16
1.0
 26
0.0
 36
0.0
 17
0.0
 27
1.0
 37
0.0
 76
     0
330
23
  0
LAYOUT
  5
22
102
{ACAD_REACTORS
330
1A
102
}
330
1A
100
AcDbPlotSettings
  1

  2
none_device
  4

  6

 40
0.0
 41
0.0
 42
0.0
 43
0.0
 44
0.0
 45
0.0
 46
0.0
 47
0.0
 48
0.0
 49
0.0
140
0.0
141
0.0
142
1.0
143
1.0
 70
  1712
 72
     0
 73
     0
 74
     0
  7

 75
     0
 76
     0
 77
     2
 78
   300
147
1.0
148
0.0
149
0.0
100
AcDbLayout
  1
Model
 70
     1
 71
     0
 10
0.0
 20
0.0
 11
12.0
 21
9.0
 12
0.0
 22
0.0
 32
0.0
 14
-101.8156
 24
-2.5988
 34
0.0
 15
35.9209
 25
147.0727
 35
0.0
146
0.0
 13
0.0
 23
0.0
 33
0.0
 16
1.0
 26
0.0
 36
0.0
 17
0.0
 27
1.0
 37
0.0
 76
     0
330
1F
331
29
  0
MLINESTYLE
  5
18
102
{ACAD_REACTORS
330
17
102
}
330
17
100
AcDbMlineStyle
  2
Standard
 70
     0
  3

 62
   256
 51
90.0
 52
90.0
 71
     2
 49
0.5
 62
   256
  6
BYLAYER
 49
-0.5
 62
   256
  6
BYLAYER
  0
ACDBPLACEHOLDER
  5
F
102
{ACAD_REACTORS
330
E
102
}
330
E
  0
SCALE
  5
3C
102
{ACAD_REACTORS
330
3B
102
}
330
3B
100
AcDbScale
 70
     0
300
1:1
140
1.0
141
1.0
290
     1
  0
SCALE
  5
3D
102
{ACAD_REACTORS
330
3B
102
}
330
3B
100
AcDbScale
 70
     0
300
1:2
140
1.0
141
2.0
290
     0
  0
SCALE
  5
3E
102
{ACAD_REACTORS
330
3B
102
}
330
3B
100
AcDbScale
 70
     0
300
1:4
140
1.0
141
4.0
290
     0
  0
SCALE
  5
3F
102
{ACAD_REACTORS
330
3B
102
}
330
3B
100
AcDbScale
 70
     0
300
1:5
140
1.0
141
5.0
290
     0
  0
SCALE
  5
40
102
{ACAD_REACTORS
330
3B
102
}
330
3B
100
AcDbScale
 70
     0
300
1:8
140
1.0
141
8.0
290
     0
  0
SCALE
  5
41
102
{ACAD_REACTORS
330
3B
102
}
330
3B
100
AcDbScale
 70
     0
300
1:10
140
1.0
141
10.0
290
     0
  0
SCALE
  5
42
102
{ACAD_REACTORS
330
3B
102
}
330
3B
100
AcDbScale
 70
     0
300
1:16
140
1.0
141
16.0
290
     0
  0
SCALE
  5
43
102
{ACAD_REACTORS
330
3B
102
}
330
3B
100
AcDbScale
 70
     0
300
1:20
140
1.0
141
20.0
290
     0
  0
SCALE
  5
44
102
{ACAD_REACTORS
330
3B
102
}
330
3B
100
AcDbScale
 70
     0
300
1:30
140
1.0
141
30.0
290
     0
  0
SCALE
  5
45
102
{ACAD_REACTORS
330
3B
102
}
330
3B
100
AcDbScale
 70
     0
300
1:40
140
1.0
141
40.0
290
     0
  0
SCALE
  5
46
102
{ACAD_REACTORS
330
3B
102
}
330
3B
100
AcDbScale
 70
     0
300
1:50
140
1.0
141
50.0
290
     0
  0
SCALE
  5
47
102
{ACAD_REACTORS
330
3B
102
}
330
3B
100
AcDbScale
 70
     0
300
1:100
140
1.0
141
100.0
290
     0
  0
SCALE
  5
48
102
{ACAD_REACTORS
330
3B
102
}
330
3B
100
AcDbScale
 70
     0
300
2:1
140
2.0
141
1.0
290
     0
  0
SCALE
  5
49
102
{ACAD_REACTORS
330
3B
102
}
330
3B
100
AcDbScale
 70
     0
300
4:1
140
4.0
141
1.0
290
     0
  0
SCALE
  5
4A
102
{ACAD_REACTORS
330
3B
102
}
330
3B
100
AcDbScale
 70
     0
300
8:1
140
8.0
141
1.0
290
     0
  0
SCALE
  5
4B
102
{ACAD_REACTORS
330
3B
102
}
330
3B
100
AcDbScale
 70
     0
300
10:1
140
10.0
141
1.0
290
     0
  0
SCALE
  5
4C
102
{ACAD_REACTORS
330
3B
102
}
330
3B
100
AcDbScale
 70
     0
300
100:1
140
100.0
141
1.0
290
     0
  0
SCALE
  5
4D
102
{ACAD_REACTORS
330
3B
102
}
330
3B
100
AcDbScale
 70
     0
300
1/128" = 1'-0"
140
0.0078125
141
12.0
290
     0
  0
SCALE
  5
4E
102
{ACAD_REACTORS
330
3B
102
}
330
3B
100
AcDbScale
 70
     0
300
1/64" = 1'-0"
140
0.015625
141
12.0
290
     0
  0
SCALE
  5
4F
102
{ACAD_REACTORS
330
3B
102
}
330
3B
100
AcDbScale
 70
     0
300
1/32" = 1'-0"
140
0.03125
141
12.0
290
     0
  0
SCALE
  5
50
102
{ACAD_REACTORS
330
3B
102
}
330
3B
100
AcDbScale
 70
     0
300
1/16" = 1'-0"
140
0.0625
141
12.0
290
     0
  0
SCALE
  5
51
102
{ACAD_REACTORS
330
3B
102
}
330
3B
100
AcDbScale
 70
     0
300
3/32" = 1'-0"
140
0.09375
141
12.0
290
     0
  0
SCALE
  5
52
102
{ACAD_REACTORS
330
3B
102
}
330
3B
100
AcDbScale
 70
     0
300
1/8" = 1'-0"
140
0.125
141
12.0
290
     0
  0
SCALE
  5
53
102
{ACAD_REACTORS
330
3B
102
}
330
3B
100
AcDbScale
 70
     0
300
3/16" = 1'-0"
140
0.1875
141
12.0
290
     0
  0
SCALE
  5
54
102
{ACAD_REACTORS
330
3B
102
}
330
3B
100
AcDbScale
 70
     0
300
1/4" = 1'-0"
140
0.25
141
12.0
290
     0
  0
SCALE
  5
55
102
{ACAD_REACTORS
330
3B
102
}
330
3B
100
AcDbScale
 70
     0
300
3/8" = 1'-0"
140
0.375
141
12.0
290
     0
  0
SCALE
  5
56
102
{ACAD_REACTORS
330
3B
102
}
330
3B
100
AcDbScale
 70
     0
300
1/2" = 1'-0"
140
0.5
141
12.0
290
     0
  0
SCALE
  5
57
102
{ACAD_REACTORS
330
3B
102
}
330
3B
100
AcDbScale
 70
     0
300
3/4" = 1'-0"
140
0.75
141
12.0
290
     0
  0
SCALE
  5
58
102
{ACAD_REACTORS
330
3B
102
}
330
3B
100
AcDbScale
 70
     0
300
1" = 1'-0"
140
1.0
141
12.0
290
     0
  0
SCALE
  5
59
102
{ACAD_REACTORS
330
3B
102
}
330
3B
100
AcDbScale
 70
     0
300
1-1/2" = 1'-0"
140
1.5
141
12.0
290
     0
  0
SCALE
  5
5A
102
{ACAD_REACTORS
330
3B
102
}
330
3B
100
AcDbScale
 70
     0
300
3" = 1'-0"
140
3.0
141
12.0
290
     0
  0
SCALE
  5
5B
102
{ACAD_REACTORS
330
3B
102
}
330
3B
100
AcDbScale
 70
     0
300
6" = 1'-0"
140
6.0
141
12.0
290
     0
  0
SCALE
  5
5C
102
{ACAD_REACTORS
330
3B
102
}
330
3B
100
AcDbScale
 70
     0
300
1'-0" = 1'-0"
140
12.0
141
12.0
290
     0
  0
VISUALSTYLE
  5
2F
102
{ACAD_REACTORS
330
2A
102
}
330
2A
100
AcDbVisualStyle
  2
2dWireframe
 70
     4
 71
     0
 72
     2
 73
     0
 90
        0
 40
-0.6
 41
-30.0
 62
     5
 63
     7
421
 16777215
 74
     1
 91
        4
 64
     7
 65
   257
 75
     1
175
     1
 42
1.0
 92
        0
 66
   257
 43
1.0
 76
     1
 77
     6
 78
     2
 67
     7
 79
     5
170
     0
171
     0
290
     0
174
     0
 93
        1
 44
0.0
173
     0
291
     0
 45
0.0
  0
VISUALSTYLE
  5
31
102
{ACAD_REACTORS
330
2A
102
}
330
2A
100
AcDbVisualStyle
  2
3D Hidden
 70
     6
 71
     1
 72
     2
 73
     2
 90
        0
 40
-0.6
 41
-30.0
 62
     5
 63
     7
421
 16777215
 74
     2
 91
        2
 64
     7
 65
   257
 75
     2
175
     1
 42
40.0
 92
        0
 66
   257
 43
1.0
 76
     1
 77
     6
 78
     2
 67
     7
 79
     3
170
     0
171
     0
290
     0
174
     0
 93
        1
 44
0.0
173
     0
291
     0
 45
0.0
  0
VISUALSTYLE
  5
30
102
{ACAD_REACTORS
330
2A
102
}
330
2A
100
AcDbVisualStyle
  2
3dWireframe
 70
     5
 71
     0
 72
     2
 73
     0
 90
        0
 40
-0.6
 41
-30.0
 62
     5
 63
     7
421
 16777215
 74
     1
 91
        4
 64
     7
 65
   257
 75
     1
175
     1
 42
1.0
 92
        0
 66
   257
 43
1.0
 76
     1
 77
     6
 78
     2
 67
     7
 79
     5
170
     0
171
     0
290
     0
174
     0
 93
        1
 44
0.0
173
     0
291
     0
 45
0.0
  0
VISUALSTYLE
  5
32
102
{ACAD_REACTORS
330
2A
102
}
330
2A
100
AcDbVisualStyle
  2
Basic
 70
     7
 71
     1
 72
     0
 73
     1
 90
        0
 40
-0.6
 41
-30.0
 62
     5
 63
     7
421
 16777215
 74
     0
 91
        4
 64
     7
 65
   257
 75
     1
175
     1
 42
1.0
 92
        8
 66
     7
 43
1.0
 76
     1
 77
     6
 78
     2
 67
     7
 79
     5
170
     0
171
     0
290
     0
174
     0
 93
        1
 44
0.0
173
     0
291
     1
 45
0.0
  0
VISUALSTYLE
  5
36
102
{ACAD_REACTORS
330
2A
102
}
330
2A
100
AcDbVisualStyle
  2
Brighten
 70
    12
 71
     2
 72
     2
 73
     0
 90
        0
 40
-0.6
 41
-30.0
 62
     5
 63
     7
421
 16777215
 74
     1
 91
        4
 64
     7
 65
   257
 75
     1
175
     1
 42
1.0
 92
        8
 66
     7
 43
1.0
 76
     1
 77
     6
 78
     2
 67
     7
 79
     5
170
     0
171
     0
290
     0
174
     0
 93
        1
 44
50.0
173
     0
291
     1
 45
0.0
  0
VISUALSTYLE
  5
3A
102
{ACAD_REACTORS
330
2A
102
}
330
2A
100
AcDbVisualStyle
  2
ColorChange
 70
    16
 71
     2
 72
     2
 73
     3
 90
        0
 40
-0.6
 41
-30.0
 62
     5
 63
     8
421
  8421504
 74
     1
 91
        4
 64
     7
 65
   257
 75
     1
175
     1
 42
1.0
 92
        8
 66
     8
424
  8421504
 43
1.0
 76
     1
 77
     6
 78
     2
 67
     7
 79
     5
170
     0
171
     0
290
     0
174
     0
 93
        1
 44
0.0
173
     0
291
     1
 45
0.0
  0
VISUALSTYLE
  5
34
102
{ACAD_REACTORS
330
2A
102
}
330
2A
100
AcDbVisualStyle
  2
Conceptual
 70
     9
 71
     3
 72
     2
 73
     0
 90
        0
 40
-0.6
 41
-30.0
 62
     5
 63
     7
421
 16777215
 74
     2
 91
        2
 64
     7
 65
   257
 75
     1
175
     1
 42
40.0
 92
        8
 66
     7
 43
1.0
 76
     1
 77
     6
 78
     2
 67
     7
 79
     3
170
     0
171
     0
290
     0
174
     0
 93
        1
 44
0.0
173
     0
291
     0
 45
0.0
  0
VISUALSTYLE
  5
35
102
{ACAD_REACTORS
330
2A
102
}
330
2A
100
AcDbVisualStyle
  2
Dim
 70
    11
 71
     2
 72
     2
 73
     0
 90
        0
 40
-0.6
 41
-30.0
 62
     5
 63
     7
421
 16777215
 74
     1
 91
        4
 64
     7
 65
   257
 75
     1
175
     1
 42
1.0
 92
        8
 66
     7
 43
1.0
 76
     1
 77
     6
 78
     2
 67
     7
 79
     5
170
     0
171
     0
290
     0
174
     0
 93
        1
 44
-50.0
173
     0
291
     1
 45
0.0
  0
VISUALSTYLE
  5
39
102
{ACAD_REACTORS
330
2A
102
}
330
2A
100
AcDbVisualStyle
  2
Facepattern
 70
    15
 71
     2
 72
     2
 73
     0
 90
        0
 40
-0.6
 41
-30.0
 62
     5
 63
     7
421
 16777215
 74
     1
 91
        4
 64
     7
 65
   257
 75
     1
175
     1
 42
1.0
 92
        8
 66
     7
 43
1.0
 76
     1
 77
     6
 78
     2
 67
     7
 79
     5
170
     0
171
     0
290
     0
174
     0
 93
        1
 44
0.0
173
     0
291
     1
 45
0.0
  0
VISUALSTYLE
  5
2B
102
{ACAD_REACTORS
330
2A
102
}
330
2A
100
AcDbVisualStyle
  2
Flat
 70
     0
 71
     2
 72
     1
 73
     1
 90
        2
 40
-0.6
 41
30.0
 62
     5
 63
     7
421
 16777215
 74
     0
 91
        4
 64
     7
 65
   257
 75
     1
175
     1
 42
1.0
 92
        8
 66
     7
 43
1.0
 76
     1
 77
     6
 78
     2
 67
     7
 79
     5
170
     0
171
     0
290
     0
174
     0
 93
       13
 44
0.0
173
     0
291
     1
 45
0.0
  0
VISUALSTYLE
  5
2C
102
{ACAD_REACTORS
330
2A
102
}
330
2A
100
AcDbVisualStyle
  2
FlatWithEdges
 70
     1
 71
     2
 72
     1
 73
     1
 90
        2
 40
-0.6
 41
30.0
 62
     5
 63
     7
421
 16777215
 74
     1
 91
        4
 64
     7
 65
   257
 75
     1
175
     1
 42
1.0
 92
        0
 66
   257
 43
1.0
 76
     1
 77
     6
 78
     2
 67
     7
 79
     5
170
     0
171
     0
290
     0
174
     0
 93
       13
 44
0.0
173
     0
291
     1
 45
0.0
  0
VISUALSTYLE
  5
2D
102
{ACAD_REACTORS
330
2A
102
}
330
2A
100
AcDbVisualStyle
  2
Gouraud
 70
     2
 71
     2
 72
     2
 73
     1
 90
        2
 40
-0.6
 41
30.0
 62
     5
 63
     7
421
 16777215
 74
     0
 91
        4
 64
     7
 65
   257
 75
     1
175
     1
 42
1.0
 92
        0
 66
     7
 43
1.0
 76
     1
 77
     6
 78
     2
 67
     7
 79
     5
170
     0
171
     0
290
     0
174
     0
 93
       13
 44
0.0
173
     0
291
     1
 45
0.0
  0
VISUALSTYLE
  5
2E
102
{ACAD_REACTORS
330
2A
102
}
330
2A
100
AcDbVisualStyle
  2
GouraudWithEdges
 70
     3
 71
     2
 72
     2
 73
     1
 90
        2
 40
-0.6
 41
30.0
 62
     5
 63
     7
421
 16777215
 74
     1
 91
        4
 64
     7
 65
   257
 75
     1
175
     1
 42
1.0
 92
        0
 66
   257
 43
1.0
 76
     1
 77
     6
 78
     2
 67
     7
 79
     5
170
     0
171
     0
290
     0
174
     0
 93
       13
 44
0.0
173
     0
291
     1
 45
0.0
  0
VISUALSTYLE
  5
38
102
{ACAD_REACTORS
330
2A
102
}
330
2A
100
AcDbVisualStyle
  2
Linepattern
 70
    14
 71
     2
 72
     2
 73
     0
 90
        0
 40
-0.6
 41
-30.0
 62
     5
 63
     7
421
 16777215
 74
     1
 91
        4
 64
     7
 65
   257
 75
     7
175
     7
 42
1.0
 92
        8
 66
     7
 43
1.0
 76
     1
 77
     6
 78
     2
 67
     7
 79
     5
170
     0
171
     0
290
     0
174
     0
 93
        1
 44
0.0
173
     0
291
     1
 45
0.0
  0
VISUALSTYLE
  5
33
102
{ACAD_REACTORS
330
2A
102
}
330
2A
100
AcDbVisualStyle
  2
Realistic
 70
     8
 71
     2
 72
     2
 73
     0
 90
        0
 40
-0.6
 41
-30.0
 62
     5
 63
     7
421
 16777215
 74
     1
 91
        0
 64
     7
 65
   257
 75
     1
175
     1
 42
1.0
 92
        8
 66
     8
424
  7895160
 43
1.0
 76
     1
 77
     6
 78
     2
 67
     7
 79
     5
170
     0
171
     0
290
     0
174
     0
 93
       13
 44
0.0
173
     0
291
     0
 45
0.0
  0
VISUALSTYLE
  5
37
102
{ACAD_REACTORS
330
2A
102
}
330
2A
100
AcDbVisualStyle
  2
Thicken
 70
    13
 71
     2
 72
     2
 73
     0
 90
        0
 40
-0.6
 41
-30.0
 62
     5
 63
     7
421
 16777215
 74
     1
 91
        4
 64
     7
 65
   257
 75
     1
175
     1
 42
1.0
 92
       12
 66
     7
 43
1.0
 76
     1
 77
     6
 78
     2
 67
     7
 79
     5
170
     0
171
     0
290
     0
174
     0
 93
        1
 44
0.0
173
     0
291
     1
 45
0.0
  0
ENDSEC
  0
EOF
