0
SECTION
2
HEADER
9
$INSUNITS
70
4
9
$ACADVER
1
AC1014
9
$HANDSEED
5
FFFF
0
ENDSEC
0
SECTION
2
TABLES
0
TABLE
2
VPORT
5
8
100
AcDbSymbolTable
0
ENDTAB
0
TABLE
2
LTYPE
5
5
100
AcDbSymbolTable
0
LTYPE
5
14
100
AcDbSymbolTableRecord
100
AcDbLinetypeTableRecord
2
BYBLOCK
70
0
0
LTYPE
5
15
100
AcDbSymbolTableRecord
100
AcDbLinetypeTableRecord
2
BYLAYER
70
0
0
ENDTAB
0
TABLE
2
LAYER
5
2
100
AcDbSymbolTable
70
2
0
LAYER
5
50
100
AcDbSymbolTableRecord
100
AcDbLayerTableRecord
2
0
70
0
6
CONTINUOUS
0
ENDTAB
0
TABLE
2
STYLE
5
3
100
AcDbSymbolTable
70
1
0
STYLE
5
11
100
AcDbSymbolTableRecord
100
AcDbTextStyleTableRecord
2
STANDARD
70
0
0
ENDTAB
0
TABLE
2
VIEW
5
6
100
AcDbSymbolTable
70
0
0
ENDTAB
0
TABLE
2
UCS
5
7
100
AcDbSymbolTable
70
0
0
ENDTAB
0
TABLE
2
APPID
5
9
100
AcDbSymbolTable
70
2
0
APPID
5
12
100
AcDbSymbolTableRecord
100
AcDbRegAppTableRecord
2
ACAD
70
0
0
ENDTAB
0
TABLE
2
DIMSTYLE
5
A
100
AcDbSymbolTable
70
1
0
ENDTAB
0
TABLE
2
BLOCK_RECORD
5
1
100
AcDbSymbolTable
70
1
0
BLOCK_RECORD
5
1F
100
AcDbSymbolTableRecord
100
AcDbBlockTableRecord
2
*MODEL_SPACE
0
BLOCK_RECORD
5
1B
100
AcDbSymbolTableRecord
100
AcDbBlockTableRecord
2
*PAPER_SPACE
0
ENDTAB
0
ENDSEC
0
SECTION
2
BLOCKS
0
BLOCK
5
20
100
AcDbEntity
100
AcDbBlockBegin
2
*MODEL_SPACE
0
ENDBLK
5
21
100
AcDbEntity
100
AcDbBlockEnd
0
BLOCK
5
1C
100
AcDbEntity
100
AcDbBlockBegin
2
*PAPER_SPACE
0
ENDBLK
5
1D
100
AcDbEntity
100
AcDbBlockEnd
0
ENDSEC
0
SECTION
2
ENTITIES
0
LWPOLYLINE
5
100
100
AcDbEntity
8
0
100
AcDbPolyline
90
8
70
1
43
0.0
10
5
20
-78.580000000000041
10
-78.340000000000003
20
-78.580000000000055
42
-0.41421356237309398
10
-83.340000000000003
20
-73.580000000000055
10
-83.340000000000003
20
15.000000000000004
42
-0.41421356237309309
10
-78.340000000000003
20
20.000000000000004
10
4.9999999999999982
20
20.000000000000007
42
-0.4142135623730952
10
10
20
15
10
10.000000000000002
20
-73.580000000000041
42
-0.41421356237309515
0
CIRCLE
5
101
100
AcDbEntity
8
0
100
AcDbCircle
10
4.9999999999999982
20
15.000000000000004
30
0
40
1.749999999999998
210
0
220
-0
230
1
0
CIRCLE
5
102
100
AcDbEntity
8
0
100
AcDbCircle
10
-78.339999999999975
20
14.999999999999989
30
0
40
1.749999999999998
210
0
220
-0
230
1
0
CIRCLE
5
103
100
AcDbEntity
8
0
100
AcDbCircle
10
-78.339999999999989
20
-73.580000000000055
30
0
40
1.749999999999998
210
0
220
-0
230
1
0
CIRCLE
5
104
100
AcDbEntity
8
0
100
AcDbCircle
10
5.0000000000000018
20
-73.580000000000041
30
0
40
1.749999999999998
210
0
220
-0
230
1
0
LWPOLYLINE
5
105
100
AcDbEntity
8
0
100
AcDbPolyline
90
12
70
1
43
0.0
10
-8.8277006760547998
20
-33.413357731229631
42
-0.41421356237309492
10
-6.8277006760547989
20
-35.413357731229631
10
-6.8277006760547998
20
-64.968344939167622
42
0.41421356237309498
10
-4.8277006760548007
20
-66.968344939167622
10
2.3395185333425412
20
-66.968344939167622
42
0.41421356237309515
10
4.3395185333425434
20
-64.968344939167622
10
4.3395185333425417
20
9.5848271608302937
42
0.41421356237309498
10
2.3395185333425417
20
11.58482716083029
10
-12.280102294821464
20
11.584827160830288
42
0.41421356237309437
10
-14.280102294821466
20
9.5848271608302937
10
-14.280102294821464
20
-31.413357731229627
42
0.41421356237309503
10
-12.280102294821464
20
-33.413357731229631
0
LWPOLYLINE
5
106
100
AcDbEntity
8
0
100
AcDbPolyline
90
4
70
1
43
0.0
10
-63.339999999999996
20
-52.580000000000041
10
-75.340000000000003
20
-52.580000000000041
42
0.99999999999999989
10
-75.340000000000003
20
-58.580000000000041
10
-63.339999999999996
20
-58.580000000000041
42
0.99999999999999989
0
LWPOLYLINE
5
107
100
AcDbEntity
8
0
100
AcDbPolyline
90
8
70
1
43
0.0
10
-18.368579566751116
20
8.6545416033532732
10
-40.922076309856628
20
8.6545416033532732
42
0.41421356237309503
10
-42.922076309856635
20
6.6545416033532767
10
-42.922076309856635
20
-63.038870706164289
42
0.41421356237309503
10
-40.922076309856628
20
-65.038870706164289
10
-18.368579566751116
20
-65.038870706164289
42
0.41421356237309503
10
-16.368579566751119
20
-63.038870706164289
10
-16.368579566751119
20
6.6545416033532767
42
0.4142135623730947
0
LWPOLYLINE
5
108
100
AcDbEntity
8
0
100
AcDbPolyline
90
4
70
1
43
0.0
10
-63.339999999999996
20
-26.580000000000048
10
-75.340000000000003
20
-26.580000000000048
42
0.99999999999999989
10
-75.340000000000003
20
-32.580000000000041
10
-63.339999999999996
20
-32.580000000000041
42
0.99999999999999989
0
LWPOLYLINE
5
109
100
AcDbEntity
8
0
100
AcDbPolyline
90
4
70
1
43
0.0
10
-63.339999999999996
20
-0.5800000000000427
10
-75.340000000000003
20
-0.5800000000000427
42
0.99999999999999989
10
-75.340000000000003
20
-6.5800000000000436
10
-63.339999999999996
20
-6.5800000000000436
42
0.99999999999999989
0
LWPOLYLINE
5
110
100
AcDbEntity
8
0
100
AcDbPolyline
90
8
70
1
43
0.0
10
-48.508268960675792
20
-15.796889670273679
10
-56.462605027401615
20
-15.796889670273679
42
0.4142135623730947
10
-58.462605027401615
20
-17.796889670273679
10
-58.462605027401615
20
-66.413419949366229
42
0.41421356237309503
10
-56.462605027401615
20
-68.413419949366244
10
-48.508268960675792
20
-68.413419949366244
42
0.4142135623730937
10
-46.508268960675792
20
-66.413419949366244
10
-46.508268960675785
20
-17.796889670273682
42
0.41421356237309503
0
ENDSEC
0
SECTION
2
OBJECTS
0
DICTIONARY
5
C
100
AcDbDictionary
3
ACAD_GROUP
350
D
3
ACAD_MLINESTYLE
350
17
0
DICTIONARY
5
D
100
AcDbDictionary
0
DICTIONARY
5
1A
330
C
100
AcDbDictionary
0
DICTIONARY
5
17
100
AcDbDictionary
0
ENDSEC
0
EOF
