ISO-10303-21;
HEADER;
/* Generated by software containing ST-Developer
 * from STEP Tools, Inc. (www.steptools.com) 
 */

FILE_DESCRIPTION(
/* description */ (''),
/* implementation_level */ '2;1');

FILE_NAME(
/* name */ 'D:/PICT/SE_SEM2/PBL/Instructables/CAD Files/Wheel .step',
/* time_stamp */ '2022-06-04T22:36:44+05:30',
/* author */ (''),
/* organization */ (''),
/* preprocessor_version */ 'ST-DEVELOPER v19',
/* originating_system */ 'Autodesk Translation Framework v11.7.0.108',
/* authorisation */ '');

FILE_SCHEMA (('AUTOMOTIVE_DESIGN { 1 0 10303 214 3 1 1 }'));
ENDSEC;

DATA;
#10=MECHANICAL_DESIGN_GEOMETRIC_PRESENTATION_REPRESENTATION('',(#13),#628);
#11=SHAPE_REPRESENTATION_RELATIONSHIP('SRR','None',#635,#12);
#12=ADVANCED_BREP_SHAPE_REPRESENTATION('',(#14),#627);
#13=STYLED_ITEM('',(#644),#14);
#14=MANIFOLD_SOLID_BREP('Body1',#360);
#15=FACE_BOUND('',#66,.T.);
#16=FACE_BOUND('',#69,.T.);
#17=FACE_BOUND('',#80,.T.);
#18=FACE_BOUND('',#81,.T.);
#19=FACE_BOUND('',#82,.T.);
#20=FACE_BOUND('',#83,.T.);
#21=FACE_BOUND('',#84,.T.);
#22=FACE_BOUND('',#85,.T.);
#23=FACE_BOUND('',#86,.T.);
#24=FACE_BOUND('',#87,.T.);
#25=FACE_BOUND('',#88,.T.);
#26=FACE_BOUND('',#90,.T.);
#27=FACE_BOUND('',#91,.T.);
#28=FACE_BOUND('',#92,.T.);
#29=FACE_BOUND('',#93,.T.);
#30=FACE_BOUND('',#94,.T.);
#31=FACE_BOUND('',#95,.T.);
#32=FACE_BOUND('',#96,.T.);
#33=FACE_BOUND('',#97,.T.);
#34=FACE_BOUND('',#98,.T.);
#35=PLANE('',#377);
#36=PLANE('',#381);
#37=PLANE('',#385);
#38=PLANE('',#389);
#39=PLANE('',#417);
#40=PLANE('',#418);
#41=FACE_OUTER_BOUND('',#60,.T.);
#42=FACE_OUTER_BOUND('',#61,.T.);
#43=FACE_OUTER_BOUND('',#62,.T.);
#44=FACE_OUTER_BOUND('',#63,.T.);
#45=FACE_OUTER_BOUND('',#64,.T.);
#46=FACE_OUTER_BOUND('',#65,.T.);
#47=FACE_OUTER_BOUND('',#67,.T.);
#48=FACE_OUTER_BOUND('',#68,.T.);
#49=FACE_OUTER_BOUND('',#70,.T.);
#50=FACE_OUTER_BOUND('',#71,.T.);
#51=FACE_OUTER_BOUND('',#72,.T.);
#52=FACE_OUTER_BOUND('',#73,.T.);
#53=FACE_OUTER_BOUND('',#74,.T.);
#54=FACE_OUTER_BOUND('',#75,.T.);
#55=FACE_OUTER_BOUND('',#76,.T.);
#56=FACE_OUTER_BOUND('',#77,.T.);
#57=FACE_OUTER_BOUND('',#78,.T.);
#58=FACE_OUTER_BOUND('',#79,.T.);
#59=FACE_OUTER_BOUND('',#89,.T.);
#60=EDGE_LOOP('',(#238,#239,#240,#241));
#61=EDGE_LOOP('',(#242,#243,#244,#245));
#62=EDGE_LOOP('',(#246,#247,#248,#249));
#63=EDGE_LOOP('',(#250,#251,#252,#253));
#64=EDGE_LOOP('',(#254,#255,#256,#257));
#65=EDGE_LOOP('',(#258,#259,#260,#261));
#66=EDGE_LOOP('',(#262));
#67=EDGE_LOOP('',(#263,#264,#265,#266));
#68=EDGE_LOOP('',(#267));
#69=EDGE_LOOP('',(#268,#269,#270,#271));
#70=EDGE_LOOP('',(#272,#273,#274,#275));
#71=EDGE_LOOP('',(#276,#277,#278,#279));
#72=EDGE_LOOP('',(#280,#281,#282,#283));
#73=EDGE_LOOP('',(#284,#285,#286,#287));
#74=EDGE_LOOP('',(#288,#289,#290,#291));
#75=EDGE_LOOP('',(#292,#293,#294,#295));
#76=EDGE_LOOP('',(#296,#297,#298,#299));
#77=EDGE_LOOP('',(#300,#301,#302,#303));
#78=EDGE_LOOP('',(#304,#305,#306,#307));
#79=EDGE_LOOP('',(#308));
#80=EDGE_LOOP('',(#309));
#81=EDGE_LOOP('',(#310));
#82=EDGE_LOOP('',(#311));
#83=EDGE_LOOP('',(#312));
#84=EDGE_LOOP('',(#313));
#85=EDGE_LOOP('',(#314));
#86=EDGE_LOOP('',(#315));
#87=EDGE_LOOP('',(#316));
#88=EDGE_LOOP('',(#317));
#89=EDGE_LOOP('',(#318));
#90=EDGE_LOOP('',(#319));
#91=EDGE_LOOP('',(#320));
#92=EDGE_LOOP('',(#321));
#93=EDGE_LOOP('',(#322));
#94=EDGE_LOOP('',(#323));
#95=EDGE_LOOP('',(#324));
#96=EDGE_LOOP('',(#325));
#97=EDGE_LOOP('',(#326));
#98=EDGE_LOOP('',(#327));
#99=LINE('',#535,#118);
#100=LINE('',#540,#119);
#101=LINE('',#542,#120);
#102=LINE('',#544,#121);
#103=LINE('',#545,#122);
#104=LINE('',#550,#123);
#105=LINE('',#554,#124);
#106=LINE('',#556,#125);
#107=LINE('',#557,#126);
#108=LINE('',#566,#127);
#109=LINE('',#573,#128);
#110=LINE('',#579,#129);
#111=LINE('',#585,#130);
#112=LINE('',#591,#131);
#113=LINE('',#597,#132);
#114=LINE('',#603,#133);
#115=LINE('',#609,#134);
#116=LINE('',#615,#135);
#117=LINE('',#621,#136);
#118=VECTOR('',#425,0.95);
#119=VECTOR('',#430,10.);
#120=VECTOR('',#431,10.);
#121=VECTOR('',#432,10.);
#122=VECTOR('',#433,10.);
#123=VECTOR('',#438,10.);
#124=VECTOR('',#443,10.);
#125=VECTOR('',#444,10.);
#126=VECTOR('',#445,10.);
#127=VECTOR('',#458,5.);
#128=VECTOR('',#467,4.);
#129=VECTOR('',#474,4.);
#130=VECTOR('',#481,4.);
#131=VECTOR('',#488,4.);
#132=VECTOR('',#495,4.);
#133=VECTOR('',#502,4.);
#134=VECTOR('',#509,4.);
#135=VECTOR('',#516,4.);
#136=VECTOR('',#523,34.);
#137=CIRCLE('',#375,0.95);
#138=CIRCLE('',#376,0.95);
#139=CIRCLE('',#379,2.6997425017172);
#140=CIRCLE('',#380,2.6997425017172);
#141=CIRCLE('',#383,2.6997425017172);
#142=CIRCLE('',#384,2.6997425017172);
#143=CIRCLE('',#387,5.);
#144=CIRCLE('',#388,5.);
#145=CIRCLE('',#391,4.);
#146=CIRCLE('',#392,4.);
#147=CIRCLE('',#394,4.);
#148=CIRCLE('',#395,4.);
#149=CIRCLE('',#397,4.);
#150=CIRCLE('',#398,4.);
#151=CIRCLE('',#400,4.);
#152=CIRCLE('',#401,4.);
#153=CIRCLE('',#403,4.);
#154=CIRCLE('',#404,4.);
#155=CIRCLE('',#406,4.);
#156=CIRCLE('',#407,4.);
#157=CIRCLE('',#409,4.);
#158=CIRCLE('',#410,4.);
#159=CIRCLE('',#412,4.);
#160=CIRCLE('',#413,4.);
#161=CIRCLE('',#415,34.);
#162=CIRCLE('',#416,34.);
#163=VERTEX_POINT('',#532);
#164=VERTEX_POINT('',#534);
#165=VERTEX_POINT('',#538);
#166=VERTEX_POINT('',#539);
#167=VERTEX_POINT('',#541);
#168=VERTEX_POINT('',#543);
#169=VERTEX_POINT('',#547);
#170=VERTEX_POINT('',#549);
#171=VERTEX_POINT('',#553);
#172=VERTEX_POINT('',#555);
#173=VERTEX_POINT('',#563);
#174=VERTEX_POINT('',#565);
#175=VERTEX_POINT('',#570);
#176=VERTEX_POINT('',#572);
#177=VERTEX_POINT('',#576);
#178=VERTEX_POINT('',#578);
#179=VERTEX_POINT('',#582);
#180=VERTEX_POINT('',#584);
#181=VERTEX_POINT('',#588);
#182=VERTEX_POINT('',#590);
#183=VERTEX_POINT('',#594);
#184=VERTEX_POINT('',#596);
#185=VERTEX_POINT('',#600);
#186=VERTEX_POINT('',#602);
#187=VERTEX_POINT('',#606);
#188=VERTEX_POINT('',#608);
#189=VERTEX_POINT('',#612);
#190=VERTEX_POINT('',#614);
#191=VERTEX_POINT('',#618);
#192=VERTEX_POINT('',#620);
#193=EDGE_CURVE('',#163,#163,#137,.T.);
#194=EDGE_CURVE('',#163,#164,#99,.T.);
#195=EDGE_CURVE('',#164,#164,#138,.T.);
#196=EDGE_CURVE('',#165,#166,#100,.T.);
#197=EDGE_CURVE('',#165,#167,#101,.T.);
#198=EDGE_CURVE('',#167,#168,#102,.T.);
#199=EDGE_CURVE('',#166,#168,#103,.T.);
#200=EDGE_CURVE('',#169,#165,#139,.T.);
#201=EDGE_CURVE('',#169,#170,#104,.T.);
#202=EDGE_CURVE('',#170,#167,#140,.T.);
#203=EDGE_CURVE('',#171,#169,#105,.T.);
#204=EDGE_CURVE('',#171,#172,#106,.T.);
#205=EDGE_CURVE('',#172,#170,#107,.T.);
#206=EDGE_CURVE('',#166,#171,#141,.T.);
#207=EDGE_CURVE('',#168,#172,#142,.T.);
#208=EDGE_CURVE('',#173,#173,#143,.T.);
#209=EDGE_CURVE('',#173,#174,#108,.T.);
#210=EDGE_CURVE('',#174,#174,#144,.T.);
#211=EDGE_CURVE('',#175,#175,#145,.T.);
#212=EDGE_CURVE('',#175,#176,#109,.T.);
#213=EDGE_CURVE('',#176,#176,#146,.T.);
#214=EDGE_CURVE('',#177,#177,#147,.T.);
#215=EDGE_CURVE('',#177,#178,#110,.T.);
#216=EDGE_CURVE('',#178,#178,#148,.T.);
#217=EDGE_CURVE('',#179,#179,#149,.T.);
#218=EDGE_CURVE('',#179,#180,#111,.T.);
#219=EDGE_CURVE('',#180,#180,#150,.T.);
#220=EDGE_CURVE('',#181,#181,#151,.T.);
#221=EDGE_CURVE('',#181,#182,#112,.T.);
#222=EDGE_CURVE('',#182,#182,#152,.T.);
#223=EDGE_CURVE('',#183,#183,#153,.T.);
#224=EDGE_CURVE('',#183,#184,#113,.T.);
#225=EDGE_CURVE('',#184,#184,#154,.T.);
#226=EDGE_CURVE('',#185,#185,#155,.T.);
#227=EDGE_CURVE('',#185,#186,#114,.T.);
#228=EDGE_CURVE('',#186,#186,#156,.T.);
#229=EDGE_CURVE('',#187,#187,#157,.T.);
#230=EDGE_CURVE('',#187,#188,#115,.T.);
#231=EDGE_CURVE('',#188,#188,#158,.T.);
#232=EDGE_CURVE('',#189,#189,#159,.T.);
#233=EDGE_CURVE('',#189,#190,#116,.T.);
#234=EDGE_CURVE('',#190,#190,#160,.T.);
#235=EDGE_CURVE('',#191,#191,#161,.T.);
#236=EDGE_CURVE('',#191,#192,#117,.T.);
#237=EDGE_CURVE('',#192,#192,#162,.T.);
#238=ORIENTED_EDGE('',*,*,#193,.F.);
#239=ORIENTED_EDGE('',*,*,#194,.T.);
#240=ORIENTED_EDGE('',*,*,#195,.F.);
#241=ORIENTED_EDGE('',*,*,#194,.F.);
#242=ORIENTED_EDGE('',*,*,#196,.F.);
#243=ORIENTED_EDGE('',*,*,#197,.T.);
#244=ORIENTED_EDGE('',*,*,#198,.T.);
#245=ORIENTED_EDGE('',*,*,#199,.F.);
#246=ORIENTED_EDGE('',*,*,#200,.F.);
#247=ORIENTED_EDGE('',*,*,#201,.T.);
#248=ORIENTED_EDGE('',*,*,#202,.T.);
#249=ORIENTED_EDGE('',*,*,#197,.F.);
#250=ORIENTED_EDGE('',*,*,#203,.F.);
#251=ORIENTED_EDGE('',*,*,#204,.T.);
#252=ORIENTED_EDGE('',*,*,#205,.T.);
#253=ORIENTED_EDGE('',*,*,#201,.F.);
#254=ORIENTED_EDGE('',*,*,#206,.F.);
#255=ORIENTED_EDGE('',*,*,#199,.T.);
#256=ORIENTED_EDGE('',*,*,#207,.T.);
#257=ORIENTED_EDGE('',*,*,#204,.F.);
#258=ORIENTED_EDGE('',*,*,#207,.F.);
#259=ORIENTED_EDGE('',*,*,#198,.F.);
#260=ORIENTED_EDGE('',*,*,#202,.F.);
#261=ORIENTED_EDGE('',*,*,#205,.F.);
#262=ORIENTED_EDGE('',*,*,#195,.T.);
#263=ORIENTED_EDGE('',*,*,#208,.F.);
#264=ORIENTED_EDGE('',*,*,#209,.T.);
#265=ORIENTED_EDGE('',*,*,#210,.F.);
#266=ORIENTED_EDGE('',*,*,#209,.F.);
#267=ORIENTED_EDGE('',*,*,#208,.T.);
#268=ORIENTED_EDGE('',*,*,#196,.T.);
#269=ORIENTED_EDGE('',*,*,#206,.T.);
#270=ORIENTED_EDGE('',*,*,#203,.T.);
#271=ORIENTED_EDGE('',*,*,#200,.T.);
#272=ORIENTED_EDGE('',*,*,#211,.F.);
#273=ORIENTED_EDGE('',*,*,#212,.T.);
#274=ORIENTED_EDGE('',*,*,#213,.T.);
#275=ORIENTED_EDGE('',*,*,#212,.F.);
#276=ORIENTED_EDGE('',*,*,#214,.F.);
#277=ORIENTED_EDGE('',*,*,#215,.T.);
#278=ORIENTED_EDGE('',*,*,#216,.T.);
#279=ORIENTED_EDGE('',*,*,#215,.F.);
#280=ORIENTED_EDGE('',*,*,#217,.F.);
#281=ORIENTED_EDGE('',*,*,#218,.T.);
#282=ORIENTED_EDGE('',*,*,#219,.T.);
#283=ORIENTED_EDGE('',*,*,#218,.F.);
#284=ORIENTED_EDGE('',*,*,#220,.F.);
#285=ORIENTED_EDGE('',*,*,#221,.T.);
#286=ORIENTED_EDGE('',*,*,#222,.T.);
#287=ORIENTED_EDGE('',*,*,#221,.F.);
#288=ORIENTED_EDGE('',*,*,#223,.F.);
#289=ORIENTED_EDGE('',*,*,#224,.T.);
#290=ORIENTED_EDGE('',*,*,#225,.T.);
#291=ORIENTED_EDGE('',*,*,#224,.F.);
#292=ORIENTED_EDGE('',*,*,#226,.F.);
#293=ORIENTED_EDGE('',*,*,#227,.T.);
#294=ORIENTED_EDGE('',*,*,#228,.T.);
#295=ORIENTED_EDGE('',*,*,#227,.F.);
#296=ORIENTED_EDGE('',*,*,#229,.F.);
#297=ORIENTED_EDGE('',*,*,#230,.T.);
#298=ORIENTED_EDGE('',*,*,#231,.T.);
#299=ORIENTED_EDGE('',*,*,#230,.F.);
#300=ORIENTED_EDGE('',*,*,#232,.F.);
#301=ORIENTED_EDGE('',*,*,#233,.T.);
#302=ORIENTED_EDGE('',*,*,#234,.T.);
#303=ORIENTED_EDGE('',*,*,#233,.F.);
#304=ORIENTED_EDGE('',*,*,#235,.F.);
#305=ORIENTED_EDGE('',*,*,#236,.T.);
#306=ORIENTED_EDGE('',*,*,#237,.T.);
#307=ORIENTED_EDGE('',*,*,#236,.F.);
#308=ORIENTED_EDGE('',*,*,#235,.T.);
#309=ORIENTED_EDGE('',*,*,#210,.T.);
#310=ORIENTED_EDGE('',*,*,#232,.T.);
#311=ORIENTED_EDGE('',*,*,#229,.T.);
#312=ORIENTED_EDGE('',*,*,#226,.T.);
#313=ORIENTED_EDGE('',*,*,#223,.T.);
#314=ORIENTED_EDGE('',*,*,#220,.T.);
#315=ORIENTED_EDGE('',*,*,#217,.T.);
#316=ORIENTED_EDGE('',*,*,#214,.T.);
#317=ORIENTED_EDGE('',*,*,#211,.T.);
#318=ORIENTED_EDGE('',*,*,#237,.F.);
#319=ORIENTED_EDGE('',*,*,#193,.T.);
#320=ORIENTED_EDGE('',*,*,#234,.F.);
#321=ORIENTED_EDGE('',*,*,#231,.F.);
#322=ORIENTED_EDGE('',*,*,#228,.F.);
#323=ORIENTED_EDGE('',*,*,#225,.F.);
#324=ORIENTED_EDGE('',*,*,#222,.F.);
#325=ORIENTED_EDGE('',*,*,#219,.F.);
#326=ORIENTED_EDGE('',*,*,#216,.F.);
#327=ORIENTED_EDGE('',*,*,#213,.F.);
#328=CYLINDRICAL_SURFACE('',#374,0.95);
#329=CYLINDRICAL_SURFACE('',#378,2.6997425017172);
#330=CYLINDRICAL_SURFACE('',#382,2.6997425017172);
#331=CYLINDRICAL_SURFACE('',#386,5.);
#332=CYLINDRICAL_SURFACE('',#390,4.);
#333=CYLINDRICAL_SURFACE('',#393,4.);
#334=CYLINDRICAL_SURFACE('',#396,4.);
#335=CYLINDRICAL_SURFACE('',#399,4.);
#336=CYLINDRICAL_SURFACE('',#402,4.);
#337=CYLINDRICAL_SURFACE('',#405,4.);
#338=CYLINDRICAL_SURFACE('',#408,4.);
#339=CYLINDRICAL_SURFACE('',#411,4.);
#340=CYLINDRICAL_SURFACE('',#414,34.);
#341=ADVANCED_FACE('',(#41),#328,.F.);
#342=ADVANCED_FACE('',(#42),#35,.F.);
#343=ADVANCED_FACE('',(#43),#329,.F.);
#344=ADVANCED_FACE('',(#44),#36,.F.);
#345=ADVANCED_FACE('',(#45),#330,.F.);
#346=ADVANCED_FACE('',(#46,#15),#37,.T.);
#347=ADVANCED_FACE('',(#47),#331,.T.);
#348=ADVANCED_FACE('',(#48,#16),#38,.T.);
#349=ADVANCED_FACE('',(#49),#332,.F.);
#350=ADVANCED_FACE('',(#50),#333,.F.);
#351=ADVANCED_FACE('',(#51),#334,.F.);
#352=ADVANCED_FACE('',(#52),#335,.F.);
#353=ADVANCED_FACE('',(#53),#336,.F.);
#354=ADVANCED_FACE('',(#54),#337,.F.);
#355=ADVANCED_FACE('',(#55),#338,.F.);
#356=ADVANCED_FACE('',(#56),#339,.F.);
#357=ADVANCED_FACE('',(#57),#340,.T.);
#358=ADVANCED_FACE('',(#58,#17,#18,#19,#20,#21,#22,#23,#24,#25),#39,.T.);
#359=ADVANCED_FACE('',(#59,#26,#27,#28,#29,#30,#31,#32,#33,#34),#40,.F.);
#360=CLOSED_SHELL('',(#341,#342,#343,#344,#345,#346,#347,#348,#349,#350,
#351,#352,#353,#354,#355,#356,#357,#358,#359));
#361=DERIVED_UNIT_ELEMENT(#363,1.);
#362=DERIVED_UNIT_ELEMENT(#630,-3.);
#363=(
MASS_UNIT()
NAMED_UNIT(*)
SI_UNIT(.KILO.,.GRAM.)
);
#364=DERIVED_UNIT((#361,#362));
#365=MEASURE_REPRESENTATION_ITEM('density measure',
POSITIVE_RATIO_MEASURE(7850.),#364);
#366=PROPERTY_DEFINITION_REPRESENTATION(#371,#368);
#367=PROPERTY_DEFINITION_REPRESENTATION(#372,#369);
#368=REPRESENTATION('material name',(#370),#627);
#369=REPRESENTATION('density',(#365),#627);
#370=DESCRIPTIVE_REPRESENTATION_ITEM('Steel','Steel');
#371=PROPERTY_DEFINITION('material property','material name',#637);
#372=PROPERTY_DEFINITION('material property','density of part',#637);
#373=AXIS2_PLACEMENT_3D('placement',#530,#419,#420);
#374=AXIS2_PLACEMENT_3D('',#531,#421,#422);
#375=AXIS2_PLACEMENT_3D('',#533,#423,#424);
#376=AXIS2_PLACEMENT_3D('',#536,#426,#427);
#377=AXIS2_PLACEMENT_3D('',#537,#428,#429);
#378=AXIS2_PLACEMENT_3D('',#546,#434,#435);
#379=AXIS2_PLACEMENT_3D('',#548,#436,#437);
#380=AXIS2_PLACEMENT_3D('',#551,#439,#440);
#381=AXIS2_PLACEMENT_3D('',#552,#441,#442);
#382=AXIS2_PLACEMENT_3D('',#558,#446,#447);
#383=AXIS2_PLACEMENT_3D('',#559,#448,#449);
#384=AXIS2_PLACEMENT_3D('',#560,#450,#451);
#385=AXIS2_PLACEMENT_3D('',#561,#452,#453);
#386=AXIS2_PLACEMENT_3D('',#562,#454,#455);
#387=AXIS2_PLACEMENT_3D('',#564,#456,#457);
#388=AXIS2_PLACEMENT_3D('',#567,#459,#460);
#389=AXIS2_PLACEMENT_3D('',#568,#461,#462);
#390=AXIS2_PLACEMENT_3D('',#569,#463,#464);
#391=AXIS2_PLACEMENT_3D('',#571,#465,#466);
#392=AXIS2_PLACEMENT_3D('',#574,#468,#469);
#393=AXIS2_PLACEMENT_3D('',#575,#470,#471);
#394=AXIS2_PLACEMENT_3D('',#577,#472,#473);
#395=AXIS2_PLACEMENT_3D('',#580,#475,#476);
#396=AXIS2_PLACEMENT_3D('',#581,#477,#478);
#397=AXIS2_PLACEMENT_3D('',#583,#479,#480);
#398=AXIS2_PLACEMENT_3D('',#586,#482,#483);
#399=AXIS2_PLACEMENT_3D('',#587,#484,#485);
#400=AXIS2_PLACEMENT_3D('',#589,#486,#487);
#401=AXIS2_PLACEMENT_3D('',#592,#489,#490);
#402=AXIS2_PLACEMENT_3D('',#593,#491,#492);
#403=AXIS2_PLACEMENT_3D('',#595,#493,#494);
#404=AXIS2_PLACEMENT_3D('',#598,#496,#497);
#405=AXIS2_PLACEMENT_3D('',#599,#498,#499);
#406=AXIS2_PLACEMENT_3D('',#601,#500,#501);
#407=AXIS2_PLACEMENT_3D('',#604,#503,#504);
#408=AXIS2_PLACEMENT_3D('',#605,#505,#506);
#409=AXIS2_PLACEMENT_3D('',#607,#507,#508);
#410=AXIS2_PLACEMENT_3D('',#610,#510,#511);
#411=AXIS2_PLACEMENT_3D('',#611,#512,#513);
#412=AXIS2_PLACEMENT_3D('',#613,#514,#515);
#413=AXIS2_PLACEMENT_3D('',#616,#517,#518);
#414=AXIS2_PLACEMENT_3D('',#617,#519,#520);
#415=AXIS2_PLACEMENT_3D('',#619,#521,#522);
#416=AXIS2_PLACEMENT_3D('',#622,#524,#525);
#417=AXIS2_PLACEMENT_3D('',#623,#526,#527);
#418=AXIS2_PLACEMENT_3D('',#624,#528,#529);
#419=DIRECTION('axis',(0.,0.,1.));
#420=DIRECTION('refdir',(1.,0.,0.));
#421=DIRECTION('center_axis',(0.,1.,0.));
#422=DIRECTION('ref_axis',(1.,0.,0.));
#423=DIRECTION('center_axis',(0.,1.,0.));
#424=DIRECTION('ref_axis',(1.,0.,0.));
#425=DIRECTION('',(0.,1.,0.));
#426=DIRECTION('center_axis',(0.,-1.,0.));
#427=DIRECTION('ref_axis',(1.,0.,0.));
#428=DIRECTION('center_axis',(0.,0.,1.));
#429=DIRECTION('ref_axis',(-1.,0.,0.));
#430=DIRECTION('',(-1.,0.,0.));
#431=DIRECTION('',(0.,-1.,0.));
#432=DIRECTION('',(-1.,0.,0.));
#433=DIRECTION('',(0.,-1.,0.));
#434=DIRECTION('center_axis',(0.,-1.,0.));
#435=DIRECTION('ref_axis',(0.728307422086149,0.,0.68525053734691));
#436=DIRECTION('center_axis',(0.,-1.,0.));
#437=DIRECTION('ref_axis',(0.728307422086149,0.,0.68525053734691));
#438=DIRECTION('',(0.,-1.,0.));
#439=DIRECTION('center_axis',(0.,-1.,0.));
#440=DIRECTION('ref_axis',(0.728307422086149,0.,0.68525053734691));
#441=DIRECTION('center_axis',(0.,0.,-1.));
#442=DIRECTION('ref_axis',(1.,0.,0.));
#443=DIRECTION('',(1.,0.,0.));
#444=DIRECTION('',(0.,-1.,0.));
#445=DIRECTION('',(1.,0.,0.));
#446=DIRECTION('center_axis',(0.,-1.,0.));
#447=DIRECTION('ref_axis',(-0.728307422086148,0.,-0.68525053734691));
#448=DIRECTION('center_axis',(0.,-1.,0.));
#449=DIRECTION('ref_axis',(-0.728307422086148,0.,-0.68525053734691));
#450=DIRECTION('center_axis',(0.,-1.,0.));
#451=DIRECTION('ref_axis',(-0.728307422086148,0.,-0.68525053734691));
#452=DIRECTION('center_axis',(0.,1.,0.));
#453=DIRECTION('ref_axis',(-1.,0.,0.));
#454=DIRECTION('center_axis',(0.,1.,0.));
#455=DIRECTION('ref_axis',(-1.,0.,0.));
#456=DIRECTION('center_axis',(0.,1.,0.));
#457=DIRECTION('ref_axis',(-1.,0.,0.));
#458=DIRECTION('',(0.,-1.,0.));
#459=DIRECTION('center_axis',(0.,-1.,0.));
#460=DIRECTION('ref_axis',(-1.,0.,0.));
#461=DIRECTION('center_axis',(0.,1.,0.));
#462=DIRECTION('ref_axis',(-1.,0.,0.));
#463=DIRECTION('center_axis',(0.,1.,0.));
#464=DIRECTION('ref_axis',(1.,0.,0.));
#465=DIRECTION('center_axis',(0.,-1.,0.));
#466=DIRECTION('ref_axis',(1.,0.,0.));
#467=DIRECTION('',(0.,-1.,0.));
#468=DIRECTION('center_axis',(0.,-1.,0.));
#469=DIRECTION('ref_axis',(1.,0.,0.));
#470=DIRECTION('center_axis',(0.,1.,0.));
#471=DIRECTION('ref_axis',(1.,0.,0.));
#472=DIRECTION('center_axis',(0.,-1.,0.));
#473=DIRECTION('ref_axis',(1.,0.,0.));
#474=DIRECTION('',(0.,-1.,0.));
#475=DIRECTION('center_axis',(0.,-1.,0.));
#476=DIRECTION('ref_axis',(1.,0.,0.));
#477=DIRECTION('center_axis',(0.,1.,0.));
#478=DIRECTION('ref_axis',(1.,0.,0.));
#479=DIRECTION('center_axis',(0.,-1.,0.));
#480=DIRECTION('ref_axis',(1.,0.,0.));
#481=DIRECTION('',(0.,-1.,0.));
#482=DIRECTION('center_axis',(0.,-1.,0.));
#483=DIRECTION('ref_axis',(1.,0.,0.));
#484=DIRECTION('center_axis',(0.,1.,0.));
#485=DIRECTION('ref_axis',(1.,0.,0.));
#486=DIRECTION('center_axis',(0.,-1.,0.));
#487=DIRECTION('ref_axis',(1.,0.,0.));
#488=DIRECTION('',(0.,-1.,0.));
#489=DIRECTION('center_axis',(0.,-1.,0.));
#490=DIRECTION('ref_axis',(1.,0.,0.));
#491=DIRECTION('center_axis',(0.,1.,0.));
#492=DIRECTION('ref_axis',(1.,0.,0.));
#493=DIRECTION('center_axis',(0.,-1.,0.));
#494=DIRECTION('ref_axis',(1.,0.,0.));
#495=DIRECTION('',(0.,-1.,0.));
#496=DIRECTION('center_axis',(0.,-1.,0.));
#497=DIRECTION('ref_axis',(1.,0.,0.));
#498=DIRECTION('center_axis',(0.,1.,0.));
#499=DIRECTION('ref_axis',(1.,0.,0.));
#500=DIRECTION('center_axis',(0.,-1.,0.));
#501=DIRECTION('ref_axis',(1.,0.,0.));
#502=DIRECTION('',(0.,-1.,0.));
#503=DIRECTION('center_axis',(0.,-1.,0.));
#504=DIRECTION('ref_axis',(1.,0.,0.));
#505=DIRECTION('center_axis',(0.,1.,0.));
#506=DIRECTION('ref_axis',(1.,0.,0.));
#507=DIRECTION('center_axis',(0.,-1.,0.));
#508=DIRECTION('ref_axis',(1.,0.,0.));
#509=DIRECTION('',(0.,-1.,0.));
#510=DIRECTION('center_axis',(0.,-1.,0.));
#511=DIRECTION('ref_axis',(1.,0.,0.));
#512=DIRECTION('center_axis',(0.,1.,0.));
#513=DIRECTION('ref_axis',(1.,0.,0.));
#514=DIRECTION('center_axis',(0.,-1.,0.));
#515=DIRECTION('ref_axis',(1.,0.,0.));
#516=DIRECTION('',(0.,-1.,0.));
#517=DIRECTION('center_axis',(0.,-1.,0.));
#518=DIRECTION('ref_axis',(1.,0.,0.));
#519=DIRECTION('center_axis',(0.,1.,0.));
#520=DIRECTION('ref_axis',(1.,0.,0.));
#521=DIRECTION('center_axis',(0.,1.,0.));
#522=DIRECTION('ref_axis',(1.,0.,0.));
#523=DIRECTION('',(0.,-1.,0.));
#524=DIRECTION('center_axis',(0.,1.,0.));
#525=DIRECTION('ref_axis',(1.,0.,0.));
#526=DIRECTION('center_axis',(0.,1.,0.));
#527=DIRECTION('ref_axis',(1.,0.,0.));
#528=DIRECTION('center_axis',(0.,1.,0.));
#529=DIRECTION('ref_axis',(1.,0.,0.));
#530=CARTESIAN_POINT('',(0.,0.,0.));
#531=CARTESIAN_POINT('Origin',(0.,0.,0.));
#532=CARTESIAN_POINT('',(-0.95,0.,1.16341445918999E-16));
#533=CARTESIAN_POINT('Origin',(0.,0.,0.));
#534=CARTESIAN_POINT('',(-0.95,7.,-1.16341445918999E-16));
#535=CARTESIAN_POINT('',(-0.95,0.,1.16341445918999E-16));
#536=CARTESIAN_POINT('Origin',(0.,7.,0.));
#537=CARTESIAN_POINT('Origin',(1.9665,15.,1.85));
#538=CARTESIAN_POINT('',(1.9665,15.,1.85));
#539=CARTESIAN_POINT('',(-1.9665,15.,1.85));
#540=CARTESIAN_POINT('',(0.98325,15.,1.85));
#541=CARTESIAN_POINT('',(1.9665,7.,1.85));
#542=CARTESIAN_POINT('',(1.9665,15.,1.85));
#543=CARTESIAN_POINT('',(-1.9665,7.,1.85));
#544=CARTESIAN_POINT('',(-1.9665,7.,1.85));
#545=CARTESIAN_POINT('',(-1.9665,15.,1.85));
#546=CARTESIAN_POINT('Origin',(0.000257498277937973,15.,0.));
#547=CARTESIAN_POINT('',(1.9665,15.,-1.85));
#548=CARTESIAN_POINT('Origin',(0.000257498277937973,15.,0.));
#549=CARTESIAN_POINT('',(1.9665,7.,-1.85));
#550=CARTESIAN_POINT('',(1.9665,15.,-1.85));
#551=CARTESIAN_POINT('Origin',(0.000257498277937973,7.,0.));
#552=CARTESIAN_POINT('Origin',(-1.9665,15.,-1.85));
#553=CARTESIAN_POINT('',(-1.9665,15.,-1.85));
#554=CARTESIAN_POINT('',(-0.98325,15.,-1.85));
#555=CARTESIAN_POINT('',(-1.9665,7.,-1.85));
#556=CARTESIAN_POINT('',(-1.9665,15.,-1.85));
#557=CARTESIAN_POINT('',(1.9665,7.,-1.85));
#558=CARTESIAN_POINT('Origin',(-0.000257498277939083,15.,0.));
#559=CARTESIAN_POINT('Origin',(-0.000257498277939083,15.,0.));
#560=CARTESIAN_POINT('Origin',(-0.000257498277939083,7.,0.));
#561=CARTESIAN_POINT('Origin',(0.,7.,0.));
#562=CARTESIAN_POINT('Origin',(0.,7.,0.));
#563=CARTESIAN_POINT('',(5.,15.,-6.12323399573677E-16));
#564=CARTESIAN_POINT('Origin',(0.,15.,0.));
#565=CARTESIAN_POINT('',(5.,7.,-6.12323399573677E-16));
#566=CARTESIAN_POINT('',(5.,7.,-6.12323399573677E-16));
#567=CARTESIAN_POINT('Origin',(0.,7.,0.));
#568=CARTESIAN_POINT('Origin',(0.,15.,0.));
#569=CARTESIAN_POINT('Origin',(18.,0.,3.99680288865056E-15));
#570=CARTESIAN_POINT('',(14.,7.,4.44089209850063E-15));
#571=CARTESIAN_POINT('Origin',(18.,7.,3.99680288865056E-15));
#572=CARTESIAN_POINT('',(14.,0.,4.48666160830951E-15));
#573=CARTESIAN_POINT('',(14.,0.,4.48666160830951E-15));
#574=CARTESIAN_POINT('Origin',(18.,0.,3.99680288865056E-15));
#575=CARTESIAN_POINT('Origin',(12.7279220613579,0.,-12.7279220613579));
#576=CARTESIAN_POINT('',(8.72792206135786,7.,-12.7279220613579));
#577=CARTESIAN_POINT('Origin',(12.7279220613579,7.,-12.7279220613579));
#578=CARTESIAN_POINT('',(8.72792206135786,0.,-12.7279220613579));
#579=CARTESIAN_POINT('',(8.72792206135786,0.,-12.7279220613579));
#580=CARTESIAN_POINT('Origin',(12.7279220613579,0.,-12.7279220613579));
#581=CARTESIAN_POINT('Origin',(0.,0.,-18.));
#582=CARTESIAN_POINT('',(-4.,7.,-18.));
#583=CARTESIAN_POINT('Origin',(0.,7.,-18.));
#584=CARTESIAN_POINT('',(-4.,0.,-18.));
#585=CARTESIAN_POINT('',(-4.,0.,-18.));
#586=CARTESIAN_POINT('Origin',(0.,0.,-18.));
#587=CARTESIAN_POINT('Origin',(-12.7279220613579,0.,12.7279220613579));
#588=CARTESIAN_POINT('',(-16.7279220613579,7.,12.7279220613579));
#589=CARTESIAN_POINT('Origin',(-12.7279220613579,7.,12.7279220613579));
#590=CARTESIAN_POINT('',(-16.7279220613579,0.,12.7279220613579));
#591=CARTESIAN_POINT('',(-16.7279220613579,0.,12.7279220613579));
#592=CARTESIAN_POINT('Origin',(-12.7279220613579,0.,12.7279220613579));
#593=CARTESIAN_POINT('Origin',(-2.20436423846524E-15,0.,18.));
#594=CARTESIAN_POINT('',(-4.,7.,18.));
#595=CARTESIAN_POINT('Origin',(-2.20436423846524E-15,7.,18.));
#596=CARTESIAN_POINT('',(-4.,0.,18.));
#597=CARTESIAN_POINT('',(-4.,0.,18.));
#598=CARTESIAN_POINT('Origin',(-2.20436423846524E-15,0.,18.));
#599=CARTESIAN_POINT('Origin',(12.7279220613579,0.,12.7279220613579));
#600=CARTESIAN_POINT('',(8.72792206135785,7.,12.7279220613579));
#601=CARTESIAN_POINT('Origin',(12.7279220613579,7.,12.7279220613579));
#602=CARTESIAN_POINT('',(8.72792206135785,0.,12.7279220613579));
#603=CARTESIAN_POINT('',(8.72792206135785,0.,12.7279220613579));
#604=CARTESIAN_POINT('Origin',(12.7279220613579,0.,12.7279220613579));
#605=CARTESIAN_POINT('Origin',(-18.,0.,3.99680288865056E-15));
#606=CARTESIAN_POINT('',(-22.,7.,4.44089209850063E-15));
#607=CARTESIAN_POINT('Origin',(-18.,7.,3.99680288865056E-15));
#608=CARTESIAN_POINT('',(-22.,0.,4.48666160830951E-15));
#609=CARTESIAN_POINT('',(-22.,0.,4.48666160830951E-15));
#610=CARTESIAN_POINT('Origin',(-18.,0.,3.99680288865056E-15));
#611=CARTESIAN_POINT('Origin',(-12.7279220613579,0.,-12.7279220613579));
#612=CARTESIAN_POINT('',(-16.7279220613579,7.,-12.7279220613579));
#613=CARTESIAN_POINT('Origin',(-12.7279220613579,7.,-12.7279220613579));
#614=CARTESIAN_POINT('',(-16.7279220613579,0.,-12.7279220613579));
#615=CARTESIAN_POINT('',(-16.7279220613579,0.,-12.7279220613579));
#616=CARTESIAN_POINT('Origin',(-12.7279220613579,0.,-12.7279220613579));
#617=CARTESIAN_POINT('Origin',(0.,0.,0.));
#618=CARTESIAN_POINT('',(-34.,7.,4.44089209850063E-15));
#619=CARTESIAN_POINT('Origin',(0.,7.,0.));
#620=CARTESIAN_POINT('',(-34.,0.,4.163799117101E-15));
#621=CARTESIAN_POINT('',(-34.,0.,4.163799117101E-15));
#622=CARTESIAN_POINT('Origin',(0.,0.,0.));
#623=CARTESIAN_POINT('Origin',(0.,7.,0.));
#624=CARTESIAN_POINT('Origin',(0.,0.,0.));
#625=UNCERTAINTY_MEASURE_WITH_UNIT(LENGTH_MEASURE(0.01),#629,
'DISTANCE_ACCURACY_VALUE',
'Maximum model space distance between geometric entities at asserted c
onnectivities');
#626=UNCERTAINTY_MEASURE_WITH_UNIT(LENGTH_MEASURE(0.01),#629,
'DISTANCE_ACCURACY_VALUE',
'Maximum model space distance between geometric entities at asserted c
onnectivities');
#627=(
GEOMETRIC_REPRESENTATION_CONTEXT(3)
GLOBAL_UNCERTAINTY_ASSIGNED_CONTEXT((#625))
GLOBAL_UNIT_ASSIGNED_CONTEXT((#629,#631,#632))
REPRESENTATION_CONTEXT('','3D')
);
#628=(
GEOMETRIC_REPRESENTATION_CONTEXT(3)
GLOBAL_UNCERTAINTY_ASSIGNED_CONTEXT((#626))
GLOBAL_UNIT_ASSIGNED_CONTEXT((#629,#631,#632))
REPRESENTATION_CONTEXT('','3D')
);
#629=(
LENGTH_UNIT()
NAMED_UNIT(*)
SI_UNIT(.MILLI.,.METRE.)
);
#630=(
LENGTH_UNIT()
NAMED_UNIT(*)
SI_UNIT($,.METRE.)
);
#631=(
NAMED_UNIT(*)
PLANE_ANGLE_UNIT()
SI_UNIT($,.RADIAN.)
);
#632=(
NAMED_UNIT(*)
SI_UNIT($,.STERADIAN.)
SOLID_ANGLE_UNIT()
);
#633=SHAPE_DEFINITION_REPRESENTATION(#634,#635);
#634=PRODUCT_DEFINITION_SHAPE('',$,#637);
#635=SHAPE_REPRESENTATION('',(#373),#627);
#636=PRODUCT_DEFINITION_CONTEXT('part definition',#641,'design');
#637=PRODUCT_DEFINITION('Wheel','Wheel v2',#638,#636);
#638=PRODUCT_DEFINITION_FORMATION('',$,#643);
#639=PRODUCT_RELATED_PRODUCT_CATEGORY('Wheel v2','Wheel v2',(#643));
#640=APPLICATION_PROTOCOL_DEFINITION('international standard',
'automotive_design',2009,#641);
#641=APPLICATION_CONTEXT(
'Core Data for Automotive Mechanical Design Process');
#642=PRODUCT_CONTEXT('part definition',#641,'mechanical');
#643=PRODUCT('Wheel','Wheel v2',$,(#642));
#644=PRESENTATION_STYLE_ASSIGNMENT((#645));
#645=SURFACE_STYLE_USAGE(.BOTH.,#646);
#646=SURFACE_SIDE_STYLE('',(#647));
#647=SURFACE_STYLE_FILL_AREA(#648);
#648=FILL_AREA_STYLE('Steel - Satin',(#649));
#649=FILL_AREA_STYLE_COLOUR('Steel - Satin',#650);
#650=COLOUR_RGB('Steel - Satin',0.627450980392157,0.627450980392157,0.627450980392157);
ENDSEC;
END-ISO-10303-21;
