  0
SECTION
  2
HEADER
  9
$ACADVER
  1
AC1015
  9
$ACADMAINTVER
 70
     6
  9
$DWGCODEPAGE
  3
ANSI_1252
  9
$INSBASE
 10
0.0
 20
0.0
 30
0.0
  9
$EXTMIN
 10
0.0
 20
0.0
 30
0.0
  9
$EXTMAX
 10
1189.0
 20
841.0
 30
0.0
  9
$LIMMIN
 10
0.0
 20
0.0
  9
$LIMMAX
 10
1189.0
 20
841.0
  9
$ORTHOMODE
 70
     0
  9
$REGENMODE
 70
     1
  9
$FILLMODE
 70
     1
  9
$QTEXTMODE
 70
     0
  9
$MIRRTEXT
 70
     1
  9
$LTSCALE
 40
1.0
  9
$ATTMODE
 70
     1
  9
$TEXTSIZE
 40
3.5
  9
$TRACEWID
 40
1.0
  9
$TEXTSTYLE
  7
Standard
  9
$CLAYER
  8
0
  9
$CELTYPE
  6
ByLayer
  9
$CECOLOR
 62
   256
  9
$CELTSCALE
 40
1.0
  9
$DISPSILH
 70
     0
  9
$DIMSCALE
 40
1.0
  9
$DIMASZ
 40
3.302
  9
$DIMEXO
 40
1.0
  9
$DIMDLI
 40
3.75
  9
$DIMRND
 40
0.0
  9
$DIMDLE
 40
0.0
  9
$DIMEXE
 40
1.0
  9
$DIMTP
 40
0.0
  9
$DIMTM
 40
0.0
  9
$DIMTXT
 40
3.5
  9
$DIMCEN
 40
2.5
  9
$DIMTSZ
 40
0.0
  9
$DIMTOL
 70
     0
  9
$DIMLIM
 70
     0
  9
$DIMTIH
 70
     1
  9
$DIMTOH
 70
     1
  9
$DIMSE1
 70
     0
  9
$DIMSE2
 70
     0
  9
$DIMTAD
 70
     1
  9
$DIMZIN
 70
     0
  9
$DIMBLK
  1

  9
$DIMASO
 70
     1
  9
$DIMSHO
 70
     1
  9
$DIMPOST
  1

  9
$DIMAPOST
  1

  9
$DIMALT
 70
     0
  9
$DIMALTD
 70
     3
  9
$DIMALTF
 40
0.0393700787
  9
$DIMLFAC
 40
1.0
  9
$DIMTOFL
 70
     1
  9
$DIMTVP
 40
0.0
  9
$DIMTIX
 70
     0
  9
$DIMSOXD
 70
     0
  9
$DIMSAH
 70
     0
  9
$DIMBLK1
  1

  9
$DIMBLK2
  1

  9
$DIMSTYLE
  2
ISO-25
  9
$DIMCLRD
 70
     0
  9
$DIMCLRE
 70
     0
  9
$DIMCLRT
 70
     0
  9
$DIMTFAC
 40
1.0
  9
$DIMGAP
 40
1.524
  9
$DIMJUST
 70
     0
  9
$DIMSD1
 70
     0
  9
$DIMSD2
 70
     0
  9
$DIMTOLJ
 70
     0
  9
$DIMTZIN
 70
     0
  9
$DIMALTZ
 70
     0
  9
$DIMALTTZ
 70
     0
  9
$DIMUPT
 70
     0
  9
$DIMDEC
 70
     2
  9
$DIMTDEC
 70
     2
  9
$DIMALTU
 70
     2
  9
$DIMALTTD
 70
     3
  9
$DIMTXSTY
  7
Standard
  9
$DIMAUNIT
 70
     0
  9
$DIMADEC
 70
     2
  9
$DIMALTRND
 40
0.0
  9
$DIMAZIN
 70
     0
  9
$DIMDSEP
 70
    44
  9
$DIMATFIT
 70
     3
  9
$DIMFRAC
 70
     0
  9
$DIMLDRBLK
  1

  9
$DIMLUNIT
 70
     2
  9
$DIMLWD
 70
    -2
  9
$DIMLWE
 70
    -2
  9
$DIMTMOVE
 70
     0
  9
$LUNITS
 70
     2
  9
$LUPREC
 70
     2
  9
$SKETCHINC
 40
1.0
  9
$FILLETRAD
 40
10.0
  9
$AUNITS
 70
     0
  9
$AUPREC
 70
     2
  9
$MENU
  1
.
  9
$ELEVATION
 40
0.0
  9
$PELEVATION
 40
0.0
  9
$THICKNESS
 40
0.0
  9
$LIMCHECK
 70
     0
  9
$CHAMFERA
 40
0.0
  9
$CHAMFERB
 40
0.0
  9
$CHAMFERC
 40
0.0
  9
$CHAMFERD
 40
0.0
  9
$SKPOLY
 70
     0
  9
$TDCREATE
 40
2459068.475312095
  9
$TDUCREATE
 40
2459068.641978762
  9
$TDUPDATE
 40
2459068.475312616
  9
$TDUUPDATE
 40
2459068.641979282
  9
$TDINDWG
 40
0.0000000116
  9
$TDUSRTIMER
 40
0.0000000116
  9
$USRTIMER
 70
     1
  9
$ANGBASE
 50
0.0
  9
$ANGDIR
 70
     0
  9
$PDMODE
 70
     0
  9
$PDSIZE
 40
-1.0
  9
$PLINEWID
 40
0.0
  9
$SPLFRAME
 70
     0
  9
$SPLINETYPE
 70
     6
  9
$SPLINESEGS
 70
     8
  9
$HANDSEED
  5
87
  9
$SURFTAB1
 70
     6
  9
$SURFTAB2
 70
     6
  9
$SURFTYPE
 70
     6
  9
$SURFU
 70
     6
  9
$SURFV
 70
     6
  9
$UCSBASE
  2

  9
$UCSNAME
  2

  9
$UCSORG
 10
0.0
 20
0.0
 30
0.0
  9
$UCSXDIR
 10
1.0
 20
0.0
 30
0.0
  9
$UCSYDIR
 10
0.0
 20
1.0
 30
0.0
  9
$UCSORTHOREF
  2

  9
$UCSORTHOVIEW
 70
     0
  9
$UCSORGTOP
 10
0.0
 20
0.0
 30
0.0
  9
$UCSORGBOTTOM
 10
0.0
 20
0.0
 30
0.0
  9
$UCSORGLEFT
 10
0.0
 20
0.0
 30
0.0
  9
$UCSORGRIGHT
 10
0.0
 20
0.0
 30
0.0
  9
$UCSORGFRONT
 10
0.0
 20
0.0
 30
0.0
  9
$UCSORGBACK
 10
0.0
 20
0.0
 30
0.0
  9
$PUCSBASE
  2

  9
$PUCSNAME
  2

  9
$PUCSORG
 10
0.0
 20
0.0
 30
0.0
  9
$PUCSXDIR
 10
1.0
 20
0.0
 30
0.0
  9
$PUCSYDIR
 10
0.0
 20
1.0
 30
0.0
  9
$PUCSORTHOREF
  2

  9
$PUCSORTHOVIEW
 70
     0
  9
$PUCSORGTOP
 10
0.0
 20
0.0
 30
0.0
  9
$PUCSORGBOTTOM
 10
0.0
 20
0.0
 30
0.0
  9
$PUCSORGLEFT
 10
0.0
 20
0.0
 30
0.0
  9
$PUCSORGRIGHT
 10
0.0
 20
0.0
 30
0.0
  9
$PUCSORGFRONT
 10
0.0
 20
0.0
 30
0.0
  9
$PUCSORGBACK
 10
0.0
 20
0.0
 30
0.0
  9
$USERI1
 70
     0
  9
$USERI2
 70
     0
  9
$USERI3
 70
     0
  9
$USERI4
 70
     0
  9
$USERI5
 70
     0
  9
$USERR1
 40
0.0
  9
$USERR2
 40
0.0
  9
$USERR3
 40
0.0
  9
$USERR4
 40
0.0
  9
$USERR5
 40
0.0
  9
$WORLDVIEW
 70
     1
  9
$SHADEDGE
 70
     3
  9
$SHADEDIF
 70
    70
  9
$TILEMODE
 70
     1
  9
$MAXACTVP
 70
    64
  9
$PINSBASE
 10
0.0
 20
0.0
 30
0.0
  9
$PLIMCHECK
 70
     0
  9
$PEXTMIN
 10
1.0000000000E+20
 20
1.0000000000E+20
 30
1.0000000000E+20
  9
$PEXTMAX
 10
-1.0000000000E+20
 20
-1.0000000000E+20
 30
-1.0000000000E+20
  9
$PLIMMIN
 10
0.0
 20
0.0
  9
$PLIMMAX
 10
420.0
 20
297.0
  9
$UNITMODE
 70
     0
  9
$VISRETAIN
 70
     1
  9
$PLINEGEN
 70
     0
  9
$PSLTSCALE
 70
     1
  9
$TREEDEPTH
 70
  3020
  9
$CMLSTYLE
  2
Standard
  9
$CMLJUST
 70
     0
  9
$CMLSCALE
 40
20.0
  9
$PROXYGRAPHICS
 70
     1
  9
$MEASUREMENT
 70
     1
  9
$CELWEIGHT
370
    -1
  9
$ENDCAPS
280
     0
  9
$JOINSTYLE
280
     0
  9
$LWDISPLAY
290
     1
  9
$INSUNITS
 70
     4
  9
$HYPERLINKBASE
  1

  9
$STYLESHEET
  1

  9
$XEDIT
290
     1
  9
$CEPSNTYPE
380
     0
  9
$PSTYLEMODE
290
     1
  9
$FINGERPRINTGUID
  2
{236024AD-CC18-40CE-B7DF-A0497E5DCE15}
  9
$VERSIONGUID
  2
{FAEB1C32-E019-11D5-929B-00C0DF256EC4}
  9
$EXTNAMES
290
     1
  9
$PSVPSCALE
 40
0.0
  9
$OLESTARTUP
290
     0
  0
ENDSEC
  0
SECTION
  2
CLASSES
  0
CLASS
  1
ACDBDICTIONARYWDFLT
  2
AcDbDictionaryWithDefault
  3
ObjectDBX Classes
 90
        0
280
     0
281
     0
  0
CLASS
  1
VISUALSTYLE
  2
AcDbVisualStyle
  3
ObjectDBX Classes
 90
     4095
280
     0
281
     0
  0
CLASS
  1
MATERIAL
  2
AcDbMaterial
  3
ObjectDBX Classes
 90
     1153
280
     0
281
     0
  0
CLASS
  1
SCALE
  2
AcDbScale
  3
ObjectDBX Classes
 90
     1153
280
     0
281
     0
  0
CLASS
  1
TABLESTYLE
  2
AcDbTableStyle
  3
ObjectDBX Classes
 90
     4095
280
     0
281
     0
  0
CLASS
  1
MLEADERSTYLE
  2
AcDbMLeaderStyle
  3
ACDB_MLEADERSTYLE_CLASS
 90
     4095
280
     0
281
     0
  0
CLASS
  1
SUN
  2
AcDbSun
  3
SCENEOE
 90
     1153
280
     0
281
     0
  0
CLASS
  1
ACDBPLACEHOLDER
  2
AcDbPlaceHolder
  3
ObjectDBX Classes
 90
        0
280
     0
281
     0
  0
CLASS
  1
LAYOUT
  2
AcDbLayout
  3
ObjectDBX Classes
 90
        0
280
     0
281
     0
  0
ENDSEC
  0
SECTION
  2
TABLES
  0
TABLE
  2
VPORT
  5
8
330
0
100
AcDbSymbolTable
 70
     1
  0
VPORT
  5
29
330
8
100
AcDbSymbolTableRecord
100
AcDbViewportTableRecord
  2
*Active
 70
     0
 10
0.0
 20
0.0
 11
1.0
 21
1.0
 12
594.5
 22
420.5
 13
0.0
 23
0.0
 14
10.0
 24
10.0
 15
10.0
 25
10.0
 16
0.0
 26
0.0
 36
1.0
 17
0.0
 27
0.0
 37
0.0
 40
841.0
 41
1.4137931034
 42
50.0
 43
0.0
 44
0.0
 50
0.0
 51
0.0
 71
     0
 72
  2000
 73
     1
 74
     3
 75
     0
 76
     0
 77
     0
 78
     0
281
     0
 65
     1
110
0.0
120
0.0
130
0.0
111
1.0
121
0.0
131
0.0
112
0.0
122
1.0
132
0.0
 79
     0
146
0.0
  0
ENDTAB
  0
TABLE
  2
LTYPE
  5
5
330
0
100
AcDbSymbolTable
 70
     6
  0
LTYPE
  5
14
330
5
100
AcDbSymbolTableRecord
100
AcDbLinetypeTableRecord
  2
ByBlock
 70
     0
  3

 72
    65
 73
     0
 40
0.0
  0
LTYPE
  5
15
330
5
100
AcDbSymbolTableRecord
100
AcDbLinetypeTableRecord
  2
ByLayer
 70
     0
  3

 72
    65
 73
     0
 40
0.0
  0
LTYPE
  5
16
330
5
100
AcDbSymbolTableRecord
100
AcDbLinetypeTableRecord
  2
Continuous
 70
     0
  3
Solid line
 72
    65
 73
     0
 40
0.0
  0
LTYPE
  5
6E
330
5
100
AcDbSymbolTableRecord
100
AcDbLinetypeTableRecord
  2
HIDDEN
 70
     0
  3
Hidden __ __ __ __ __ __ __ __ __ __ __ __ __ __
 72
    65
 73
     2
 40
1.905
 49
1.27
 74
     0
 49
-0.635
 74
     0
  0
LTYPE
  5
6F
330
5
100
AcDbSymbolTableRecord
100
AcDbLinetypeTableRecord
  2
PHANTOM
 70
     0
  3
Phantom ______  __  __  ______  __  __  ______
 72
    65
 73
     6
 40
12.7
 49
6.35
 74
     0
 49
-1.27
 74
     0
 49
1.27
 74
     0
 49
-1.27
 74
     0
 49
1.27
 74
     0
 49
-1.27
 74
     0
  0
LTYPE
  5
70
330
5
100
AcDbSymbolTableRecord
100
AcDbLinetypeTableRecord
  2
CENTER
 70
     0
  3
Center ____ _ ____ _ ____ _ ____ _ ____ _ ____
 72
    65
 73
     4
 40
10.16
 49
6.35
 74
     0
 49
-1.27
 74
     0
 49
1.27
 74
     0
 49
-1.27
 74
     0
  0
LTYPE
  5
71
330
5
100
AcDbSymbolTableRecord
100
AcDbLinetypeTableRecord
  2
CENTERX2
 70
     0
  3
Center (2x) ________  __  ________  __  _____
 72
    65
 73
     4
 40
20.32
 49
12.7
 74
     0
 49
-2.54
 74
     0
 49
2.54
 74
     0
 49
-2.54
 74
     0
  0
LTYPE
  5
72
330
5
100
AcDbSymbolTableRecord
100
AcDbLinetypeTableRecord
  2
DOT2
 70
     0
  3
Dot (.5x) ........................................
 72
    65
 73
     2
 40
0.635
 49
0.0
 74
     0
 49
-0.635
 74
     0
  0
ENDTAB
  0
TABLE
  2
LAYER
  5
2
330
0
100
AcDbSymbolTable
 70
     1
  0
LAYER
  5
10
330
2
100
AcDbSymbolTableRecord
100
AcDbLayerTableRecord
  2
0
 70
     0
 62
     7
  6
Continuous
370
    -3
390
F
  0
ENDTAB
  0
TABLE
  2
STYLE
  5
3
330
0
100
AcDbSymbolTable
 70
     1
  0
STYLE
  5
11
330
3
100
AcDbSymbolTableRecord
100
AcDbTextStyleTableRecord
  2
Standard
 70
     0
 40
0.0
 41
1.0
 50
0.0
 71
     0
 42
3.5
  3
txt
  4

  0
ENDTAB
  0
TABLE
  2
VIEW
  5
6
330
0
100
AcDbSymbolTable
 70
     0
  0
ENDTAB
  0
TABLE
  2
UCS
  5
7
330
0
100
AcDbSymbolTable
 70
     0
  0
ENDTAB
  0
TABLE
  2
APPID
  5
9
330
0
100
AcDbSymbolTable
 70
     1
  0
APPID
  5
12
330
9
100
AcDbSymbolTableRecord
100
AcDbRegAppTableRecord
  2
ACAD
 70
     0
  0
ENDTAB
  0
TABLE
  2
DIMSTYLE
  5
A
330
0
100
AcDbSymbolTable
 70
     1
100
AcDbDimStyleTable
  0
DIMSTYLE
105
27
330
A
100
AcDbSymbolTableRecord
100
AcDbDimStyleTableRecord
  2
ISO-25
 70
     0
 41
2.5
 42
0.625
 43
3.75
 44
1.25
 73
     0
 74
     0
 77
     1
 78
     8
140
2.5
141
2.5
143
0.0393700787
147
0.625
171
     3
172
     1
178
     0
271
     2
272
     2
274
     3
278
    44
283
     0
284
     8
340
11
  0
ENDTAB
  0
TABLE
  2
BLOCK_RECORD
  5
1
330
0
100
AcDbSymbolTable
 70
     1
  0
BLOCK_RECORD
  5
1F
330
1
100
AcDbSymbolTableRecord
100
AcDbBlockTableRecord
  2
*Model_Space
340
22
  0
BLOCK_RECORD
  5
1B
330
1
100
AcDbSymbolTableRecord
100
AcDbBlockTableRecord
  2
*Paper_Space
340
1E
  0
BLOCK_RECORD
  5
23
330
1
100
AcDbSymbolTableRecord
100
AcDbBlockTableRecord
  2
*Paper_Space0
340
26
  0
ENDTAB
  0
ENDSEC
  0
SECTION
  2
BLOCKS
  0
BLOCK
  5
20
330
1F
100
AcDbEntity
  8
0
100
AcDbBlockBegin
  2
*Model_Space
 70
     0
 10
0.0
 20
0.0
 30
0.0
  3
*Model_Space
  1

  0
ENDBLK
  5
21
330
1F
100
AcDbEntity
  8
0
100
AcDbBlockEnd
  0
BLOCK
  5
1C
330
1B
100
AcDbEntity
 67
     1
  8
0
100
AcDbBlockBegin
  2
*Paper_Space
 70
     0
 10
0.0
 20
0.0
 30
0.0
  3
*Paper_Space
  1

  0
ENDBLK
  5
1D
330
1B
100
AcDbEntity
 67
     1
  8
0
100
AcDbBlockEnd
  0
BLOCK
  5
24
330
23
100
AcDbEntity
  8
0
100
AcDbBlockBegin
  2
*Paper_Space0
 70
     0
 10
0.0
 20
0.0
 30
0.0
  3
*Paper_Space0
  1

  0
ENDBLK
  5
25
330
23
100
AcDbEntity
  8
0
100
AcDbBlockEnd
  0
ENDSEC
  0
SECTION
  2
ENTITIES
  0
SPLINE
  5
73
330
1F
100
AcDbEntity
  8
0
  6
Continuous
 62
     7
370
    25
100
AcDbSpline
210
0.0
220
0.0
230
1.0
 70
     8
 71
     3
 72
    12
 73
     8
 74
     0
 42
0.000000001
 43
0.00000001
 40
0.0
 40
0.0
 40
0.0
 40
0.0
 40
0.2499999999999996
 40
0.2499999999999996
 40
0.4999999999999997
 40
0.4999999999999997
 40
1.0
 40
1.0
 40
1.0
 40
1.0
 10
109.4027438288811
 20
275.5507416526016
 30
0.0
 10
114.6656016300711
 20
274.140563154893
 30
0.0
 10
119.9720370363969
 20
272.8667401205932
 30
0.0
 10
130.667838572542
 20
270.5853432739884
 30
0.0
 10
136.0571275012458
 20
269.5775640764963
 30
0.0
 10
152.3329192045079
 20
266.9312117506978
 30
0.0
 10
163.3284581004646
 20
265.6679065992137
 30
0.0
 10
174.4027438288811
 20
264.8431321147822
 30
0.0
  0
SPLINE
  5
74
330
1F
100
AcDbEntity
  8
0
  6
Continuous
 62
     7
370
    25
100
AcDbSpline
210
0.0
220
0.0
230
1.0
 70
     8
 71
     3
 72
    70
 73
    66
 74
     0
 42
0.000000001
 43
0.00000001
 40
0.0
 40
0.0
 40
0.0
 40
0.0
 40
0.0312500000000002
 40
0.0312500000000002
 40
0.0625000000000003
 40
0.0625000000000003
 40
0.0937500000000003
 40
0.0937500000000003
 40
0.1250000000000003
 40
0.1250000000000003
 40
0.1562500000000002
 40
0.1562500000000002
 40
0.1875000000000002
 40
0.1875000000000002
 40
0.2187500000000002
 40
0.2187500000000002
 40
0.2500000000000002
 40
0.2500000000000002
 40
0.2812500000000002
 40
0.2812500000000002
 40
0.3125000000000002
 40
0.3125000000000002
 40
0.3437500000000002
 40
0.3437500000000002
 40
0.3750000000000002
 40
0.3750000000000002
 40
0.4062500000000001
 40
0.4062500000000001
 40
0.4375000000000001
 40
0.4375000000000001
 40
0.4687500000000001
 40
0.4687500000000001
 40
0.5000000000000001
 40
0.5000000000000001
 40
0.5312500000000002
 40
0.5312500000000002
 40
0.5625000000000002
 40
0.5625000000000002
 40
0.5937500000000002
 40
0.5937500000000002
 40
0.6250000000000002
 40
0.6250000000000002
 40
0.6562500000000002
 40
0.6562500000000002
 40
0.6875000000000001
 40
0.6875000000000001
 40
0.7187500000000001
 40
0.7187500000000001
 40
0.7500000000000001
 40
0.7500000000000001
 40
0.7812500000000001
 40
0.7812500000000001
 40
0.8125000000000001
 40
0.8125000000000001
 40
0.84375
 40
0.84375
 40
0.875
 40
0.875
 40
0.90625
 40
0.90625
 40
0.9375
 40
0.9375
 40
0.96875
 40
0.96875
 40
1.0
 40
1.0
 40
1.0
 40
1.0
 10
174.4027438288811
 20
264.8431321147822
 30
0.0
 10
177.0337143252517
 20
265.4725046522282
 30
0.0
 10
179.1659494981433
 20
266.2272797488837
 30
0.0
 10
182.4698544637725
 20
267.9809684310236
 30
0.0
 10
183.6418556994766
 20
268.9798205234067
 30
0.0
 10
185.1237405376257
 20
271.2028919412346
 30
0.0
 10
185.4339555830373
 20
272.4270497735779
 30
0.0
 10
185.3416520926532
 20
275.0718245686271
 30
0.0
 10
184.9395241375765
 20
276.4923816687993
 30
0.0
 10
183.6125659860254
 20
279.4927453103668
 30
0.0
 10
182.6882889635493
 20
281.0724964723105
 30
0.0
 10
180.5331055513095
 20
284.3474531996908
 30
0.0
 10
179.3027527264788
 20
286.042603396455
 30
0.0
 10
176.7606032174942
 20
289.4996299903392
 30
0.0
 10
175.449315886965
 20
291.2614512250245
 30
0.0
 10
172.9632143615034
 20
294.7998185078534
 30
0.0
 10
171.7885376812615
 20
296.5763111281253
 30
0.0
 10
169.7764730769124
 20
300.0903760717299
 30
0.0
 10
168.9392122969421
 20
301.8278950155676
 30
0.0
 10
167.7825335787941
 20
305.2103221056976
 30
0.0
 10
167.4632669577025
 20
306.8551768027294
 30
0.0
 10
167.4989635661628
 20
310.000141119652
 30
0.0
 10
167.8549448402502
 20
311.5001947888243
 30
0.0
 10
169.3587265655322
 20
314.3066115931088
 30
0.0
 10
170.5076481143606
 20
315.6129184800818
 30
0.0
 10
173.6416760088101
 20
317.9877748188536
 30
0.0
 10
175.6278990228332
 20
319.056268009241
 30
0.0
 10
180.3738516502647
 20
320.9179967052629
 30
0.0
 10
183.1328557743326
 20
321.7111704295038
 30
0.0
 10
189.237669186989
 20
322.9930639412122
 30
0.0
 10
192.5820829642733
 20
323.481719939581
 30
0.0
 10
199.5859435263175
 20
324.1355906898249
 30
0.0
 10
203.2439947997732
 20
324.3007416526017
 30
0.0
 10
210.561492857989
 20
324.3007416526016
 30
0.0
 10
214.2195441314447
 20
324.135590689825
 30
0.0
 10
221.223404693489
 20
323.4817199395811
 30
0.0
 10
224.5678184707733
 20
322.9930639412122
 30
0.0
 10
230.6726318834297
 20
321.7111704295038
 30
0.0
 10
233.4316360074976
 20
320.9179967052628
 30
0.0
 10
238.1775886349292
 20
319.0562680092409
 30
0.0
 10
240.1638116489523
 20
317.9877748188534
 30
0.0
 10
243.2978395434018
 20
315.6129184800818
 30
0.0
 10
244.4467610922303
 20
314.3066115931089
 30
0.0
 10
245.9505428175124
 20
311.5001947888244
 30
0.0
 10
246.3065240915998
 20
310.000141119652
 30
0.0
 10
246.3422207000603
 20
306.8551768027295
 30
0.0
 10
246.0229540789687
 20
305.2103221056977
 30
0.0
 10
244.8662753608206
 20
301.8278950155679
 30
0.0
 10
244.0290145808503
 20
300.0903760717302
 30
0.0
 10
242.0169499765012
 20
296.5763111281257
 30
0.0
 10
240.8422732962594
 20
294.7998185078538
 30
0.0
 10
238.3561717707977
 20
291.261451225025
 30
0.0
 10
237.0448844402685
 20
289.4996299903397
 30
0.0
 10
234.5027349312838
 20
286.0426033964556
 30
0.0
 10
233.272382106453
 20
284.3474531996914
 30
0.0
 10
231.1171986942132
 20
281.0724964723109
 30
0.0
 10
230.1929216717369
 20
279.4927453103673
 30
0.0
 10
228.8659635201858
 20
276.4923816687997
 30
0.0
 10
228.463835565109
 20
275.0718245686274
 30
0.0
 10
228.3715320747249
 20
272.4270497735782
 30
0.0
 10
228.6817471201365
 20
271.2028919412348
 30
0.0
 10
230.1636319582856
 20
268.9798205234067
 30
0.0
 10
231.3356331939898
 20
267.9809684310236
 30
0.0
 10
234.6395381596189
 20
266.2272797488836
 30
0.0
 10
236.7717733325105
 20
265.4725046522282
 30
0.0
 10
239.4027438288811
 20
264.8431321147822
 30
0.0
  0
SPLINE
  5
75
330
1F
100
AcDbEntity
  8
0
  6
Continuous
 62
     7
370
    25
100
AcDbSpline
210
0.0
220
0.0
230
1.0
 70
     8
 71
     3
 72
    12
 73
     8
 74
     0
 42
0.000000001
 43
0.00000001
 40
0.0
 40
0.0
 40
0.0
 40
0.0
 40
0.4999999999999999
 40
0.4999999999999999
 40
0.75
 40
0.75
 40
1.0
 40
1.0
 40
1.0
 40
1.0
 10
239.4027438288811
 20
264.8431321147829
 30
0.0
 10
250.4770295572974
 20
265.6679065992144
 30
0.0
 10
261.4725684532547
 20
266.9312117506985
 30
0.0
 10
277.7483601565169
 20
269.5775640764968
 30
0.0
 10
283.1376490852207
 20
270.5853432739887
 30
0.0
 10
293.8334506213658
 20
272.8667401205934
 30
0.0
 10
299.1398860276915
 20
274.1405631548931
 30
0.0
 10
304.4027438288811
 20
275.5507416526016
 30
0.0
  0
SPLINE
  5
76
330
1F
100
AcDbEntity
  8
0
  6
Continuous
 62
     7
370
    25
100
AcDbSpline
210
0.0
220
0.0
230
1.0
 70
     8
 71
     3
 72
    12
 73
     8
 74
     0
 42
0.000000001
 43
0.00000001
 40
0.0
 40
0.0
 40
0.0
 40
0.0
 40
0.25
 40
0.25
 40
0.5
 40
0.5
 40
1.0
 40
1.0
 40
1.0
 40
1.0
 10
304.4027438288811
 20
275.5507416526016
 30
0.0
 10
302.9925653311726
 20
270.2878838514117
 30
0.0
 10
301.7187422968728
 20
264.9814484450858
 30
0.0
 10
299.4373454502679
 20
254.2856469089407
 30
0.0
 10
298.4295662527759
 20
248.8963579802369
 30
0.0
 10
295.7832139269774
 20
232.6205662769748
 30
0.0
 10
294.5199087754931
 20
221.6250273810178
 30
0.0
 10
293.6951342910618
 20
210.5507416526016
 30
0.0
  0
SPLINE
  5
77
330
1F
100
AcDbEntity
  8
0
  6
Continuous
 62
     7
370
    25
100
AcDbSpline
210
0.0
220
0.0
230
1.0
 70
     8
 71
     3
 72
    70
 73
    66
 74
     0
 42
0.000000001
 43
0.00000001
 40
0.0
 40
0.0
 40
0.0
 40
0.0
 40
0.0312499999999998
 40
0.0312499999999998
 40
0.0624999999999997
 40
0.0624999999999997
 40
0.0937499999999996
 40
0.0937499999999996
 40
0.1249999999999994
 40
0.1249999999999994
 40
0.1562499999999996
 40
0.1562499999999996
 40
0.1874999999999996
 40
0.1874999999999996
 40
0.2187499999999996
 40
0.2187499999999996
 40
0.2499999999999996
 40
0.2499999999999996
 40
0.2812499999999996
 40
0.2812499999999996
 40
0.3124999999999996
 40
0.3124999999999996
 40
0.3437499999999996
 40
0.3437499999999996
 40
0.3749999999999996
 40
0.3749999999999996
 40
0.4062499999999997
 40
0.4062499999999997
 40
0.4374999999999997
 40
0.4374999999999997
 40
0.4687499999999997
 40
0.4687499999999997
 40
0.4999999999999997
 40
0.4999999999999997
 40
0.5312499999999998
 40
0.5312499999999998
 40
0.5624999999999998
 40
0.5624999999999998
 40
0.5937499999999998
 40
0.5937499999999998
 40
0.6249999999999998
 40
0.6249999999999998
 40
0.6562499999999998
 40
0.6562499999999998
 40
0.6874999999999999
 40
0.6874999999999999
 40
0.7187499999999999
 40
0.7187499999999999
 40
0.7499999999999999
 40
0.7499999999999999
 40
0.7812499999999999
 40
0.7812499999999999
 40
0.8124999999999999
 40
0.8124999999999999
 40
0.84375
 40
0.84375
 40
0.875
 40
0.875
 40
0.90625
 40
0.90625
 40
0.9375
 40
0.9375
 40
0.96875
 40
0.96875
 40
1.0
 40
1.0
 40
1.0
 40
1.0
 10
293.6951342910618
 20
210.5507416526015
 30
0.0
 10
294.3245068285077
 20
207.919771156231
 30
0.0
 10
295.0792819251631
 20
205.7875359833394
 30
0.0
 10
296.8329706073031
 20
202.4836310177103
 30
0.0
 10
297.8318226996862
 20
201.3116297820061
 30
0.0
 10
300.0548941175141
 20
199.829744943857
 30
0.0
 10
301.2790519498575
 20
199.5195298984453
 30
0.0
 10
303.9238267449066
 20
199.6118333888293
 30
0.0
 10
305.3443838450789
 20
200.0139613439061
 30
0.0
 10
308.3447474866463
 20
201.3409194954571
 30
0.0
 10
309.92449864859
 20
202.2651965179333
 30
0.0
 10
313.1994553759704
 20
204.4203799301731
 30
0.0
 10
314.8946055727346
 20
205.6507327550039
 30
0.0
 10
318.3516321666187
 20
208.1928822639885
 30
0.0
 10
320.1134534013041
 20
209.5041695945176
 30
0.0
 10
323.651820684133
 20
211.9902711199794
 30
0.0
 10
325.4283133044049
 20
213.1649478002213
 30
0.0
 10
328.9423782480094
 20
215.1770124045704
 30
0.0
 10
330.6798971918471
 20
216.0142731845407
 30
0.0
 10
334.0623242819771
 20
217.1709519026888
 30
0.0
 10
335.7071789790091
 20
217.4902185237804
 30
0.0
 10
338.8521432959316
 20
217.45452191532
 30
0.0
 10
340.3521969651039
 20
217.0985406412327
 30
0.0
 10
343.1586137693885
 20
215.5947589159506
 30
0.0
 10
344.4649206563614
 20
214.4458373671222
 30
0.0
 10
346.8397769951331
 20
211.3118094726727
 30
0.0
 10
347.9082701855205
 20
209.3255864586496
 30
0.0
 10
349.7699988815424
 20
204.5796338312181
 30
0.0
 10
350.5631726057834
 20
201.8206297071502
 30
0.0
 10
351.8450661174917
 20
195.7158162944938
 30
0.0
 10
352.3337221158606
 20
192.3714025172095
 30
0.0
 10
352.9875928661044
 20
185.3675419551652
 30
0.0
 10
353.1527438288811
 20
181.7094906817094
 30
0.0
 10
353.1527438288811
 20
174.3919926234937
 30
0.0
 10
352.9875928661044
 20
170.733941350038
 30
0.0
 10
352.3337221158604
 20
163.7300807879936
 30
0.0
 10
351.8450661174915
 20
160.3856670107093
 30
0.0
 10
350.5631726057832
 20
154.2808535980529
 30
0.0
 10
349.7699988815422
 20
151.521849473985
 30
0.0
 10
347.9082701855203
 20
146.7758968465534
 30
0.0
 10
346.8397769951329
 20
144.7896738325303
 30
0.0
 10
344.4649206563611
 20
141.6556459380808
 30
0.0
 10
343.1586137693884
 20
140.5067243892523
 30
0.0
 10
340.3521969651038
 20
139.0029426639702
 30
0.0
 10
338.8521432959315
 20
138.6469613898828
 30
0.0
 10
335.707178979009
 20
138.6112647814224
 30
0.0
 10
334.0623242819772
 20
138.930531402514
 30
0.0
 10
330.6798971918474
 20
140.087210120662
 30
0.0
 10
328.9423782480097
 20
140.9244709006323
 30
0.0
 10
325.4283133044052
 20
142.9365355049814
 30
0.0
 10
323.6518206841334
 20
144.1112121852232
 30
0.0
 10
320.1134534013045
 20
146.597313710685
 30
0.0
 10
318.3516321666192
 20
147.9086010412141
 30
0.0
 10
314.8946055727351
 20
150.4507505501987
 30
0.0
 10
313.199455375971
 20
151.6811033750296
 30
0.0
 10
309.9244986485905
 20
153.8362867872694
 30
0.0
 10
308.3447474866467
 20
154.7605638097456
 30
0.0
 10
305.3443838450792
 20
156.0875219612967
 30
0.0
 10
303.9238267449069
 20
156.4896499163735
 30
0.0
 10
301.2790519498577
 20
156.5819534067576
 30
0.0
 10
300.0548941175143
 20
156.271738361346
 30
0.0
 10
297.8318226996863
 20
154.789853523197
 30
0.0
 10
296.8329706073032
 20
153.6178522874928
 30
0.0
 10
295.0792819251631
 20
150.3139473218638
 30
0.0
 10
294.3245068285077
 20
148.1817121489721
 30
0.0
 10
293.6951342910618
 20
145.5507416526016
 30
0.0
  0
SPLINE
  5
78
330
1F
100
AcDbEntity
  8
0
  6
Continuous
 62
     7
370
    25
100
AcDbSpline
210
0.0
220
0.0
230
1.0
 70
     8
 71
     3
 72
    12
 73
     8
 74
     0
 42
0.000000001
 43
0.00000001
 40
0.0
 40
0.0
 40
0.0
 40
0.0
 40
0.5
 40
0.5
 40
0.75
 40
0.75
 40
1.0
 40
1.0
 40
1.0
 40
1.0
 10
293.6951342910624
 20
145.5507416526016
 30
0.0
 10
294.5199087754938
 20
134.4764559241855
 30
0.0
 10
295.783213926978
 20
123.4809170282282
 30
0.0
 10
298.4295662527763
 20
107.2051253249659
 30
0.0
 10
299.4373454502683
 20
101.8158363962621
 30
0.0
 10
301.718742296873
 20
91.120034860117
 30
0.0
 10
302.9925653311726
 20
85.8135994537912
 30
0.0
 10
304.4027438288811
 20
80.55074165260159
 30
0.0
  0
SPLINE
  5
79
330
1F
100
AcDbEntity
  8
0
  6
Continuous
 62
     7
370
    25
100
AcDbSpline
210
0.0
220
0.0
230
1.0
 70
     8
 71
     3
 72
    12
 73
     8
 74
     0
 42
0.000000001
 43
0.00000001
 40
0.0
 40
0.0
 40
0.0
 40
0.0
 40
0.25
 40
0.25
 40
0.5
 40
0.5
 40
1.0
 40
1.0
 40
1.0
 40
1.0
 10
304.4027438288811
 20
80.55074165260159
 30
0.0
 10
299.1398860276912
 20
79.14056315489303
 30
0.0
 10
293.8334506213653
 20
77.86674012059335
 30
0.0
 10
283.1376490852203
 20
75.58534327398849
 30
0.0
 10
277.7483601565165
 20
74.57756407649636
 30
0.0
 10
261.4725684532543
 20
71.93121175069788
 30
0.0
 10
250.4770295572977
 20
70.66790659921365
 30
0.0
 10
239.4027438288811
 20
69.84313211478221
 30
0.0
  0
SPLINE
  5
7A
330
1F
100
AcDbEntity
  8
0
  6
Continuous
 62
     7
370
    25
100
AcDbSpline
210
0.0
220
0.0
230
1.0
 70
     8
 71
     3
 72
    70
 73
    66
 74
     0
 42
0.000000001
 43
0.00000001
 40
0.0
 40
0.0
 40
0.0
 40
0.0
 40
0.03125
 40
0.03125
 40
0.0625
 40
0.0625
 40
0.0937500000000001
 40
0.0937500000000001
 40
0.1250000000000001
 40
0.1250000000000001
 40
0.1562500000000001
 40
0.1562500000000001
 40
0.1875000000000001
 40
0.1875000000000001
 40
0.2187500000000001
 40
0.2187500000000001
 40
0.2500000000000002
 40
0.2500000000000002
 40
0.2812500000000002
 40
0.2812500000000002
 40
0.3125000000000002
 40
0.3125000000000002
 40
0.3437500000000002
 40
0.3437500000000002
 40
0.3750000000000002
 40
0.3750000000000002
 40
0.4062500000000002
 40
0.4062500000000002
 40
0.4375000000000003
 40
0.4375000000000003
 40
0.4687500000000003
 40
0.4687500000000003
 40
0.5000000000000003
 40
0.5000000000000003
 40
0.5312500000000002
 40
0.5312500000000002
 40
0.5625000000000002
 40
0.5625000000000002
 40
0.5937500000000002
 40
0.5937500000000002
 40
0.6250000000000002
 40
0.6250000000000002
 40
0.6562500000000002
 40
0.6562500000000002
 40
0.6875000000000001
 40
0.6875000000000001
 40
0.7187500000000001
 40
0.7187500000000001
 40
0.75
 40
0.75
 40
0.78125
 40
0.78125
 40
0.8125
 40
0.8125
 40
0.84375
 40
0.84375
 40
0.8749999999999999
 40
0.8749999999999999
 40
0.90625
 40
0.90625
 40
0.9375
 40
0.9375
 40
0.96875
 40
0.96875
 40
1.0
 40
1.0
 40
1.0
 40
1.0
 10
239.4027438288811
 20
69.84313211478221
 30
0.0
 10
236.7717733325105
 20
70.47250465222815
 30
0.0
 10
234.6395381596189
 20
71.2272797488836
 30
0.0
 10
231.3356331939898
 20
72.9809684310236
 30
0.0
 10
230.1636319582856
 20
73.97982052340669
 30
0.0
 10
228.6817471201365
 20
76.20289194123461
 30
0.0
 10
228.3715320747249
 20
77.42704977357793
 30
0.0
 10
228.4638355651089
 20
80.07182456862701
 30
0.0
 10
228.8659635201857
 20
81.49238166879928
 30
0.0
 10
230.1929216717367
 20
84.49274531036674
 30
0.0
 10
231.1171986942129
 20
86.0724964723104
 30
0.0
 10
233.2723821064527
 20
89.34745319969085
 30
0.0
 10
234.5027349312834
 20
91.04260339645505
 30
0.0
 10
237.044884440268
 20
94.4996299903392
 30
0.0
 10
238.3561717707971
 20
96.26145122502446
 30
0.0
 10
240.8422732962589
 20
99.79981850785347
 30
0.0
 10
242.0169499765007
 20
101.5763111281253
 30
0.0
 10
244.0290145808498
 20
105.0903760717299
 30
0.0
 10
244.8662753608201
 20
106.8278950155677
 30
0.0
 10
246.0229540789681
 20
110.2103221056976
 30
0.0
 10
246.3422207000598
 20
111.8551768027295
 30
0.0
 10
246.3065240915994
 20
115.000141119652
 30
0.0
 10
245.950542817512
 20
116.5001947888244
 30
0.0
 10
244.44676109223
 20
119.3066115931089
 30
0.0
 10
243.2978395434015
 20
120.6129184800818
 30
0.0
 10
240.1638116489521
 20
122.9877748188536
 30
0.0
 10
238.177588634929
 20
124.056268009241
 30
0.0
 10
233.4316360074975
 20
125.9179967052629
 30
0.0
 10
230.6726318834296
 20
126.7111704295039
 30
0.0
 10
224.5678184707732
 20
127.9930639412121
 30
0.0
 10
221.223404693489
 20
128.481719939581
 30
0.0
 10
214.2195441314447
 20
129.1355906898248
 30
0.0
 10
210.561492857989
 20
129.3007416526015
 30
0.0
 10
203.2439947997732
 20
129.3007416526015
 30
0.0
 10
199.5859435263175
 20
129.1355906898248
 30
0.0
 10
192.5820829642732
 20
128.4817199395808
 30
0.0
 10
189.2376691869889
 20
127.9930639412119
 30
0.0
 10
183.1328557743325
 20
126.7111704295037
 30
0.0
 10
180.3738516502646
 20
125.9179967052626
 30
0.0
 10
175.627899022833
 20
124.0562680092408
 30
0.0
 10
173.6416760088099
 20
122.9877748188533
 30
0.0
 10
170.5076481143604
 20
120.6129184800816
 30
0.0
 10
169.3587265655319
 20
119.3066115931088
 30
0.0
 10
167.8549448402498
 20
116.5001947888243
 30
0.0
 10
167.4989635661624
 20
115.000141119652
 30
0.0
 10
167.4632669577019
 20
111.8551768027295
 30
0.0
 10
167.7825335787935
 20
110.2103221056977
 30
0.0
 10
168.9392122969416
 20
106.8278950155678
 30
0.0
 10
169.7764730769119
 20
105.0903760717301
 30
0.0
 10
171.7885376812609
 20
101.5763111281257
 30
0.0
 10
172.9632143615027
 20
99.79981850785381
 30
0.0
 10
175.4493158869645
 20
96.26145122502494
 30
0.0
 10
176.7606032174937
 20
94.49962999033966
 30
0.0
 10
179.3027527264784
 20
91.04260339645562
 30
0.0
 10
180.5331055513092
 20
89.34745319969142
 30
0.0
 10
182.688288963549
 20
86.07249647231093
 30
0.0
 10
183.6125659860252
 20
84.49274531036725
 30
0.0
 10
184.9395241375764
 20
81.4923816687998
 30
0.0
 10
185.3416520926532
 20
80.07182456862736
 30
0.0
 10
185.4339555830373
 20
77.42704977357819
 30
0.0
 10
185.1237405376257
 20
76.20289194123477
 30
0.0
 10
183.6418556994766
 20
73.97982052340679
 30
0.0
 10
182.4698544637724
 20
72.98096843102364
 30
0.0
 10
179.1659494981434
 20
71.22727974888366
 30
0.0
 10
177.0337143252517
 20
70.47250465222815
 30
0.0
 10
174.4027438288811
 20
69.84313211478221
 30
0.0
  0
LINE
  5
7B
330
1F
100
AcDbEntity
  8
0
  6
Continuous
 62
     7
370
    25
100
AcDbLine
 10
181.4271342911
 20
133.5251321148
 30
0.0
 11
270.3271342911
 21
133.5251321148
 31
0.0
  0
LINE
  5
7C
330
1F
100
AcDbEntity
  8
0
  6
Continuous
 62
     7
370
    25
100
AcDbLine
 10
270.3271342911
 20
260.5251321148
 30
0.0
 11
270.3271342911
 21
133.5251321148
 31
0.0
  0
LINE
  5
7D
330
1F
100
AcDbEntity
  8
0
  6
Continuous
 62
     7
370
    25
100
AcDbLine
 10
181.4271342911
 20
260.5251321148
 30
0.0
 11
270.3271342911
 21
260.5251321148
 31
0.0
  0
LINE
  5
7E
330
1F
100
AcDbEntity
  8
0
  6
Continuous
 62
     7
370
    25
100
AcDbLine
 10
181.4271342911
 20
260.5251321148
 30
0.0
 11
181.4271342911
 21
133.5251321148
 31
0.0
  0
SPLINE
  5
7F
330
1F
100
AcDbEntity
  8
0
  6
Continuous
 62
     7
370
    25
100
AcDbSpline
210
0.0
220
0.0
230
1.0
 70
     8
 71
     3
 72
    12
 73
     8
 74
     0
 42
0.000000001
 43
0.00000001
 40
0.0
 40
0.0
 40
0.0
 40
0.0
 40
0.5000000000000006
 40
0.5000000000000006
 40
0.7500000000000007
 40
0.7500000000000007
 40
1.0
 40
1.0
 40
1.0
 40
1.0
 10
174.4027438288811
 20
69.84313211478288
 30
0.0
 10
163.3284581004649
 20
70.6679065992144
 30
0.0
 10
152.3329192045075
 20
71.93121175069855
 30
0.0
 10
136.0571275012454
 20
74.57756407649681
 30
0.0
 10
130.6678385725415
 20
75.58534327398873
 30
0.0
 10
119.9720370363966
 20
77.86674012059343
 30
0.0
 10
114.6656016300707
 20
79.14056315489313
 30
0.0
 10
109.4027438288811
 20
80.55074165260159
 30
0.0
  0
SPLINE
  5
80
330
1F
100
AcDbEntity
  8
0
  6
Continuous
 62
     7
370
    25
100
AcDbSpline
210
0.0
220
0.0
230
1.0
 70
     8
 71
     3
 72
    12
 73
     8
 74
     0
 42
0.000000001
 43
0.00000001
 40
0.0
 40
0.0
 40
0.0
 40
0.0
 40
0.25
 40
0.25
 40
0.5
 40
0.5
 40
1.0
 40
1.0
 40
1.0
 40
1.0
 10
109.4027438288811
 20
80.55074165260159
 30
0.0
 10
107.9925653311725
 20
85.8135994537915
 30
0.0
 10
106.7187422968728
 20
91.12003486011737
 30
0.0
 10
104.437345450268
 20
101.8158363962625
 30
0.0
 10
103.4295662527759
 20
107.2051253249663
 30
0.0
 10
100.7832139269774
 20
123.4809170282285
 30
0.0
 10
99.5199087754931
 20
134.4764559241854
 30
0.0
 10
98.69513429106178
 20
145.5507416526016
 30
0.0
  0
SPLINE
  5
81
330
1F
100
AcDbEntity
  8
0
  6
Continuous
 62
     7
370
    25
100
AcDbSpline
210
0.0
220
0.0
230
1.0
 70
     8
 71
     3
 72
    70
 73
    66
 74
     0
 42
0.000000001
 43
0.00000001
 40
0.0
 40
0.0
 40
0.0
 40
0.0
 40
0.03125
 40
0.03125
 40
0.0625
 40
0.0625
 40
0.09375
 40
0.09375
 40
0.125
 40
0.125
 40
0.15625
 40
0.15625
 40
0.1875
 40
0.1875
 40
0.21875
 40
0.21875
 40
0.25
 40
0.25
 40
0.28125
 40
0.28125
 40
0.3125
 40
0.3125
 40
0.34375
 40
0.34375
 40
0.375
 40
0.375
 40
0.40625
 40
0.40625
 40
0.4375
 40
0.4375
 40
0.46875
 40
0.46875
 40
0.5
 40
0.5
 40
0.53125
 40
0.53125
 40
0.5625
 40
0.5625
 40
0.59375
 40
0.59375
 40
0.625
 40
0.625
 40
0.65625
 40
0.65625
 40
0.6875
 40
0.6875
 40
0.71875
 40
0.71875
 40
0.75
 40
0.75
 40
0.78125
 40
0.78125
 40
0.8125
 40
0.8125
 40
0.84375
 40
0.84375
 40
0.875
 40
0.875
 40
0.90625
 40
0.90625
 40
0.9375
 40
0.9375
 40
0.96875
 40
0.96875
 40
1.0
 40
1.0
 40
1.0
 40
1.0
 10
98.69513429106178
 20
145.5507416526016
 30
0.0
 10
99.32450682850771
 20
148.1817121489721
 30
0.0
 10
100.0792819251632
 20
150.3139473218638
 30
0.0
 10
101.8329706073031
 20
153.6178522874929
 30
0.0
 10
102.8318226996862
 20
154.7898535231971
 30
0.0
 10
105.054894117514
 20
156.2717383613462
 30
0.0
 10
106.2790519498575
 20
156.5819534067579
 30
0.0
 10
108.9238267449065
 20
156.4896499163738
 30
0.0
 10
110.3443838450788
 20
156.0875219612971
 30
0.0
 10
113.3447474866462
 20
154.760563809746
 30
0.0
 10
114.9244986485899
 20
153.8362867872698
 30
0.0
 10
118.1994553759704
 20
151.6811033750301
 30
0.0
 10
119.8946055727346
 20
150.4507505501993
 30
0.0
 10
123.3516321666187
 20
147.9086010412146
 30
0.0
 10
125.113453401304
 20
146.5973137106855
 30
0.0
 10
128.651820684133
 20
144.1112121852237
 30
0.0
 10
130.4283133044049
 20
142.9365355049819
 30
0.0
 10
133.9423782480094
 20
140.9244709006327
 30
0.0
 10
135.6798971918471
 20
140.0872101206624
 30
0.0
 10
139.0623242819771
 20
138.9305314025143
 30
0.0
 10
140.707178979009
 20
138.6112647814227
 30
0.0
 10
143.8521432959314
 20
138.6469613898831
 30
0.0
 10
145.3521969651038
 20
139.0029426639704
 30
0.0
 10
148.1586137693883
 20
140.5067243892524
 30
0.0
 10
149.4649206563612
 20
141.6556459380809
 30
0.0
 10
151.839776995133
 20
144.7896738325304
 30
0.0
 10
152.9082701855205
 20
146.7758968465535
 30
0.0
 10
154.7699988815423
 20
151.521849473985
 30
0.0
 10
155.5631726057833
 20
154.2808535980529
 30
0.0
 10
156.8450661174916
 20
160.3856670107093
 30
0.0
 10
157.3337221158605
 20
163.7300807879936
 30
0.0
 10
157.9875928661045
 20
170.7339413500379
 30
0.0
 10
158.1527438288811
 20
174.3919926234937
 30
0.0
 10
158.1527438288811
 20
181.7094906817094
 30
0.0
 10
157.9875928661045
 20
185.3675419551652
 30
0.0
 10
157.3337221158605
 20
192.3714025172095
 30
0.0
 10
156.8450661174917
 20
195.7158162944938
 30
0.0
 10
155.5631726057834
 20
201.8206297071502
 30
0.0
 10
154.7699988815424
 20
204.5796338312181
 30
0.0
 10
152.9082701855204
 20
209.3255864586497
 30
0.0
 10
151.839776995133
 20
211.3118094726728
 30
0.0
 10
149.4649206563613
 20
214.4458373671224
 30
0.0
 10
148.1586137693884
 20
215.5947589159509
 30
0.0
 10
145.3521969651039
 20
217.0985406412329
 30
0.0
 10
143.8521432959315
 20
217.4545219153204
 30
0.0
 10
140.7071789790091
 20
217.4902185237808
 30
0.0
 10
139.0623242819773
 20
217.1709519026892
 30
0.0
 10
135.6798971918474
 20
216.0142731845411
 30
0.0
 10
133.9423782480096
 20
215.1770124045709
 30
0.0
 10
130.4283133044052
 20
213.1649478002217
 30
0.0
 10
128.6518206841333
 20
211.99027111998
 30
0.0
 10
125.1134534013044
 20
209.5041695945182
 30
0.0
 10
123.3516321666192
 20
208.192882263989
 30
0.0
 10
119.8946055727351
 20
205.6507327550044
 30
0.0
 10
118.1994553759709
 20
204.4203799301736
 30
0.0
 10
114.9244986485905
 20
202.2651965179338
 30
0.0
 10
113.3447474866468
 20
201.3409194954576
 30
0.0
 10
110.3443838450792
 20
200.0139613439064
 30
0.0
 10
108.9238267449069
 20
199.6118333888296
 30
0.0
 10
106.2790519498578
 20
199.5195298984455
 30
0.0
 10
105.0548941175144
 20
199.8297449438572
 30
0.0
 10
102.8318226996863
 20
201.3116297820062
 30
0.0
 10
101.8329706073032
 20
202.4836310177104
 30
0.0
 10
100.0792819251631
 20
205.7875359833394
 30
0.0
 10
99.32450682850771
 20
207.9197711562311
 30
0.0
 10
98.69513429106178
 20
210.5507416526016
 30
0.0
  0
SPLINE
  5
82
330
1F
100
AcDbEntity
  8
0
  6
Continuous
 62
     7
370
    25
100
AcDbSpline
210
0.0
220
0.0
230
1.0
 70
     8
 71
     3
 72
    12
 73
     8
 74
     0
 42
0.000000001
 43
0.00000001
 40
0.0
 40
0.0
 40
0.0
 40
0.0
 40
0.4999999999999999
 40
0.4999999999999999
 40
0.75
 40
0.75
 40
1.0
 40
1.0
 40
1.0
 40
1.0
 10
98.69513429106242
 20
210.5507416526016
 30
0.0
 10
99.5199087754938
 20
221.6250273810177
 30
0.0
 10
100.7832139269781
 20
232.6205662769749
 30
0.0
 10
103.4295662527763
 20
248.8963579802373
 30
0.0
 10
104.4373454502682
 20
254.2856469089411
 30
0.0
 10
106.7187422968729
 20
264.9814484450862
 30
0.0
 10
107.9925653311727
 20
270.287883851412
 30
0.0
 10
109.4027438288811
 20
275.5507416526016
 30
0.0
  0
LINE
  5
83
330
1F
100
AcDbEntity
  8
0
  6
Continuous
 62
     7
370
    25
100
AcDbLine
 10
265.2471342911
 20
138.6051321148
 30
0.0
 11
186.5071342911
 21
138.6051321148
 31
0.0
  0
LINE
  5
84
330
1F
100
AcDbEntity
  8
0
  6
Continuous
 62
     7
370
    25
100
AcDbLine
 10
186.5071342911
 20
138.6051321148
 30
0.0
 11
186.5071342911
 21
255.4451321148
 31
0.0
  0
LINE
  5
85
330
1F
100
AcDbEntity
  8
0
  6
Continuous
 62
     7
370
    25
100
AcDbLine
 10
265.2471342911
 20
255.4451321148
 30
0.0
 11
186.5071342911
 21
255.4451321148
 31
0.0
  0
LINE
  5
86
330
1F
100
AcDbEntity
  8
0
  6
Continuous
 62
     7
370
    25
100
AcDbLine
 10
265.2471342911
 20
138.6051321148
 30
0.0
 11
265.2471342911
 21
255.4451321148
 31
0.0
  0
ENDSEC
  0
SECTION
  2
OBJECTS
  0
DICTIONARY
  5
C
330
0
100
AcDbDictionary
281
     1
  3
ACAD_GROUP
350
D
  3
ACAD_LAYOUT
350
1A
  3
ACAD_MLINESTYLE
350
17
  3
ACAD_PLOTSETTINGS
350
19
  3
ACAD_PLOTSTYLENAME
350
E
  3
ACAD_SCALELIST
350
47
  0
DICTIONARY
  5
D
102
{ACAD_REACTORS
330
C
102
}
330
C
100
AcDbDictionary
281
     1
  0
DICTIONARY
  5
1A
102
{ACAD_REACTORS
330
C
102
}
330
C
100
AcDbDictionary
281
     1
  3
Layout1
350
1E
  3
Layout2
350
26
  3
Model
350
22
  0
DICTIONARY
  5
17
102
{ACAD_REACTORS
330
C
102
}
330
C
100
AcDbDictionary
281
     1
  3
Standard
350
18
  0
DICTIONARY
  5
19
102
{ACAD_REACTORS
330
C
102
}
330
C
100
AcDbDictionary
281
     1
  0
ACDBDICTIONARYWDFLT
  5
E
102
{ACAD_REACTORS
330
C
102
}
330
C
100
AcDbDictionary
281
     1
  3
Normal
350
F
100
AcDbDictionaryWithDefault
340
F
  0
DICTIONARY
  5
47
102
{ACAD_REACTORS
330
C
102
}
330
C
100
AcDbDictionary
281
     1
  3
A0
350
48
  3
A1
350
49
  3
A2
350
4A
  3
A3
350
4B
  3
A4
350
4C
  3
A5
350
4D
  3
A6
350
4E
  3
A7
350
4F
  3
A8
350
50
  3
A9
350
51
  3
B0
350
52
  3
B1
350
53
  3
B2
350
54
  3
B3
350
55
  3
B4
350
56
  3
B5
350
57
  3
B6
350
58
  3
B7
350
59
  3
B8
350
5A
  3
B9
350
5B
  3
C0
350
5C
  3
C1
350
5D
  3
C2
350
5E
  3
C3
350
5F
  3
C4
350
60
  3
C5
350
61
  3
C6
350
62
  3
C7
350
63
  3
C8
350
64
  3
C9
350
65
  3
D0
350
66
  3
D1
350
67
  3
D2
350
68
  0
LAYOUT
  5
1E
102
{ACAD_REACTORS
330
1A
102
}
330
1A
100
AcDbPlotSettings
  1

  2
none_device
  4

  6

 40
0.0
 41
0.0
 42
0.0
 43
0.0
 44
0.0
 45
0.0
 46
0.0
 47
0.0
 48
0.0
 49
0.0
140
0.0
141
0.0
142
1.0
143
1.0
 70
   688
 72
     1
 73
     0
 74
     5
  7

 75
    16
147
1.0
148
0.0
149
0.0
100
AcDbLayout
  1
Layout1
 70
     1
 71
     1
 10
0.0
 20
0.0
 11
420.0
 21
297.0
 12
0.0
 22
0.0
 32
0.0
 14
1.0000000000E+20
 24
1.0000000000E+20
 34
1.0000000000E+20
 15
-1.0000000000E+20
 25
-1.0000000000E+20
 35
-1.0000000000E+20
146
0.0
 13
0.0
 23
0.0
 33
0.0
 16
1.0
 26
0.0
 36
0.0
 17
0.0
 27
1.0
 37
0.0
 76
     0
330
1B
  0
LAYOUT
  5
26
102
{ACAD_REACTORS
330
1A
102
}
330
1A
100
AcDbPlotSettings
  1

  2
none_device
  4

  6

 40
0.0
 41
0.0
 42
0.0
 43
0.0
 44
0.0
 45
0.0
 46
0.0
 47
0.0
 48
0.0
 49
0.0
140
0.0
141
0.0
142
1.0
143
1.0
 70
   688
 72
     1
 73
     0
 74
     5
  7

 75
    16
147
1.0
148
0.0
149
0.0
100
AcDbLayout
  1
Layout2
 70
     1
 71
     2
 10
0.0
 20
0.0
 11
0.0
 21
0.0
 12
0.0
 22
0.0
 32
0.0
 14
0.0
 24
0.0
 34
0.0
 15
0.0
 25
0.0
 35
0.0
146
0.0
 13
0.0
 23
0.0
 33
0.0
 16
1.0
 26
0.0
 36
0.0
 17
0.0
 27
1.0
 37
0.0
 76
     0
330
23
  0
LAYOUT
  5
22
102
{ACAD_REACTORS
330
1A
102
}
330
1A
100
AcDbPlotSettings
  1

  2
none_device
  4
Letter_(8.50_x_11.00_Inches)
  6

 40
6.35
 41
6.35
 42
6.35000508
 43
6.35000508
 44
215.9
 45
279.4
 46
0.0
 47
0.0
 48
0.0
 49
0.0
140
0.0
141
0.0
142
1.0
143
1.0
 70
  1712
 72
     1
 73
     0
 74
     0
  7

 75
     0
147
1.0
148
0.0
149
0.0
100
AcDbLayout
  1
Model
 70
     1
 71
     0
 10
0.0
 20
0.0
 11
1189.0
 21
841.0
 12
0.0
 22
0.0
 32
0.0
 14
0.0
 24
0.0
 34
0.0
 15
1189.0
 25
841.0
 35
0.0
146
0.0
 13
0.0
 23
0.0
 33
0.0
 16
1.0
 26
0.0
 36
0.0
 17
0.0
 27
1.0
 37
0.0
 76
     0
330
1F
331
29
  0
MLINESTYLE
  5
18
102
{ACAD_REACTORS
330
17
102
}
330
17
100
AcDbMlineStyle
  2
Standard
 70
     0
  3

 62
   256
 51
90.0
 52
90.0
 71
     2
 49
0.5
 62
   256
  6
BYLAYER
 49
-0.5
 62
   256
  6
BYLAYER
  0
ACDBPLACEHOLDER
  5
F
102
{ACAD_REACTORS
330
E
102
}
330
E
  0
SCALE
  5
48
102
{ACAD_REACTORS
330
47
102
}
330
47
100
AcDbScale
 70
     0
300
1:1
140
1.0
141
1.0
290
     1
  0
SCALE
  5
49
102
{ACAD_REACTORS
330
47
102
}
330
47
100
AcDbScale
 70
     0
300
1:2
140
1.0
141
2.0
290
     0
  0
SCALE
  5
4A
102
{ACAD_REACTORS
330
47
102
}
330
47
100
AcDbScale
 70
     0
300
1:4
140
1.0
141
4.0
290
     0
  0
SCALE
  5
4B
102
{ACAD_REACTORS
330
47
102
}
330
47
100
AcDbScale
 70
     0
300
1:5
140
1.0
141
5.0
290
     0
  0
SCALE
  5
4C
102
{ACAD_REACTORS
330
47
102
}
330
47
100
AcDbScale
 70
     0
300
1:8
140
1.0
141
8.0
290
     0
  0
SCALE
  5
4D
102
{ACAD_REACTORS
330
47
102
}
330
47
100
AcDbScale
 70
     0
300
1:10
140
1.0
141
10.0
290
     0
  0
SCALE
  5
4E
102
{ACAD_REACTORS
330
47
102
}
330
47
100
AcDbScale
 70
     0
300
1:16
140
1.0
141
16.0
290
     0
  0
SCALE
  5
4F
102
{ACAD_REACTORS
330
47
102
}
330
47
100
AcDbScale
 70
     0
300
1:20
140
1.0
141
20.0
290
     0
  0
SCALE
  5
50
102
{ACAD_REACTORS
330
47
102
}
330
47
100
AcDbScale
 70
     0
300
1:30
140
1.0
141
30.0
290
     0
  0
SCALE
  5
51
102
{ACAD_REACTORS
330
47
102
}
330
47
100
AcDbScale
 70
     0
300
1:40
140
1.0
141
40.0
290
     0
  0
SCALE
  5
52
102
{ACAD_REACTORS
330
47
102
}
330
47
100
AcDbScale
 70
     0
300
1:50
140
1.0
141
50.0
290
     0
  0
SCALE
  5
53
102
{ACAD_REACTORS
330
47
102
}
330
47
100
AcDbScale
 70
     0
300
1:100
140
1.0
141
100.0
290
     0
  0
SCALE
  5
54
102
{ACAD_REACTORS
330
47
102
}
330
47
100
AcDbScale
 70
     0
300
2:1
140
2.0
141
1.0
290
     0
  0
SCALE
  5
55
102
{ACAD_REACTORS
330
47
102
}
330
47
100
AcDbScale
 70
     0
300
4:1
140
4.0
141
1.0
290
     0
  0
SCALE
  5
56
102
{ACAD_REACTORS
330
47
102
}
330
47
100
AcDbScale
 70
     0
300
8:1
140
8.0
141
1.0
290
     0
  0
SCALE
  5
57
102
{ACAD_REACTORS
330
47
102
}
330
47
100
AcDbScale
 70
     0
300
10:1
140
10.0
141
1.0
290
     0
  0
SCALE
  5
58
102
{ACAD_REACTORS
330
47
102
}
330
47
100
AcDbScale
 70
     0
300
100:1
140
100.0
141
1.0
290
     0
  0
SCALE
  5
59
102
{ACAD_REACTORS
330
47
102
}
330
47
100
AcDbScale
 70
     0
300
1/128" = 1'-0"
140
0.0078125
141
12.0
290
     0
  0
SCALE
  5
5A
102
{ACAD_REACTORS
330
47
102
}
330
47
100
AcDbScale
 70
     0
300
1/64" = 1'-0"
140
0.015625
141
12.0
290
     0
  0
SCALE
  5
5B
102
{ACAD_REACTORS
330
47
102
}
330
47
100
AcDbScale
 70
     0
300
1/32" = 1'-0"
140
0.03125
141
12.0
290
     0
  0
SCALE
  5
5C
102
{ACAD_REACTORS
330
47
102
}
330
47
100
AcDbScale
 70
     0
300
1/16" = 1'-0"
140
0.0625
141
12.0
290
     0
  0
SCALE
  5
5D
102
{ACAD_REACTORS
330
47
102
}
330
47
100
AcDbScale
 70
     0
300
3/32" = 1'-0"
140
0.09375
141
12.0
290
     0
  0
SCALE
  5
5E
102
{ACAD_REACTORS
330
47
102
}
330
47
100
AcDbScale
 70
     0
300
1/8" = 1'-0"
140
0.125
141
12.0
290
     0
  0
SCALE
  5
5F
102
{ACAD_REACTORS
330
47
102
}
330
47
100
AcDbScale
 70
     0
300
3/16" = 1'-0"
140
0.1875
141
12.0
290
     0
  0
SCALE
  5
60
102
{ACAD_REACTORS
330
47
102
}
330
47
100
AcDbScale
 70
     0
300
1/4" = 1'-0"
140
0.25
141
12.0
290
     0
  0
SCALE
  5
61
102
{ACAD_REACTORS
330
47
102
}
330
47
100
AcDbScale
 70
     0
300
3/8" = 1'-0"
140
0.375
141
12.0
290
     0
  0
SCALE
  5
62
102
{ACAD_REACTORS
330
47
102
}
330
47
100
AcDbScale
 70
     0
300
1/2" = 1'-0"
140
0.5
141
12.0
290
     0
  0
SCALE
  5
63
102
{ACAD_REACTORS
330
47
102
}
330
47
100
AcDbScale
 70
     0
300
3/4" = 1'-0"
140
0.75
141
12.0
290
     0
  0
SCALE
  5
64
102
{ACAD_REACTORS
330
47
102
}
330
47
100
AcDbScale
 70
     0
300
1" = 1'-0"
140
1.0
141
12.0
290
     0
  0
SCALE
  5
65
102
{ACAD_REACTORS
330
47
102
}
330
47
100
AcDbScale
 70
     0
300
1-1/2" = 1'-0"
140
1.5
141
12.0
290
     0
  0
SCALE
  5
66
102
{ACAD_REACTORS
330
47
102
}
330
47
100
AcDbScale
 70
     0
300
3" = 1'-0"
140
3.0
141
12.0
290
     0
  0
SCALE
  5
67
102
{ACAD_REACTORS
330
47
102
}
330
47
100
AcDbScale
 70
     0
300
6" = 1'-0"
140
6.0
141
12.0
290
     0
  0
SCALE
  5
68
102
{ACAD_REACTORS
330
47
102
}
330
47
100
AcDbScale
 70
     0
300
1'-0" = 1'-0"
140
12.0
141
12.0
290
     0
  0
ENDSEC
  0
EOF
