999
dxfrw 0.5.10
0
SECTION
2
HEADER
9
$ACADVER
1
AC1021
9
$HANDSEED
5
20000
9
$DWGCODEPAGE
3
ANSI_1252
9
$INSBASE
10
0
20
0
30
0
9
$EXTMIN
10
0
20
0
30
0
9
$EXTMAX
10
376.980265
20
222.750341
30
0
9
$LIMMIN
10
0
20
0
9
$LIMMAX
10
420
20
297
9
$ORTHOMODE
70
0
9
$LTSCALE
40
1
9
$TEXTSTYLE
7
STANDARD
9
$CLAYER
8
0
9
$DIMASZ
40
2.5
9
$DIMLFAC
40
1
9
$DIMSCALE
40
1
9
$DIMEXO
40
0.625
9
$DIMEXE
40
1.25
9
$DIMTXT
40
2.5
9
$DIMTSZ
40
0
9
$DIMAUNIT
70
0
9
$DIMADEC
70
0
9
$DIMLUNIT
70
2
9
$DIMSTYLE
2
Standard
9
$DIMGAP
40
0.625
9
$DIMTIH
70
0
9
$LUNITS
70
2
9
$LUPREC
70
4
9
$AUNITS
70
0
9
$AUPREC
70
2
9
$SPLINESEGS
70
8
9
$GRIDMODE
70
0
9
$SNAPSTYLE
70
0
9
$PINSBASE
10
0
20
0
30
0
9
$PLIMMIN
10
0
20
0
9
$PLIMMAX
10
210
20
297
9
$INSUNITS
70
4
9
$PSVPSCALE
40
1
0
ENDSEC
0
SECTION
2
CLASSES
0
ENDSEC
0
SECTION
2
TABLES
0
TABLE
2
VPORT
5
8
330
0
100
AcDbSymbolTable
70
1
0
VPORT
5
31
330
2
100
AcDbSymbolTableRecord
100
AcDbViewportTableRecord
2
*ACTIVE
70
0
10
0
20
0
11
1
21
1
12
81.6107208122
22
35.6476751269
13
0
23
0
14
10
24
10
15
10
25
10
16
0
26
0
36
1
17
0
27
0
37
0
40
55.296
41
1.91751269036
42
50
43
0
44
0
50
0
51
0
71
0
72
100
73
1
74
3
75
0
76
0
77
0
78
0
281
0
65
1
110
0
120
0
130
0
111
1
121
0
131
0
112
0
122
1
132
0
79
0
146
0
348
10020
60
7
61
5
292
1
282
1
141
0
142
0
63
250
421
3358443
0
ENDTAB
0
TABLE
2
LTYPE
5
5
330
0
100
AcDbSymbolTable
70
4
0
LTYPE
5
14
330
5
100
AcDbSymbolTableRecord
100
AcDbLinetypeTableRecord
2
ByBlock
70
0
3

72
65
73
0
40
0
0
LTYPE
5
15
330
5
100
AcDbSymbolTableRecord
100
AcDbLinetypeTableRecord
2
ByLayer
70
0
3

72
65
73
0
40
0
0
LTYPE
5
16
330
5
100
AcDbSymbolTableRecord
100
AcDbLinetypeTableRecord
2
Continuous
70
0
3
Solid line
72
65
73
0
40
0
0
LTYPE
5
32
330
5
100
AcDbSymbolTableRecord
100
AcDbLinetypeTableRecord
2
DOT
70
0
3
Dot . . . . . . . . . . . . . . . . . . . . . .
72
65
73
2
40
6.35
49
0
74
0
49
-6.35
74
0
0
LTYPE
5
33
330
5
100
AcDbSymbolTableRecord
100
AcDbLinetypeTableRecord
2
DOT2
70
0
3
Dot (.5x) .....................................
72
65
73
2
40
3.175
49
0
74
0
49
-3.175
74
0
0
LTYPE
5
34
330
5
100
AcDbSymbolTableRecord
100
AcDbLinetypeTableRecord
2
DOTX2
70
0
3
Dot (2x) .  .  .  .  .  .  .  .  .  .  .  .  .
72
65
73
2
40
12.7
49
0
74
0
49
-12.7
74
0
0
LTYPE
5
35
330
5
100
AcDbSymbolTableRecord
100
AcDbLinetypeTableRecord
2
DASHED
70
0
3
Dot . . . . . . . . . . . . . . . . . . . . . .
72
65
73
2
40
19.05
49
12.7
74
0
49
-6.35
74
0
0
LTYPE
5
36
330
5
100
AcDbSymbolTableRecord
100
AcDbLinetypeTableRecord
2
DASHED2
70
0
3
Dashed (.5x) _ _ _ _ _ _ _ _ _ _ _ _ _ _ _ _ _
72
65
73
2
40
9.525
49
6.35
74
0
49
-3.175
74
0
0
LTYPE
5
37
330
5
100
AcDbSymbolTableRecord
100
AcDbLinetypeTableRecord
2
DASHEDX2
70
0
3
Dashed (2x) ____  ____  ____  ____  ____  ___
72
65
73
2
40
38.1
49
25.4
74
0
49
-12.7
74
0
0
LTYPE
5
38
330
5
100
AcDbSymbolTableRecord
100
AcDbLinetypeTableRecord
2
DASHDOT
70
0
3
Dash dot __ . __ . __ . __ . __ . __ . __ . __
72
65
73
4
40
25.4
49
12.7
74
0
49
-6.35
74
0
49
0
74
0
49
-6.35
74
0
0
LTYPE
5
39
330
5
100
AcDbSymbolTableRecord
100
AcDbLinetypeTableRecord
2
DASHDOT2
70
0
3
Dash dot (.5x) _._._._._._._._._._._._._._._.
72
65
73
4
40
12.7
49
6.35
74
0
49
-3.175
74
0
49
0
74
0
49
-3.175
74
0
0
LTYPE
5
3A
330
5
100
AcDbSymbolTableRecord
100
AcDbLinetypeTableRecord
2
DASHDOTX2
70
0
3
Dash dot (2x) ____  .  ____  .  ____  .  ___
72
65
73
4
40
50.8
49
25.4
74
0
49
-12.7
74
0
49
0
74
0
49
-12.7
74
0
0
LTYPE
5
3B
330
5
100
AcDbSymbolTableRecord
100
AcDbLinetypeTableRecord
2
DIVIDE
70
0
3
Divide ____ . . ____ . . ____ . . ____ . . ____
72
65
73
6
40
31.75
49
12.7
74
0
49
-6.35
74
0
49
0
74
0
49
-6.35
74
0
49
0
74
0
49
-6.35
74
0
0
LTYPE
5
3C
330
5
100
AcDbSymbolTableRecord
100
AcDbLinetypeTableRecord
2
DIVIDE2
70
0
3
Divide (.5x) __..__..__..__..__..__..__..__.._
72
65
73
6
40
15.875
49
6.35
74
0
49
-3.175
74
0
49
0
74
0
49
-3.175
74
0
49
0
74
0
49
-3.175
74
0
0
LTYPE
5
3D
330
5
100
AcDbSymbolTableRecord
100
AcDbLinetypeTableRecord
2
DIVIDEX2
70
0
3
Divide (2x) ________  .  .  ________  .  .  _
72
65
73
6
40
63.5
49
25.4
74
0
49
-12.7
74
0
49
0
74
0
49
-12.7
74
0
49
0
74
0
49
-12.7
74
0
0
LTYPE
5
3E
330
5
100
AcDbSymbolTableRecord
100
AcDbLinetypeTableRecord
2
BORDER
70
0
3
Border __ __ . __ __ . __ __ . __ __ . __ __ .
72
65
73
6
40
44.45
49
12.7
74
0
49
-6.35
74
0
49
12.7
74
0
49
-6.35
74
0
49
0
74
0
49
-6.35
74
0
0
LTYPE
5
3F
330
5
100
AcDbSymbolTableRecord
100
AcDbLinetypeTableRecord
2
BORDER2
70
0
3
Border (.5x) __.__.__.__.__.__.__.__.__.__.__.
72
65
73
6
40
22.225
49
6.35
74
0
49
-3.175
74
0
49
6.35
74
0
49
-3.175
74
0
49
0
74
0
49
-3.175
74
0
0
LTYPE
5
40
330
5
100
AcDbSymbolTableRecord
100
AcDbLinetypeTableRecord
2
BORDERX2
70
0
3
Border (2x) ____  ____  .  ____  ____  .  ___
72
65
73
6
40
88.9
49
25.4
74
0
49
-12.7
74
0
49
25.4
74
0
49
-12.7
74
0
49
0
74
0
49
-12.7
74
0
0
LTYPE
5
41
330
5
100
AcDbSymbolTableRecord
100
AcDbLinetypeTableRecord
2
CENTER
70
0
3
Center ____ _ ____ _ ____ _ ____ _ ____ _ ____
72
65
73
4
40
50.8
49
31.75
74
0
49
-6.35
74
0
49
6.35
74
0
49
-6.35
74
0
0
LTYPE
5
42
330
5
100
AcDbSymbolTableRecord
100
AcDbLinetypeTableRecord
2
CENTER2
70
0
3
Center (.5x) ___ _ ___ _ ___ _ ___ _ ___ _ ___
72
65
73
4
40
28.575
49
19.05
74
0
49
-3.175
74
0
49
3.175
74
0
49
-3.175
74
0
0
LTYPE
5
43
330
5
100
AcDbSymbolTableRecord
100
AcDbLinetypeTableRecord
2
CENTERX2
70
0
3
Center (2x) ________  __  ________  __  _____
72
65
73
4
40
101.6
49
63.5
74
0
49
-12.7
74
0
49
12.7
74
0
49
-12.7
74
0
0
ENDTAB
0
TABLE
2
LAYER
5
2
330
0
100
AcDbSymbolTable
70
1
0
LAYER
5
10
330
2
100
AcDbSymbolTableRecord
100
AcDbLayerTableRecord
2
0
70
0
62
7
6
CONTINUOUS
370
0
390
F
0
LAYER
5
44
330
2
100
AcDbSymbolTableRecord
100
AcDbLayerTableRecord
2
MountainLine
70
0
62
7
6
CONTINUOUS
370
-3
390
F
0
LAYER
5
45
330
2
100
AcDbSymbolTableRecord
100
AcDbLayerTableRecord
2
CutLine
70
0
62
7
6
CONTINUOUS
370
-3
390
F
0
LAYER
5
46
330
2
100
AcDbSymbolTableRecord
100
AcDbLayerTableRecord
2
ValleyLine
70
0
62
7
6
CONTINUOUS
370
-3
390
F
0
ENDTAB
0
TABLE
2
STYLE
5
3
330
0
100
AcDbSymbolTable
70
3
0
STYLE
5
47
330
2
100
AcDbSymbolTableRecord
100
AcDbTextStyleTableRecord
2
Standard
70
0
40
0
41
1
50
0
71
0
42
1
3
txt
4

0
ENDTAB
0
TABLE
2
VIEW
5
6
330
0
100
AcDbSymbolTable
70
0
0
ENDTAB
0
TABLE
2
UCS
5
7
330
0
100
AcDbSymbolTable
70
0
0
ENDTAB
0
TABLE
2
APPID
5
9
330
0
100
AcDbSymbolTable
70
1
0
APPID
5
12
330
9
100
AcDbSymbolTableRecord
100
AcDbRegAppTableRecord
2
ACAD
70
0
0
ENDTAB
0
TABLE
2
DIMSTYLE
5
A
330
0
100
AcDbSymbolTable
70
1
100
AcDbDimStyleTable
71
1
0
DIMSTYLE
105
48
330
A
100
AcDbSymbolTableRecord
100
AcDbDimStyleTableRecord
2
Standard
70
0
40
1
41
2.5
42
0.625
43
0.38
44
1.25
45
0
46
0
47
0
48
0
140
2.5
141
0.09
142
0
143
25.4
144
1
145
0
146
1
147
0.625
148
0
71
0
72
0
73
0
74
1
75
0
76
0
77
0
78
0
79
0
170
0
171
2
172
0
173
0
174
0
175
0
176
0
177
0
178
0
179
0
271
4
272
4
273
2
274
2
275
0
276
0
277
2
278
46
279
0
280
0
281
0
282
0
283
1
284
0
285
0
286
0
288
0
289
3
340
Standard
341

371
-2
372
-2
0
ENDTAB
0
TABLE
2
BLOCK_RECORD
5
1
330
0
100
AcDbSymbolTable
70
2
0
BLOCK_RECORD
5
1F
330
1
100
AcDbSymbolTableRecord
100
AcDbBlockTableRecord
2
*Model_Space
70
0
280
1
281
0
0
BLOCK_RECORD
5
1E
330
1
100
AcDbSymbolTableRecord
100
AcDbBlockTableRecord
2
*Paper_Space
70
0
280
1
281
0
0
ENDTAB
0
ENDSEC
0
SECTION
2
BLOCKS
0
BLOCK
5
20
330
1F
100
AcDbEntity
8
0
100
AcDbBlockBegin
2
*Model_Space
70
0
10
0
20
0
30
0
3
*Model_Space
1

0
ENDBLK
5
21
330
1F
100
AcDbEntity
8
0
100
AcDbBlockEnd
0
BLOCK
5
1C
330
1B
100
AcDbEntity
8
0
100
AcDbBlockBegin
2
*Paper_Space
70
0
10
0
20
0
30
0
3
*Paper_Space
1

0
ENDBLK
5
1D
330
1F
100
AcDbEntity
8
0
100
AcDbBlockEnd
0
ENDSEC
0
SECTION
2
ENTITIES
0
LINE
5
49
100
AcDbEntity
8
MountainLine
6
CONTINUOUS
62
5
370
-1
100
AcDbLine
10
214.409541
20
34.421132
11
209.560726
21
20.915228
0
LINE
5
4A
100
AcDbEntity
8
CutLine
6
CONTINUOUS
62
8
370
-1
100
AcDbLine
10
181.838077
20
49.777952
11
181.01066
21
62.367839
0
LINE
5
4B
100
AcDbEntity
8
CutLine
6
CONTINUOUS
62
8
370
-1
100
AcDbLine
10
181.01066
20
62.367839
11
154.115427
21
46.722491
0
LINE
5
4C
100
AcDbEntity
8
MountainLine
6
CONTINUOUS
62
5
370
-1
100
AcDbLine
10
154.115427
20
46.722491
11
181.838077
21
49.777952
0
LINE
5
4D
100
AcDbEntity
8
CutLine
6
CONTINUOUS
62
8
370
-1
100
AcDbLine
10
206.657883
20
22.515441
11
206.348177
21
22.484938
0
LINE
5
4E
100
AcDbEntity
8
CutLine
6
CONTINUOUS
62
8
370
-1
100
AcDbLine
10
206.03847
20
25.629433
11
206.348175
21
25.659938
0
LINE
5
4F
100
AcDbEntity
8
CutLine
6
CONTINUOUS
62
8
370
-1
100
AcDbLine
10
207.230143
20
44.614502
11
207.470708
21
44.417076
0
LINE
5
50
100
AcDbEntity
8
CutLine
6
CONTINUOUS
62
8
370
-1
100
AcDbLine
10
207.905173
20
43.604252
11
207.935678
21
43.294546
0
LINE
5
51
100
AcDbEntity
8
CutLine
6
CONTINUOUS
62
8
370
-1
100
AcDbLine
10
207.935678
20
43.294546
11
207.905173
21
42.98484
0
LINE
5
52
100
AcDbEntity
8
CutLine
6
CONTINUOUS
62
8
370
-1
100
AcDbLine
10
207.814835
20
43.902055
11
207.905173
21
43.604252
0
LINE
5
53
100
AcDbEntity
8
CutLine
6
CONTINUOUS
62
8
370
-1
100
AcDbLine
10
207.668135
20
44.176512
11
207.814835
21
43.902055
0
LINE
5
54
100
AcDbEntity
8
CutLine
6
CONTINUOUS
62
8
370
-1
100
AcDbLine
10
207.470708
20
44.417076
11
207.668135
21
44.176512
0
LINE
5
55
100
AcDbEntity
8
CutLine
6
CONTINUOUS
62
8
370
-1
100
AcDbLine
10
206.955686
20
44.761204
11
207.230143
21
44.614502
0
LINE
5
56
100
AcDbEntity
8
CutLine
6
CONTINUOUS
62
8
370
-1
100
AcDbLine
10
206.657881
20
44.851542
11
206.955686
21
44.761204
0
LINE
5
57
100
AcDbEntity
8
CutLine
6
CONTINUOUS
62
8
370
-1
100
AcDbLine
10
206.348175
20
44.882045
11
206.657881
21
44.851542
0
LINE
5
58
100
AcDbEntity
8
CutLine
6
CONTINUOUS
62
8
370
-1
100
AcDbLine
10
206.03847
20
44.851542
11
206.348175
21
44.882045
0
LINE
5
59
100
AcDbEntity
8
CutLine
6
CONTINUOUS
62
8
370
-1
100
AcDbLine
10
204.791179
20
42.98484
11
204.760674
21
43.294546
0
LINE
5
5A
100
AcDbEntity
8
CutLine
6
CONTINUOUS
62
8
370
-1
100
AcDbLine
10
204.760674
20
43.294546
11
204.791179
21
43.604248
0
LINE
5
5B
100
AcDbEntity
8
CutLine
6
CONTINUOUS
62
8
370
-1
100
AcDbLine
10
204.881515
20
42.687037
11
204.791179
21
42.98484
0
LINE
5
5C
100
AcDbEntity
8
CutLine
6
CONTINUOUS
62
8
370
-1
100
AcDbLine
10
204.791179
20
43.604248
11
204.881515
21
43.902051
0
LINE
5
5D
100
AcDbEntity
8
CutLine
6
CONTINUOUS
62
8
370
-1
100
AcDbLine
10
204.881515
20
43.902051
11
205.028216
21
44.176512
0
LINE
5
5E
100
AcDbEntity
8
CutLine
6
CONTINUOUS
62
8
370
-1
100
AcDbLine
10
205.028216
20
44.176512
11
205.225643
21
44.417076
0
LINE
5
5F
100
AcDbEntity
8
CutLine
6
CONTINUOUS
62
8
370
-1
100
AcDbLine
10
205.225643
20
44.417076
11
205.466207
21
44.614502
0
LINE
5
60
100
AcDbEntity
8
CutLine
6
CONTINUOUS
62
8
370
-1
100
AcDbLine
10
205.466207
20
44.614502
11
205.740666
21
44.761204
0
LINE
5
61
100
AcDbEntity
8
CutLine
6
CONTINUOUS
62
8
370
-1
100
AcDbLine
10
155.770939
20
42.98484
11
155.740434
21
43.294546
0
LINE
5
62
100
AcDbEntity
8
MountainLine
6
CONTINUOUS
62
5
370
-1
100
AcDbLine
10
154.115427
20
46.722491
11
149.266612
21
34.421132
0
LINE
5
63
100
AcDbEntity
8
CutLine
6
CONTINUOUS
62
8
370
-1
100
AcDbLine
10
155.740434
20
43.294546
11
155.770939
21
43.604248
0
LINE
5
64
100
AcDbEntity
8
CutLine
6
CONTINUOUS
62
8
370
-1
100
AcDbLine
10
155.770939
20
43.604248
11
155.861277
21
43.902051
0
LINE
5
65
100
AcDbEntity
8
CutLine
6
CONTINUOUS
62
8
370
-1
100
AcDbLine
10
155.861277
20
43.902051
11
156.007975
21
44.176512
0
LINE
5
66
100
AcDbEntity
8
CutLine
6
CONTINUOUS
62
8
370
-1
100
AcDbLine
10
156.007975
20
44.176512
11
156.205403
21
44.417076
0
LINE
5
67
100
AcDbEntity
8
CutLine
6
CONTINUOUS
62
8
370
-1
100
AcDbLine
10
156.205403
20
44.417076
11
156.445967
21
44.614502
0
LINE
5
68
100
AcDbEntity
8
CutLine
6
CONTINUOUS
62
8
370
-1
100
AcDbLine
10
156.445967
20
44.614502
11
156.720426
21
44.761204
0
LINE
5
69
100
AcDbEntity
8
CutLine
6
CONTINUOUS
62
8
370
-1
100
AcDbLine
10
156.720426
20
44.761204
11
157.018229
21
44.851542
0
LINE
5
6A
100
AcDbEntity
8
CutLine
6
CONTINUOUS
62
8
370
-1
100
AcDbLine
10
157.018229
20
44.851542
11
157.327935
21
44.882045
0
LINE
5
6B
100
AcDbEntity
8
CutLine
6
CONTINUOUS
62
8
370
-1
100
AcDbLine
10
158.884933
20
43.604252
11
158.915438
21
43.294546
0
LINE
5
6C
100
AcDbEntity
8
CutLine
6
CONTINUOUS
62
8
370
-1
100
AcDbLine
10
158.915438
20
43.294546
11
158.884933
21
42.98484
0
LINE
5
6D
100
AcDbEntity
8
CutLine
6
CONTINUOUS
62
8
370
-1
100
AcDbLine
10
158.794595
20
43.902055
11
158.884933
21
43.604252
0
LINE
5
6E
100
AcDbEntity
8
CutLine
6
CONTINUOUS
62
8
370
-1
100
AcDbLine
10
158.647895
20
44.176512
11
158.794595
21
43.902055
0
LINE
5
6F
100
AcDbEntity
8
CutLine
6
CONTINUOUS
62
8
370
-1
100
AcDbLine
10
158.450468
20
44.417076
11
158.647895
21
44.176512
0
LINE
5
70
100
AcDbEntity
8
CutLine
6
CONTINUOUS
62
8
370
-1
100
AcDbLine
10
158.209903
20
44.614502
11
158.450468
21
44.417076
0
LINE
5
71
100
AcDbEntity
8
CutLine
6
CONTINUOUS
62
8
370
-1
100
AcDbLine
10
157.935446
20
44.761204
11
158.209903
21
44.614502
0
LINE
5
72
100
AcDbEntity
8
CutLine
6
CONTINUOUS
62
8
370
-1
100
AcDbLine
10
157.637641
20
44.851542
11
157.935446
21
44.761204
0
LINE
5
73
100
AcDbEntity
8
CutLine
6
CONTINUOUS
62
8
370
-1
100
AcDbLine
10
157.327935
20
44.882045
11
157.637641
21
44.851542
0
LINE
5
74
100
AcDbEntity
8
CutLine
6
CONTINUOUS
62
8
370
-1
100
AcDbLine
10
155.861277
20
42.687037
11
155.770939
21
42.98484
0
LINE
5
75
100
AcDbEntity
8
CutLine
6
CONTINUOUS
62
8
370
-1
100
AcDbLine
10
158.884933
20
42.98484
11
158.794595
21
42.687037
0
LINE
5
76
100
AcDbEntity
8
CutLine
6
CONTINUOUS
62
8
370
-1
100
AcDbLine
10
156.007979
20
42.412576
11
155.861277
21
42.687037
0
LINE
5
77
100
AcDbEntity
8
CutLine
6
CONTINUOUS
62
8
370
-1
100
AcDbLine
10
158.794595
20
42.687037
11
158.647895
21
42.412576
0
LINE
5
78
100
AcDbEntity
8
CutLine
6
CONTINUOUS
62
8
370
-1
100
AcDbLine
10
156.205405
20
42.172012
11
156.007979
21
42.412576
0
LINE
5
79
100
AcDbEntity
8
CutLine
6
CONTINUOUS
62
8
370
-1
100
AcDbLine
10
158.647895
20
42.412576
11
158.450469
21
42.172012
0
LINE
5
7A
100
AcDbEntity
8
CutLine
6
CONTINUOUS
62
8
370
-1
100
AcDbLine
10
156.445969
20
41.974586
11
156.205405
21
42.172012
0
LINE
5
7B
100
AcDbEntity
8
CutLine
6
CONTINUOUS
62
8
370
-1
100
AcDbLine
10
158.450469
20
42.172012
11
158.209905
21
41.974586
0
LINE
5
7C
100
AcDbEntity
8
CutLine
6
CONTINUOUS
62
8
370
-1
100
AcDbLine
10
156.720428
20
41.827888
11
156.445969
21
41.974586
0
LINE
5
7D
100
AcDbEntity
8
CutLine
6
CONTINUOUS
62
8
370
-1
100
AcDbLine
10
158.209905
20
41.974586
11
157.935446
21
41.827888
0
LINE
5
7E
100
AcDbEntity
8
CutLine
6
CONTINUOUS
62
8
370
-1
100
AcDbLine
10
157.018231
20
41.73755
11
156.720428
21
41.827888
0
LINE
5
7F
100
AcDbEntity
8
CutLine
6
CONTINUOUS
62
8
370
-1
100
AcDbLine
10
157.637643
20
22.515441
11
157.327937
21
22.484938
0
LINE
5
80
100
AcDbEntity
8
CutLine
6
CONTINUOUS
62
8
370
-1
100
AcDbLine
10
157.327937
20
22.484938
11
157.018231
21
22.515441
0
LINE
5
81
100
AcDbEntity
8
CutLine
6
CONTINUOUS
62
8
370
-1
100
AcDbLine
10
157.935446
20
22.605779
11
157.637643
21
22.515441
0
LINE
5
82
100
AcDbEntity
8
MountainLine
6
CONTINUOUS
62
5
370
-1
100
AcDbLine
10
154.115427
20
20.915228
11
181.838077
21
15.149065
0
LINE
5
83
100
AcDbEntity
8
CutLine
6
CONTINUOUS
62
8
370
-1
100
AcDbLine
10
158.209905
20
22.752479
11
157.935446
21
22.605779
0
LINE
5
84
100
AcDbEntity
8
CutLine
6
CONTINUOUS
62
8
370
-1
100
AcDbLine
10
158.450469
20
22.949907
11
158.209905
21
22.752479
0
LINE
5
85
100
AcDbEntity
8
CutLine
6
CONTINUOUS
62
8
370
-1
100
AcDbLine
10
158.647895
20
23.190471
11
158.450469
21
22.949907
0
LINE
5
86
100
AcDbEntity
8
CutLine
6
CONTINUOUS
62
8
370
-1
100
AcDbLine
10
158.794595
20
23.464928
11
158.647895
21
23.190471
0
LINE
5
87
100
AcDbEntity
8
CutLine
6
CONTINUOUS
62
8
370
-1
100
AcDbLine
10
158.884933
20
23.762733
11
158.794595
21
23.464928
0
LINE
5
88
100
AcDbEntity
8
CutLine
6
CONTINUOUS
62
8
370
-1
100
AcDbLine
10
158.915438
20
24.072439
11
158.884933
21
23.762733
0
LINE
5
89
100
AcDbEntity
8
CutLine
6
CONTINUOUS
62
8
370
-1
100
AcDbLine
10
157.327935
20
25.659938
11
157.637641
21
25.629435
0
LINE
5
8A
100
AcDbEntity
8
CutLine
6
CONTINUOUS
62
8
370
-1
100
AcDbLine
10
157.018229
20
25.629433
11
157.327935
21
25.659938
0
LINE
5
8B
100
AcDbEntity
8
CutLine
6
CONTINUOUS
62
8
370
-1
100
AcDbLine
10
157.637641
20
25.629435
11
157.935446
21
25.539097
0
LINE
5
8C
100
AcDbEntity
8
CutLine
6
CONTINUOUS
62
8
370
-1
100
AcDbLine
10
157.935446
20
25.539097
11
158.209903
21
25.392397
0
LINE
5
8D
100
AcDbEntity
8
CutLine
6
CONTINUOUS
62
8
370
-1
100
AcDbLine
10
158.209903
20
25.392397
11
158.450468
21
25.194971
0
LINE
5
8E
100
AcDbEntity
8
CutLine
6
CONTINUOUS
62
8
370
-1
100
AcDbLine
10
158.450468
20
25.194971
11
158.647895
21
24.954407
0
LINE
5
8F
100
AcDbEntity
8
CutLine
6
CONTINUOUS
62
8
370
-1
100
AcDbLine
10
158.647895
20
24.954407
11
158.794595
21
24.679948
0
LINE
5
90
100
AcDbEntity
8
CutLine
6
CONTINUOUS
62
8
370
-1
100
AcDbLine
10
158.794595
20
24.679948
11
158.884933
21
24.382145
0
LINE
5
91
100
AcDbEntity
8
CutLine
6
CONTINUOUS
62
8
370
-1
100
AcDbLine
10
158.884933
20
24.382145
11
158.915438
21
24.072439
0
LINE
5
92
100
AcDbEntity
8
CutLine
6
CONTINUOUS
62
8
370
-1
100
AcDbLine
10
205.740666
20
25.539097
11
206.03847
21
25.629433
0
LINE
5
93
100
AcDbEntity
8
CutLine
6
CONTINUOUS
62
8
370
-1
100
AcDbLine
10
205.466207
20
25.392395
11
205.740666
21
25.539097
0
LINE
5
94
100
AcDbEntity
8
CutLine
6
CONTINUOUS
62
8
370
-1
100
AcDbLine
10
205.225643
20
25.194968
11
205.466207
21
25.392395
0
LINE
5
95
100
AcDbEntity
8
CutLine
6
CONTINUOUS
62
8
370
-1
100
AcDbLine
10
205.028219
20
24.954403
11
205.225643
21
25.194968
0
LINE
5
96
100
AcDbEntity
8
CutLine
6
CONTINUOUS
62
8
370
-1
100
AcDbLine
10
204.881519
20
24.679946
11
205.028219
21
24.954403
0
LINE
5
97
100
AcDbEntity
8
CutLine
6
CONTINUOUS
62
8
370
-1
100
AcDbLine
10
204.791181
20
24.382141
11
204.881519
21
24.679946
0
LINE
5
98
100
AcDbEntity
8
CutLine
6
CONTINUOUS
62
8
370
-1
100
AcDbLine
10
204.760678
20
24.072437
11
204.791181
21
24.382141
0
LINE
5
99
100
AcDbEntity
8
MountainLine
6
CONTINUOUS
62
5
370
-1
100
AcDbLine
10
181.838077
20
15.149065
11
209.560726
21
20.915228
0
LINE
5
9A
100
AcDbEntity
8
CutLine
6
CONTINUOUS
62
8
370
-1
100
AcDbLine
10
206.348177
20
22.484938
11
206.038471
21
22.515441
0
LINE
5
9B
100
AcDbEntity
8
CutLine
6
CONTINUOUS
62
8
370
-1
100
AcDbLine
10
206.038471
20
22.515441
11
205.740668
21
22.605779
0
LINE
5
9C
100
AcDbEntity
8
CutLine
6
CONTINUOUS
62
8
370
-1
100
AcDbLine
10
205.740668
20
22.605779
11
205.466209
21
22.752479
0
LINE
5
9D
100
AcDbEntity
8
CutLine
6
CONTINUOUS
62
8
370
-1
100
AcDbLine
10
205.466209
20
22.752479
11
205.225645
21
22.949907
0
LINE
5
9E
100
AcDbEntity
8
CutLine
6
CONTINUOUS
62
8
370
-1
100
AcDbLine
10
205.225645
20
22.949907
11
205.028221
21
23.190471
0
LINE
5
9F
100
AcDbEntity
8
CutLine
6
CONTINUOUS
62
8
370
-1
100
AcDbLine
10
205.028221
20
23.190471
11
204.881519
21
23.464928
0
LINE
5
A0
100
AcDbEntity
8
CutLine
6
CONTINUOUS
62
8
370
-1
100
AcDbLine
10
204.881519
20
23.464928
11
204.791181
21
23.762731
0
LINE
5
A1
100
AcDbEntity
8
CutLine
6
CONTINUOUS
62
8
370
-1
100
AcDbLine
10
204.791181
20
23.762731
11
204.760678
21
24.072437
0
LINE
5
A2
100
AcDbEntity
8
CutLine
6
CONTINUOUS
62
8
370
-1
100
AcDbLine
10
157.327937
20
41.707043
11
157.018231
21
41.73755
0
LINE
5
A3
100
AcDbEntity
8
CutLine
6
CONTINUOUS
62
8
370
-1
100
AcDbLine
10
157.935446
20
41.827888
11
157.637643
21
41.73755
0
LINE
5
A4
100
AcDbEntity
8
CutLine
6
CONTINUOUS
62
8
370
-1
100
AcDbLine
10
157.637643
20
41.73755
11
157.327937
21
41.707043
0
LINE
5
A5
100
AcDbEntity
8
CutLine
6
CONTINUOUS
62
8
370
-1
100
AcDbLine
10
205.740666
20
44.761204
11
206.03847
21
44.851542
0
LINE
5
A6
100
AcDbEntity
8
MountainLine
6
CONTINUOUS
62
5
370
-1
100
AcDbLine
10
209.560726
20
46.722491
11
181.838077
21
49.777952
0
LINE
5
A7
100
AcDbEntity
8
CutLine
6
CONTINUOUS
62
8
370
-1
100
AcDbLine
10
156.720426
20
25.539097
11
157.018229
21
25.629433
0
LINE
5
A8
100
AcDbEntity
8
CutLine
6
CONTINUOUS
62
8
370
-1
100
AcDbLine
10
157.018231
20
22.515441
11
156.720428
21
22.605779
0
LINE
5
A9
100
AcDbEntity
8
CutLine
6
CONTINUOUS
62
8
370
-1
100
AcDbLine
10
207.905173
20
42.98484
11
207.814835
21
42.687037
0
LINE
5
AA
100
AcDbEntity
8
CutLine
6
CONTINUOUS
62
8
370
-1
100
AcDbLine
10
156.445967
20
25.392395
11
156.720426
21
25.539097
0
LINE
5
AB
100
AcDbEntity
8
CutLine
6
CONTINUOUS
62
8
370
-1
100
AcDbLine
10
156.720428
20
22.605779
11
156.445969
21
22.752479
0
LINE
5
AC
100
AcDbEntity
8
CutLine
6
CONTINUOUS
62
8
370
-1
100
AcDbLine
10
205.028219
20
42.412576
11
204.881515
21
42.687037
0
LINE
5
AD
100
AcDbEntity
8
CutLine
6
CONTINUOUS
62
8
370
-1
100
AcDbLine
10
156.205403
20
25.194968
11
156.445967
21
25.392395
0
LINE
5
AE
100
AcDbEntity
8
MountainLine
6
CONTINUOUS
62
5
370
-1
100
AcDbLine
10
214.409541
20
34.421132
11
209.560726
21
46.722491
0
LINE
5
AF
100
AcDbEntity
8
CutLine
6
CONTINUOUS
62
8
370
-1
100
AcDbLine
10
156.445969
20
22.752479
11
156.205405
21
22.949907
0
LINE
5
B0
100
AcDbEntity
8
CutLine
6
CONTINUOUS
62
8
370
-1
100
AcDbLine
10
205.225645
20
42.172012
11
205.028219
21
42.412576
0
LINE
5
B1
100
AcDbEntity
8
CutLine
6
CONTINUOUS
62
8
370
-1
100
AcDbLine
10
156.007979
20
24.954403
11
156.205403
21
25.194968
0
LINE
5
B2
100
AcDbEntity
8
CutLine
6
CONTINUOUS
62
8
370
-1
100
AcDbLine
10
207.814835
20
42.687037
11
207.668135
21
42.412576
0
LINE
5
B3
100
AcDbEntity
8
CutLine
6
CONTINUOUS
62
8
370
-1
100
AcDbLine
10
156.205405
20
22.949907
11
156.007981
21
23.190471
0
LINE
5
B4
100
AcDbEntity
8
CutLine
6
CONTINUOUS
62
8
370
-1
100
AcDbLine
10
205.466209
20
41.974586
11
205.225645
21
42.172012
0
LINE
5
B5
100
AcDbEntity
8
CutLine
6
CONTINUOUS
62
8
370
-1
100
AcDbLine
10
155.861279
20
24.679946
11
156.007979
21
24.954403
0
LINE
5
B6
100
AcDbEntity
8
CutLine
6
CONTINUOUS
62
8
370
-1
100
AcDbLine
10
207.668135
20
42.412576
11
207.47071
21
42.172012
0
LINE
5
B7
100
AcDbEntity
8
MountainLine
6
CONTINUOUS
62
5
370
-1
100
AcDbLine
10
149.266612
20
34.421132
11
154.115427
21
20.915228
0
LINE
5
B8
100
AcDbEntity
8
CutLine
6
CONTINUOUS
62
8
370
-1
100
AcDbLine
10
205.740668
20
41.827888
11
205.466209
21
41.974586
0
LINE
5
B9
100
AcDbEntity
8
CutLine
6
CONTINUOUS
62
8
370
-1
100
AcDbLine
10
155.770941
20
24.382141
11
155.861279
21
24.679946
0
LINE
5
BA
100
AcDbEntity
8
CutLine
6
CONTINUOUS
62
8
370
-1
100
AcDbLine
10
156.007981
20
23.190471
11
155.861279
21
23.464928
0
LINE
5
BB
100
AcDbEntity
8
CutLine
6
CONTINUOUS
62
8
370
-1
100
AcDbLine
10
207.47071
20
42.172012
11
207.230145
21
41.974586
0
LINE
5
BC
100
AcDbEntity
8
CutLine
6
CONTINUOUS
62
8
370
-1
100
AcDbLine
10
207.230145
20
41.974586
11
206.955686
21
41.827888
0
LINE
5
BD
100
AcDbEntity
8
CutLine
6
CONTINUOUS
62
8
370
-1
100
AcDbLine
10
155.740438
20
24.072437
11
155.770941
21
24.382141
0
LINE
5
BE
100
AcDbEntity
8
CutLine
6
CONTINUOUS
62
8
370
-1
100
AcDbLine
10
206.038471
20
41.73755
11
205.740668
21
41.827888
0
LINE
5
BF
100
AcDbEntity
8
CutLine
6
CONTINUOUS
62
8
370
-1
100
AcDbLine
10
155.861279
20
23.464928
11
155.770941
21
23.762731
0
LINE
5
C0
100
AcDbEntity
8
CutLine
6
CONTINUOUS
62
8
370
-1
100
AcDbLine
10
206.348177
20
41.707043
11
206.038471
21
41.73755
0
LINE
5
C1
100
AcDbEntity
8
CutLine
6
CONTINUOUS
62
8
370
-1
100
AcDbLine
10
155.770941
20
23.762731
11
155.740438
21
24.072437
0
LINE
5
C2
100
AcDbEntity
8
CutLine
6
CONTINUOUS
62
8
370
-1
100
AcDbLine
10
206.955686
20
41.827888
11
206.657883
21
41.73755
0
LINE
5
C3
100
AcDbEntity
8
CutLine
6
CONTINUOUS
62
8
370
-1
100
AcDbLine
10
206.657883
20
41.73755
11
206.348177
21
41.707043
0
LINE
5
C4
100
AcDbEntity
8
CutLine
6
CONTINUOUS
62
8
370
-1
100
AcDbLine
10
206.348175
20
25.659938
11
206.657881
21
25.629435
0
LINE
5
C5
100
AcDbEntity
8
CutLine
6
CONTINUOUS
62
8
370
-1
100
AcDbLine
10
206.955686
20
22.605779
11
206.657883
21
22.515441
0
LINE
5
C6
100
AcDbEntity
8
CutLine
6
CONTINUOUS
62
8
370
-1
100
AcDbLine
10
206.657881
20
25.629435
11
206.955686
21
25.539097
0
LINE
5
C7
100
AcDbEntity
8
CutLine
6
CONTINUOUS
62
8
370
-1
100
AcDbLine
10
206.955686
20
25.539097
11
207.230143
21
25.392397
0
LINE
5
C8
100
AcDbEntity
8
CutLine
6
CONTINUOUS
62
8
370
-1
100
AcDbLine
10
207.230143
20
25.392397
11
207.470708
21
25.194971
0
LINE
5
C9
100
AcDbEntity
8
CutLine
6
CONTINUOUS
62
8
370
-1
100
AcDbLine
10
207.470708
20
25.194971
11
207.668135
21
24.954407
0
LINE
5
CA
100
AcDbEntity
8
CutLine
6
CONTINUOUS
62
8
370
-1
100
AcDbLine
10
207.668135
20
24.954407
11
207.814835
21
24.679948
0
LINE
5
CB
100
AcDbEntity
8
CutLine
6
CONTINUOUS
62
8
370
-1
100
AcDbLine
10
207.814835
20
24.679948
11
207.905173
21
24.382145
0
LINE
5
CC
100
AcDbEntity
8
CutLine
6
CONTINUOUS
62
8
370
-1
100
AcDbLine
10
207.905173
20
24.382145
11
207.935678
21
24.072439
0
LINE
5
CD
100
AcDbEntity
8
CutLine
6
CONTINUOUS
62
8
370
-1
100
AcDbLine
10
207.230145
20
22.752479
11
206.955686
21
22.605779
0
LINE
5
CE
100
AcDbEntity
8
CutLine
6
CONTINUOUS
62
8
370
-1
100
AcDbLine
10
207.47071
20
22.949907
11
207.230145
21
22.752479
0
LINE
5
CF
100
AcDbEntity
8
CutLine
6
CONTINUOUS
62
8
370
-1
100
AcDbLine
10
207.668135
20
23.190471
11
207.47071
21
22.949907
0
LINE
5
D0
100
AcDbEntity
8
CutLine
6
CONTINUOUS
62
8
370
-1
100
AcDbLine
10
207.814835
20
23.464928
11
207.668135
21
23.190471
0
LINE
5
D1
100
AcDbEntity
8
CutLine
6
CONTINUOUS
62
8
370
-1
100
AcDbLine
10
207.905173
20
23.762733
11
207.814835
21
23.464928
0
LINE
5
D2
100
AcDbEntity
8
CutLine
6
CONTINUOUS
62
8
370
-1
100
AcDbLine
10
207.935678
20
24.072439
11
207.905173
21
23.762733
0
LINE
5
D3
100
AcDbEntity
8
CutLine
6
CONTINUOUS
62
8
370
-1
100
AcDbLine
10
182.092521
20
6.193874
11
234.548384
21
4.684749
0
LINE
5
D4
100
AcDbEntity
8
MountainLine
6
CONTINUOUS
62
5
370
-1
100
AcDbLine
10
234.548384
20
4.684749
11
209.560726
21
20.915228
0
LINE
5
D5
100
AcDbEntity
8
CutLine
6
CONTINUOUS
62
8
370
-1
100
AcDbLine
10
181.838077
20
15.149065
11
182.092521
21
6.193874
0
LINE
5
D6
100
AcDbEntity
8
CutLine
6
CONTINUOUS
62
8
370
-1
100
AcDbLine
10
181.583632
20
6.193874
11
181.838077
21
15.149065
0
LINE
5
D7
100
AcDbEntity
8
MountainLine
6
CONTINUOUS
62
5
370
-1
100
AcDbLine
10
154.115427
20
20.915228
11
129.127769
21
4.684749
0
LINE
5
D8
100
AcDbEntity
8
CutLine
6
CONTINUOUS
62
8
370
-1
100
AcDbLine
10
129.127769
20
4.684749
11
181.583632
21
6.193874
0
LINE
5
D9
100
AcDbEntity
8
CutLine
6
CONTINUOUS
62
8
370
-1
100
AcDbLine
10
154.115427
20
20.915228
11
120
21
20.95515
0
LINE
5
DA
100
AcDbEntity
8
CutLine
6
CONTINUOUS
62
8
370
-1
100
AcDbLine
10
120
20
20.95515
11
129.127769
21
4.684749
0
LINE
5
DB
100
AcDbEntity
8
CutLine
6
CONTINUOUS
62
8
370
-1
100
AcDbLine
10
209.560726
20
46.722491
11
182.665493
21
62.367839
0
LINE
5
DC
100
AcDbEntity
8
CutLine
6
CONTINUOUS
62
8
370
-1
100
AcDbLine
10
182.665493
20
62.367839
11
181.838077
21
49.777952
0
LINE
5
DD
100
AcDbEntity
8
CutLine
6
CONTINUOUS
62
8
370
-1
100
AcDbLine
10
214.409541
20
34.421132
11
237.473391
21
39.888115
0
LINE
5
DE
100
AcDbEntity
8
CutLine
6
CONTINUOUS
62
8
370
-1
100
AcDbLine
10
237.473391
20
39.888115
11
209.560726
21
46.722491
0
LINE
5
DF
100
AcDbEntity
8
CutLine
6
CONTINUOUS
62
8
370
-1
100
AcDbLine
10
234.548384
20
4.684749
11
243.676153
21
20.95515
0
LINE
5
E0
100
AcDbEntity
8
CutLine
6
CONTINUOUS
62
8
370
-1
100
AcDbLine
10
243.676153
20
20.95515
11
209.560726
21
20.915228
0
LINE
5
E1
100
AcDbEntity
8
CutLine
6
CONTINUOUS
62
8
370
-1
100
AcDbLine
10
126.202763
20
39.888115
11
149.266612
21
34.421132
0
LINE
5
E2
100
AcDbEntity
8
CutLine
6
CONTINUOUS
62
8
370
-1
100
AcDbLine
10
154.115427
20
46.722491
11
126.202763
21
39.888115
0
LINE
5
E3
100
AcDbEntity
8
CutLine
6
CONTINUOUS
62
8
370
-1
100
AcDbLine
10
25
20
153.420456
11
43.112959
21
134.85367
0
LINE
5
E4
100
AcDbEntity
8
ValleyLine
6
CONTINUOUS
62
1
370
-1
100
AcDbLine
10
43.112959
20
134.85367
11
51.631235
21
162.367839
0
LINE
5
E5
100
AcDbEntity
8
CutLine
6
CONTINUOUS
62
8
370
-1
100
AcDbLine
10
51.631235
20
162.367839
11
25
21
153.420456
0
LINE
5
E6
100
AcDbEntity
8
CutLine
6
CONTINUOUS
62
8
370
-1
100
AcDbLine
10
43.112959
20
134.85367
11
60.838037
21
103.01959
0
LINE
5
E7
100
AcDbEntity
8
MountainLine
6
CONTINUOUS
62
5
370
-1
100
AcDbLine
10
60.838037
20
103.01959
11
104.377983
21
148.963448
0
LINE
5
E8
100
AcDbEntity
8
MountainLine
6
CONTINUOUS
62
5
370
-1
100
AcDbLine
10
104.377983
20
148.963448
11
43.112959
21
134.85367
0
LINE
5
E9
100
AcDbEntity
8
CutLine
6
CONTINUOUS
62
8
370
-1
100
AcDbLine
10
104.377983
20
148.963448
11
51.631235
21
162.367839
0
LINE
5
EA
100
AcDbEntity
8
CutLine
6
CONTINUOUS
62
8
370
-1
100
AcDbLine
10
88.19172
20
74.004853
11
78.665956
21
52.031371
0
LINE
5
EB
100
AcDbEntity
8
CutLine
6
CONTINUOUS
62
8
370
-1
100
AcDbLine
10
78.665956
20
52.031371
11
141.971352
21
45.507273
0
LINE
5
EC
100
AcDbEntity
8
ValleyLine
6
CONTINUOUS
62
1
370
-1
100
AcDbLine
10
141.971352
20
45.507273
11
88.19172
21
74.004853
0
LINE
5
ED
100
AcDbEntity
8
CutLine
6
CONTINUOUS
62
8
370
-1
100
AcDbLine
10
141.971352
20
45.507273
11
144.75656
21
73.297506
0
LINE
5
EE
100
AcDbEntity
8
ValleyLine
6
CONTINUOUS
62
1
370
-1
100
AcDbLine
10
144.75656
20
73.297506
11
88.19172
21
74.004853
0
LINE
5
EF
100
AcDbEntity
8
MountainLine
6
CONTINUOUS
62
5
370
-1
100
AcDbLine
10
144.75656
20
73.297506
11
104.377983
21
148.963448
0
LINE
5
F0
100
AcDbEntity
8
MountainLine
6
CONTINUOUS
62
5
370
-1
100
AcDbLine
10
104.377983
20
148.963448
11
88.19172
21
74.004853
0
LINE
5
F1
100
AcDbEntity
8
CutLine
6
CONTINUOUS
62
8
370
-1
100
AcDbLine
10
60.838037
20
103.01959
11
88.19172
21
74.004853
0
LINE
5
F2
100
AcDbEntity
8
CutLine
6
CONTINUOUS
62
8
370
-1
100
AcDbLine
10
144.75656
20
73.297506
11
141.971352
21
109.610738
0
LINE
5
F3
100
AcDbEntity
8
CutLine
6
CONTINUOUS
62
8
370
-1
100
AcDbLine
10
141.971352
20
109.610738
11
104.377983
21
148.963448
0
LINE
5
F4
100
AcDbEntity
8
CutLine
6
CONTINUOUS
62
8
370
-1
100
AcDbLine
10
184.547932
20
76.91961
11
184.62165
21
65.114206
0
LINE
5
F5
100
AcDbEntity
8
CutLine
6
CONTINUOUS
62
8
370
-1
100
AcDbLine
10
184.62165
20
65.114206
11
215.160883
21
80.64512
0
LINE
5
F6
100
AcDbEntity
8
MountainLine
6
CONTINUOUS
62
5
370
-1
100
AcDbLine
10
215.160883
20
80.64512
11
184.547932
21
76.91961
0
LINE
5
F7
100
AcDbEntity
8
CutLine
6
CONTINUOUS
62
8
370
-1
100
AcDbLine
10
184.547932
20
147.264263
11
158.691375
21
145.204334
0
LINE
5
F8
100
AcDbEntity
8
CutLine
6
CONTINUOUS
62
8
370
-1
100
AcDbLine
10
158.691375
20
145.204334
11
146.94528
21
110.670138
0
LINE
5
F9
100
AcDbEntity
8
CutLine
6
CONTINUOUS
62
8
370
-1
100
AcDbLine
10
146.94528
20
110.670138
11
153.93498
21
80.64512
0
LINE
5
FA
100
AcDbEntity
8
MountainLine
6
CONTINUOUS
62
5
370
-1
100
AcDbLine
10
153.93498
20
80.64512
11
184.547932
21
76.91961
0
LINE
5
FB
100
AcDbEntity
8
CutLine
6
CONTINUOUS
62
8
370
-1
100
AcDbLine
10
181.222053
20
113.237573
11
181.412525
21
113.469664
0
LINE
5
FC
100
AcDbEntity
8
CutLine
6
CONTINUOUS
62
8
370
-1
100
AcDbLine
10
181.412525
20
113.469664
11
181.719505
21
113.843719
0
LINE
5
FD
100
AcDbEntity
8
CutLine
6
CONTINUOUS
62
8
370
-1
100
AcDbLine
10
180.852414
20
112.546026
11
181.222053
21
113.237573
0
LINE
5
FE
100
AcDbEntity
8
CutLine
6
CONTINUOUS
62
8
370
-1
100
AcDbLine
10
180.624791
20
111.795654
11
180.852414
21
112.546026
0
LINE
5
FF
100
AcDbEntity
8
CutLine
6
CONTINUOUS
62
8
370
-1
100
AcDbLine
10
180.547932
20
111.015292
11
180.624791
21
111.795654
0
LINE
5
100
100
AcDbEntity
8
CutLine
6
CONTINUOUS
62
8
370
-1
100
AcDbLine
10
180.62479
20
110.234937
11
180.547932
21
111.015292
0
LINE
5
101
100
AcDbEntity
8
CutLine
6
CONTINUOUS
62
8
370
-1
100
AcDbLine
10
180.852411
20
109.484564
11
180.62479
21
110.234937
0
LINE
5
102
100
AcDbEntity
8
CutLine
6
CONTINUOUS
62
8
370
-1
100
AcDbLine
10
215.160883
20
80.64512
11
222.150583
21
110.670138
0
LINE
5
103
100
AcDbEntity
8
CutLine
6
CONTINUOUS
62
8
370
-1
100
AcDbLine
10
222.150583
20
110.670138
11
210.404488
21
145.204334
0
LINE
5
104
100
AcDbEntity
8
CutLine
6
CONTINUOUS
62
8
370
-1
100
AcDbLine
10
187.683338
20
113.469664
11
187.87381
21
113.237573
0
LINE
5
105
100
AcDbEntity
8
CutLine
6
CONTINUOUS
62
8
370
-1
100
AcDbLine
10
187.87381
20
113.237573
11
188.243449
21
112.546026
0
LINE
5
106
100
AcDbEntity
8
CutLine
6
CONTINUOUS
62
8
370
-1
100
AcDbLine
10
188.243449
20
112.546026
11
188.471073
21
111.795654
0
LINE
5
107
100
AcDbEntity
8
CutLine
6
CONTINUOUS
62
8
370
-1
100
AcDbLine
10
188.471073
20
111.795654
11
188.547931
21
111.015292
0
LINE
5
108
100
AcDbEntity
8
CutLine
6
CONTINUOUS
62
8
370
-1
100
AcDbLine
10
188.547931
20
111.015292
11
188.471073
21
110.234937
0
LINE
5
109
100
AcDbEntity
8
CutLine
6
CONTINUOUS
62
8
370
-1
100
AcDbLine
10
188.471073
20
110.234937
11
188.243452
21
109.484564
0
LINE
5
10A
100
AcDbEntity
8
CutLine
6
CONTINUOUS
62
8
370
-1
100
AcDbLine
10
184.547932
20
107.015293
11
183.767566
21
107.092152
0
LINE
5
10B
100
AcDbEntity
8
CutLine
6
CONTINUOUS
62
8
370
-1
100
AcDbLine
10
185.328297
20
107.092152
11
184.547932
21
107.015293
0
LINE
5
10C
100
AcDbEntity
8
CutLine
6
CONTINUOUS
62
8
370
-1
100
AcDbLine
10
186.078669
20
107.319776
11
185.328297
21
107.092152
0
LINE
5
10D
100
AcDbEntity
8
CutLine
6
CONTINUOUS
62
8
370
-1
100
AcDbLine
10
186.770216
20
107.689416
11
186.078669
21
107.319776
0
LINE
5
10E
100
AcDbEntity
8
CutLine
6
CONTINUOUS
62
8
370
-1
100
AcDbLine
10
187.376362
20
108.186869
11
186.770216
21
107.689416
0
LINE
5
10F
100
AcDbEntity
8
CutLine
6
CONTINUOUS
62
8
370
-1
100
AcDbLine
10
187.873813
20
108.793016
11
187.376362
21
108.186869
0
LINE
5
110
100
AcDbEntity
8
CutLine
6
CONTINUOUS
62
8
370
-1
100
AcDbLine
10
188.243452
20
109.484564
11
187.873813
21
108.793016
0
LINE
5
111
100
AcDbEntity
8
CutLine
6
CONTINUOUS
62
8
370
-1
100
AcDbLine
10
183.767566
20
107.092152
11
183.017194
21
107.319776
0
LINE
5
112
100
AcDbEntity
8
CutLine
6
CONTINUOUS
62
8
370
-1
100
AcDbLine
10
183.017194
20
107.319776
11
182.325647
21
107.689416
0
LINE
5
113
100
AcDbEntity
8
CutLine
6
CONTINUOUS
62
8
370
-1
100
AcDbLine
10
182.325647
20
107.689416
11
181.719501
21
108.186869
0
LINE
5
114
100
AcDbEntity
8
CutLine
6
CONTINUOUS
62
8
370
-1
100
AcDbLine
10
181.719501
20
108.186869
11
181.22205
21
108.793016
0
LINE
5
115
100
AcDbEntity
8
CutLine
6
CONTINUOUS
62
8
370
-1
100
AcDbLine
10
181.22205
20
108.793016
11
180.852411
21
109.484564
0
LINE
5
116
100
AcDbEntity
8
CutLine
6
CONTINUOUS
62
8
370
-1
100
AcDbLine
10
187.376358
20
113.843719
11
187.683338
21
113.469664
0
LINE
5
117
100
AcDbEntity
8
CutLine
6
CONTINUOUS
62
8
370
-1
100
AcDbLine
10
186.770212
20
114.34117
11
187.376358
21
113.843719
0
LINE
5
118
100
AcDbEntity
8
CutLine
6
CONTINUOUS
62
8
370
-1
100
AcDbLine
10
210.404488
20
145.204334
11
184.547932
21
147.264263
0
LINE
5
119
100
AcDbEntity
8
CutLine
6
CONTINUOUS
62
8
370
-1
100
AcDbLine
10
184.547932
20
115.015292
11
185.328293
21
114.938433
0
LINE
5
11A
100
AcDbEntity
8
CutLine
6
CONTINUOUS
62
8
370
-1
100
AcDbLine
10
183.76757
20
114.938433
11
184.547932
21
115.015292
0
LINE
5
11B
100
AcDbEntity
8
CutLine
6
CONTINUOUS
62
8
370
-1
100
AcDbLine
10
185.328293
20
114.938433
11
186.078665
21
114.71081
0
LINE
5
11C
100
AcDbEntity
8
CutLine
6
CONTINUOUS
62
8
370
-1
100
AcDbLine
10
186.078665
20
114.71081
11
186.770212
21
114.34117
0
LINE
5
11D
100
AcDbEntity
8
CutLine
6
CONTINUOUS
62
8
370
-1
100
AcDbLine
10
181.719505
20
113.843719
11
182.325651
21
114.34117
0
LINE
5
11E
100
AcDbEntity
8
CutLine
6
CONTINUOUS
62
8
370
-1
100
AcDbLine
10
183.017198
20
114.71081
11
183.76757
21
114.938433
0
LINE
5
11F
100
AcDbEntity
8
CutLine
6
CONTINUOUS
62
8
370
-1
100
AcDbLine
10
182.325651
20
114.34117
11
183.017198
21
114.71081
0
LINE
5
120
100
AcDbEntity
8
CutLine
6
CONTINUOUS
62
8
370
-1
100
AcDbLine
10
153.93498
20
80.64512
11
184.474213
21
65.114206
0
LINE
5
121
100
AcDbEntity
8
CutLine
6
CONTINUOUS
62
8
370
-1
100
AcDbLine
10
184.474213
20
65.114206
11
184.547932
21
76.91961
0
LINE
5
122
100
AcDbEntity
8
CutLine
6
CONTINUOUS
62
8
370
-1
100
AcDbLine
10
308.236292
20
33.86189
11
295
21
5.702858
0
LINE
5
123
100
AcDbEntity
8
MountainLine
6
CONTINUOUS
62
5
370
-1
100
AcDbLine
10
295
20
5.702858
11
342.238614
21
32.218477
0
LINE
5
124
100
AcDbEntity
8
MountainLine
6
CONTINUOUS
62
5
370
-1
100
AcDbLine
10
342.238614
20
32.218477
11
308.236292
21
33.86189
0
LINE
5
125
100
AcDbEntity
8
MountainLine
6
CONTINUOUS
62
5
370
-1
100
AcDbLine
10
342.238614
20
32.218477
11
323.220461
21
58.383313
0
LINE
5
126
100
AcDbEntity
8
CutLine
6
CONTINUOUS
62
8
370
-1
100
AcDbLine
10
323.220461
20
58.383313
11
308.236292
21
33.86189
0
LINE
5
127
100
AcDbEntity
8
CutLine
6
CONTINUOUS
62
8
370
-1
100
AcDbLine
10
295
20
5.702858
11
329.261263
21
5.561818
0
LINE
5
128
100
AcDbEntity
8
CutLine
6
CONTINUOUS
62
8
370
-1
100
AcDbLine
10
329.261263
20
5.561818
11
342.238614
21
32.218477
0
LINE
5
129
100
AcDbEntity
8
ValleyLine
6
CONTINUOUS
62
1
370
-1
100
AcDbLine
10
344.255532
20
53.356491
11
323.220461
21
58.383313
0
LINE
5
12A
100
AcDbEntity
8
ValleyLine
6
CONTINUOUS
62
1
370
-1
100
AcDbLine
10
348.027528
20
94.837425
11
323.220461
21
58.383313
0
LINE
5
12B
100
AcDbEntity
8
CutLine
6
CONTINUOUS
62
8
370
-1
100
AcDbLine
10
344.255532
20
53.356491
11
348.027528
21
94.837425
0
LINE
5
12C
100
AcDbEntity
8
MountainLine
6
CONTINUOUS
62
5
370
-1
100
AcDbLine
10
313.600312
20
70.118998
11
337.306271
21
102.959217
0
LINE
5
12D
100
AcDbEntity
8
MountainLine
6
CONTINUOUS
62
5
370
-1
100
AcDbLine
10
337.306271
20
102.959217
11
323.749628
21
109.765557
0
LINE
5
12E
100
AcDbEntity
8
CutLine
6
CONTINUOUS
62
8
370
-1
100
AcDbLine
10
323.749628
20
109.765557
11
295.570147
21
74.910165
0
LINE
5
12F
100
AcDbEntity
8
CutLine
6
CONTINUOUS
62
8
370
-1
100
AcDbLine
10
295.570147
20
74.910165
11
313.600312
21
70.118998
0
LINE
5
130
100
AcDbEntity
8
CutLine
6
CONTINUOUS
62
8
370
-1
100
AcDbLine
10
348.027528
20
94.837425
11
337.306271
21
102.959217
0
LINE
5
131
100
AcDbEntity
8
MountainLine
6
CONTINUOUS
62
5
370
-1
100
AcDbLine
10
313.600312
20
70.118998
11
323.220461
21
58.383313
0
LINE
5
132
100
AcDbEntity
8
MountainLine
6
CONTINUOUS
62
5
370
-1
100
AcDbLine
10
337.306271
20
102.959217
11
355.873219
21
123.993629
0
LINE
5
133
100
AcDbEntity
8
MountainLine
6
CONTINUOUS
62
5
370
-1
100
AcDbLine
10
355.873219
20
123.993629
11
358.616884
21
162.367839
0
LINE
5
134
100
AcDbEntity
8
CutLine
6
CONTINUOUS
62
8
370
-1
100
AcDbLine
10
358.616884
20
162.367839
11
323.749628
21
109.765557
0
LINE
5
135
100
AcDbEntity
8
CutLine
6
CONTINUOUS
62
8
370
-1
100
AcDbLine
10
350.011365
20
98.544534
11
355.873219
21
123.993629
0
LINE
5
136
100
AcDbEntity
8
CutLine
6
CONTINUOUS
62
8
370
-1
100
AcDbLine
10
337.306271
20
102.959217
11
350.011365
21
98.544534
0
LINE
5
137
100
AcDbEntity
8
CutLine
6
CONTINUOUS
62
8
370
-1
100
AcDbLine
10
313.600312
20
70.118998
11
297.313723
21
40.142157
0
LINE
5
138
100
AcDbEntity
8
CutLine
6
CONTINUOUS
62
8
370
-1
100
AcDbLine
10
297.313723
20
40.142157
11
323.220461
21
58.383313
0
LINE
5
139
100
AcDbEntity
8
CutLine
6
CONTINUOUS
62
8
370
-1
100
AcDbLine
10
376.980265
20
146.993824
11
358.616884
21
162.367839
0
LINE
5
13A
100
AcDbEntity
8
CutLine
6
CONTINUOUS
62
8
370
-1
100
AcDbLine
10
355.873219
20
123.993629
11
376.980265
21
146.993824
0
LINE
5
13B
100
AcDbEntity
8
CutLine
6
CONTINUOUS
62
8
370
-1
100
AcDbLine
10
344.75656
20
153.420456
11
318.125325
21
162.367839
0
LINE
5
13C
100
AcDbEntity
8
ValleyLine
6
CONTINUOUS
62
1
370
-1
100
AcDbLine
10
318.125325
20
162.367839
11
326.643601
21
134.85367
0
LINE
5
13D
100
AcDbEntity
8
CutLine
6
CONTINUOUS
62
8
370
-1
100
AcDbLine
10
318.125325
20
162.367839
11
265.378577
21
148.963448
0
LINE
5
13E
100
AcDbEntity
8
MountainLine
6
CONTINUOUS
62
5
370
-1
100
AcDbLine
10
265.378577
20
148.963448
11
326.643601
21
134.85367
0
LINE
5
13F
100
AcDbEntity
8
MountainLine
6
CONTINUOUS
62
5
370
-1
100
AcDbLine
10
265.378577
20
148.963448
11
308.918523
21
103.01959
0
LINE
5
140
100
AcDbEntity
8
CutLine
6
CONTINUOUS
62
8
370
-1
100
AcDbLine
10
308.918523
20
103.01959
11
326.643601
21
134.85367
0
LINE
5
141
100
AcDbEntity
8
ValleyLine
6
CONTINUOUS
62
1
370
-1
100
AcDbLine
10
227.785208
20
45.507273
11
281.56484
21
74.004853
0
LINE
5
142
100
AcDbEntity
8
ValleyLine
6
CONTINUOUS
62
1
370
-1
100
AcDbLine
10
281.56484
20
74.004853
11
225
21
73.297506
0
LINE
5
143
100
AcDbEntity
8
MountainLine
6
CONTINUOUS
62
5
370
-1
100
AcDbLine
10
281.56484
20
74.004853
11
265.378577
21
148.963448
0
LINE
5
144
100
AcDbEntity
8
MountainLine
6
CONTINUOUS
62
5
370
-1
100
AcDbLine
10
265.378577
20
148.963448
11
225
21
73.297506
0
LINE
5
145
100
AcDbEntity
8
CutLine
6
CONTINUOUS
62
8
370
-1
100
AcDbLine
10
227.785208
20
45.507273
11
291.090603
21
52.031371
0
LINE
5
146
100
AcDbEntity
8
CutLine
6
CONTINUOUS
62
8
370
-1
100
AcDbLine
10
291.090603
20
52.031371
11
281.56484
21
74.004853
0
LINE
5
147
100
AcDbEntity
8
CutLine
6
CONTINUOUS
62
8
370
-1
100
AcDbLine
10
281.56484
20
74.004853
11
308.918523
21
103.01959
0
LINE
5
148
100
AcDbEntity
8
CutLine
6
CONTINUOUS
62
8
370
-1
100
AcDbLine
10
265.378577
20
148.963448
11
227.785208
21
109.610738
0
LINE
5
149
100
AcDbEntity
8
CutLine
6
CONTINUOUS
62
8
370
-1
100
AcDbLine
10
227.785208
20
109.610738
11
225
21
73.297506
0
LINE
5
14A
100
AcDbEntity
8
CutLine
6
CONTINUOUS
62
8
370
-1
100
AcDbLine
10
225
20
73.297506
11
227.785208
21
45.507273
0
LINE
5
14B
100
AcDbEntity
8
CutLine
6
CONTINUOUS
62
8
370
-1
100
AcDbLine
10
326.643601
20
134.85367
11
344.75656
21
153.420456
0
LINE
5
14C
100
AcDbEntity
8
MountainLine
6
CONTINUOUS
62
5
370
-1
100
AcDbLine
10
62.514759
20
64.620474
11
52.763741
21
52.993298
0
LINE
5
14D
100
AcDbEntity
8
CutLine
6
CONTINUOUS
62
8
370
-1
100
AcDbLine
10
52.763741
20
52.993298
11
78.464501
21
34.463058
0
LINE
5
14E
100
AcDbEntity
8
CutLine
6
CONTINUOUS
62
8
370
-1
100
AcDbLine
10
78.464501
20
34.463058
11
62.514759
21
64.620474
0
LINE
5
14F
100
AcDbEntity
8
CutLine
6
CONTINUOUS
62
8
370
-1
100
AcDbLine
10
80.597467
20
69.209351
11
52.810234
21
104.378246
0
LINE
5
150
100
AcDbEntity
8
MountainLine
6
CONTINUOUS
62
5
370
-1
100
AcDbLine
10
52.810234
20
104.378246
11
39.178191
21
97.724206
0
LINE
5
151
100
AcDbEntity
8
MountainLine
6
CONTINUOUS
62
5
370
-1
100
AcDbLine
10
39.178191
20
97.724206
11
62.514759
21
64.620474
0
LINE
5
152
100
AcDbEntity
8
ValleyLine
6
CONTINUOUS
62
1
370
-1
100
AcDbLine
10
28.36662
20
89.723032
11
52.763741
21
52.993298
0
LINE
5
153
100
AcDbEntity
8
CutLine
6
CONTINUOUS
62
8
370
-1
100
AcDbLine
10
39.178191
20
97.724206
11
28.36662
21
89.723032
0
LINE
5
154
100
AcDbEntity
8
MountainLine
6
CONTINUOUS
62
5
370
-1
100
AcDbLine
10
33.453662
20
27.043161
11
52.763741
21
52.993298
0
LINE
5
155
100
AcDbEntity
8
ValleyLine
6
CONTINUOUS
62
1
370
-1
100
AcDbLine
10
52.763741
20
52.993298
11
31.673675
21
48.202444
0
LINE
5
156
100
AcDbEntity
8
CutLine
6
CONTINUOUS
62
8
370
-1
100
AcDbLine
10
28.36662
20
89.723032
11
31.673675
21
48.202444
0
LINE
5
157
100
AcDbEntity
8
CutLine
6
CONTINUOUS
62
8
370
-1
100
AcDbLine
10
52.810234
20
104.378246
11
18.534461
21
157.367839
0
LINE
5
158
100
AcDbEntity
8
MountainLine
6
CONTINUOUS
62
5
370
-1
100
AcDbLine
10
18.534461
20
157.367839
11
20.848054
21
118.9653
0
LINE
5
159
100
AcDbEntity
8
MountainLine
6
CONTINUOUS
62
5
370
-1
100
AcDbLine
10
20.848054
20
118.9653
11
39.178191
21
97.724206
0
LINE
5
15A
100
AcDbEntity
8
CutLine
6
CONTINUOUS
62
8
370
-1
100
AcDbLine
10
26.424437
20
93.452133
11
39.178191
21
97.724206
0
LINE
5
15B
100
AcDbEntity
8
CutLine
6
CONTINUOUS
62
8
370
-1
100
AcDbLine
10
20.848054
20
118.9653
11
26.424437
21
93.452133
0
LINE
5
15C
100
AcDbEntity
8
CutLine
6
CONTINUOUS
62
8
370
-1
100
AcDbLine
10
62.514759
20
64.620474
11
80.597467
21
69.209351
0
LINE
5
15D
100
AcDbEntity
8
MountainLine
6
CONTINUOUS
62
5
370
-1
100
AcDbLine
10
33.453662
20
27.043161
11
67.47226
21
28.305548
0
LINE
5
15E
100
AcDbEntity
8
CutLine
6
CONTINUOUS
62
8
370
-1
100
AcDbLine
10
67.47226
20
28.305548
11
52.763741
21
52.993298
0
LINE
5
15F
100
AcDbEntity
8
CutLine
6
CONTINUOUS
62
8
370
-1
100
AcDbLine
10
0
20
142.200511
11
20.848054
21
118.9653
0
LINE
5
160
100
AcDbEntity
8
CutLine
6
CONTINUOUS
62
8
370
-1
100
AcDbLine
10
18.534461
20
157.367839
11
0
21
142.200511
0
LINE
5
161
100
AcDbEntity
8
CutLine
6
CONTINUOUS
62
8
370
-1
100
AcDbLine
10
46.131568
20
0.242792
11
80.392261
21
0
0
LINE
5
162
100
AcDbEntity
8
MountainLine
6
CONTINUOUS
62
5
370
-1
100
AcDbLine
10
33.453662
20
27.043161
11
80.392261
21
0
0
LINE
5
163
100
AcDbEntity
8
CutLine
6
CONTINUOUS
62
8
370
-1
100
AcDbLine
10
80.392261
20
0
11
67.47226
21
28.305548
0
LINE
5
164
100
AcDbEntity
8
CutLine
6
CONTINUOUS
62
8
370
-1
100
AcDbLine
10
33.453662
20
27.043161
11
46.131568
21
0.242792
0
LINE
5
165
100
AcDbEntity
8
CutLine
6
CONTINUOUS
62
8
370
-1
100
AcDbLine
10
219.907822
20
166.992873
11
239.396682
21
169.465782
0
LINE
5
166
100
AcDbEntity
8
MountainLine
6
CONTINUOUS
62
5
370
-1
100
AcDbLine
10
239.396682
20
169.465782
11
253.832981
21
221.570679
0
LINE
5
167
100
AcDbEntity
8
MountainLine
6
CONTINUOUS
62
5
370
-1
100
AcDbLine
10
253.832981
20
221.570679
11
219.907822
21
166.992873
0
LINE
5
168
100
AcDbEntity
8
CutLine
6
CONTINUOUS
62
8
370
-1
100
AcDbLine
10
209.498491
20
196.010169
11
219.907822
21
166.992873
0
LINE
5
169
100
AcDbEntity
8
ValleyLine
6
CONTINUOUS
62
1
370
-1
100
AcDbLine
10
253.832981
20
221.570679
11
209.498491
21
196.010169
0
LINE
5
16A
100
AcDbEntity
8
CutLine
6
CONTINUOUS
62
8
370
-1
100
AcDbLine
10
253.832981
20
221.570679
11
184.688318
21
222.750341
0
LINE
5
16B
100
AcDbEntity
8
CutLine
6
CONTINUOUS
62
8
370
-1
100
AcDbLine
10
184.688318
20
222.750341
11
209.498491
21
196.010169
0
LINE
5
16C
100
AcDbEntity
8
MountainLine
6
CONTINUOUS
62
5
370
-1
100
AcDbLine
10
281.008254
20
167.629244
11
253.832981
21
221.570679
0
LINE
5
16D
100
AcDbEntity
8
CutLine
6
CONTINUOUS
62
8
370
-1
100
AcDbLine
10
281.008254
20
167.629244
11
294.313352
21
200.257108
0
LINE
5
16E
100
AcDbEntity
8
MountainLine
6
CONTINUOUS
62
5
370
-1
100
AcDbLine
10
294.313352
20
200.257108
11
253.832981
21
221.570679
0
LINE
5
16F
100
AcDbEntity
8
CutLine
6
CONTINUOUS
62
8
370
-1
100
AcDbLine
10
294.313352
20
200.257108
11
322.977643
21
222.750341
0
LINE
5
170
100
AcDbEntity
8
CutLine
6
CONTINUOUS
62
8
370
-1
100
AcDbLine
10
322.977643
20
222.750341
11
253.832981
21
221.570679
0
LINE
5
171
100
AcDbEntity
8
CutLine
6
CONTINUOUS
62
8
370
-1
100
AcDbLine
10
239.396682
20
169.465782
11
281.008254
21
167.629244
0
LINE
5
172
100
AcDbEntity
8
CutLine
6
CONTINUOUS
62
8
370
-1
100
AcDbLine
10
183.289325
20
222.367839
11
114.144662
21
221.188178
0
LINE
5
173
100
AcDbEntity
8
ValleyLine
6
CONTINUOUS
62
1
370
-1
100
AcDbLine
10
114.144662
20
221.188178
11
158.479152
21
195.627667
0
LINE
5
174
100
AcDbEntity
8
MountainLine
6
CONTINUOUS
62
5
370
-1
100
AcDbLine
10
148.069821
20
166.610372
11
114.144662
21
221.188178
0
LINE
5
175
100
AcDbEntity
8
MountainLine
6
CONTINUOUS
62
5
370
-1
100
AcDbLine
10
114.144662
20
221.188178
11
128.580961
21
169.083281
0
LINE
5
176
100
AcDbEntity
8
CutLine
6
CONTINUOUS
62
8
370
-1
100
AcDbLine
10
128.580961
20
169.083281
11
148.069821
21
166.610372
0
LINE
5
177
100
AcDbEntity
8
CutLine
6
CONTINUOUS
62
8
370
-1
100
AcDbLine
10
148.069821
20
166.610372
11
158.479152
21
195.627667
0
LINE
5
178
100
AcDbEntity
8
CutLine
6
CONTINUOUS
62
8
370
-1
100
AcDbLine
10
158.479152
20
195.627667
11
183.289325
21
222.367839
0
LINE
5
179
100
AcDbEntity
8
MountainLine
6
CONTINUOUS
62
5
370
-1
100
AcDbLine
10
114.144662
20
221.188178
11
86.969389
21
167.246743
0
LINE
5
17A
100
AcDbEntity
8
MountainLine
6
CONTINUOUS
62
5
370
-1
100
AcDbLine
10
114.144662
20
221.188178
11
73.664291
21
199.874607
0
LINE
5
17B
100
AcDbEntity
8
CutLine
6
CONTINUOUS
62
8
370
-1
100
AcDbLine
10
73.664291
20
199.874607
11
86.969389
21
167.246743
0
LINE
5
17C
100
AcDbEntity
8
CutLine
6
CONTINUOUS
62
8
370
-1
100
AcDbLine
10
86.969389
20
167.246743
11
128.580961
21
169.083281
0
LINE
5
17D
100
AcDbEntity
8
CutLine
6
CONTINUOUS
62
8
370
-1
100
AcDbLine
10
45
20
222.367839
11
73.664291
21
199.874607
0
LINE
5
17E
100
AcDbEntity
8
CutLine
6
CONTINUOUS
62
8
370
-1
100
AcDbLine
10
114.144662
20
221.188178
11
45
21
222.367839
0
LINE
5
17F
100
AcDbEntity
8
CutLine
6
CONTINUOUS
62
8
370
-1
100
AcDbLine
10
186.221013
20
149.969855
11
227.392152
21
155.058658
0
LINE
5
180
100
AcDbEntity
8
MountainLine
6
CONTINUOUS
62
5
370
-1
100
AcDbLine
10
186.221013
20
201.607242
11
186.221013
21
149.969855
0
LINE
5
181
100
AcDbEntity
8
CutLine
6
CONTINUOUS
62
8
370
-1
100
AcDbLine
10
227.392152
20
155.058658
11
203.238932
21
169.407884
0
LINE
5
182
100
AcDbEntity
8
CutLine
6
CONTINUOUS
62
8
370
-1
100
AcDbLine
10
145.049874
20
155.058658
11
186.221013
21
149.969855
0
LINE
5
183
100
AcDbEntity
8
CutLine
6
CONTINUOUS
62
8
370
-1
100
AcDbLine
10
169.203095
20
169.407884
11
145.049874
21
155.058658
0
LINE
5
184
100
AcDbEntity
8
MountainLine
6
CONTINUOUS
62
5
370
-1
100
AcDbLine
10
327.574211
20
222.367839
11
319.339618
21
171.228655
0
LINE
5
185
100
AcDbEntity
8
MountainLine
6
CONTINUOUS
62
5
370
-1
100
AcDbLine
10
319.339618
20
171.228655
11
351.333727
21
202.119338
0
LINE
5
186
100
AcDbEntity
8
CutLine
6
CONTINUOUS
62
8
370
-1
100
AcDbLine
10
327.574211
20
222.367839
11
305
21
189.497124
0
LINE
5
187
100
AcDbEntity
8
CutLine
6
CONTINUOUS
62
8
370
-1
100
AcDbLine
10
351.333727
20
202.119338
11
327.574211
21
222.367839
0
LINE
5
188
100
AcDbEntity
8
MountainLine
6
CONTINUOUS
62
5
370
-1
100
AcDbLine
10
319.339618
20
171.228655
11
368.269136
21
182.239457
0
LINE
5
189
100
AcDbEntity
8
CutLine
6
CONTINUOUS
62
8
370
-1
100
AcDbLine
10
368.269136
20
182.239457
11
351.333727
21
202.119338
0
LINE
5
18A
100
AcDbEntity
8
CutLine
6
CONTINUOUS
62
8
370
-1
100
AcDbLine
10
305
20
189.497124
11
319.339618
21
171.228655
0
LINE
5
18B
100
AcDbEntity
8
CutLine
6
CONTINUOUS
62
8
370
-1
100
AcDbLine
10
340.175594
20
160.970792
11
368.269136
21
182.239457
0
LINE
5
18C
100
AcDbEntity
8
CutLine
6
CONTINUOUS
62
8
370
-1
100
AcDbLine
10
319.339618
20
171.228655
11
340.175594
21
160.970792
0
LINE
5
18D
100
AcDbEntity
8
CutLine
6
CONTINUOUS
62
8
370
-1
100
AcDbLine
10
28.89496
20
160.529434
11
49.318695
21
171.585323
0
LINE
5
18E
100
AcDbEntity
8
MountainLine
6
CONTINUOUS
62
5
370
-1
100
AcDbLine
10
49.318695
20
171.585323
11
0
21
180.695851
0
LINE
5
18F
100
AcDbEntity
8
CutLine
6
CONTINUOUS
62
8
370
-1
100
AcDbLine
10
0
20
180.695851
11
28.89496
21
160.529434
0
LINE
5
190
100
AcDbEntity
8
CutLine
6
CONTINUOUS
62
8
370
-1
100
AcDbLine
10
62.941172
20
190.394623
11
39.112778
21
222.367839
0
LINE
5
191
100
AcDbEntity
8
MountainLine
6
CONTINUOUS
62
5
370
-1
100
AcDbLine
10
49.318695
20
171.585323
11
16.154014
21
201.215734
0
LINE
5
192
100
AcDbEntity
8
CutLine
6
CONTINUOUS
62
8
370
-1
100
AcDbLine
10
16.154014
20
201.215734
11
0
21
180.695851
0
LINE
5
193
100
AcDbEntity
8
MountainLine
6
CONTINUOUS
62
5
370
-1
100
AcDbLine
10
49.318695
20
171.585323
11
39.112778
21
222.367839
0
LINE
5
194
100
AcDbEntity
8
CutLine
6
CONTINUOUS
62
8
370
-1
100
AcDbLine
10
39.112778
20
222.367839
11
16.154014
21
201.215734
0
LINE
5
195
100
AcDbEntity
8
CutLine
6
CONTINUOUS
62
8
370
-1
100
AcDbLine
10
49.318695
20
171.585323
11
62.941172
21
190.394623
0
LINE
5
196
100
AcDbEntity
8
MountainLine
6
CONTINUOUS
62
5
370
-1
100
AcDbLine
10
169.203095
20
169.407884
11
170.541605859
21
167.879024072
0
LINE
5
197
100
AcDbEntity
8
MountainLine
6
CONTINUOUS
62
5
370
-1
100
AcDbLine
10
170.541605859
20
167.879024072
11
186.221013
21
149.969855
0
LINE
5
198
100
AcDbEntity
8
MountainLine
6
CONTINUOUS
62
5
370
-1
100
AcDbLine
10
203.238932
20
169.407884
11
201.900421097
21
167.879024111
0
LINE
5
199
100
AcDbEntity
8
MountainLine
6
CONTINUOUS
62
5
370
-1
100
AcDbLine
10
201.900421097
20
167.879024111
11
186.221013
21
149.969855
0
LINE
5
19A
100
AcDbEntity
8
CutLine
6
CONTINUOUS
62
8
370
-1
100
AcDbLine
10
186.221013
20
201.607242
11
170.541605859
21
167.879024072
0
LINE
5
19B
100
AcDbEntity
8
CutLine
6
CONTINUOUS
62
8
370
-1
100
AcDbLine
10
201.900421097
20
167.879024111
11
186.221013
21
201.607242
0
LINE
5
19C
100
AcDbEntity
8
MountainLine
6
CONTINUOUS
62
5
370
-1
100
AcDbLine
10
342.238614
20
32.218477
11
344.062274949
21
51.3310887533
0
LINE
5
19D
100
AcDbEntity
8
MountainLine
6
CONTINUOUS
62
5
370
-1
100
AcDbLine
10
344.062274949
20
51.3310887533
11
344.255532
21
53.356491
0
LINE
5
19E
100
AcDbEntity
8
0
6
ByLayer
62
256
370
-1
100
AcDbLine
10
361.807414506
20
50.5399195582
11
344.062274949
21
51.3310887533
0
LINE
5
19F
100
AcDbEntity
8
CutLine
6
CONTINUOUS
62
8
370
-1
100
AcDbLine
10
342.238614
20
32.218477
11
361.807414506
21
50.5399195582
0
LINE
5
1A0
100
AcDbEntity
8
MountainLine
6
CONTINUOUS
62
5
370
-1
100
AcDbLine
10
31.673675
20
48.202444
11
31.8442297937
21
46.1750038298
0
LINE
5
1A1
100
AcDbEntity
8
MountainLine
6
CONTINUOUS
62
5
370
-1
100
AcDbLine
10
31.8442297937
20
46.1750038298
11
33.453662
21
27.043161
0
LINE
5
1A2
100
AcDbEntity
8
CutLine
6
CONTINUOUS
62
8
370
-1
100
AcDbLine
10
14.0913404658
20
45.5826805306
11
33.453662
21
27.043161
0
LINE
5
1A3
100
AcDbEntity
8
0
6
ByLayer
62
256
370
-1
100
AcDbLine
10
31.8442297937
20
46.1750038298
11
14.0913404658
21
45.5826805306
0
LINE
5
1A4
100
AcDbEntity
8
CutLine
6
CONTINUOUS
62
8
370
-1
100
AcDbLine
10
237.730346434
20
34.6505471474
11
214.409541
21
34.421132
0
LINE
5
1A5
100
AcDbEntity
8
CutLine
6
CONTINUOUS
62
8
370
-1
100
AcDbLine
10
209.560726
20
20.915228
11
237.730346434
21
34.6505471474
0
LINE
5
1A6
100
AcDbEntity
8
CutLine
6
CONTINUOUS
62
8
370
-1
100
AcDbLine
10
149.266612
20
34.421132
11
125.945806566
21
34.6505471474
0
LINE
5
1A7
100
AcDbEntity
8
CutLine
6
CONTINUOUS
62
8
370
-1
100
AcDbLine
10
125.945806566
20
34.6505471474
11
154.115427
21
20.915228
0
ENDSEC
0
SECTION
2
OBJECTS
0
DICTIONARY
5
C
330
0
100
AcDbDictionary
281
1
3
ACAD_GROUP
350
D
0
DICTIONARY
5
D
330
C
100
AcDbDictionary
281
1
0
ENDSEC
0
EOF
