ISO-10303-21;
HEADER;
/* Generated by software containing ST-Developer
 * from STEP Tools, Inc. (www.steptools.com) 
 */

FILE_DESCRIPTION(
/* description */ (''),
/* implementation_level */ '2;1');

FILE_NAME(
/* name */ 
'C:/Users/Tomas/Documents/Cat Feeder/3D Files/Electronics Door.step',
/* time_stamp */ '2022-07-12T14:57:59-07:00',
/* author */ (''),
/* organization */ (''),
/* preprocessor_version */ 'ST-DEVELOPER v19',
/* originating_system */ 'Autodesk Translation Framework v11.7.0.108',
/* authorisation */ '');

FILE_SCHEMA (('AUTOMOTIVE_DESIGN { 1 0 10303 214 3 1 1 }'));
ENDSEC;

DATA;
#10=MECHANICAL_DESIGN_GEOMETRIC_PRESENTATION_REPRESENTATION('',(#13),#591);
#11=SHAPE_REPRESENTATION_RELATIONSHIP('SRR','None',#598,#12);
#12=ADVANCED_BREP_SHAPE_REPRESENTATION('',(#14),#590);
#13=STYLED_ITEM('',(#607),#14);
#14=MANIFOLD_SOLID_BREP('Body1',#363);
#15=FACE_BOUND('',#60,.T.);
#16=FACE_BOUND('',#61,.T.);
#17=FACE_BOUND('',#63,.T.);
#18=FACE_BOUND('',#64,.T.);
#19=CIRCLE('',#388,0.14);
#20=CIRCLE('',#389,0.14);
#21=CIRCLE('',#391,0.140000000000001);
#22=CIRCLE('',#392,0.140000000000001);
#23=CYLINDRICAL_SURFACE('',#387,0.14);
#24=CYLINDRICAL_SURFACE('',#390,0.140000000000001);
#25=FACE_OUTER_BOUND('',#43,.T.);
#26=FACE_OUTER_BOUND('',#44,.T.);
#27=FACE_OUTER_BOUND('',#45,.T.);
#28=FACE_OUTER_BOUND('',#46,.T.);
#29=FACE_OUTER_BOUND('',#47,.T.);
#30=FACE_OUTER_BOUND('',#48,.T.);
#31=FACE_OUTER_BOUND('',#49,.T.);
#32=FACE_OUTER_BOUND('',#50,.T.);
#33=FACE_OUTER_BOUND('',#51,.T.);
#34=FACE_OUTER_BOUND('',#52,.T.);
#35=FACE_OUTER_BOUND('',#53,.T.);
#36=FACE_OUTER_BOUND('',#54,.T.);
#37=FACE_OUTER_BOUND('',#55,.T.);
#38=FACE_OUTER_BOUND('',#56,.T.);
#39=FACE_OUTER_BOUND('',#57,.T.);
#40=FACE_OUTER_BOUND('',#58,.T.);
#41=FACE_OUTER_BOUND('',#59,.T.);
#42=FACE_OUTER_BOUND('',#62,.T.);
#43=EDGE_LOOP('',(#233,#234,#235,#236));
#44=EDGE_LOOP('',(#237,#238,#239,#240));
#45=EDGE_LOOP('',(#241,#242,#243,#244));
#46=EDGE_LOOP('',(#245,#246,#247,#248));
#47=EDGE_LOOP('',(#249,#250,#251,#252,#253));
#48=EDGE_LOOP('',(#254,#255,#256,#257));
#49=EDGE_LOOP('',(#258,#259,#260,#261));
#50=EDGE_LOOP('',(#262,#263,#264,#265));
#51=EDGE_LOOP('',(#266,#267,#268,#269));
#52=EDGE_LOOP('',(#270,#271,#272,#273,#274));
#53=EDGE_LOOP('',(#275,#276,#277,#278));
#54=EDGE_LOOP('',(#279,#280,#281,#282));
#55=EDGE_LOOP('',(#283,#284,#285,#286));
#56=EDGE_LOOP('',(#287,#288,#289,#290));
#57=EDGE_LOOP('',(#291,#292,#293,#294));
#58=EDGE_LOOP('',(#295,#296,#297,#298,#299,#300,#301,#302,#303,#304,#305,
#306));
#59=EDGE_LOOP('',(#307,#308,#309,#310));
#60=EDGE_LOOP('',(#311));
#61=EDGE_LOOP('',(#312));
#62=EDGE_LOOP('',(#313,#314,#315,#316,#317,#318,#319,#320,#321,#322,#323,
#324,#325,#326));
#63=EDGE_LOOP('',(#327));
#64=EDGE_LOOP('',(#328));
#65=LINE('',#493,#109);
#66=LINE('',#495,#110);
#67=LINE('',#497,#111);
#68=LINE('',#498,#112);
#69=LINE('',#501,#113);
#70=LINE('',#503,#114);
#71=LINE('',#504,#115);
#72=LINE('',#507,#116);
#73=LINE('',#509,#117);
#74=LINE('',#510,#118);
#75=LINE('',#513,#119);
#76=LINE('',#515,#120);
#77=LINE('',#516,#121);
#78=LINE('',#518,#122);
#79=LINE('',#522,#123);
#80=LINE('',#524,#124);
#81=LINE('',#526,#125);
#82=LINE('',#527,#126);
#83=LINE('',#530,#127);
#84=LINE('',#532,#128);
#85=LINE('',#533,#129);
#86=LINE('',#536,#130);
#87=LINE('',#538,#131);
#88=LINE('',#539,#132);
#89=LINE('',#542,#133);
#90=LINE('',#544,#134);
#91=LINE('',#545,#135);
#92=LINE('',#547,#136);
#93=LINE('',#552,#137);
#94=LINE('',#558,#138);
#95=LINE('',#563,#139);
#96=LINE('',#565,#140);
#97=LINE('',#567,#141);
#98=LINE('',#568,#142);
#99=LINE('',#571,#143);
#100=LINE('',#573,#144);
#101=LINE('',#574,#145);
#102=LINE('',#577,#146);
#103=LINE('',#579,#147);
#104=LINE('',#580,#148);
#105=LINE('',#582,#149);
#106=LINE('',#583,#150);
#107=LINE('',#584,#151);
#108=LINE('',#585,#152);
#109=VECTOR('',#403,1.);
#110=VECTOR('',#404,1.);
#111=VECTOR('',#405,1.);
#112=VECTOR('',#406,1.);
#113=VECTOR('',#409,1.);
#114=VECTOR('',#410,1.);
#115=VECTOR('',#411,1.);
#116=VECTOR('',#414,1.);
#117=VECTOR('',#415,1.);
#118=VECTOR('',#416,1.);
#119=VECTOR('',#419,1.);
#120=VECTOR('',#420,1.);
#121=VECTOR('',#421,1.);
#122=VECTOR('',#424,1.);
#123=VECTOR('',#427,1.);
#124=VECTOR('',#428,1.);
#125=VECTOR('',#429,1.);
#126=VECTOR('',#430,1.);
#127=VECTOR('',#433,1.);
#128=VECTOR('',#434,1.);
#129=VECTOR('',#435,1.);
#130=VECTOR('',#438,1.);
#131=VECTOR('',#439,1.);
#132=VECTOR('',#440,1.);
#133=VECTOR('',#443,1.);
#134=VECTOR('',#444,1.);
#135=VECTOR('',#445,1.);
#136=VECTOR('',#448,1.);
#137=VECTOR('',#453,0.14);
#138=VECTOR('',#460,0.140000000000001);
#139=VECTOR('',#465,1.);
#140=VECTOR('',#466,1.);
#141=VECTOR('',#467,1.);
#142=VECTOR('',#468,1.);
#143=VECTOR('',#471,1.);
#144=VECTOR('',#472,1.);
#145=VECTOR('',#473,1.);
#146=VECTOR('',#476,1.);
#147=VECTOR('',#477,1.);
#148=VECTOR('',#478,1.);
#149=VECTOR('',#481,1.);
#150=VECTOR('',#482,1.);
#151=VECTOR('',#483,1.);
#152=VECTOR('',#484,1.);
#153=VERTEX_POINT('',#491);
#154=VERTEX_POINT('',#492);
#155=VERTEX_POINT('',#494);
#156=VERTEX_POINT('',#496);
#157=VERTEX_POINT('',#500);
#158=VERTEX_POINT('',#502);
#159=VERTEX_POINT('',#506);
#160=VERTEX_POINT('',#508);
#161=VERTEX_POINT('',#512);
#162=VERTEX_POINT('',#514);
#163=VERTEX_POINT('',#520);
#164=VERTEX_POINT('',#521);
#165=VERTEX_POINT('',#523);
#166=VERTEX_POINT('',#525);
#167=VERTEX_POINT('',#529);
#168=VERTEX_POINT('',#531);
#169=VERTEX_POINT('',#535);
#170=VERTEX_POINT('',#537);
#171=VERTEX_POINT('',#541);
#172=VERTEX_POINT('',#543);
#173=VERTEX_POINT('',#549);
#174=VERTEX_POINT('',#551);
#175=VERTEX_POINT('',#555);
#176=VERTEX_POINT('',#557);
#177=VERTEX_POINT('',#561);
#178=VERTEX_POINT('',#562);
#179=VERTEX_POINT('',#564);
#180=VERTEX_POINT('',#566);
#181=VERTEX_POINT('',#570);
#182=VERTEX_POINT('',#572);
#183=VERTEX_POINT('',#576);
#184=VERTEX_POINT('',#578);
#185=EDGE_CURVE('',#153,#154,#65,.T.);
#186=EDGE_CURVE('',#155,#153,#66,.T.);
#187=EDGE_CURVE('',#156,#155,#67,.T.);
#188=EDGE_CURVE('',#154,#156,#68,.T.);
#189=EDGE_CURVE('',#154,#157,#69,.T.);
#190=EDGE_CURVE('',#158,#156,#70,.T.);
#191=EDGE_CURVE('',#157,#158,#71,.T.);
#192=EDGE_CURVE('',#157,#159,#72,.T.);
#193=EDGE_CURVE('',#160,#158,#73,.T.);
#194=EDGE_CURVE('',#159,#160,#74,.T.);
#195=EDGE_CURVE('',#159,#161,#75,.T.);
#196=EDGE_CURVE('',#162,#160,#76,.T.);
#197=EDGE_CURVE('',#161,#162,#77,.T.);
#198=EDGE_CURVE('',#162,#155,#78,.T.);
#199=EDGE_CURVE('',#163,#164,#79,.T.);
#200=EDGE_CURVE('',#163,#165,#80,.T.);
#201=EDGE_CURVE('',#166,#165,#81,.T.);
#202=EDGE_CURVE('',#164,#166,#82,.T.);
#203=EDGE_CURVE('',#167,#164,#83,.T.);
#204=EDGE_CURVE('',#168,#166,#84,.T.);
#205=EDGE_CURVE('',#167,#168,#85,.T.);
#206=EDGE_CURVE('',#169,#167,#86,.T.);
#207=EDGE_CURVE('',#170,#168,#87,.T.);
#208=EDGE_CURVE('',#169,#170,#88,.T.);
#209=EDGE_CURVE('',#163,#171,#89,.T.);
#210=EDGE_CURVE('',#172,#171,#90,.T.);
#211=EDGE_CURVE('',#165,#172,#91,.T.);
#212=EDGE_CURVE('',#170,#172,#92,.T.);
#213=EDGE_CURVE('',#173,#173,#19,.T.);
#214=EDGE_CURVE('',#173,#174,#93,.T.);
#215=EDGE_CURVE('',#174,#174,#20,.T.);
#216=EDGE_CURVE('',#175,#175,#21,.T.);
#217=EDGE_CURVE('',#175,#176,#94,.T.);
#218=EDGE_CURVE('',#176,#176,#22,.T.);
#219=EDGE_CURVE('',#177,#178,#95,.T.);
#220=EDGE_CURVE('',#178,#179,#96,.T.);
#221=EDGE_CURVE('',#180,#179,#97,.T.);
#222=EDGE_CURVE('',#177,#180,#98,.T.);
#223=EDGE_CURVE('',#181,#177,#99,.T.);
#224=EDGE_CURVE('',#182,#180,#100,.T.);
#225=EDGE_CURVE('',#181,#182,#101,.T.);
#226=EDGE_CURVE('',#183,#181,#102,.T.);
#227=EDGE_CURVE('',#184,#182,#103,.T.);
#228=EDGE_CURVE('',#183,#184,#104,.T.);
#229=EDGE_CURVE('',#179,#153,#105,.T.);
#230=EDGE_CURVE('',#178,#183,#106,.T.);
#231=EDGE_CURVE('',#169,#184,#107,.T.);
#232=EDGE_CURVE('',#161,#171,#108,.T.);
#233=ORIENTED_EDGE('',*,*,#185,.F.);
#234=ORIENTED_EDGE('',*,*,#186,.F.);
#235=ORIENTED_EDGE('',*,*,#187,.F.);
#236=ORIENTED_EDGE('',*,*,#188,.F.);
#237=ORIENTED_EDGE('',*,*,#189,.F.);
#238=ORIENTED_EDGE('',*,*,#188,.T.);
#239=ORIENTED_EDGE('',*,*,#190,.F.);
#240=ORIENTED_EDGE('',*,*,#191,.F.);
#241=ORIENTED_EDGE('',*,*,#192,.F.);
#242=ORIENTED_EDGE('',*,*,#191,.T.);
#243=ORIENTED_EDGE('',*,*,#193,.F.);
#244=ORIENTED_EDGE('',*,*,#194,.F.);
#245=ORIENTED_EDGE('',*,*,#195,.F.);
#246=ORIENTED_EDGE('',*,*,#194,.T.);
#247=ORIENTED_EDGE('',*,*,#196,.F.);
#248=ORIENTED_EDGE('',*,*,#197,.F.);
#249=ORIENTED_EDGE('',*,*,#198,.F.);
#250=ORIENTED_EDGE('',*,*,#196,.T.);
#251=ORIENTED_EDGE('',*,*,#193,.T.);
#252=ORIENTED_EDGE('',*,*,#190,.T.);
#253=ORIENTED_EDGE('',*,*,#187,.T.);
#254=ORIENTED_EDGE('',*,*,#199,.F.);
#255=ORIENTED_EDGE('',*,*,#200,.T.);
#256=ORIENTED_EDGE('',*,*,#201,.F.);
#257=ORIENTED_EDGE('',*,*,#202,.F.);
#258=ORIENTED_EDGE('',*,*,#203,.T.);
#259=ORIENTED_EDGE('',*,*,#202,.T.);
#260=ORIENTED_EDGE('',*,*,#204,.F.);
#261=ORIENTED_EDGE('',*,*,#205,.F.);
#262=ORIENTED_EDGE('',*,*,#206,.T.);
#263=ORIENTED_EDGE('',*,*,#205,.T.);
#264=ORIENTED_EDGE('',*,*,#207,.F.);
#265=ORIENTED_EDGE('',*,*,#208,.F.);
#266=ORIENTED_EDGE('',*,*,#209,.T.);
#267=ORIENTED_EDGE('',*,*,#210,.F.);
#268=ORIENTED_EDGE('',*,*,#211,.F.);
#269=ORIENTED_EDGE('',*,*,#200,.F.);
#270=ORIENTED_EDGE('',*,*,#211,.T.);
#271=ORIENTED_EDGE('',*,*,#212,.F.);
#272=ORIENTED_EDGE('',*,*,#207,.T.);
#273=ORIENTED_EDGE('',*,*,#204,.T.);
#274=ORIENTED_EDGE('',*,*,#201,.T.);
#275=ORIENTED_EDGE('',*,*,#213,.F.);
#276=ORIENTED_EDGE('',*,*,#214,.T.);
#277=ORIENTED_EDGE('',*,*,#215,.F.);
#278=ORIENTED_EDGE('',*,*,#214,.F.);
#279=ORIENTED_EDGE('',*,*,#216,.F.);
#280=ORIENTED_EDGE('',*,*,#217,.T.);
#281=ORIENTED_EDGE('',*,*,#218,.F.);
#282=ORIENTED_EDGE('',*,*,#217,.F.);
#283=ORIENTED_EDGE('',*,*,#219,.T.);
#284=ORIENTED_EDGE('',*,*,#220,.T.);
#285=ORIENTED_EDGE('',*,*,#221,.F.);
#286=ORIENTED_EDGE('',*,*,#222,.F.);
#287=ORIENTED_EDGE('',*,*,#223,.T.);
#288=ORIENTED_EDGE('',*,*,#222,.T.);
#289=ORIENTED_EDGE('',*,*,#224,.F.);
#290=ORIENTED_EDGE('',*,*,#225,.F.);
#291=ORIENTED_EDGE('',*,*,#226,.T.);
#292=ORIENTED_EDGE('',*,*,#225,.T.);
#293=ORIENTED_EDGE('',*,*,#227,.F.);
#294=ORIENTED_EDGE('',*,*,#228,.F.);
#295=ORIENTED_EDGE('',*,*,#186,.T.);
#296=ORIENTED_EDGE('',*,*,#229,.F.);
#297=ORIENTED_EDGE('',*,*,#220,.F.);
#298=ORIENTED_EDGE('',*,*,#230,.T.);
#299=ORIENTED_EDGE('',*,*,#228,.T.);
#300=ORIENTED_EDGE('',*,*,#231,.F.);
#301=ORIENTED_EDGE('',*,*,#208,.T.);
#302=ORIENTED_EDGE('',*,*,#212,.T.);
#303=ORIENTED_EDGE('',*,*,#210,.T.);
#304=ORIENTED_EDGE('',*,*,#232,.F.);
#305=ORIENTED_EDGE('',*,*,#197,.T.);
#306=ORIENTED_EDGE('',*,*,#198,.T.);
#307=ORIENTED_EDGE('',*,*,#230,.F.);
#308=ORIENTED_EDGE('',*,*,#219,.F.);
#309=ORIENTED_EDGE('',*,*,#223,.F.);
#310=ORIENTED_EDGE('',*,*,#226,.F.);
#311=ORIENTED_EDGE('',*,*,#218,.T.);
#312=ORIENTED_EDGE('',*,*,#215,.T.);
#313=ORIENTED_EDGE('',*,*,#229,.T.);
#314=ORIENTED_EDGE('',*,*,#185,.T.);
#315=ORIENTED_EDGE('',*,*,#189,.T.);
#316=ORIENTED_EDGE('',*,*,#192,.T.);
#317=ORIENTED_EDGE('',*,*,#195,.T.);
#318=ORIENTED_EDGE('',*,*,#232,.T.);
#319=ORIENTED_EDGE('',*,*,#209,.F.);
#320=ORIENTED_EDGE('',*,*,#199,.T.);
#321=ORIENTED_EDGE('',*,*,#203,.F.);
#322=ORIENTED_EDGE('',*,*,#206,.F.);
#323=ORIENTED_EDGE('',*,*,#231,.T.);
#324=ORIENTED_EDGE('',*,*,#227,.T.);
#325=ORIENTED_EDGE('',*,*,#224,.T.);
#326=ORIENTED_EDGE('',*,*,#221,.T.);
#327=ORIENTED_EDGE('',*,*,#216,.T.);
#328=ORIENTED_EDGE('',*,*,#213,.T.);
#329=PLANE('',#377);
#330=PLANE('',#378);
#331=PLANE('',#379);
#332=PLANE('',#380);
#333=PLANE('',#381);
#334=PLANE('',#382);
#335=PLANE('',#383);
#336=PLANE('',#384);
#337=PLANE('',#385);
#338=PLANE('',#386);
#339=PLANE('',#393);
#340=PLANE('',#394);
#341=PLANE('',#395);
#342=PLANE('',#396);
#343=PLANE('',#397);
#344=PLANE('',#398);
#345=ADVANCED_FACE('',(#25),#329,.T.);
#346=ADVANCED_FACE('',(#26),#330,.T.);
#347=ADVANCED_FACE('',(#27),#331,.T.);
#348=ADVANCED_FACE('',(#28),#332,.T.);
#349=ADVANCED_FACE('',(#29),#333,.T.);
#350=ADVANCED_FACE('',(#30),#334,.T.);
#351=ADVANCED_FACE('',(#31),#335,.T.);
#352=ADVANCED_FACE('',(#32),#336,.T.);
#353=ADVANCED_FACE('',(#33),#337,.T.);
#354=ADVANCED_FACE('',(#34),#338,.T.);
#355=ADVANCED_FACE('',(#35),#23,.F.);
#356=ADVANCED_FACE('',(#36),#24,.F.);
#357=ADVANCED_FACE('',(#37),#339,.T.);
#358=ADVANCED_FACE('',(#38),#340,.T.);
#359=ADVANCED_FACE('',(#39),#341,.T.);
#360=ADVANCED_FACE('',(#40),#342,.T.);
#361=ADVANCED_FACE('',(#41,#15,#16),#343,.T.);
#362=ADVANCED_FACE('',(#42,#17,#18),#344,.F.);
#363=CLOSED_SHELL('',(#345,#346,#347,#348,#349,#350,#351,#352,#353,#354,
#355,#356,#357,#358,#359,#360,#361,#362));
#364=DERIVED_UNIT_ELEMENT(#366,1.);
#365=DERIVED_UNIT_ELEMENT(#593,-3.);
#366=(
MASS_UNIT()
NAMED_UNIT(*)
SI_UNIT(.KILO.,.GRAM.)
);
#367=DERIVED_UNIT((#364,#365));
#368=MEASURE_REPRESENTATION_ITEM('density measure',
POSITIVE_RATIO_MEASURE(7850.),#367);
#369=PROPERTY_DEFINITION_REPRESENTATION(#374,#371);
#370=PROPERTY_DEFINITION_REPRESENTATION(#375,#372);
#371=REPRESENTATION('material name',(#373),#590);
#372=REPRESENTATION('density',(#368),#590);
#373=DESCRIPTIVE_REPRESENTATION_ITEM('Steel','Steel');
#374=PROPERTY_DEFINITION('material property','material name',#600);
#375=PROPERTY_DEFINITION('material property','density of part',#600);
#376=AXIS2_PLACEMENT_3D('placement',#489,#399,#400);
#377=AXIS2_PLACEMENT_3D('',#490,#401,#402);
#378=AXIS2_PLACEMENT_3D('',#499,#407,#408);
#379=AXIS2_PLACEMENT_3D('',#505,#412,#413);
#380=AXIS2_PLACEMENT_3D('',#511,#417,#418);
#381=AXIS2_PLACEMENT_3D('',#517,#422,#423);
#382=AXIS2_PLACEMENT_3D('',#519,#425,#426);
#383=AXIS2_PLACEMENT_3D('',#528,#431,#432);
#384=AXIS2_PLACEMENT_3D('',#534,#436,#437);
#385=AXIS2_PLACEMENT_3D('',#540,#441,#442);
#386=AXIS2_PLACEMENT_3D('',#546,#446,#447);
#387=AXIS2_PLACEMENT_3D('',#548,#449,#450);
#388=AXIS2_PLACEMENT_3D('',#550,#451,#452);
#389=AXIS2_PLACEMENT_3D('',#553,#454,#455);
#390=AXIS2_PLACEMENT_3D('',#554,#456,#457);
#391=AXIS2_PLACEMENT_3D('',#556,#458,#459);
#392=AXIS2_PLACEMENT_3D('',#559,#461,#462);
#393=AXIS2_PLACEMENT_3D('',#560,#463,#464);
#394=AXIS2_PLACEMENT_3D('',#569,#469,#470);
#395=AXIS2_PLACEMENT_3D('',#575,#474,#475);
#396=AXIS2_PLACEMENT_3D('',#581,#479,#480);
#397=AXIS2_PLACEMENT_3D('',#586,#485,#486);
#398=AXIS2_PLACEMENT_3D('',#587,#487,#488);
#399=DIRECTION('axis',(0.,0.,1.));
#400=DIRECTION('refdir',(1.,0.,0.));
#401=DIRECTION('center_axis',(0.999999999945832,1.04084636382489E-5,0.));
#402=DIRECTION('ref_axis',(-1.04084636382489E-5,0.999999999945832,0.));
#403=DIRECTION('',(1.04084636382489E-5,-0.999999999945832,0.));
#404=DIRECTION('',(0.,0.,-1.));
#405=DIRECTION('',(-1.04084636382489E-5,0.999999999945832,0.));
#406=DIRECTION('',(0.,0.,1.));
#407=DIRECTION('center_axis',(1.,0.,0.));
#408=DIRECTION('ref_axis',(0.,1.,0.));
#409=DIRECTION('',(0.,-1.,0.));
#410=DIRECTION('',(0.,1.,0.));
#411=DIRECTION('',(0.,0.,1.));
#412=DIRECTION('center_axis',(0.,-1.,0.));
#413=DIRECTION('ref_axis',(1.,0.,0.));
#414=DIRECTION('',(-1.,0.,0.));
#415=DIRECTION('',(1.,0.,0.));
#416=DIRECTION('',(0.,0.,1.));
#417=DIRECTION('center_axis',(-1.,0.,0.));
#418=DIRECTION('ref_axis',(0.,-1.,0.));
#419=DIRECTION('',(0.,1.,0.));
#420=DIRECTION('',(0.,-1.,0.));
#421=DIRECTION('',(0.,0.,1.));
#422=DIRECTION('center_axis',(0.,0.,1.));
#423=DIRECTION('ref_axis',(1.,0.,0.));
#424=DIRECTION('',(1.,0.,0.));
#425=DIRECTION('center_axis',(0.,-1.,0.));
#426=DIRECTION('ref_axis',(1.,0.,0.));
#427=DIRECTION('',(-1.,0.,0.));
#428=DIRECTION('',(0.,0.,1.));
#429=DIRECTION('',(1.,0.,0.));
#430=DIRECTION('',(0.,0.,1.));
#431=DIRECTION('center_axis',(-1.,0.,0.));
#432=DIRECTION('ref_axis',(0.,-1.,0.));
#433=DIRECTION('',(0.,-1.,0.));
#434=DIRECTION('',(0.,-1.,0.));
#435=DIRECTION('',(0.,0.,1.));
#436=DIRECTION('center_axis',(-0.999999999995929,-2.85357306666331E-6,0.));
#437=DIRECTION('ref_axis',(2.85357306666331E-6,-0.999999999995929,0.));
#438=DIRECTION('',(2.85357306666331E-6,-0.999999999995929,0.));
#439=DIRECTION('',(2.85357306666331E-6,-0.999999999995929,0.));
#440=DIRECTION('',(0.,0.,1.));
#441=DIRECTION('center_axis',(1.,0.,0.));
#442=DIRECTION('ref_axis',(0.,1.,0.));
#443=DIRECTION('',(0.,1.,0.));
#444=DIRECTION('',(0.,0.,-1.));
#445=DIRECTION('',(0.,1.,0.));
#446=DIRECTION('center_axis',(0.,0.,1.));
#447=DIRECTION('ref_axis',(1.,0.,0.));
#448=DIRECTION('',(1.,0.,0.));
#449=DIRECTION('center_axis',(0.,0.,-1.));
#450=DIRECTION('ref_axis',(1.,0.,0.));
#451=DIRECTION('center_axis',(0.,0.,1.));
#452=DIRECTION('ref_axis',(1.,0.,0.));
#453=DIRECTION('',(0.,0.,1.));
#454=DIRECTION('center_axis',(0.,0.,-1.));
#455=DIRECTION('ref_axis',(1.,0.,0.));
#456=DIRECTION('center_axis',(0.,0.,-1.));
#457=DIRECTION('ref_axis',(1.,0.,0.));
#458=DIRECTION('center_axis',(0.,0.,1.));
#459=DIRECTION('ref_axis',(1.,0.,0.));
#460=DIRECTION('',(0.,0.,1.));
#461=DIRECTION('center_axis',(0.,0.,-1.));
#462=DIRECTION('ref_axis',(1.,0.,0.));
#463=DIRECTION('center_axis',(1.,0.,0.));
#464=DIRECTION('ref_axis',(0.,-1.,0.));
#465=DIRECTION('',(0.,-1.,0.));
#466=DIRECTION('',(0.,0.,-1.));
#467=DIRECTION('',(0.,-1.,0.));
#468=DIRECTION('',(0.,0.,-1.));
#469=DIRECTION('center_axis',(0.,1.,0.));
#470=DIRECTION('ref_axis',(1.,0.,0.));
#471=DIRECTION('',(1.,0.,0.));
#472=DIRECTION('',(1.,0.,0.));
#473=DIRECTION('',(0.,0.,-1.));
#474=DIRECTION('center_axis',(-1.,0.,0.));
#475=DIRECTION('ref_axis',(0.,1.,0.));
#476=DIRECTION('',(0.,1.,0.));
#477=DIRECTION('',(0.,1.,0.));
#478=DIRECTION('',(0.,0.,-1.));
#479=DIRECTION('center_axis',(0.,-1.,0.));
#480=DIRECTION('ref_axis',(-1.,0.,0.));
#481=DIRECTION('',(-1.,0.,0.));
#482=DIRECTION('',(-1.,0.,0.));
#483=DIRECTION('',(-1.,0.,0.));
#484=DIRECTION('',(-1.,0.,0.));
#485=DIRECTION('center_axis',(0.,0.,1.));
#486=DIRECTION('ref_axis',(1.,0.,0.));
#487=DIRECTION('center_axis',(0.,0.,1.));
#488=DIRECTION('ref_axis',(1.,0.,0.));
#489=CARTESIAN_POINT('',(0.,0.,0.));
#490=CARTESIAN_POINT('Origin',(13.9500002086163,0.500000000000004,5.8));
#491=CARTESIAN_POINT('',(13.9499996881932,0.549999987706542,5.8));
#492=CARTESIAN_POINT('',(13.9500002086163,0.500000000000004,5.8));
#493=CARTESIAN_POINT('',(13.9499996881932,0.549999987706542,5.8));
#494=CARTESIAN_POINT('',(13.9499996881932,0.549999987706542,5.9));
#495=CARTESIAN_POINT('',(13.9499996881931,0.55,5.9));
#496=CARTESIAN_POINT('',(13.9500002086163,0.500000000000004,5.9));
#497=CARTESIAN_POINT('',(13.9499996881932,0.549999987706542,5.9));
#498=CARTESIAN_POINT('',(13.9500002086163,0.500000000000004,5.8));
#499=CARTESIAN_POINT('Origin',(13.9500002086163,0.350000000000004,5.8));
#500=CARTESIAN_POINT('',(13.9500002086163,0.350000000000004,5.8));
#501=CARTESIAN_POINT('',(13.9500002086163,0.500000000000004,5.8));
#502=CARTESIAN_POINT('',(13.9500002086163,0.350000000000004,5.9));
#503=CARTESIAN_POINT('',(13.9500002086163,0.500000000000004,5.9));
#504=CARTESIAN_POINT('',(13.9500002086163,0.350000000000004,5.8));
#505=CARTESIAN_POINT('Origin',(13.5000002086163,0.350000000000004,5.8));
#506=CARTESIAN_POINT('',(13.5000002086163,0.350000000000004,5.8));
#507=CARTESIAN_POINT('',(13.9500002086163,0.350000000000004,5.8));
#508=CARTESIAN_POINT('',(13.5000002086163,0.350000000000004,5.9));
#509=CARTESIAN_POINT('',(13.9500002086163,0.350000000000004,5.9));
#510=CARTESIAN_POINT('',(13.5000002086163,0.350000000000004,5.8));
#511=CARTESIAN_POINT('Origin',(13.5000002086163,0.549999987706542,5.8));
#512=CARTESIAN_POINT('',(13.5000002086163,0.549999987706542,5.8));
#513=CARTESIAN_POINT('',(13.5000002086163,0.500000000000004,5.8));
#514=CARTESIAN_POINT('',(13.5000002086163,0.549999987706542,5.9));
#515=CARTESIAN_POINT('',(13.5000002086163,0.500000000000004,5.9));
#516=CARTESIAN_POINT('',(13.5000002086163,0.55,5.9));
#517=CARTESIAN_POINT('Origin',(13.7250002086163,0.449999993853273,5.9));
#518=CARTESIAN_POINT('',(14.0875001043081,0.55,5.9));
#519=CARTESIAN_POINT('Origin',(4.05000005215406,0.350000000000004,5.8));
#520=CARTESIAN_POINT('',(4.50000005215406,0.350000000000004,5.8));
#521=CARTESIAN_POINT('',(4.05000005215406,0.350000000000004,5.8));
#522=CARTESIAN_POINT('',(4.50000005215406,0.350000000000004,5.8));
#523=CARTESIAN_POINT('',(4.50000005215406,0.350000000000004,5.9));
#524=CARTESIAN_POINT('',(4.50000005215406,0.350000000000004,5.8));
#525=CARTESIAN_POINT('',(4.05000005215406,0.350000000000004,5.9));
#526=CARTESIAN_POINT('',(4.50000005215406,0.350000000000004,5.9));
#527=CARTESIAN_POINT('',(4.05000005215406,0.350000000000004,5.8));
#528=CARTESIAN_POINT('Origin',(4.05000005215406,0.500000000000004,5.8));
#529=CARTESIAN_POINT('',(4.05000005215406,0.500000000000004,5.8));
#530=CARTESIAN_POINT('',(4.05000005215406,0.500000000000004,5.8));
#531=CARTESIAN_POINT('',(4.05000005215406,0.500000000000004,5.9));
#532=CARTESIAN_POINT('',(4.05000005215406,0.500000000000004,5.9));
#533=CARTESIAN_POINT('',(4.05000005215406,0.500000000000004,5.8));
#534=CARTESIAN_POINT('Origin',(4.04999990947545,0.549999987706542,5.8));
#535=CARTESIAN_POINT('',(4.04999990947545,0.549999987706542,5.8));
#536=CARTESIAN_POINT('',(4.04999990947545,0.549999987706542,5.8));
#537=CARTESIAN_POINT('',(4.04999990947545,0.549999987706542,5.9));
#538=CARTESIAN_POINT('',(4.04999990947545,0.549999987706542,5.9));
#539=CARTESIAN_POINT('',(4.04999990947541,0.55,5.9));
#540=CARTESIAN_POINT('Origin',(4.50000005215406,0.350000000000004,5.8));
#541=CARTESIAN_POINT('',(4.50000005215406,0.549999987706542,5.8));
#542=CARTESIAN_POINT('',(4.50000005215406,0.500000000000004,5.8));
#543=CARTESIAN_POINT('',(4.50000005215406,0.549999987706542,5.9));
#544=CARTESIAN_POINT('',(4.50000005215406,0.55,5.9));
#545=CARTESIAN_POINT('',(4.50000005215406,0.500000000000004,5.9));
#546=CARTESIAN_POINT('Origin',(4.27499998081475,0.449999993853273,5.9));
#547=CARTESIAN_POINT('',(9.36249999040738,0.55,5.9));
#548=CARTESIAN_POINT('Origin',(4.50000006705523,6.50000009685755,6.));
#549=CARTESIAN_POINT('',(4.36000006705522,6.50000009685755,5.8));
#550=CARTESIAN_POINT('Origin',(4.50000006705523,6.50000009685755,5.8));
#551=CARTESIAN_POINT('',(4.36000006705523,6.50000009685755,6.));
#552=CARTESIAN_POINT('',(4.36000006705523,6.50000009685755,6.));
#553=CARTESIAN_POINT('Origin',(4.50000006705523,6.50000009685755,6.));
#554=CARTESIAN_POINT('Origin',(13.5000002011657,6.50000009685755,6.));
#555=CARTESIAN_POINT('',(13.3600002011657,6.50000009685755,5.8));
#556=CARTESIAN_POINT('Origin',(13.5000002011657,6.50000009685755,5.8));
#557=CARTESIAN_POINT('',(13.3600002011657,6.50000009685755,6.));
#558=CARTESIAN_POINT('',(13.3600002011657,6.50000009685755,6.));
#559=CARTESIAN_POINT('Origin',(13.5000002011657,6.50000009685755,6.));
#560=CARTESIAN_POINT('Origin',(14.45,6.95,6.));
#561=CARTESIAN_POINT('',(14.45,6.95,6.));
#562=CARTESIAN_POINT('',(14.45,0.55,6.));
#563=CARTESIAN_POINT('',(14.45,6.95,6.));
#564=CARTESIAN_POINT('',(14.45,0.55,5.8));
#565=CARTESIAN_POINT('',(14.45,0.55,6.));
#566=CARTESIAN_POINT('',(14.45,6.95,5.8));
#567=CARTESIAN_POINT('',(14.45,6.95,5.8));
#568=CARTESIAN_POINT('',(14.45,6.95,6.));
#569=CARTESIAN_POINT('Origin',(3.55,6.95,6.));
#570=CARTESIAN_POINT('',(3.55,6.95,6.));
#571=CARTESIAN_POINT('',(3.55,6.95,6.));
#572=CARTESIAN_POINT('',(3.55,6.95,5.8));
#573=CARTESIAN_POINT('',(3.55,6.95,5.8));
#574=CARTESIAN_POINT('',(3.55,6.95,6.));
#575=CARTESIAN_POINT('Origin',(3.55,0.55,6.));
#576=CARTESIAN_POINT('',(3.55,0.55,6.));
#577=CARTESIAN_POINT('',(3.55,0.55,6.));
#578=CARTESIAN_POINT('',(3.55,0.55,5.8));
#579=CARTESIAN_POINT('',(3.55,0.55,5.8));
#580=CARTESIAN_POINT('',(3.55,0.55,6.));
#581=CARTESIAN_POINT('Origin',(14.45,0.55,6.));
#582=CARTESIAN_POINT('',(14.45,0.55,5.8));
#583=CARTESIAN_POINT('',(14.45,0.55,6.));
#584=CARTESIAN_POINT('',(14.45,0.55,5.8));
#585=CARTESIAN_POINT('',(14.45,0.55,5.8));
#586=CARTESIAN_POINT('Origin',(9.,3.75,6.));
#587=CARTESIAN_POINT('Origin',(9.,3.75,5.8));
#588=UNCERTAINTY_MEASURE_WITH_UNIT(LENGTH_MEASURE(0.001),#592,
'DISTANCE_ACCURACY_VALUE',
'Maximum model space distance between geometric entities at asserted c
onnectivities');
#589=UNCERTAINTY_MEASURE_WITH_UNIT(LENGTH_MEASURE(0.001),#592,
'DISTANCE_ACCURACY_VALUE',
'Maximum model space distance between geometric entities at asserted c
onnectivities');
#590=(
GEOMETRIC_REPRESENTATION_CONTEXT(3)
GLOBAL_UNCERTAINTY_ASSIGNED_CONTEXT((#588))
GLOBAL_UNIT_ASSIGNED_CONTEXT((#592,#594,#595))
REPRESENTATION_CONTEXT('','3D')
);
#591=(
GEOMETRIC_REPRESENTATION_CONTEXT(3)
GLOBAL_UNCERTAINTY_ASSIGNED_CONTEXT((#589))
GLOBAL_UNIT_ASSIGNED_CONTEXT((#592,#594,#595))
REPRESENTATION_CONTEXT('','3D')
);
#592=(
LENGTH_UNIT()
NAMED_UNIT(*)
SI_UNIT(.CENTI.,.METRE.)
);
#593=(
LENGTH_UNIT()
NAMED_UNIT(*)
SI_UNIT($,.METRE.)
);
#594=(
NAMED_UNIT(*)
PLANE_ANGLE_UNIT()
SI_UNIT($,.RADIAN.)
);
#595=(
NAMED_UNIT(*)
SI_UNIT($,.STERADIAN.)
SOLID_ANGLE_UNIT()
);
#596=SHAPE_DEFINITION_REPRESENTATION(#597,#598);
#597=PRODUCT_DEFINITION_SHAPE('',$,#600);
#598=SHAPE_REPRESENTATION('',(#376),#590);
#599=PRODUCT_DEFINITION_CONTEXT('part definition',#604,'design');
#600=PRODUCT_DEFINITION('Electronics Door','Electronics Door',#601,#599);
#601=PRODUCT_DEFINITION_FORMATION('',$,#606);
#602=PRODUCT_RELATED_PRODUCT_CATEGORY('Electronics Door',
'Electronics Door',(#606));
#603=APPLICATION_PROTOCOL_DEFINITION('international standard',
'automotive_design',2009,#604);
#604=APPLICATION_CONTEXT(
'Core Data for Automotive Mechanical Design Process');
#605=PRODUCT_CONTEXT('part definition',#604,'mechanical');
#606=PRODUCT('Electronics Door','Electronics Door',$,(#605));
#607=PRESENTATION_STYLE_ASSIGNMENT((#608));
#608=SURFACE_STYLE_USAGE(.BOTH.,#609);
#609=SURFACE_SIDE_STYLE('',(#610));
#610=SURFACE_STYLE_FILL_AREA(#611);
#611=FILL_AREA_STYLE('Steel - Satin',(#612));
#612=FILL_AREA_STYLE_COLOUR('Steel - Satin',#613);
#613=COLOUR_RGB('Steel - Satin',0.627450980392157,0.627450980392157,0.627450980392157);
ENDSEC;
END-ISO-10303-21;
