0
SECTION
2
HEADER
9
$INSUNITS
70
4
9
$ACADVER
1
AC1014
9
$HANDSEED
5
FFFF
0
ENDSEC
0
SECTION
2
TABLES
0
TABLE
2
VPORT
5
8
100
AcDbSymbolTable
0
ENDTAB
0
TABLE
2
LTYPE
5
5
100
AcDbSymbolTable
0
LTYPE
5
14
100
AcDbSymbolTableRecord
100
AcDbLinetypeTableRecord
2
BYBLOCK
70
0
0
LTYPE
5
15
100
AcDbSymbolTableRecord
100
AcDbLinetypeTableRecord
2
BYLAYER
70
0
0
ENDTAB
0
TABLE
2
LAYER
5
2
100
AcDbSymbolTable
70
2
0
LAYER
5
50
100
AcDbSymbolTableRecord
100
AcDbLayerTableRecord
2
0
70
0
6
CONTINUOUS
0
ENDTAB
0
TABLE
2
STYLE
5
3
100
AcDbSymbolTable
70
1
0
STYLE
5
11
100
AcDbSymbolTableRecord
100
AcDbTextStyleTableRecord
2
STANDARD
70
0
0
ENDTAB
0
TABLE
2
VIEW
5
6
100
AcDbSymbolTable
70
0
0
ENDTAB
0
TABLE
2
UCS
5
7
100
AcDbSymbolTable
70
0
0
ENDTAB
0
TABLE
2
APPID
5
9
100
AcDbSymbolTable
70
2
0
APPID
5
12
100
AcDbSymbolTableRecord
100
AcDbRegAppTableRecord
2
ACAD
70
0
0
ENDTAB
0
TABLE
2
DIMSTYLE
5
A
100
AcDbSymbolTable
70
1
0
ENDTAB
0
TABLE
2
BLOCK_RECORD
5
1
100
AcDbSymbolTable
70
1
0
BLOCK_RECORD
5
1F
100
AcDbSymbolTableRecord
100
AcDbBlockTableRecord
2
*MODEL_SPACE
0
BLOCK_RECORD
5
1B
100
AcDbSymbolTableRecord
100
AcDbBlockTableRecord
2
*PAPER_SPACE
0
ENDTAB
0
ENDSEC
0
SECTION
2
BLOCKS
0
BLOCK
5
20
100
AcDbEntity
100
AcDbBlockBegin
2
*MODEL_SPACE
0
ENDBLK
5
21
100
AcDbEntity
100
AcDbBlockEnd
0
BLOCK
5
1C
100
AcDbEntity
100
AcDbBlockBegin
2
*PAPER_SPACE
0
ENDBLK
5
1D
100
AcDbEntity
100
AcDbBlockEnd
0
ENDSEC
0
SECTION
2
ENTITIES
0
ARC
5
100
100
AcDbEntity
8
0
100
AcDbCircle
10
-43.638578186720444
20
6.4690352561668281
30
1.7763568394002505e-14
40
14.34919943307175
100
AcDbArc
50
75.646449687393684
51
83.475314850281791
0
ARC
5
101
100
AcDbEntity
8
0
100
AcDbCircle
10
-41.922836965509376
20
21.470437043383697
30
1.7763568394002505e-14
40
0.7500000000000191
100
AcDbArc
50
176.35782987647997
51
263.47531485025962
0
LINE
5
102
100
AcDbEntity
8
0
100
AcDbLine
10
-42.671322148374401
20
21.518080836594709
30
1.7763568394002505e-14
11
-42.554793766424623
21
23.348744631275732
31
1.7763568394002505e-14
0
SPLINE
5
103
100
AcDbEntity
8
0
100
AcDbSpline
70
1064
71
5
72
81
73
75
74
0
42
0.000000001
43
0.0000000001
44
0.0000000001
40
0
40
0
40
0
40
0
40
0
40
0
40
0.014285714285714285
40
0.028571428571428571
40
0.042857142857142858
40
0.057142857142857141
40
0.071428571428571425
40
0.085714285714285715
40
0.10000000000000001
40
0.1142857142857143
40
0.12857142857142859
40
0.14285714285714288
40
0.15714285714285717
40
0.17142857142857146
40
0.18571428571428575
40
0.20000000000000004
40
0.21428571428571433
40
0.22857142857142862
40
0.24285714285714291
40
0.25714285714285717
40
0.27142857142857146
40
0.28571428571428575
40
0.30000000000000004
40
0.31428571428571433
40
0.32857142857142863
40
0.34285714285714292
40
0.35714285714285721
40
0.3714285714285715
40
0.38571428571428579
40
0.40000000000000008
40
0.41428571428571437
40
0.42857142857142866
40
0.44285714285714295
40
0.45714285714285724
40
0.47142857142857153
40
0.48571428571428582
40
0.50000000000000011
40
0.51428571428571435
40
0.52857142857142858
40
0.54285714285714282
40
0.55714285714285705
40
0.57142857142857129
40
0.58571428571428552
40
0.59999999999999976
40
0.61428571428571399
40
0.62857142857142823
40
0.64285714285714246
40
0.6571428571428567
40
0.67142857142857093
40
0.68571428571428517
40
0.6999999999999994
40
0.71428571428571364
40
0.72857142857142787
40
0.74285714285714211
40
0.75714285714285634
40
0.77142857142857058
40
0.78571428571428481
40
0.79999999999999905
40
0.81428571428571328
40
0.82857142857142752
40
0.84285714285714175
40
0.85714285714285599
40
0.87142857142857022
40
0.88571428571428445
40
0.89999999999999869
40
0.91428571428571292
40
0.92857142857142716
40
0.94285714285714139
40
0.95714285714285563
40
0.97142857142856986
40
0.9857142857142841
40
1
40
1
40
1
40
1
40
1
40
1
10
-42.554793766424623
20
23.348744631275729
30
0
10
-42.554019520073169
20
23.36090806082014
30
0
10
-42.552858512831151
20
23.385233164649669
30
0
10
-42.552279438658204
20
23.421715555021841
30
0
10
-42.553716365266752
20
23.470349875749331
30
0
10
-42.558523687738294
20
23.531136998575207
30
0
10
-42.565493377616221
20
23.591928604172622
30
0
10
-42.573791913501566
20
23.652732825402794
30
0
10
-42.582814851796506
20
23.713551853919256
30
0
10
-42.59234305432733
20
23.774379321703655
30
0
10
-42.602407067235639
20
23.835203709637966
30
0
10
-42.613185892576922
20
23.896011070293007
30
0
10
-42.624898995471263
20
23.956787830800614
30
0
10
-42.637686276448903
20
24.017523991297089
30
0
10
-42.651542379220132
20
24.078214747002416
30
0
10
-42.666378559045597
20
24.138858473468442
30
0
10
-42.682059911692328
20
24.199455405378405
30
0
10
-42.698449040674404
20
24.260006153401449
30
0
10
-42.715454930544617
20
24.320510023179857
30
0
10
-42.733050485947224
20
24.380964398547341
30
0
10
-42.751245772541814
20
24.441365611171669
30
0
10
-42.770071768362584
20
24.501709458205774
30
0
10
-42.789561433636308
20
24.56199181119689
30
0
10
-42.809728120884493
20
24.622209311416839
30
0
10
-42.830560626814091
20
24.682359519681235
30
0
10
-42.852034177898553
20
24.742440543271261
30
0
10
-42.874117203813817
20
24.802450801364152
30
0
10
-42.89677915878525
20
24.862388756847103
30
0
10
-42.919999534816256
20
24.922252608151215
30
0
10
-42.943768978395781
20
24.982040245679713
30
0
10
-42.96808468681607
20
25.041749399824447
30
0
10
-42.992947397391212
20
25.101377736037819
30
0
10
-43.018358003009077
20
25.160922962927845
30
0
10
-43.04431361986672
20
25.220382958612451
30
0
10
-43.070807271270468
20
25.2797557784486
30
0
10
-43.097829770555308
20
25.339039590643573
30
1.7763568394002505e-14
10
-43.125370969985966
20
25.398232633287471
30
1.7763568394002505e-14
10
-43.153421149545693
20
25.457333166888759
30
1.7763568394002505e-14
10
-43.181972635551247
20
25.516339420497964
30
1.7763568394002505e-14
10
-43.21101987599193
20
25.575249585806169
30
1.7763568394002505e-14
10
-43.240558627965484
20
25.634061839219434
30
1.7763568394002505e-14
10
-43.270585397142945
20
25.692774356432864
30
1.7763568394002505e-14
10
-43.301096822272022
20
25.751385329490411
30
1.7763568394002505e-14
10
-43.332088950103781
20
25.809892986881295
30
1.7763568394002505e-14
10
-43.363557174530314
20
25.868295597023724
30
1.7763568394002505e-14
10
-43.395496580302755
20
25.926591461403277
30
1.7763568394002505e-14
10
-43.427902168156692
20
25.984778911913335
30
1.7763568394002505e-14
10
-43.460769103637247
20
26.042856306723287
30
1.7763568394002505e-14
10
-43.494093006431179
20
26.100822028998447
30
1.7763568394002505e-14
10
-43.52786997898253
20
26.158674479238336
30
1.7763568394002505e-14
10
-43.56209644443561
20
26.216412064204771
30
1.7763568394002505e-14
10
-43.596769033443081
20
26.274033186693128
30
1.7763568394002505e-14
10
-43.63188445963543
20
26.331536237825027
30
1.7763568394002505e-14
10
-43.667439367771443
20
26.388919584136858
30
1.7763568394002505e-14
10
-43.703430307376948
20
26.446181577576549
30
1.7763568394002505e-14
10
-43.739853826140482
20
26.503320585290332
30
1.7763568394002505e-14
10
-43.776706530208742
20
26.560335017127763
30
1.7763568394002505e-14
10
-43.813985147866646
20
26.617223349829516
30
1.7763568394002505e-14
10
-43.851686605825336
20
26.673984166238046
30
1.7763568394002505e-14
10
-43.889808035365022
20
26.730616143733037
30
1.7763568394002505e-14
10
-43.928346681932524
20
26.787117975392039
30
0
10
-43.967299832253303
20
26.84348830473391
30
0
10
-44.006664739832928
20
26.899725664290042
30
0
10
-44.046438527818175
20
26.955828393256933
30
0
10
-44.086618164493352
20
27.011794630562129
30
0
10
-44.127200613638209
20
27.067622482723806
30
0
10
-44.1681829485291
20
27.123310160344051
30
0
10
-44.209562474894106
20
27.178856122166369
30
0
10
-44.251336853691512
20
27.234259231410192
30
0
10
-44.293504202511386
20
27.28951886607042
30
0
10
-44.336063075722805
20
27.34463476458037
30
0
10
-44.370422581774498
20
27.388612477806355
30
0
10
-44.396367671319112
20
27.421531111717243
30
0
10
-44.413742354019277
20
27.443448143457619
30
0
10
-44.42244918445293
20
27.454399478275562
30
0
0
ARC
5
104
100
AcDbEntity
8
0
100
AcDbCircle
10
-43.638578186720444
20
6.4690352561668281
30
1.7763568394002505e-14
40
20.999999173229686
100
AcDbArc
50
92.139187511486156
51
96.982577026185979
0
SPLINE
5
105
100
AcDbEntity
8
0
100
AcDbSpline
70
1064
71
5
72
81
73
75
74
0
42
0.000000001
43
0.0000000001
44
0.0000000001
40
-1
40
-1
40
-1
40
-1
40
-1
40
-1
40
-0.9857142857142841
40
-0.97142857142856986
40
-0.95714285714285563
40
-0.94285714285714139
40
-0.92857142857142716
40
-0.91428571428571292
40
-0.89999999999999869
40
-0.88571428571428445
40
-0.87142857142857022
40
-0.85714285714285599
40
-0.84285714285714175
40
-0.82857142857142752
40
-0.81428571428571328
40
-0.79999999999999905
40
-0.78571428571428481
40
-0.77142857142857058
40
-0.75714285714285634
40
-0.74285714285714211
40
-0.72857142857142787
40
-0.71428571428571364
40
-0.6999999999999994
40
-0.68571428571428517
40
-0.67142857142857093
40
-0.6571428571428567
40
-0.64285714285714246
40
-0.62857142857142823
40
-0.61428571428571399
40
-0.59999999999999976
40
-0.58571428571428552
40
-0.57142857142857129
40
-0.55714285714285705
40
-0.54285714285714282
40
-0.52857142857142858
40
-0.51428571428571435
40
-0.50000000000000011
40
-0.48571428571428582
40
-0.47142857142857153
40
-0.45714285714285724
40
-0.44285714285714295
40
-0.42857142857142866
40
-0.41428571428571437
40
-0.40000000000000008
40
-0.38571428571428579
40
-0.3714285714285715
40
-0.35714285714285721
40
-0.34285714285714292
40
-0.32857142857142863
40
-0.31428571428571433
40
-0.30000000000000004
40
-0.28571428571428575
40
-0.27142857142857146
40
-0.25714285714285717
40
-0.24285714285714291
40
-0.22857142857142862
40
-0.21428571428571433
40
-0.20000000000000004
40
-0.18571428571428575
40
-0.17142857142857146
40
-0.15714285714285717
40
-0.14285714285714288
40
-0.12857142857142859
40
-0.1142857142857143
40
-0.10000000000000001
40
-0.085714285714285715
40
-0.071428571428571425
40
-0.057142857142857141
40
-0.042857142857142858
40
-0.028571428571428571
40
-0.014285714285714285
40
0
40
0
40
0
40
0
40
0
40
0
10
-46.191495925244759
20
27.313280896054472
30
-1.7763568394002505e-14
10
-46.198356496645374
20
27.301087734423781
30
-1.7763568394002505e-14
10
-46.212036877341248
20
27.276693410017138
30
-1.7763568394002505e-14
10
-46.232435162066885
20
27.240077919985062
30
-1.7763568394002505e-14
10
-46.259388221160137
20
27.191209243696267
30
-1.7763568394002505e-14
10
-46.292671183943988
20
27.130043368030883
30
-1.7763568394002505e-14
10
-46.325544786745084
20
27.068797643542112
30
-1.7763568394002505e-14
10
-46.358007643681447
20
27.007472557669182
30
-1.7763568394002505e-14
10
-46.390057994757143
20
26.946069022975472
30
-1.7763568394002505e-14
10
-46.421693710728192
20
26.884588532681029
30
-1.7763568394002505e-14
10
-46.452912375735593
20
26.823033035682492
30
-1.7763568394002505e-14
10
-46.483711383746908
20
26.761404762731114
30
0
10
-46.514088037118569
20
26.69970606470461
30
0
10
-46.54403963751669
20
26.637939259767084
30
0
10
-46.573563607762082
20
26.576106443795517
30
0
10
-46.602657468735828
20
26.514209501110791
30
0
10
-46.631318756523619
20
26.452250201183432
30
0
10
-46.659544958597799
20
26.390230271096073
30
0
10
-46.687333452196555
20
26.328151471529853
30
0
10
-46.714681427563285
20
26.266015688938609
30
0
10
-46.741585895845283
20
26.203824945993233
30
0
10
-46.768043758200562
20
26.141581350772825
30
0
10
-46.794051864838259
20
26.079287062787266
30
0
10
-46.819607070190877
20
26.016944256261315
30
0
10
-46.8447063204069
20
25.954555075918133
30
0
10
-46.86934662573789
20
25.892121631288184
30
0
10
-46.893524912656297
20
25.829646033530452
30
0
10
-46.917237902121599
20
25.767130422784664
30
0
10
-46.940481999441545
20
25.704576996215245
30
0
10
-46.963253136019667
20
25.641988044634637
30
0
10
-46.985546798823819
20
25.579365955531586
30
0
10
-47.00735831626222
20
25.51671316846635
30
0
10
-47.028683104516709
20
25.454032139703173
30
0
10
-47.049516890242906
20
25.391325309146403
30
0
10
-47.069856051029177
20
25.328595052624657
30
0
10
-47.089697554751723
20
25.265843688099817
30
0
10
-47.10903824048485
20
25.203073570772926
30
0
10
-47.127874208083547
20
25.140287173816741
30
0
10
-47.14620026242666
20
25.077487162849366
30
0
10
-47.164009107629134
20
25.014676502957307
30
0
10
-47.181291422363934
20
24.951858452578652
30
0
10
-47.198037466548648
20
24.889036360093893
30
0
10
-47.214238460095821
20
24.826213490521113
30
0
10
-47.229887822831799
20
24.763392869947857
30
0
10
-47.244983043811793
20
24.700577050600472
30
0
10
-47.259525367893502
20
24.637768153340907
30
0
10
-47.273515893169844
20
24.57496836630455
30
0
10
-47.286952212185149
20
24.512180374719364
30
0
10
-47.299825424157085
20
24.449407744344903
30
0
10
-47.312115566048561
20
24.386655505163851
30
0
10
-47.323792722060631
20
24.32393001736763
30
0
10
-47.334825971731135
20
24.261237846729948
30
0
10
-47.345191154886699
20
24.198584789458515
30
0
10
-47.354877596606514
20
24.135975029984166
30
0
10
-47.363899013021268
20
24.073409767742319
30
0
10
-47.372288602027922
20
24.010887853687745
30
0
10
-47.380077616192409
20
23.948408526471905
30
0
10
-47.387276575432729
20
23.885973812295433
30
0
10
-47.393859141799368
20
23.823590589751475
30
0
10
-47.399735560936342
20
23.761273973381051
30
0
10
-47.404770077109546
20
23.699045142133777
30
0
10
-47.408829454926106
20
23.636925251085636
30
0
10
-47.411826329471928
20
23.574929973123432
30
0
10
-47.413756173911622
20
23.513064901413692
30
0
10
-47.414758704855146
20
23.451317730488395
30
0
10
-47.415052763740789
20
23.389667069074477
30
0
10
-47.414817300032382
20
23.328098310459637
30
0
10
-47.414084299736501
20
23.266617985511509
30
0
10
-47.412638405517804
20
23.205267122378572
30
0
10
-47.409882470329762
20
23.144139381463795
30
0
10
-47.404992224442779
20
23.083358873519565
30
0
10
-47.398700827722351
20
23.035111798602948
30
0
10
-47.392345408905271
20
22.999182579493361
30
0
10
-47.387342749125132
20
22.975349157387889
30
0
10
-47.38464998750824
20
22.963462294447265
30
0
0
LINE
5
106
100
AcDbEntity
8
0
100
AcDbLine
10
-47.384649987508247
20
22.963462294447265
30
0
11
-46.979374388076344
21
21.174423311791809
31
-6.1629758220391547e-31
0
ARC
5
107
100
AcDbEntity
8
0
100
AcDbCircle
10
-47.710840850665591
20
21.008722333800712
30
0
40
0.75000000000004552
100
AcDbArc
50
-74.353550312609485
51
12.763934661192353
0
ARC
5
108
100
AcDbEntity
8
0
100
AcDbCircle
10
-43.638578186720444
20
6.4690352561668281
30
1.7763568394002505e-14
40
14.349199433071739
100
AcDbArc
50
105.64644968739164
51
113.47531485027861
0
ARC
5
109
100
AcDbEntity
8
0
100
AcDbCircle
10
-49.653403596439681
20
20.318500906879482
30
0
40
0.75000000000002509
100
AcDbArc
50
206.35782987648298
51
293.47531485030021
0
LINE
5
110
100
AcDbEntity
8
0
100
AcDbLine
10
-50.325432675762528
20
19.985519050700319
30
2.958228394578775e-31
11
-51.1398480340726
21
21.629184593657417
31
-9.8607613152626476e-31
0
SPLINE
5
111
100
AcDbEntity
8
0
100
AcDbSpline
70
1064
71
5
72
81
73
75
74
0
42
0.000000001
43
0.0000000001
44
0.0000000001
40
0
40
0
40
0
40
0
40
0
40
0
40
0.014285714285714285
40
0.028571428571428571
40
0.042857142857142858
40
0.057142857142857141
40
0.071428571428571425
40
0.085714285714285715
40
0.10000000000000001
40
0.1142857142857143
40
0.12857142857142859
40
0.14285714285714288
40
0.15714285714285717
40
0.17142857142857146
40
0.18571428571428575
40
0.20000000000000004
40
0.21428571428571433
40
0.22857142857142862
40
0.24285714285714291
40
0.25714285714285717
40
0.27142857142857146
40
0.28571428571428575
40
0.30000000000000004
40
0.31428571428571433
40
0.32857142857142863
40
0.34285714285714292
40
0.35714285714285721
40
0.3714285714285715
40
0.38571428571428579
40
0.40000000000000008
40
0.41428571428571437
40
0.42857142857142866
40
0.44285714285714295
40
0.45714285714285724
40
0.47142857142857153
40
0.48571428571428582
40
0.50000000000000011
40
0.51428571428571435
40
0.52857142857142858
40
0.54285714285714282
40
0.55714285714285705
40
0.57142857142857129
40
0.58571428571428552
40
0.59999999999999976
40
0.61428571428571399
40
0.62857142857142823
40
0.64285714285714246
40
0.6571428571428567
40
0.67142857142857093
40
0.68571428571428517
40
0.6999999999999994
40
0.71428571428571364
40
0.72857142857142787
40
0.74285714285714211
40
0.75714285714285634
40
0.77142857142857058
40
0.78571428571428481
40
0.79999999999999905
40
0.81428571428571328
40
0.82857142857142752
40
0.84285714285714175
40
0.85714285714285599
40
0.87142857142857022
40
0.88571428571428445
40
0.89999999999999869
40
0.91428571428571292
40
0.92857142857142716
40
0.94285714285714139
40
0.95714285714285563
40
0.97142857142856986
40
0.9857142857142841
40
1
40
1
40
1
40
1
40
1
40
1
10
-51.139848034072614
20
21.629184593657421
30
1.7763568394002505e-14
10
-51.145259231835666
20
21.640105555815747
30
1.7763568394002505e-14
10
-51.156416321984864
20
21.661752217302826
30
1.7763568394002505e-14
10
-51.174156024226505
20
21.693636431242375
30
1.7763568394002505e-14
10
-51.199717599536626
20
21.735036525183915
30
1.7763568394002505e-14
10
-51.234274424334103
20
21.785276056538315
30
1.7763568394002505e-14
10
-51.270706155623586
20
21.834438286383552
30
1.7763568394002505e-14
10
-51.308295009129594
20
21.882947018683542
30
1.7763568394002505e-14
10
-51.346518617168037
20
21.931106373264818
30
-1.7763568394002505e-14
10
-51.385184016504326
20
21.979020404348578
30
-1.7763568394002505e-14
10
-51.424311901314084
20
22.026663863015173
30
-1.7763568394002505e-14
10
-51.46405031821012
20
22.07393516940888
30
-1.7763568394002505e-14
10
-51.504582543127555
20
22.120712836521022
30
-1.7763568394002505e-14
10
-51.546024733547753
20
22.166918253950474
30
-1.7763568394002505e-14
10
-51.588369848397747
20
22.212549938780551
30
-1.7763568394002505e-14
10
-51.631540220254742
20
22.25765085656754
30
-1.7763568394002505e-14
10
-51.675419135967495
20
22.302288662669607
30
-1.7763568394002505e-14
10
-51.719887912023381
20
22.346532584184672
30
-1.7763568394002505e-14
10
-51.764867379554147
20
22.390427527504933
30
-1.7763568394002505e-14
10
-51.810332765210248
20
22.43398477464179
30
-1.7763568394002505e-14
10
-51.856290951942455
20
22.47719611589655
30
-1.7763568394002505e-14
10
-51.902766666091836
20
22.520042422479772
30
-1.7763568394002505e-14
10
-51.949786387825696
20
22.562503638933119
30
-1.7763568394002505e-14
10
-51.997360001402768
20
22.604570180251905
30
-1.7763568394002505e-14
10
-52.045476584894473
20
22.646245535686997
30
-1.7763568394002505e-14
10
-52.094113737438121
20
22.6875404528591
30
-1.7763568394002505e-14
10
-52.143243327919599
20
22.728469347897576
30
-1.7763568394002505e-14
10
-52.192838134365758
20
22.769046162510985
30
-1.7763568394002505e-14
10
-52.242879495546084
20
22.809279590493222
30
-1.7763568394002505e-14
10
-52.29335825628403
20
22.849172481635392
30
-1.7763568394002505e-14
10
-52.344270854559376
20
22.888724271753066
30
-1.7763568394002505e-14
10
-52.395616761631075
20
22.927932570411684
30
-1.7763568394002505e-14
10
-52.447395605066703
20
22.966794946763613
30
-1.7763568394002505e-14
10
-52.499603826478626
20
23.005311005106574
30
-1.7763568394002505e-14
10
-52.552234411551368
20
23.04348254967713
30
-1.7763568394002505e-14
10
-52.605278488503259
20
23.081312587428737
30
-1.7763568394002505e-14
10
-52.658726388182842
20
23.11880466637032
30
-1.7763568394002505e-14
10
-52.712568823062924
20
23.155962140066386
30
-1.7763568394002505e-14
10
-52.766798262064142
20
23.192787311671317
30
-1.7763568394002505e-14
10
-52.82140899284969
20
23.229281391149033
30
-1.7763568394002505e-14
10
-52.87639642916151
20
23.265444920671953
30
0
10
-52.931756632669476
20
23.301278067510175
30
0
10
-52.987485788465705
20
23.336780946554004
30
0
10
-53.043579587180787
20
23.371954000254544
30
0
10
-53.100033174017369
20
23.40679803207194
30
0
10
-53.156841442987854
20
23.441314028673986
30
0
10
-53.213999230548964
20
23.475503045070173
30
0
10
-53.271501529024633
20
23.509366076620935
30
0
10
-53.329343736535009
20
23.542903913262968
30
0
10
-53.387521677947362
20
23.576117118566209
30
0
10
-53.446031458994682
20
23.609006101173762
30
0
10
-53.504869363134311
20
23.64157116253952
30
0
10
-53.564031739847536
20
23.67381255251869
30
0
10
-53.62351486667847
20
23.705730534110888
30
0
10
-53.683314931402755
20
23.737325405298236
30
0
10
-53.743428127804094
20
23.768597478143651
30
0
10
-53.803850721644054
20
23.799547072463064
30
0
10
-53.864579117904654
20
23.830174504932771
30
0
10
-53.925609946460852
20
23.860480084902758
30
0
10
-53.986940061618299
20
23.890464101310126
30
0
10
-54.048566424402715
20
23.920126799603416
30
0
10
-54.110486006808884
20
23.949468361672785
30
0
10
-54.172695696568532
20
23.978488889900341
30
0
10
-54.235192171851935
20
24.007188384414683
30
0
10
-54.297971876580064
20
24.035566749337619
30
0
10
-54.361031234568138
20
24.063623862975927
30
0
10
-54.424366816500182
20
24.091359639027363
30
0
10
-54.487975518439988
20
24.118774089860629
30
0
10
-54.551854746327777
20
24.145867400515723
30
0
10
-54.616002558946128
20
24.172639973525385
30
0
10
-54.680417573558628
20
24.199092305181694
30
0
10
-54.732162635273873
20
24.2199983690099
30
0
10
-54.771091058878419
20
24.235534197462307
30
0
10
-54.797096491349642
20
24.245827562374942
30
0
10
-54.810112495100604
20
24.250958281315796
30
0
0
ARC
5
112
100
AcDbEntity
8
0
100
AcDbCircle
10
-43.638578186720444
20
6.4690352561668281
30
1.7763568394002505e-14
40
20.999999173229455
100
AcDbArc
50
122.13918751148525
51
126.98257702618336
0
SPLINE
5
113
100
AcDbEntity
8
0
100
AcDbSpline
70
1064
71
5
72
81
73
75
74
0
42
0.000000001
43
0.0000000001
44
0.0000000001
40
-1
40
-1
40
-1
40
-1
40
-1
40
-1
40
-0.9857142857142841
40
-0.97142857142856986
40
-0.95714285714285563
40
-0.94285714285714139
40
-0.92857142857142716
40
-0.91428571428571292
40
-0.89999999999999869
40
-0.88571428571428445
40
-0.87142857142857022
40
-0.85714285714285599
40
-0.84285714285714175
40
-0.82857142857142752
40
-0.81428571428571328
40
-0.79999999999999905
40
-0.78571428571428481
40
-0.77142857142857058
40
-0.75714285714285634
40
-0.74285714285714211
40
-0.72857142857142787
40
-0.71428571428571364
40
-0.6999999999999994
40
-0.68571428571428517
40
-0.67142857142857093
40
-0.6571428571428567
40
-0.64285714285714246
40
-0.62857142857142823
40
-0.61428571428571399
40
-0.59999999999999976
40
-0.58571428571428552
40
-0.57142857142857129
40
-0.55714285714285705
40
-0.54285714285714282
40
-0.52857142857142858
40
-0.51428571428571435
40
-0.50000000000000011
40
-0.48571428571428582
40
-0.47142857142857153
40
-0.45714285714285724
40
-0.44285714285714295
40
-0.42857142857142866
40
-0.41428571428571437
40
-0.40000000000000008
40
-0.38571428571428579
40
-0.3714285714285715
40
-0.35714285714285721
40
-0.34285714285714292
40
-0.32857142857142863
40
-0.31428571428571433
40
-0.30000000000000004
40
-0.28571428571428575
40
-0.27142857142857146
40
-0.25714285714285717
40
-0.24285714285714291
40
-0.22857142857142862
40
-0.21428571428571433
40
-0.20000000000000004
40
-0.18571428571428575
40
-0.17142857142857146
40
-0.15714285714285717
40
-0.14285714285714288
40
-0.12857142857142859
40
-0.1142857142857143
40
-0.10000000000000001
40
-0.085714285714285715
40
-0.071428571428571425
40
-0.057142857142857141
40
-0.042857142857142858
40
-0.028571428571428571
40
-0.014285714285714285
40
0
40
0
40
0
40
0
40
0
40
0
10
-56.27159262199784
20
23.244222633770338
30
0
10
-56.271437470299908
20
23.230232760345405
30
0
10
-56.271087865312658
20
23.202266465353159
30
0
10
-56.270445553062665
20
23.160357378450549
30
0
10
-56.269353248802716
20
23.104559333788508
30
0
10
-56.267594202254053
20
23.034946650225638
30
0
10
-56.265440715149339
20
22.965469495544632
30
0
10
-56.26289183099918
20
22.896128984821228
30
0
10
-56.259946481884093
20
22.826926788356474
30
0
10
-56.25660357043472
20
22.757865263938836
30
0
10
-56.252861978904093
20
22.688947307291819
30
0
10
-56.248720565777546
20
22.620176153318905
30
0
10
-56.244178170266117
20
22.551555186761703
30
0
10
-56.239233614626144
20
22.483087764376148
30
0
10
-56.233885714893432
20
22.414776989834543
30
0
10
-56.228133266248513
20
22.346625734566107
30
0
10
-56.221975019614234
20
22.278636762934418
30
0
10
-56.215409662619145
20
22.210812826900739
30
0
10
-56.208435804225452
20
22.143156762640579
30
0
10
-56.201051954339512
20
22.075671608749161
30
0
10
-56.193256535874326
20
22.008360611337245
30
0
10
-56.18504791919365
20
21.941227145475843
30
0
10
-56.176424456253436
20
21.874274656250847
30
1.7763568394002505e-14
10
-56.167384510024768
20
21.807506599379842
30
1.7763568394002505e-14
10
-56.157926508156201
20
21.740926359173347
30
1.7763568394002505e-14
10
-56.148048916214854
20
21.674537257412542
30
1.7763568394002505e-14
10
-56.137750128027321
20
21.608342659178525
30
1.7763568394002505e-14
10
-56.127028373931068
20
21.54234605740692
30
1.7763568394002505e-14
10
-56.115881639413459
20
21.47655115224407
30
1.7763568394002505e-14
10
-56.104307546372851
20
21.410961961889971
30
1.7763568394002505e-14
10
-56.092303380153147
20
21.34558281048659
30
1.7763568394002505e-14
10
-56.079866314817259
20
21.280418146551007
30
1.7763568394002505e-14
10
-56.066993608794391
20
21.21547238917951
30
1.7763568394002505e-14
10
-56.05368278121189
20
21.15074978806344
30
1.7763568394002505e-14
10
-56.039931882883593
20
21.086254211936559
30
1.7763568394002505e-14
10
-56.025739446894171
20
21.021989184274634
30
1.7763568394002505e-14
10
-56.011103913402216
20
20.957958325204451
30
0
10
-55.996023141369477
20
20.894165726628948
30
0
10
-55.980493964498059
20
20.8306162946017
30
0
10
-55.964511546909428
20
20.767316244905484
30
0
10
-55.948069445316648
20
20.704273060093954
30
0
10
-55.931160898751131
20
20.641494509990896
30
0
10
-55.913779935943133
20
20.578987812228654
30
0
10
-55.895922371338891
20
20.516758877562715
30
0
10
-55.877587306509618
20
20.454811171758351
30
0
10
-55.858776879964658
20
20.393145909107027
30
0
10
-55.839493136748082
20
20.331764435543121
30
0
10
-55.8197353345561
20
20.270670280270092
30
0
10
-55.799497547964876
20
20.209870981717465
30
0
10
-55.778765003468479
20
20.149380877496583
30
0
10
-55.757514973320781
20
20.089220433594257
30
0
10
-55.735723962502902
20
20.029410796368371
30
0
10
-55.713373945794771
20
19.969969065568765
30
0
10
-55.690457770659243
20
19.910904202479241
30
0
10
-55.666987915331603
20
19.852210387775987
30
0
10
-55.642992555511398
20
19.793870027408175
30
0
10
-55.618498376040364
20
19.735866835745647
30
0
10
-55.593515500535055
20
19.678197307570649
30
0
10
-55.568024558958669
20
19.620880568894325
30
0
10
-55.541955379029382
20
19.563974586471154
30
0
10
-55.515200982307498
20
19.507565579676594
30
0
10
-55.487656561096131
20
19.451738487040309
30
0
10
-55.459254291603663
20
19.396550564137453
30
0
10
-55.429993050058918
20
19.342008918210027
30
0
10
-55.399987681861447
20
19.28803303410514
30
0
10
-55.369417013619668
20
19.234494965717744
30
0
10
-55.33842871675909
20
19.181292588532024
30
0
10
-55.307053757407814
20
19.128415565441969
30
0
10
-55.275126144716765
20
19.076007106534092
30
0
10
-55.242175564375351
20
19.02444689761996
30
0
10
-55.207550233234372
20
18.974254556628825
30
0
10
-55.177978186390881
20
18.935617062452963
30
0
10
-55.154509622688799
20
18.90767915537446
30
0
10
-55.138260481179984
20
18.889540136262074
30
0
10
-55.129985049743098
20
18.880592191792637
30
0
0
LINE
5
114
100
AcDbEntity
8
0
100
AcDbLine
10
-55.129985049743098
20
18.880592191792637
30
0
11
-53.884486593773417
21
17.533876784168299
31
1.4791141972893971e-30
0
ARC
5
115
100
AcDbEntity
8
0
100
AcDbCircle
10
-54.4351046433965
20
17.024642296501447
30
0
40
0.75000000000003642
100
AcDbArc
50
-44.353550312610693
51
42.763934661192842
0
ARC
5
116
100
AcDbEntity
8
0
100
AcDbCircle
10
-43.638578186720444
20
6.4690352561668281
30
1.7763568394002505e-14
40
14.349199433071503
100
AcDbArc
50
135.64644968739117
51
143.47531485027733
0
ARC
5
117
100
AcDbEntity
8
0
100
AcDbCircle
10
-55.772302616221516
20
15.455611633664239
30
0
40
0.75000000000003897
100
AcDbArc
50
236.35782987648309
51
323.47531485031971
0
LINE
5
118
100
AcDbEntity
8
0
100
AcDbLine
10
-56.187805942907396
20
14.831226347552349
30
1.9869974318355795e-44
11
-57.714943103914649
21
15.847474783923284
31
-9.8607613152626476e-31
0
SPLINE
5
119
100
AcDbEntity
8
0
100
AcDbSpline
70
1064
71
5
72
81
73
75
74
0
42
0.000000001
43
0.0000000001
44
0.0000000001
40
0
40
0
40
0
40
0
40
0
40
0
40
0.014285714285714285
40
0.028571428571428571
40
0.042857142857142858
40
0.057142857142857141
40
0.071428571428571425
40
0.085714285714285715
40
0.10000000000000001
40
0.1142857142857143
40
0.12857142857142859
40
0.14285714285714288
40
0.15714285714285717
40
0.17142857142857146
40
0.18571428571428575
40
0.20000000000000004
40
0.21428571428571433
40
0.22857142857142862
40
0.24285714285714291
40
0.25714285714285717
40
0.27142857142857146
40
0.28571428571428575
40
0.30000000000000004
40
0.31428571428571433
40
0.32857142857142863
40
0.34285714285714292
40
0.35714285714285721
40
0.3714285714285715
40
0.38571428571428579
40
0.40000000000000008
40
0.41428571428571437
40
0.42857142857142866
40
0.44285714285714295
40
0.45714285714285724
40
0.47142857142857153
40
0.48571428571428582
40
0.50000000000000011
40
0.51428571428571435
40
0.52857142857142858
40
0.54285714285714282
40
0.55714285714285705
40
0.57142857142857129
40
0.58571428571428552
40
0.59999999999999976
40
0.61428571428571399
40
0.62857142857142823
40
0.64285714285714246
40
0.6571428571428567
40
0.67142857142857093
40
0.68571428571428517
40
0.6999999999999994
40
0.71428571428571364
40
0.72857142857142787
40
0.74285714285714211
40
0.75714285714285634
40
0.77142857142857058
40
0.78571428571428481
40
0.79999999999999905
40
0.81428571428571328
40
0.82857142857142752
40
0.84285714285714175
40
0.85714285714285599
40
0.87142857142857022
40
0.88571428571428445
40
0.89999999999999869
40
0.91428571428571292
40
0.92857142857142716
40
0.94285714285714139
40
0.95714285714285563
40
0.97142857142856986
40
0.9857142857142841
40
1
40
1
40
1
40
1
40
1
40
1
10
-57.714943103914649
20
15.847474783923285
30
1.7763568394002505e-14
10
-57.725089819721518
20
15.854227015704634
30
1.7763568394002505e-14
10
-57.745575473966575
20
15.867395029384967
30
1.7763568394002505e-14
10
-57.776880613733191
20
15.886137717515494
30
1.7763568394002505e-14
10
-57.819717634283265
20
15.909210462932871
30
1.7763568394002505e-14
10
-57.874764488109207
20
15.935440760961271
30
1.7763568394002505e-14
10
-57.930896407832371
20
15.959800635269193
30
1.7763568394002505e-14
10
-57.987703676017695
20
15.983016002993352
30
1.7763568394002505e-14
10
-58.044885968893915
20
16.005611423471382
30
1.7763568394002505e-14
10
-58.102328202508495
20
16.027773491919493
30
1.7763568394002505e-14
10
-58.160035674083403
20
16.049469995044031
30
1.7763568394002505e-14
10
-58.21808580581839
20
16.070538938803043
30
0
10
-58.276576575824862
20
16.090783474393213
30
0
10
-58.335569274231965
20
16.110077444469479
30
0
10
-58.395057061833256
20
16.128423085324812
30
0
10
-58.454994159445732
20
16.14589643993385
30
0
10
-58.515313318194515
20
16.162614456131063
30
0
10
-58.575946368691653
20
16.178696428098199
30
0
10
-58.636847201882134
20
16.194220830345849
30
0
10
-58.698000004421587
20
16.209209820057225
30
0
10
-58.759406632270938
20
16.223652845949346
30
0
10
-58.821078934674929
20
16.237520978834063
30
0
10
-58.883029816402008
20
16.250783610091322
30
0
10
-58.945263044968961
20
16.263427496734195
30
0
10
-59.007770906333654
20
16.275461121506872
30
0
10
-59.070539374590226
20
16.286904992553275
30
0
10
-59.133551295543953
20
16.297785660164678
30
0
10
-59.196790065128802
20
16.308128809201463
30
0
10
-59.260243869142037
20
16.317951299325244
30
0
10
-59.323906203863729
20
16.3272601761158
30
0
10
-59.387773702401688
20
16.336056731985188
30
0
10
-59.451844711635445
20
16.344339161126861
30
0
10
-59.516117693605253
20
16.352105544581246
30
0
10
-59.580589368805846
20
16.359357318853938
30
0
10
-59.645254564780146
20
16.366099553617353
30
0
10
-59.710107101816597
20
16.372339288860417
30
0
10
-59.775140380188823
20
16.378084431824732
30
0
10
-59.840348033444627
20
16.383342530545935
30
0
10
-59.905724691055113
20
16.388119345153925
30
0
10
-59.971266010973501
20
16.392418779676564
30
0
10
-60.036968292469972
20
16.396243596778017
30
0
10
-60.102828208485661
20
16.39959591048347
30
0
10
-60.168842512658571
20
16.402477727744799
30
0
10
-60.235007694190863
20
16.4048915864206
30
0
10
-60.301319950434795
20
16.406840609726444
30
0
10
-60.367775352809268
20
16.408328205135511
30
0
10
-60.434369957059396
20
16.409357868084463
30
0
10
-60.50109992409071
20
16.409932964418726
30
0
10
-60.567961663526681
20
16.410056479183517
30
0
10
-60.634951841381273
20
16.409730988011056
30
0
10
-60.702067289441892
20
16.408958791930161
30
0
10
-60.769304939815136
20
16.407742010278888
30
0
10
-60.836661755986647
20
16.406082684697555
30
0
10
-60.904134645714848
20
16.403982904178456
30
0
10
-60.971720456507711
20
16.401444832893855
30
0
10
-61.039416048116664
20
16.398470644206306
30
0
10
-61.107218346504332
20
16.395062482203762
30
0
10
-61.175124396631944
20
16.391222418644922
30
0
10
-61.24313143456061
20
16.386952406497251
30
0
10
-61.311236880507671
20
16.382254268834796
30
0
10
-61.37943822536846
20
16.377129737709367
30
0
10
-61.447732937758602
20
16.371580484645079
30
0
10
-61.516118373565789
20
16.365608154441556
30
0
10
-61.584591656065371
20
16.359214408125045
30
0
10
-61.653149657663477
20
16.352400940702111
30
0
10
-61.721789220446645
20
16.345169434875711
30
0
10
-61.790507331388994
20
16.337521530563915
30
0
10
-61.859301308587234
20
16.329458790446413
30
0
10
-61.928168998039737
20
16.320982671802454
30
0
10
-61.997108919869284
20
16.31209449384432
30
0
10
-62.066120124737012
20
16.302795377741756
30
0
10
-62.121385694616897
20
16.295028029252499
30
0
10
-62.162866612613918
20
16.28901823955885
30
0
10
-62.190534660226724
20
16.284929838827999
30
0
10
-62.204372209601232
20
16.282865169894979
30
0
0
ARC
5
120
100
AcDbEntity
8
0
100
AcDbCircle
10
-43.638578186720444
20
6.4690352561668281
30
1.7763568394002505e-14
40
20.99999917322906
100
AcDbArc
50
152.13918751148532
51
156.98257702618375
0
SPLINE
5
121
100
AcDbEntity
8
0
100
AcDbSpline
70
1064
71
5
72
81
73
75
74
0
42
0.000000001
43
0.0000000001
44
0.0000000001
40
-1
40
-1
40
-1
40
-1
40
-1
40
-1
40
-0.9857142857142841
40
-0.97142857142856986
40
-0.95714285714285563
40
-0.94285714285714139
40
-0.92857142857142716
40
-0.91428571428571292
40
-0.89999999999999869
40
-0.88571428571428445
40
-0.87142857142857022
40
-0.85714285714285599
40
-0.84285714285714175
40
-0.82857142857142752
40
-0.81428571428571328
40
-0.79999999999999905
40
-0.78571428571428481
40
-0.77142857142857058
40
-0.75714285714285634
40
-0.74285714285714211
40
-0.72857142857142787
40
-0.71428571428571364
40
-0.6999999999999994
40
-0.68571428571428517
40
-0.67142857142857093
40
-0.6571428571428567
40
-0.64285714285714246
40
-0.62857142857142823
40
-0.61428571428571399
40
-0.59999999999999976
40
-0.58571428571428552
40
-0.57142857142857129
40
-0.55714285714285705
40
-0.54285714285714282
40
-0.52857142857142858
40
-0.51428571428571435
40
-0.50000000000000011
40
-0.48571428571428582
40
-0.47142857142857153
40
-0.45714285714285724
40
-0.44285714285714295
40
-0.42857142857142866
40
-0.41428571428571437
40
-0.40000000000000008
40
-0.38571428571428579
40
-0.3714285714285715
40
-0.35714285714285721
40
-0.34285714285714292
40
-0.32857142857142863
40
-0.31428571428571433
40
-0.30000000000000004
40
-0.28571428571428575
40
-0.27142857142857146
40
-0.25714285714285717
40
-0.24285714285714291
40
-0.22857142857142862
40
-0.21428571428571433
40
-0.20000000000000004
40
-0.18571428571428575
40
-0.17142857142857146
40
-0.15714285714285717
40
-0.14285714285714288
40
-0.12857142857142859
40
-0.1142857142857143
40
-0.10000000000000001
40
-0.085714285714285715
40
-0.071428571428571425
40
-0.057142857142857141
40
-0.042857142857142858
40
-0.028571428571428571
40
-0.014285714285714285
40
0
40
0
40
0
40
0
40
0
40
0
10
-62.966683302847642
20
14.68026646077659
30
0
10
-62.959554000823331
20
14.668228450843833
30
0
10
-62.945268086526951
20
14.644183731424445
30
0
10
-62.923757284349982
20
14.608210553642373
30
0
10
-62.894912298781193
20
14.560434181613516
30
0
10
-62.858582578002178
20
14.501027352496795
30
0
10
-62.821979026122257
20
14.441935115112743
30
0
10
-62.78510137233522
20
14.383158913389973
30
0
10
-62.747949526946172
20
14.324700727811353
30
0
10
-62.710523718499601
20
14.266563148966284
30
0
10
-62.672824426859975
20
14.208749243498369
30
0
10
-62.634852280898379
20
14.151262383673524
30
0
10
-62.596607967712849
20
14.094106081158458
30
0
10
-62.558092145725411
20
14.03728383186092
30
0
10
-62.519305341429202
20
13.980798915622056
30
0
10
-62.480247947134515
20
13.924654421582252
30
0
10
-62.440920263290622
20
13.868853368289169
30
0
10
-62.401322529331118
20
13.813398795196898
30
0
10
-62.361454958669711
20
13.758293854024368
30
0
10
-62.321317780145037
20
13.703541921319074
30
0
10
-62.280911251015105
20
13.64914659683887
30
0
10
-62.24023564750901
20
13.59511161829915
30
0
10
-62.19929126492169
20
13.541440793253797
30
0
10
-62.158078413403317
20
13.488137932956523
30
0
10
-62.116597423412841
20
13.435206754481911
30
0
10
-62.074848626983041
20
13.382650901793296
30
0
10
-62.032832315667427
20
13.330474092223106
30
0
10
-61.990548703361135
20
13.278680235573574
30
0
10
-61.947997895518228
20
13.227273543521761
30
0
10
-61.905179841742246
20
13.176258684981757
30
0
10
-61.862094353143036
20
13.125640762098422
30
0
10
-61.818741206645839
20
13.075425040369071
30
0
10
-61.775120237528832
20
13.02561671762877
30
0
10
-61.731231422138961
20
12.976220714654495
30
0
10
-61.687075006798359
20
12.927241356461055
30
0
10
-61.642651482858987
20
12.878682427925627
30
0
10
-61.597961309521921
20
12.83054784409069
30
0
10
-61.553004678545136
20
12.782842219167252
30
0
10
-61.507781300860998
20
12.735571385071292
30
0
10
-61.462290096367255
20
12.688743142767862
30
0
10
-61.416529226290535
20
12.642367193981991
30
0
10
-61.370496720372202
20
12.59645364806275
30
0
10
-61.324191016157108
20
12.551011741297973
30
0
10
-61.277611444227148
20
12.506048685328947
30
0
10
-61.230758959402792
20
12.461567930810833
30
0
10
-61.18363602083317
20
12.417569460096232
30
-1.7763568394002505e-14
10
-61.13624507254562
20
12.374053416276444
30
-1.7763568394002505e-14
10
-61.088587236287893
20
12.331023226883248
30
-1.7763568394002505e-14
10
-61.040661149707205
20
12.288488383100013
30
-1.7763568394002505e-14
10
-60.992461187377806
20
12.246468688415357
30
-1.7763568394002505e-14
10
-60.943977899487543
20
12.204993230766842
30
-1.7763568394002505e-14
10
-60.895201511932171
20
12.164092070947046
30
0
10
-60.846124964288137
20
12.123789030383731
30
0
10
-60.796746542918434
20
12.084095446044918
30
0
10
-60.74707414462992
20
12.0450000391307
30
0
10
-60.697123373268766
20
12.00647348489634
30
0
10
-60.646909195770739
20
11.968488337151538
30
0
10
-60.596438626836047
20
11.931036498480376
30
0
10
-60.545704454526366
20
11.8941442175128
30
0
10
-60.494674891240187
20
11.857896781071675
30
0
10
-60.443300400618831
20
11.82242234654627
30
0
10
-60.391532685799106
20
11.787846876709509
30
0
10
-60.339341637442068
20
11.754253868239772
30
0
10
-60.28672983595434
20
11.721650038074777
30
0
10
-60.233756482792977
20
11.689908235346957
30
0
10
-60.18051247329123
20
11.658828242174815
30
0
10
-60.127074632397111
20
11.628247780420544
30
0
10
-60.073464609011168
20
11.5981424148237
30
0
10
-60.019610255884587
20
11.568719164381804
30
0
10
-59.965294111782427
20
11.540542003808445
30
0
10
-59.910211524904312
20
11.514386827005209
30
0
10
-59.865282634008011
20
11.495711798932081
30
0
10
-59.830989308112443
20
11.483251143524571
30
0
10
-59.807847629219914
20
11.47566686292792
30
0
10
-59.796206923133582
20
11.472055431424177
30
0
0
LINE
5
122
100
AcDbEntity
8
0
100
AcDbLine
10
-59.796206923133575
20
11.472055431424179
30
0
11
-58.044215916077405
21
10.928514904738449
31
-9.8607613152626476e-31
0
ARC
5
123
100
AcDbEntity
8
0
100
AcDbCircle
10
-58.266447890999814
20
10.212195877124255
30
0
40
0.75000000000002598
100
AcDbArc
50
-14.353550312609457
51
72.763934661192664
0
ARC
5
124
100
AcDbEntity
8
0
100
AcDbCircle
10
-43.638578186720444
20
6.4690352561668281
30
1.7763568394002505e-14
40
14.349199433071275
100
AcDbArc
50
165.64644968739165
51
173.47531485027915
0
ARC
5
125
100
AcDbEntity
8
0
100
AcDbCircle
10
-58.639979973936754
20
8.1847764773779534
30
-1.7763568394002505e-14
40
0.75000000000004641
100
AcDbArc
50
266.35782987648025
51
353.47531485030049
0
LINE
5
126
100
AcDbEntity
8
0
100
AcDbLine
10
-58.687623767147763
20
7.4362912945128983
30
-1.7763568394002505e-14
11
-60.518287561828714
21
7.5528196764626854
31
-1.7763568394002505e-14
0
SPLINE
5
127
100
AcDbEntity
8
0
100
AcDbSpline
70
1064
71
5
72
81
73
75
74
0
42
0.000000001
43
0.0000000001
44
0.0000000001
40
0
40
0
40
0
40
0
40
0
40
0
40
0.014285714285714285
40
0.028571428571428571
40
0.042857142857142858
40
0.057142857142857141
40
0.071428571428571425
40
0.085714285714285715
40
0.10000000000000001
40
0.1142857142857143
40
0.12857142857142859
40
0.14285714285714288
40
0.15714285714285717
40
0.17142857142857146
40
0.18571428571428575
40
0.20000000000000004
40
0.21428571428571433
40
0.22857142857142862
40
0.24285714285714291
40
0.25714285714285717
40
0.27142857142857146
40
0.28571428571428575
40
0.30000000000000004
40
0.31428571428571433
40
0.32857142857142863
40
0.34285714285714292
40
0.35714285714285721
40
0.3714285714285715
40
0.38571428571428579
40
0.40000000000000008
40
0.41428571428571437
40
0.42857142857142866
40
0.44285714285714295
40
0.45714285714285724
40
0.47142857142857153
40
0.48571428571428582
40
0.50000000000000011
40
0.51428571428571435
40
0.52857142857142858
40
0.54285714285714282
40
0.55714285714285705
40
0.57142857142857129
40
0.58571428571428552
40
0.59999999999999976
40
0.61428571428571399
40
0.62857142857142823
40
0.64285714285714246
40
0.6571428571428567
40
0.67142857142857093
40
0.68571428571428517
40
0.6999999999999994
40
0.71428571428571364
40
0.72857142857142787
40
0.74285714285714211
40
0.75714285714285634
40
0.77142857142857058
40
0.78571428571428481
40
0.79999999999999905
40
0.81428571428571328
40
0.82857142857142752
40
0.84285714285714175
40
0.85714285714285599
40
0.87142857142857022
40
0.88571428571428445
40
0.89999999999999869
40
0.91428571428571292
40
0.92857142857142716
40
0.94285714285714139
40
0.95714285714285563
40
0.97142857142856986
40
0.9857142857142841
40
1
40
1
40
1
40
1
40
1
40
1
10
-60.518287561828714
20
7.5528196764626863
30
-1.7763568394002505e-14
10
-60.530450991373129
20
7.55359392281414
30
-1.7763568394002505e-14
10
-60.554776095202655
20
7.5547549300561601
30
-1.7763568394002505e-14
10
-60.591258485574826
20
7.5553340042291008
30
-1.7763568394002505e-14
10
-60.639892806302313
20
7.5538970776205607
30
-1.7763568394002505e-14
10
-60.700679929128185
20
7.5490897551490166
30
-1.7763568394002505e-14
10
-60.761471534725587
20
7.5421200652710905
30
-1.7763568394002505e-14
10
-60.822275755955758
20
7.5338215293857456
30
-1.7763568394002505e-14
10
-60.883094784472227
20
7.5247985910908017
30
-1.7763568394002505e-14
10
-60.94392225225662
20
7.5152703885599852
30
-1.7763568394002505e-14
10
-61.00474664019093
20
7.5052063756516718
30
-1.7763568394002505e-14
10
-61.065554000845964
20
7.494427550310383
30
-1.7763568394002505e-14
10
-61.126330761353586
20
7.4827144474160487
30
-1.7763568394002505e-14
10
-61.187066921850047
20
7.4699271664384046
30
-1.7763568394002505e-14
10
-61.24775767755537
20
7.456071063667177
30
-1.7763568394002505e-14
10
-61.308401404021396
20
7.4412348838417
30
-1.7763568394002505e-14
10
-61.368998335931352
20
7.4255535311949732
30
-1.7763568394002505e-14
10
-61.429549083954392
20
7.4091644022128955
30
-1.7763568394002505e-14
10
-61.4900529537328
20
7.3921585123426894
30
0
10
-61.550507329100284
20
7.374562956940073
30
0
10
-61.610908541724605
20
7.3563676703454934
30
0
10
-61.671252388758703
20
7.337541674524708
30
0
10
-61.731534741749819
20
7.3180520092509909
30
0
10
-61.791752241969775
20
7.2978853220028084
30
1.7763568394002505e-14
10
-61.851902450234164
20
7.2770528160732137
30
1.7763568394002505e-14
10
-61.911983473824193
20
7.2555792649887412
30
1.7763568394002505e-14
10
-61.971993731917081
20
7.2334962390734878
30
1.7763568394002505e-14
10
-62.031931687400032
20
7.2108342841020443
30
1.7763568394002505e-14
10
-62.091795538704133
20
7.1876139080710431
30
1.7763568394002505e-14
10
-62.151583176232634
20
7.1638444644915076
30
1.7763568394002505e-14
10
-62.211292330377361
20
7.1395287560712273
30
1.7763568394002505e-14
10
-62.27092066659074
20
7.1146660454960848
30
1.7763568394002505e-14
10
-62.330465893480763
20
7.0892554398782135
30
1.7763568394002505e-14
10
-62.389925889165355
20
7.0632998230205715
30
1.7763568394002505e-14
10
-62.449298709001518
20
7.0368061716168189
30
1.7763568394002505e-14
10
-62.508582521196487
20
7.0097836723319755
30
1.7763568394002505e-14
10
-62.567775563840378
20
6.9822424729013255
30
1.7763568394002505e-14
10
-62.626876097441659
20
6.9541922933415972
30
1.7763568394002505e-14
10
-62.685882351050857
20
6.9256408073360385
30
1.7763568394002505e-14
10
-62.744792516359063
20
6.8965935668953566
30
1.7763568394002505e-14
10
-62.803604769772335
20
6.867054814921806
30
1.7763568394002505e-14
10
-62.86231728698575
20
6.8370280457443418
30
1.7763568394002505e-14
10
-62.920928260043297
20
6.8065166206152625
30
1.7763568394002505e-14
10
-62.979435917434188
20
6.775524492783501
30
1.7763568394002505e-14
10
-63.037838527576611
20
6.7440562683569674
30
1.7763568394002505e-14
10
-63.096134391956156
20
6.7121168625845273
30
1.7763568394002505e-14
10
-63.154321842466217
20
6.6797112747305896
30
1.7763568394002505e-14
10
-63.212399237276173
20
6.6468443392500269
30
1.7763568394002505e-14
10
-63.27036495955133
20
6.6135204364560938
30
1.7763568394002505e-14
10
-63.328217409791215
20
6.5797434639047383
30
1.7763568394002505e-14
10
-63.385954994757647
20
6.5455169984516672
30
1.7763568394002505e-14
10
-63.443576117246003
20
6.5108444094441875
30
1.7763568394002505e-14
10
-63.501079168377899
20
6.4757289832518508
30
1.7763568394002505e-14
10
-63.558462514689737
20
6.4401740751158272
30
1.7763568394002505e-14
10
-63.615724508129418
20
6.4041831355103156
30
1.7763568394002505e-14
10
-63.672863515843197
20
6.3677596167467794
30
1.7763568394002505e-14
10
-63.72987794768062
20
6.3309069126785289
30
1.7763568394002505e-14
10
-63.786766280382388
20
6.2936282950206142
30
1.7763568394002505e-14
10
-63.843527096790908
20
6.2559268370619261
30
1.7763568394002505e-14
10
-63.900159074285902
20
6.2178054075222322
30
1.7763568394002505e-14
10
-63.956660905944887
20
6.179266760954734
30
1.7763568394002505e-14
10
-64.013031235286761
20
6.1403136106339566
30
1.7763568394002505e-14
10
-64.069268594842896
20
6.100948703054323
30
1.7763568394002505e-14
10
-64.125371323809773
20
6.0611749150690795
30
1.7763568394002505e-14
10
-64.181337561114972
20
6.0209952783939062
30
1.7763568394002505e-14
10
-64.237165413276642
20
5.9804128292490422
30
1.7763568394002505e-14
10
-64.292853090896898
20
5.9394304943581444
30
1.7763568394002505e-14
10
-64.348399052719202
20
5.8980509679931439
30
1.7763568394002505e-14
10
-64.403802161963029
20
5.856276589195736
30
1.7763568394002505e-14
10
-64.459061796623246
20
5.8141092403758634
30
1.7763568394002505e-14
10
-64.514177695133199
20
5.7715503671644388
30
1.7763568394002505e-14
10
-64.55815540835917
20
5.7371908611127491
30
1.7763568394002505e-14
10
-64.591074042270066
20
5.7112457715681328
30
1.7763568394002505e-14
10
-64.612991074010452
20
5.6938710888679633
30
1.7763568394002505e-14
10
-64.623942408828398
20
5.6851642584343089
30
1.7763568394002505e-14
0
ARC
5
128
100
AcDbEntity
8
0
100
AcDbCircle
10
-43.638578186720444
20
6.4690352561668281
30
1.7763568394002505e-14
40
20.999999173228897
100
AcDbArc
50
182.13918751148628
51
186.98257702618668
0
SPLINE
5
129
100
AcDbEntity
8
0
100
AcDbSpline
70
1064
71
5
72
81
73
75
74
0
42
0.000000001
43
0.0000000001
44
0.0000000001
40
-1
40
-1
40
-1
40
-1
40
-1
40
-1
40
-0.9857142857142841
40
-0.97142857142856986
40
-0.95714285714285563
40
-0.94285714285714139
40
-0.92857142857142716
40
-0.91428571428571292
40
-0.89999999999999869
40
-0.88571428571428445
40
-0.87142857142857022
40
-0.85714285714285599
40
-0.84285714285714175
40
-0.82857142857142752
40
-0.81428571428571328
40
-0.79999999999999905
40
-0.78571428571428481
40
-0.77142857142857058
40
-0.75714285714285634
40
-0.74285714285714211
40
-0.72857142857142787
40
-0.71428571428571364
40
-0.6999999999999994
40
-0.68571428571428517
40
-0.67142857142857093
40
-0.6571428571428567
40
-0.64285714285714246
40
-0.62857142857142823
40
-0.61428571428571399
40
-0.59999999999999976
40
-0.58571428571428552
40
-0.57142857142857129
40
-0.55714285714285705
40
-0.54285714285714282
40
-0.52857142857142858
40
-0.51428571428571435
40
-0.50000000000000011
40
-0.48571428571428582
40
-0.47142857142857153
40
-0.45714285714285724
40
-0.44285714285714295
40
-0.42857142857142866
40
-0.41428571428571437
40
-0.40000000000000008
40
-0.38571428571428579
40
-0.3714285714285715
40
-0.35714285714285721
40
-0.34285714285714292
40
-0.32857142857142863
40
-0.31428571428571433
40
-0.30000000000000004
40
-0.28571428571428575
40
-0.27142857142857146
40
-0.25714285714285717
40
-0.24285714285714291
40
-0.22857142857142862
40
-0.21428571428571433
40
-0.20000000000000004
40
-0.18571428571428575
40
-0.17142857142857146
40
-0.15714285714285717
40
-0.14285714285714288
40
-0.12857142857142859
40
-0.1142857142857143
40
-0.10000000000000001
40
-0.085714285714285715
40
-0.071428571428571425
40
-0.057142857142857141
40
-0.042857142857142858
40
-0.028571428571428571
40
-0.014285714285714285
40
0
40
0
40
0
40
0
40
0
40
0
10
-64.482823826607301
20
3.9161175176424159
30
0
10
-64.470630664976611
20
3.9092569462417979
30
0
10
-64.446236340569968
20
3.8955765655459262
30
0
10
-64.409620850537891
20
3.8751782808202853
30
0
10
-64.360752174249114
20
3.848225221727033
30
0
10
-64.299586298583733
20
3.8149422589431832
30
0
10
-64.238340574094948
20
3.782068656142088
30
0
10
-64.177015488222025
20
3.7496057992057299
30
0
10
-64.11561195352833
20
3.7175554481300295
30
0
10
-64.054131463233887
20
3.6859197321589683
30
0
10
-63.992575966235343
20
3.6547010671515667
30
0
10
-63.930947693283962
20
3.6239020591402591
30
0
10
-63.869248995257465
20
3.5935254057685917
30
0
10
-63.807482190319945
20
3.5635738053704715
30
0
10
-63.745649374348375
20
3.5340498351250837
30
0
10
-63.683752431663649
20
3.5049559741513341
30
0
10
-63.621793131736297
20
3.4762946863635418
30
0
10
-63.559773201648952
20
3.4480684842893643
30
0
10
-63.497694402082715
20
3.4202799906906103
30
0
10
-63.435558619491488
20
3.3929320153238662
30
0
10
-63.373367876546105
20
3.3660275470418801
30
0
10
-63.311124281325696
20
3.339569684686583
30
0
10
-63.248829993340145
20
3.3135615780488981
30
0
10
-63.18648718681419
20
3.2880063726962745
30
0
10
-63.124098006471023
20
3.2629071224802457
30
0
10
-63.06166456184107
20
3.2382668171492628
30
0
10
-62.999188964083345
20
3.2140885302308582
30
0
10
-62.936673353337554
20
3.1903755407655425
30
0
10
-62.874119926768145
20
3.1671314434456037
30
0
10
-62.81153097518753
20
3.1443603068674819
30
0
10
-62.748908886084479
20
3.1220666440633171
30
0
10
-62.686256099019253
20
3.100255126624925
30
0
10
-62.623575070256081
20
3.0789303383704341
30
0
10
-62.560868239699303
20
3.0580965526442387
30
0
10
-62.498137983177571
20
3.0377573918579648
30
0
10
-62.435386618652728
20
3.0179158881354207
30
0
10
-62.372616501325837
20
2.9985752024023
30
0
10
-62.309830104369659
20
2.9797392348035872
30
0
10
-62.24703009340228
20
2.9614131804604775
30
0
10
-62.184219433510236
20
2.9436043352580086
30
0
10
-62.12140138313157
20
2.9263220205231972
30
0
10
-62.058579290646819
20
2.9095759763384823
30
0
10
-61.995756421074041
20
2.8933749827913187
30
0
10
-61.932935800500786
20
2.8777256200553465
30
0
10
-61.870119981153408
20
2.8626303990753401
30
0
10
-61.807311083893843
20
2.8480880749936359
30
0
10
-61.744511296857489
20
2.8340975497172898
30
0
10
-61.681723305272307
20
2.8206612307019858
30
0
10
-61.618950674897839
20
2.8077880187300446
30
0
10
-61.556198435716787
20
2.7954978768385708
30
0
10
-61.49347294792058
20
2.783820720826502
30
0
10
-61.430780777282898
20
2.772787471155997
30
0
10
-61.368127720011465
20
2.7624222880004305
30
0
10
-61.305517960537124
20
2.7527358462806131
30
0
10
-61.242952698295269
20
2.7437144298658622
30
0
10
-61.180430784240713
20
2.7353248408592079
30
0
10
-61.117951457024866
20
2.7275358266947181
30
-1.7763568394002505e-14
10
-61.055516742848397
20
2.7203368674544022
30
-1.7763568394002505e-14
10
-60.993133520304433
20
2.7137543010877705
30
-1.7763568394002505e-14
10
-60.930816903934016
20
2.7078778819507869
30
-1.7763568394002505e-14
10
-60.868588072686748
20
2.7028433657775768
30
-1.7763568394002505e-14
10
-60.806468181638607
20
2.6987839879610256
30
-1.7763568394002505e-14
10
-60.74447290367641
20
2.6957871134152045
30
-1.7763568394002505e-14
10
-60.682607831966664
20
2.693857268975512
30
-1.7763568394002505e-14
10
-60.620860661041377
20
2.692854738031988
30
-1.7763568394002505e-14
10
-60.559209999627448
20
2.6925606791463386
30
-1.7763568394002505e-14
10
-60.497641241012623
20
2.6927961428547427
30
-1.7763568394002505e-14
10
-60.436160916064495
20
2.6935291431506303
30
-1.7763568394002505e-14
10
-60.374810052931558
20
2.6949750373693231
30
-1.7763568394002505e-14
10
-60.313682312016788
20
2.6977309725573702
30
-1.7763568394002505e-14
10
-60.25290180407255
20
2.7026212184443512
30
-1.7763568394002505e-14
10
-60.204654729155948
20
2.7089126151647784
30
-1.7763568394002505e-14
10
-60.16872551004635
20
2.7152680339818631
30
-1.7763568394002505e-14
10
-60.144892087940889
20
2.7202706937619969
30
-1.7763568394002505e-14
10
-60.133005225000261
20
2.7229634553788933
30
-1.7763568394002505e-14
0
LINE
5
130
100
AcDbEntity
8
0
100
AcDbLine
10
-60.133005225000261
20
2.7229634553788933
30
-1.7763568394002505e-14
11
-58.343966242344869
21
3.1282390548108046
31
-1.7763568394002501e-14
0
ARC
5
131
100
AcDbEntity
8
0
100
AcDbCircle
10
-58.178265264353783
20
2.3967725922215348
30
1.7763568394002505e-14
40
0.75000000000002798
100
AcDbArc
50
15.646449687393499
51
102.76393466119119
0
ARC
5
132
100
AcDbEntity
8
0
100
AcDbCircle
10
-43.638578186720444
20
6.4690352561668281
30
1.7763568394002505e-14
40
14.349199433071274
100
AcDbArc
50
195.64644968739265
51
203.4753148502823
0
ARC
5
133
100
AcDbEntity
8
0
100
AcDbCircle
10
-57.488043837432571
20
0.45420984644736606
30
0
40
0.75000000000004019
100
AcDbArc
50
-63.642170123522099
51
23.475314850260308
0
LINE
5
134
100
AcDbEntity
8
0
100
AcDbLine
10
-57.155061981253461
20
-0.2178192328755239
30
-1.4791141972894786e-31
11
-58.79872752421047
21
-1.0322345911856154
31
-9.8607613152626476e-31
0
SPLINE
5
135
100
AcDbEntity
8
0
100
AcDbSpline
70
1064
71
5
72
81
73
75
74
0
42
0.000000001
43
0.0000000001
44
0.0000000001
40
0
40
0
40
0
40
0
40
0
40
0
40
0.014285714285714285
40
0.028571428571428571
40
0.042857142857142858
40
0.057142857142857141
40
0.071428571428571425
40
0.085714285714285715
40
0.10000000000000001
40
0.1142857142857143
40
0.12857142857142859
40
0.14285714285714288
40
0.15714285714285717
40
0.17142857142857146
40
0.18571428571428575
40
0.20000000000000004
40
0.21428571428571433
40
0.22857142857142862
40
0.24285714285714291
40
0.25714285714285717
40
0.27142857142857146
40
0.28571428571428575
40
0.30000000000000004
40
0.31428571428571433
40
0.32857142857142863
40
0.34285714285714292
40
0.35714285714285721
40
0.3714285714285715
40
0.38571428571428579
40
0.40000000000000008
40
0.41428571428571437
40
0.42857142857142866
40
0.44285714285714295
40
0.45714285714285724
40
0.47142857142857153
40
0.48571428571428582
40
0.50000000000000011
40
0.51428571428571435
40
0.52857142857142858
40
0.54285714285714282
40
0.55714285714285705
40
0.57142857142857129
40
0.58571428571428552
40
0.59999999999999976
40
0.61428571428571399
40
0.62857142857142823
40
0.64285714285714246
40
0.6571428571428567
40
0.67142857142857093
40
0.68571428571428517
40
0.6999999999999994
40
0.71428571428571364
40
0.72857142857142787
40
0.74285714285714211
40
0.75714285714285634
40
0.77142857142857058
40
0.78571428571428481
40
0.79999999999999905
40
0.81428571428571328
40
0.82857142857142752
40
0.84285714285714175
40
0.85714285714285599
40
0.87142857142857022
40
0.88571428571428445
40
0.89999999999999869
40
0.91428571428571292
40
0.92857142857142716
40
0.94285714285714139
40
0.95714285714285563
40
0.97142857142856986
40
0.9857142857142841
40
1
40
1
40
1
40
1
40
1
40
1
10
-58.798727524210463
20
-1.0322345911856154
30
-1.7763568394002505e-14
10
-58.809648486368793
20
-1.0376457889486743
30
-1.7763568394002505e-14
10
-58.831295147855869
20
-1.0488028790978718
30
-1.7763568394002505e-14
10
-58.863179361795417
20
-1.0665425813395155
30
-1.7763568394002505e-14
10
-58.90457945573695
20
-1.092104156649631
30
-1.7763568394002505e-14
10
-58.954818987091365
20
-1.1266609814471109
30
-1.7763568394002505e-14
10
-59.003981216936594
20
-1.1630927127365995
30
-1.7763568394002505e-14
10
-59.052489949236573
20
-1.2006815662426098
30
-1.7763568394002505e-14
10
-59.100649303817853
20
-1.2389051742810422
30
-1.7763568394002505e-14
10
-59.148563334901624
20
-1.2775705736173328
30
-1.7763568394002505e-14
10
-59.196206793568209
20
-1.3166984584271026
30
-1.7763568394002505e-14
10
-59.243478099961912
20
-1.3564368753231359
30
-1.7763568394002505e-14
10
-59.290255767074058
20
-1.3969691002405726
30
-1.7763568394002505e-14
10
-59.336461184503506
20
-1.4384112906607796
30
-1.7763568394002505e-14
10
-59.382092869333576
20
-1.4807564055107716
30
-1.7763568394002505e-14
10
-59.427193787120565
20
-1.5239267773677643
30
-1.7763568394002505e-14
10
-59.471831593222632
20
-1.5678056930805127
30
-1.7763568394002505e-14
10
-59.516075514737693
20
-1.6122744691364099
30
-1.7763568394002505e-14
10
-59.559970458057961
20
-1.657253936667179
30
-1.7763568394002505e-14
10
-59.603527705194807
20
-1.7027193223232806
30
-1.7763568394002505e-14
10
-59.646739046449575
20
-1.7486775090554871
30
-1.7763568394002505e-14
10
-59.68958535303279
20
-1.7951532232048797
30
-1.7763568394002505e-14
10
-59.732046569486137
20
-1.8421729449387323
30
-1.7763568394002505e-14
10
-59.774113110804919
20
-1.88974655851581
30
-1.7763568394002505e-14
10
-59.815788466240008
20
-1.9378631420075263
30
-1.7763568394002505e-14
10
-59.85708338341211
20
-1.9865002945511581
30
-1.7763568394002505e-14
10
-59.898012278450572
20
-2.0356298850326411
30
-1.7763568394002505e-14
10
-59.938589093063996
20
-2.0852246914788037
30
-1.7763568394002505e-14
10
-59.978822521046226
20
-2.1352660526591345
30
-1.7763568394002505e-14
10
-60.018715412188392
20
-2.1857448133970849
30
-1.7763568394002505e-14
10
-60.058267202306077
20
-2.2366574116724283
30
-1.7763568394002505e-14
10
-60.097475500964677
20
-2.2880033187441282
30
-1.7763568394002505e-14
10
-60.13633787731662
20
-2.3397821621797661
30
-1.7763568394002505e-14
10
-60.174853935659563
20
-2.3919903835916805
30
-1.7763568394002505e-14
10
-60.213025480230122
20
-2.4446209686644185
30
0
10
-60.250855517981719
20
-2.4976650456163227
30
0
10
-60.288347596923309
20
-2.5511129452959085
30
0
10
-60.325505070619379
20
-2.6049553801759906
30
0
10
-60.362330242224303
20
-2.6591848191772014
30
0
10
-60.398824321702023
20
-2.7137955499627715
30
0
10
-60.434987851224946
20
-2.7687829862745894
30
0
10
-60.470820998063161
20
-2.8241431897825562
30
0
10
-60.506323877106986
20
-2.8798723455787822
30
0
10
-60.541496930807526
20
-2.9359661442938636
30
0
10
-60.576340962624911
20
-2.9924197311304468
30
0
10
-60.610856959226957
20
-3.0492280001009329
30
0
10
-60.645045975623155
20
-3.10638578766204
30
0
10
-60.678909007173907
20
-3.1638880861377281
30
0
10
-60.71244684381594
20
-3.2217302936481014
30
0
10
-60.745660049119188
20
-3.2799082350604492
30
0
10
-60.77854903172674
20
-3.338418016107771
30
0
10
-60.811114093092499
20
-3.3972559202474084
30
0
10
-60.843355483071669
20
-3.4564182969606385
30
0
10
-60.875273464663863
20
-3.5159014237915738
30
0
10
-60.906868335851208
20
-3.5757014885158638
30
0
10
-60.938140408696611
20
-3.6358146849171979
30
0
10
-60.969090003016035
20
-3.6962372787571636
30
0
10
-60.999717435485735
20
-3.7569656750177649
30
0
10
-61.030023015455725
20
-3.8179965035739643
30
0
10
-61.060007031863094
20
-3.8793266187314135
30
0
10
-61.089669730156373
20
-3.940952981515836
30
0
10
-61.119011292225743
20
-4.0028725639219989
30
0
10
-61.148031820453291
20
-4.0650822536816547
30
0
10
-61.17673131496764
20
-4.1275787289650561
30
0
10
-61.205109679890569
20
-4.1903584336931834
30
0
10
-61.233166793528888
20
-4.2534177916812679
30
0
10
-61.260902569580324
20
-4.3167533736133095
30
0
10
-61.288317020413587
20
-4.3803620755531227
30
0
10
-61.315410331068676
20
-4.4442413034409061
30
0
10
-61.342182904078342
20
-4.5083891160592682
30
0
10
-61.368635235734644
20
-4.5728041306717753
30
0
10
-61.38954129956285
20
-4.6245491923870183
30
0
10
-61.405077128015257
20
-4.663477615991563
30
0
10
-61.415370492927892
20
-4.6894830484627938
30
0
10
-61.420501211868753
20
-4.702499052213752
30
0
0
ARC
5
136
100
AcDbEntity
8
0
100
AcDbCircle
10
-43.638578186720444
20
6.4690352561668281
30
1.7763568394002505e-14
40
20.999999173229131
100
AcDbArc
50
212.13918751148714
51
216.98257702618918
0
SPLINE
5
137
100
AcDbEntity
8
0
100
AcDbSpline
70
1064
71
5
72
81
73
75
74
0
42
0.000000001
43
0.0000000001
44
0.0000000001
40
-1
40
-1
40
-1
40
-1
40
-1
40
-1
40
-0.9857142857142841
40
-0.97142857142856986
40
-0.95714285714285563
40
-0.94285714285714139
40
-0.92857142857142716
40
-0.91428571428571292
40
-0.89999999999999869
40
-0.88571428571428445
40
-0.87142857142857022
40
-0.85714285714285599
40
-0.84285714285714175
40
-0.82857142857142752
40
-0.81428571428571328
40
-0.79999999999999905
40
-0.78571428571428481
40
-0.77142857142857058
40
-0.75714285714285634
40
-0.74285714285714211
40
-0.72857142857142787
40
-0.71428571428571364
40
-0.6999999999999994
40
-0.68571428571428517
40
-0.67142857142857093
40
-0.6571428571428567
40
-0.64285714285714246
40
-0.62857142857142823
40
-0.61428571428571399
40
-0.59999999999999976
40
-0.58571428571428552
40
-0.57142857142857129
40
-0.55714285714285705
40
-0.54285714285714282
40
-0.52857142857142858
40
-0.51428571428571435
40
-0.50000000000000011
40
-0.48571428571428582
40
-0.47142857142857153
40
-0.45714285714285724
40
-0.44285714285714295
40
-0.42857142857142866
40
-0.41428571428571437
40
-0.40000000000000008
40
-0.38571428571428579
40
-0.3714285714285715
40
-0.35714285714285721
40
-0.34285714285714292
40
-0.32857142857142863
40
-0.31428571428571433
40
-0.30000000000000004
40
-0.28571428571428575
40
-0.27142857142857146
40
-0.25714285714285717
40
-0.24285714285714291
40
-0.22857142857142862
40
-0.21428571428571433
40
-0.20000000000000004
40
-0.18571428571428575
40
-0.17142857142857146
40
-0.15714285714285717
40
-0.14285714285714288
40
-0.12857142857142859
40
-0.1142857142857143
40
-0.10000000000000001
40
-0.085714285714285715
40
-0.071428571428571425
40
-0.057142857142857141
40
-0.042857142857142858
40
-0.028571428571428571
40
-0.014285714285714285
40
0
40
0
40
0
40
0
40
0
40
0
10
-60.413765564323327
20
-6.1639791791110472
30
0
10
-60.399775690898394
20
-6.1638240274131162
30
0
10
-60.371809395906141
20
-6.1634744224258622
30
0
10
-60.329900309003541
20
-6.1628321101758594
30
0
10
-60.274102264341501
20
-6.1617398059159223
30
0
10
-60.204489580778635
20
-6.1599807593672544
30
0
10
-60.135012426097624
20
-6.1578272722625371
30
0
10
-60.065671915374224
20
-6.1552783881123769
30
0
10
-59.996469718909474
20
-6.1523330389972894
30
0
10
-59.927408194491832
20
-6.1489901275479175
30
-1.7763568394002505e-14
10
-59.858490237844819
20
-6.1452485360172924
30
-1.7763568394002505e-14
10
-59.789719083871915
20
-6.1411071228907543
30
-1.7763568394002505e-14
10
-59.72109811731471
20
-6.1365647273793256
30
-1.7763568394002505e-14
10
-59.652630694929158
20
-6.1316201717393337
30
-1.7763568394002505e-14
10
-59.584319920387571
20
-6.1262722720066325
30
-1.7763568394002505e-14
10
-59.516168665119132
20
-6.1205198233617093
30
-1.7763568394002505e-14
10
-59.448179693487447
20
-6.1143615767274353
30
-1.7763568394002505e-14
10
-59.380355757453771
20
-6.107796219732343
30
-1.7763568394002505e-14
10
-59.312699693193608
20
-6.1008223613386559
30
-1.7763568394002505e-14
10
-59.245214539302189
20
-6.0934385114527077
30
-1.7763568394002505e-14
10
-59.177903541890274
20
-6.0856430929875307
30
-1.7763568394002505e-14
10
-59.110770076028878
20
-6.0774344763068466
30
-1.7763568394002505e-14
10
-59.043817586803883
20
-6.0688110133666342
30
-1.7763568394002505e-14
10
-58.977049529932884
20
-6.0597710671379623
30
-1.7763568394002505e-14
10
-58.910469289726386
20
-6.0503130652693926
30
-1.7763568394002505e-14
10
-58.844080187965588
20
-6.0404354733280519
30
-1.7763568394002505e-14
10
-58.777885589731582
20
-6.0301366851405156
30
-1.7763568394002505e-14
10
-58.711888987959981
20
-6.0194149310442615
30
-1.7763568394002505e-14
10
-58.646094082797127
20
-6.0082681965266547
30
-1.7763568394002505e-14
10
-58.580504892443024
20
-5.9966941034860461
30
-1.7763568394002505e-14
10
-58.515125741039654
20
-5.9846899372663342
30
-1.7763568394002505e-14
10
-58.449961077104064
20
-5.9722528719304515
30
-1.7763568394002505e-14
10
-58.385015319732574
20
-5.9593801659075769
30
-1.7763568394002505e-14
10
-58.3202927186165
20
-5.946069338325076
30
-1.7763568394002505e-14
10
-58.255797142489627
20
-5.9323184399967772
30
-1.7763568394002505e-14
10
-58.191532114827709
20
-5.9181260040073616
30
-1.7763568394002505e-14
10
-58.127501255757529
20
-5.9034904705154103
30
0
10
-58.063708657182019
20
-5.888409698482663
30
0
10
-58.000159225154782
20
-5.8728805216112425
30
0
10
-57.936859175458565
20
-5.8568981040226138
30
0
10
-57.873815990647032
20
-5.8404560024298338
30
0
10
-57.811037440543984
20
-5.8235474558643139
30
0
10
-57.748530742781739
20
-5.8061664930563142
30
0
10
-57.686301808115807
20
-5.7883089284520741
30
0
10
-57.624354102311443
20
-5.7699738636228091
30
0
10
-57.562688839660126
20
-5.7511634370778486
30
0
10
-57.501307366096206
20
-5.7318796938612735
30
0
10
-57.440213210823188
20
-5.7121218916692884
30
0
10
-57.379413912270564
20
-5.6918841050780582
30
0
10
-57.318923808049682
20
-5.671151560581662
30
0
10
-57.258763364147363
20
-5.6499015304339606
30
0
10
-57.198953726921488
20
-5.6281105196160723
30
0
10
-57.13951199612189
20
-5.6057605029079536
30
0
10
-57.080447133032351
20
-5.5828443277724196
30
0
10
-57.021753318329104
20
-5.5593744724447873
30
0
10
-56.963412957961296
20
-5.535379112624577
30
0
10
-56.905409766298767
20
-5.5108849331535392
30
0
10
-56.84774023812377
20
-5.4859020576482251
30
0
10
-56.790423499447442
20
-5.460411116071846
30
0
10
-56.733517517024282
20
-5.4343419361425482
30
0
10
-56.677108510229729
20
-5.4075875394206747
30
0
10
-56.621281417593437
20
-5.380043118209298
30
0
10
-56.566093494690584
20
-5.3516408487168299
30
0
10
-56.511551848763162
20
-5.3223796071720848
30
0
10
-56.457575964658275
20
-5.2923742389746096
30
0
10
-56.404037896270879
20
-5.2618035707328294
30
0
10
-56.350835519085159
20
-5.2308152738722624
30
0
10
-56.297958495995104
20
-5.19944031452098
30
0
10
-56.245550037087227
20
-5.1675127018299394
30
0
10
-56.193989828173102
20
-5.1345621214885186
30
0
10
-56.14379748718197
20
-5.0999367903475212
30
0
10
-56.105159993006112
20
-5.070364743504042
30
0
10
-56.077222085927616
20
-5.046896179801962
30
0
10
-56.059083066815219
20
-5.0306470382931403
30
0
10
-56.050135122345793
20
-5.0223716068562618
30
0
0
LINE
5
138
100
AcDbEntity
8
0
100
AcDbLine
10
-56.050135122345807
20
-5.0223716068562618
30
0
11
-54.703419714721512
21
-3.776873150886531
31
9.8607613152626476e-31
0
ARC
5
139
100
AcDbEntity
8
0
100
AcDbCircle
10
-54.194185227054675
20
-4.3274912005096295
30
0
40
0.75000000000003741
100
AcDbArc
50
45.646449687395261
51
132.76393466119123
0
ARC
5
140
100
AcDbEntity
8
0
100
AcDbCircle
10
-43.638578186720444
20
6.4690352561668281
30
1.7763568394002505e-14
40
14.349199433071519
100
AcDbArc
50
225.64644968739307
51
233.47531485028355
0
ARC
5
141
100
AcDbEntity
8
0
100
AcDbCircle
10
-52.625154564217517
20
-5.6646891733346969
30
0
40
0.7500000000000222
100
AcDbArc
50
-33.642170123522334
51
53.475314850241126
0
LINE
5
142
100
AcDbEntity
8
0
100
AcDbLine
10
-52.000769278105679
20
-6.0801925000206278
30
2.958228394579001e-31
11
-53.017017714476545
21
-7.6073296610279009
31
-1.7763568394002505e-14
0
SPLINE
5
143
100
AcDbEntity
8
0
100
AcDbSpline
70
1064
71
5
72
81
73
75
74
0
42
0.000000001
43
0.0000000001
44
0.0000000001
40
0
40
0
40
0
40
0
40
0
40
0
40
0.014285714285714285
40
0.028571428571428571
40
0.042857142857142858
40
0.057142857142857141
40
0.071428571428571425
40
0.085714285714285715
40
0.10000000000000001
40
0.1142857142857143
40
0.12857142857142859
40
0.14285714285714288
40
0.15714285714285717
40
0.17142857142857146
40
0.18571428571428575
40
0.20000000000000004
40
0.21428571428571433
40
0.22857142857142862
40
0.24285714285714291
40
0.25714285714285717
40
0.27142857142857146
40
0.28571428571428575
40
0.30000000000000004
40
0.31428571428571433
40
0.32857142857142863
40
0.34285714285714292
40
0.35714285714285721
40
0.3714285714285715
40
0.38571428571428579
40
0.40000000000000008
40
0.41428571428571437
40
0.42857142857142866
40
0.44285714285714295
40
0.45714285714285724
40
0.47142857142857153
40
0.48571428571428582
40
0.50000000000000011
40
0.51428571428571435
40
0.52857142857142858
40
0.54285714285714282
40
0.55714285714285705
40
0.57142857142857129
40
0.58571428571428552
40
0.59999999999999976
40
0.61428571428571399
40
0.62857142857142823
40
0.64285714285714246
40
0.6571428571428567
40
0.67142857142857093
40
0.68571428571428517
40
0.6999999999999994
40
0.71428571428571364
40
0.72857142857142787
40
0.74285714285714211
40
0.75714285714285634
40
0.77142857142857058
40
0.78571428571428481
40
0.79999999999999905
40
0.81428571428571328
40
0.82857142857142752
40
0.84285714285714175
40
0.85714285714285599
40
0.87142857142857022
40
0.88571428571428445
40
0.89999999999999869
40
0.91428571428571292
40
0.92857142857142716
40
0.94285714285714139
40
0.95714285714285563
40
0.97142857142856986
40
0.9857142857142841
40
1
40
1
40
1
40
1
40
1
40
1
10
-53.017017714476552
20
-7.6073296610278973
30
0
10
-53.023769946257893
20
-7.6174763768347766
30
0
10
-53.036937959938228
20
-7.6379620310798337
30
0
10
-53.055680648068765
20
-7.6692671708464406
30
0
10
-53.078753393486132
20
-7.7121041913965218
30
0
10
-53.104983691514533
20
-7.7671510452224704
30
0
10
-53.129343565822452
20
-7.8232829649456299
30
0
10
-53.152558933546608
20
-7.8800902331309644
30
0
10
-53.175154354024642
20
-7.9372725260071793
30
0
10
-53.197316422472753
20
-7.9947147596217594
30
0
10
-53.219012925597298
20
-8.0524222311966689
30
0
10
-53.240081869356302
20
-8.1104723629316648
30
0
10
-53.260326404946468
20
-8.168963132938142
30
0
10
-53.279620375022738
20
-8.2279558313452359
30
0
10
-53.297966015878075
20
-8.2874436189465364
30
0
10
-53.315439370487105
20
-8.3473807165590124
30
0
10
-53.332157386684315
20
-8.4076998753078023
30
0
10
-53.348239358651455
20
-8.4683329258049387
30
0
10
-53.363763760899097
20
-8.5292337589954172
30
0
10
-53.378752750610481
20
-8.5903865615348849
30
0
10
-53.393195776502594
20
-8.6517931893842235
30
0
10
-53.407063909387311
20
-8.7134654917882344
30
0
10
-53.420326540644574
20
-8.7754163735153021
30
0
10
-53.432970427287444
20
-8.8376496020822657
30
0
10
-53.445004052060128
20
-8.9001574634469502
30
0
10
-53.456447923106523
20
-8.9629259317035253
30
0
10
-53.467328590717926
20
-9.0259378526572558
30
0
10
-53.477671739754712
20
-9.0891766222421104
30
0
10
-53.4874942298785
20
-9.152630426255346
30
0
10
-53.496803106669049
20
-9.2162927609770513
30
0
10
-53.505599662538437
20
-9.2801602595150126
30
0
10
-53.513882091680102
20
-9.3442312687487608
30
0
10
-53.521648475134498
20
-9.4085042507185666
30
0
10
-53.528900249407187
20
-9.4729759259191688
30
0
10
-53.535642484170609
20
-9.5376411218934756
30
0
10
-53.541882219413665
20
-9.6024936589299266
30
0
10
-53.54762736237798
20
-9.6675269373021617
30
0
10
-53.55288546109918
20
-9.7327345905579534
30
0
10
-53.557662275707173
20
-9.7981112481684498
30
0
10
-53.561961710229809
20
-9.8636525680868399
30
0
10
-53.565786527331269
20
-9.9293548495833157
30
0
10
-53.569138841036725
20
-9.9952147655990018
30
0
10
-53.572020658298044
20
-10.061229069771912
30
0
10
-53.574434516973852
20
-10.127394251304212
30
0
10
-53.576383540279693
20
-10.193706507548139
30
0
10
-53.57787113568876
20
-10.260161909922623
30
0
10
-53.578900798637711
20
-10.32675651417275
30
0
10
-53.579475894971971
20
-10.393486481204071
30
0
10
-53.579599409736772
20
-10.460348220640041
30
0
10
-53.579273918564311
20
-10.527338398494638
30
0
10
-53.578501722483402
20
-10.594453846555263
30
0
10
-53.577284940832129
20
-10.661691496928503
30
0
10
-53.5756256152508
20
-10.729048313100009
30
0
10
-53.573525834731697
20
-10.796521202828227
30
0
10
-53.570987763447107
20
-10.864107013621087
30
0
10
-53.568013574759554
20
-10.931802605230036
30
0
10
-53.564605412757011
20
-10.999604903617703
30
0
10
-53.560765349198164
20
-11.067510953745325
30
0
10
-53.556495337050507
20
-11.135517991674
30
0
10
-53.551797199388041
20
-11.203623437621058
30
0
10
-53.546672668262616
20
-11.271824782481852
30
0
10
-53.541123415198328
20
-11.340119494871999
30
-1.7763568394002505e-14
10
-53.535151084994801
20
-11.408504930679186
30
-1.7763568394002505e-14
10
-53.52875733867829
20
-11.476978213178768
30
-1.7763568394002505e-14
10
-53.52194387125536
20
-11.545536214776877
30
-1.7763568394002505e-14
10
-53.514712365428956
20
-11.614175777560051
30
-1.7763568394002505e-14
10
-53.50706446111716
20
-11.68289388850239
30
-1.7763568394002505e-14
10
-53.499001720999651
20
-11.751687865700651
30
-1.7763568394002505e-14
10
-53.490525602355703
20
-11.820555555153156
30
-1.7763568394002505e-14
10
-53.481637424397562
20
-11.889495476982692
30
-1.7763568394002505e-14
10
-53.472338308295015
20
-11.958506681850427
30
-1.7763568394002505e-14
10
-53.464570959805755
20
-12.013772251730321
30
-1.7763568394002505e-14
10
-53.458561170112098
20
-12.055253169727342
30
-1.7763568394002505e-14
10
-53.454472769381248
20
-12.082921217340143
30
-1.7763568394002505e-14
10
-53.452408100448238
20
-12.096758766714657
30
-1.7763568394002505e-14
0
ARC
5
144
100
AcDbEntity
8
0
100
AcDbCircle
10
-43.638578186720444
20
6.4690352561668281
30
1.7763568394002505e-14
40
20.999999173229519
100
AcDbArc
50
242.13918751148705
51
246.98257702618881
0
SPLINE
5
145
100
AcDbEntity
8
0
100
AcDbSpline
70
1064
71
5
72
81
73
75
74
0
42
0.000000001
43
0.0000000001
44
0.0000000001
40
-1
40
-1
40
-1
40
-1
40
-1
40
-1
40
-0.9857142857142841
40
-0.97142857142856986
40
-0.95714285714285563
40
-0.94285714285714139
40
-0.92857142857142716
40
-0.91428571428571292
40
-0.89999999999999869
40
-0.88571428571428445
40
-0.87142857142857022
40
-0.85714285714285599
40
-0.84285714285714175
40
-0.82857142857142752
40
-0.81428571428571328
40
-0.79999999999999905
40
-0.78571428571428481
40
-0.77142857142857058
40
-0.75714285714285634
40
-0.74285714285714211
40
-0.72857142857142787
40
-0.71428571428571364
40
-0.6999999999999994
40
-0.68571428571428517
40
-0.67142857142857093
40
-0.6571428571428567
40
-0.64285714285714246
40
-0.62857142857142823
40
-0.61428571428571399
40
-0.59999999999999976
40
-0.58571428571428552
40
-0.57142857142857129
40
-0.55714285714285705
40
-0.54285714285714282
40
-0.52857142857142858
40
-0.51428571428571435
40
-0.50000000000000011
40
-0.48571428571428582
40
-0.47142857142857153
40
-0.45714285714285724
40
-0.44285714285714295
40
-0.42857142857142866
40
-0.41428571428571437
40
-0.40000000000000008
40
-0.38571428571428579
40
-0.3714285714285715
40
-0.35714285714285721
40
-0.34285714285714292
40
-0.32857142857142863
40
-0.31428571428571433
40
-0.30000000000000004
40
-0.28571428571428575
40
-0.27142857142857146
40
-0.25714285714285717
40
-0.24285714285714291
40
-0.22857142857142862
40
-0.21428571428571433
40
-0.20000000000000004
40
-0.18571428571428575
40
-0.17142857142857146
40
-0.15714285714285717
40
-0.14285714285714288
40
-0.12857142857142859
40
-0.1142857142857143
40
-0.10000000000000001
40
-0.085714285714285715
40
-0.071428571428571425
40
-0.057142857142857141
40
-0.042857142857142858
40
-0.028571428571428571
40
-0.014285714285714285
40
0
40
0
40
0
40
0
40
0
40
0
10
-51.849809391329906
20
-12.859069859961094
30
0
10
-51.83777138139714
20
-12.851940557936775
30
0
10
-51.813726661977753
20
-12.837654643640404
30
0
10
-51.777753484195685
20
-12.816143841463427
30
0
10
-51.729977112166821
20
-12.787298855894642
30
0
10
-51.670570283050111
20
-12.75096913511562
30
0
10
-51.611478045666061
20
-12.714365583235711
30
0
10
-51.552701843943296
20
-12.677487929448672
30
0
10
-51.494243658364674
20
-12.640336084059609
30
0
10
-51.436106079519604
20
-12.602910275613032
30
0
10
-51.378292174051701
20
-12.565210983973419
30
0
10
-51.32080531422686
20
-12.527238838011815
30
1.7763568394002505e-14
10
-51.263649011711792
20
-12.488994524826278
30
1.7763568394002505e-14
10
-51.206826762414259
20
-12.450478702838844
30
1.7763568394002505e-14
10
-51.150341846175394
20
-12.411691898542633
30
1.7763568394002505e-14
10
-51.094197352135595
20
-12.372634504247944
30
1.7763568394002505e-14
10
-51.038396298842514
20
-12.333306820404044
30
1.7763568394002505e-14
10
-50.982941725750244
20
-12.293709086444547
30
1.7763568394002505e-14
10
-50.927836784577714
20
-12.253841515783137
30
1.7763568394002505e-14
10
-50.873084851872427
20
-12.213704337258466
30
1.7763568394002505e-14
10
-50.818689527392223
20
-12.173297808128535
30
1.7763568394002505e-14
10
-50.764654548852505
20
-12.132622204622429
30
0
10
-50.710983723807161
20
-12.091677822035114
30
0
10
-50.657680863509881
20
-12.050464970516737
30
0
10
-50.604749685035266
20
-12.008983980526263
30
0
10
-50.552193832346653
20
-11.967235184096447
30
0
10
-50.500017022776468
20
-11.925218872780842
30
0
10
-50.448223166126944
20
-11.88293526047455
30
0
10
-50.396816474075123
20
-11.840384452631636
30
0
10
-50.34580161553513
20
-11.797566398855654
30
0
10
-50.29518369265179
20
-11.754480910256447
30
0
10
-50.244967970922445
20
-11.711127763759251
30
0
10
-50.195159648182141
20
-11.667506794642239
30
0
10
-50.145763645207865
20
-11.623617979252369
30
0
10
-50.09678428701443
20
-11.579461563911762
30
0
10
-50.048225358479002
20
-11.535038039972383
30
0
10
-50.000090774644057
20
-11.490347866635322
30
0
10
-49.952385149720641
20
-11.445391235658533
30
0
10
-49.905114315624672
20
-11.400167857974395
30
0
10
-49.858286073321246
20
-11.354676653480645
30
0
10
-49.811910124535373
20
-11.308915783403927
30
0
10
-49.765996578616132
20
-11.262883277485587
30
0
10
-49.72055467185136
20
-11.216577573270506
30
0
10
-49.675591615882347
20
-11.169998001340542
30
0
10
-49.631110861364228
20
-11.123145516516178
30
0
10
-49.587112390649622
20
-11.076022577946564
30
0
10
-49.543596346829844
20
-11.028631629658994
30
0
10
-49.500566157436637
20
-10.980973793401279
30
0
10
-49.458031313653414
20
-10.933047706820592
30
0
10
-49.416011618968753
20
-10.884847744491179
30
0
10
-49.374536161320243
20
-10.836364456600919
30
0
10
-49.333635001500447
20
-10.787588069045546
30
0
10
-49.293331960937138
20
-10.738511521401504
30
0
10
-49.253638376598317
20
-10.689133100031798
30
0
10
-49.214542969684103
20
-10.639460701743293
30
0
10
-49.176016415449759
20
-10.589509930382137
30
0
10
-49.138031267704953
20
-10.539295752884099
30
0
10
-49.100579429033793
20
-10.488825183949418
30
0
10
-49.063687148066215
20
-10.438091011639724
30
0
10
-49.027439711625085
20
-10.387061448353542
30
0
10
-48.991965277099681
20
-10.335686957732193
30
0
10
-48.957389807262928
20
-10.283919242912457
30
0
10
-48.923796798793191
20
-10.231728194555419
30
0
10
-48.891192968628197
20
-10.179116393067687
30
0
10
-48.859451165900374
20
-10.126143039906326
30
0
10
-48.828371172728239
20
-10.072899030404576
30
0
10
-48.797790710973963
20
-10.019461189510452
30
0
10
-48.767685345377117
20
-9.9658511661245122
30
0
10
-48.73826209493523
20
-9.9119968129979394
30
0
10
-48.710084934361866
20
-9.8576806688957603
30
0
10
-48.683929757558637
20
-9.8025980820176457
30
0
10
-48.665254729485511
20
-9.7576691911213551
30
0
10
-48.652794074078002
20
-9.7233758652257745
30
0
10
-48.645209793481357
20
-9.7002341863332511
30
0
10
-48.6415983619776
20
-9.6885934802469187
30
0
0
LINE
5
146
100
AcDbEntity
8
0
100
AcDbLine
10
-48.6415983619776
20
-9.6885934802469205
30
0
11
-48.09805783529189
21
-7.9366024731906677
31
-9.8607613152626476e-31
0
ARC
5
147
100
AcDbEntity
8
0
100
AcDbCircle
10
-47.381738807677735
20
-8.1588344481130868
30
0
40
0.75000000000004574
100
AcDbArc
50
75.64644968739303
51
162.763934661191
0
ARC
5
148
100
AcDbEntity
8
0
100
AcDbCircle
10
-43.638578186720444
20
6.4690352561668281
30
1.7763568394002505e-14
40
14.349199433071744
100
AcDbArc
50
255.64644968739259
51
263.47531485028179
0
ARC
5
149
100
AcDbEntity
8
0
100
AcDbCircle
10
-45.354319407931513
20
-8.5323665310500427
30
0
40
0.75000000000001898
100
AcDbArc
50
-3.6421701235196227
51
83.475314850259124
0
LINE
5
150
100
AcDbEntity
8
0
100
AcDbLine
10
-44.605834225066481
20
-8.5800103242610497
30
3.0770122637230529e-45
11
-44.722362607016251
21
-10.410674118942072
31
4.3140830754274083e-31
0
SPLINE
5
151
100
AcDbEntity
8
0
100
AcDbSpline
70
1064
71
5
72
81
73
75
74
0
42
0.000000001
43
0.0000000001
44
0.0000000001
40
0
40
0
40
0
40
0
40
0
40
0
40
0.014285714285714285
40
0.028571428571428571
40
0.042857142857142858
40
0.057142857142857141
40
0.071428571428571425
40
0.085714285714285715
40
0.10000000000000001
40
0.1142857142857143
40
0.12857142857142859
40
0.14285714285714288
40
0.15714285714285717
40
0.17142857142857146
40
0.18571428571428575
40
0.20000000000000004
40
0.21428571428571433
40
0.22857142857142862
40
0.24285714285714291
40
0.25714285714285717
40
0.27142857142857146
40
0.28571428571428575
40
0.30000000000000004
40
0.31428571428571433
40
0.32857142857142863
40
0.34285714285714292
40
0.35714285714285721
40
0.3714285714285715
40
0.38571428571428579
40
0.40000000000000008
40
0.41428571428571437
40
0.42857142857142866
40
0.44285714285714295
40
0.45714285714285724
40
0.47142857142857153
40
0.48571428571428582
40
0.50000000000000011
40
0.51428571428571435
40
0.52857142857142858
40
0.54285714285714282
40
0.55714285714285705
40
0.57142857142857129
40
0.58571428571428552
40
0.59999999999999976
40
0.61428571428571399
40
0.62857142857142823
40
0.64285714285714246
40
0.6571428571428567
40
0.67142857142857093
40
0.68571428571428517
40
0.6999999999999994
40
0.71428571428571364
40
0.72857142857142787
40
0.74285714285714211
40
0.75714285714285634
40
0.77142857142857058
40
0.78571428571428481
40
0.79999999999999905
40
0.81428571428571328
40
0.82857142857142752
40
0.84285714285714175
40
0.85714285714285599
40
0.87142857142857022
40
0.88571428571428445
40
0.89999999999999869
40
0.91428571428571292
40
0.92857142857142716
40
0.94285714285714139
40
0.95714285714285563
40
0.97142857142856986
40
0.9857142857142841
40
1
40
1
40
1
40
1
40
1
40
1
10
-44.722362607016265
20
-10.410674118942074
30
-1.7763568394002505e-14
10
-44.723136853367713
20
-10.422837548486486
30
-1.7763568394002505e-14
10
-44.724297860609738
20
-10.447162652316013
30
-1.7763568394002505e-14
10
-44.724876934782671
20
-10.483645042688185
30
-1.7763568394002505e-14
10
-44.723440008174137
20
-10.532279363415675
30
-1.7763568394002505e-14
10
-44.718632685702595
20
-10.593066486241556
30
-1.7763568394002505e-14
10
-44.711662995824653
20
-10.653858091838963
30
-1.7763568394002505e-14
10
-44.703364459939323
20
-10.714662313069137
30
-1.7763568394002505e-14
10
-44.694341521644375
20
-10.7754813415856
30
-1.7763568394002505e-14
10
-44.684813319113559
20
-10.836308809369999
30
-1.7763568394002505e-14
10
-44.67474930620525
20
-10.89713319730431
30
-1.7763568394002505e-14
10
-44.663970480863959
20
-10.957940557959354
30
-1.7763568394002505e-14
10
-44.652257377969626
20
-11.018717318466958
30
-1.7763568394002505e-14
10
-44.639470096991978
20
-11.079453478963435
30
-1.7763568394002505e-14
10
-44.62561399422075
20
-11.140144234668757
30
-1.7763568394002505e-14
10
-44.610777814395277
20
-11.200787961134786
30
-1.7763568394002505e-14
10
-44.595096461748547
20
-11.261384893044749
30
-1.7763568394002505e-14
10
-44.57870733276647
20
-11.321935641067785
30
-1.7763568394002505e-14
10
-44.561701442896265
20
-11.382439510846201
30
-1.7763568394002505e-14
10
-44.54410588749365
20
-11.442893886213684
30
-1.7763568394002505e-14
10
-44.525910600899074
20
-11.503295098838009
30
-1.7763568394002505e-14
10
-44.50708460507829
20
-11.563638945872118
30
-1.7763568394002505e-14
10
-44.487594939804566
20
-11.62392129886323
30
0
10
-44.467428252556395
20
-11.684138799083181
30
0
10
-44.446595746626798
20
-11.744289007347575
30
0
10
-44.425122195542322
20
-11.804370030937605
30
0
10
-44.403039169627078
20
-11.864380289030494
30
0
10
-44.380377214655631
20
-11.924318244513444
30
0
10
-44.357156838624626
20
-11.984182095817555
30
0
10
-44.333387395045094
20
-12.043969733346056
30
0
10
-44.309071686624804
20
-12.103678887490791
30
0
10
-44.284208976049669
20
-12.163307223704162
30
0
10
-44.258798370431798
20
-12.222852450594189
30
1.7763568394002505e-14
10
-44.232842753574161
20
-12.282312446278791
30
1.7763568394002505e-14
10
-44.206349102170407
20
-12.341685266114943
30
1.7763568394002505e-14
10
-44.179326602885567
20
-12.400969078309917
30
1.7763568394002505e-14
10
-44.151785403454923
20
-12.460162120953814
30
1.7763568394002505e-14
10
-44.123735223895189
20
-12.519262654555101
30
1.7763568394002505e-14
10
-44.095183737889627
20
-12.578268908164302
30
1.7763568394002505e-14
10
-44.066136497448952
20
-12.637179073472513
30
1.7763568394002505e-14
10
-44.036597745475405
20
-12.695991326885778
30
1.7763568394002505e-14
10
-44.006570976297937
20
-12.754703844099204
30
1.7763568394002505e-14
10
-43.976059551168866
20
-12.813314817156755
30
1.7763568394002505e-14
10
-43.9450674233371
20
-12.871822474547637
30
1.7763568394002505e-14
10
-43.913599198910575
20
-12.930225084690065
30
1.7763568394002505e-14
10
-43.881659793138127
20
-12.988520949069617
30
1.7763568394002505e-14
10
-43.849254205284197
20
-13.046708399579677
30
1.7763568394002505e-14
10
-43.816387269803627
20
-13.104785794389626
30
1.7763568394002505e-14
10
-43.783063367009703
20
-13.162751516664793
30
1.7763568394002505e-14
10
-43.749286394458345
20
-13.22060396690468
30
1.7763568394002505e-14
10
-43.715059929005278
20
-13.278341551871108
30
1.7763568394002505e-14
10
-43.680387339997793
20
-13.335962674359472
30
1.7763568394002505e-14
10
-43.645271913805459
20
-13.393465725491369
30
1.7763568394002505e-14
10
-43.609717005669438
20
-13.450849071803203
30
1.7763568394002505e-14
10
-43.573726066063927
20
-13.50811106524289
30
1.7763568394002505e-14
10
-43.537302547300392
20
-13.565250072956678
30
1.7763568394002505e-14
10
-43.500449843232147
20
-13.622264504794103
30
1.7763568394002505e-14
10
-43.463171225574229
20
-13.679152837495858
30
1.7763568394002505e-14
10
-43.425469767615546
20
-13.735913653904388
30
1.7763568394002505e-14
10
-43.387348338075853
20
-13.792545631399385
30
1.7763568394002505e-14
10
-43.34880969150835
20
-13.84904746305838
30
0
10
-43.309856541187571
20
-13.905417792400252
30
0
10
-43.270491633607946
20
-13.961655151956387
30
0
10
-43.230717845622699
20
-14.017757880923279
30
0
10
-43.19053820894753
20
-14.073724118228467
30
0
10
-43.149955759802666
20
-14.12955197039015
30
0
10
-43.108973424911774
20
-14.185239648010395
30
0
10
-43.067593898546775
20
-14.240785609832709
30
0
10
-43.025819519749369
20
-14.296188719076534
30
0
10
-42.983652170929503
20
-14.35144835373676
30
0
10
-42.941093297718076
20
-14.406564252246712
30
0
10
-42.906733791666383
20
-14.450541965472697
30
0
10
-42.880788702121777
20
-14.483460599383584
30
0
10
-42.863414019421597
20
-14.505377631123961
30
0
10
-42.854707188987945
20
-14.516328965941902
30
0
0
ARC
5
152
100
AcDbEntity
8
0
100
AcDbCircle
10
-43.638578186720444
20
6.4690352561668281
30
1.7763568394002505e-14
40
20.999999173229682
100
AcDbArc
50
272.13918751148623
51
276.98257702618594
0
SPLINE
5
153
100
AcDbEntity
8
0
100
AcDbSpline
70
1064
71
5
72
81
73
75
74
0
42
0.000000001
43
0.0000000001
44
0.0000000001
40
-1
40
-1
40
-1
40
-1
40
-1
40
-1
40
-0.9857142857142841
40
-0.97142857142856986
40
-0.95714285714285563
40
-0.94285714285714139
40
-0.92857142857142716
40
-0.91428571428571292
40
-0.89999999999999869
40
-0.88571428571428445
40
-0.87142857142857022
40
-0.85714285714285599
40
-0.84285714285714175
40
-0.82857142857142752
40
-0.81428571428571328
40
-0.79999999999999905
40
-0.78571428571428481
40
-0.77142857142857058
40
-0.75714285714285634
40
-0.74285714285714211
40
-0.72857142857142787
40
-0.71428571428571364
40
-0.6999999999999994
40
-0.68571428571428517
40
-0.67142857142857093
40
-0.6571428571428567
40
-0.64285714285714246
40
-0.62857142857142823
40
-0.61428571428571399
40
-0.59999999999999976
40
-0.58571428571428552
40
-0.57142857142857129
40
-0.55714285714285705
40
-0.54285714285714282
40
-0.52857142857142858
40
-0.51428571428571435
40
-0.50000000000000011
40
-0.48571428571428582
40
-0.47142857142857153
40
-0.45714285714285724
40
-0.44285714285714295
40
-0.42857142857142866
40
-0.41428571428571437
40
-0.40000000000000008
40
-0.38571428571428579
40
-0.3714285714285715
40
-0.35714285714285721
40
-0.34285714285714292
40
-0.32857142857142863
40
-0.31428571428571433
40
-0.30000000000000004
40
-0.28571428571428575
40
-0.27142857142857146
40
-0.25714285714285717
40
-0.24285714285714291
40
-0.22857142857142862
40
-0.21428571428571433
40
-0.20000000000000004
40
-0.18571428571428575
40
-0.17142857142857146
40
-0.15714285714285717
40
-0.14285714285714288
40
-0.12857142857142859
40
-0.1142857142857143
40
-0.10000000000000001
40
-0.085714285714285715
40
-0.071428571428571425
40
-0.057142857142857141
40
-0.042857142857142858
40
-0.028571428571428571
40
-0.014285714285714285
40
0
40
0
40
0
40
0
40
0
40
0
10
-41.085660448196123
20
-14.375210383720811
30
0
10
-41.0787998767955
20
-14.363017222090125
30
0
10
-41.065119496099641
20
-14.338622897683477
30
0
10
-41.044721211373989
20
-14.302007407651407
30
0
10
-41.017768152280745
20
-14.253138731362611
30
0
10
-40.984485189496887
20
-14.191972855697227
30
0
10
-40.951611586695805
20
-14.130727131208454
30
0
10
-40.919148729759442
20
-14.069402045335522
30
0
10
-40.887098378683746
20
-14.007998510641816
30
0
10
-40.855462662712682
20
-13.946518020347371
30
0
10
-40.824243997705281
20
-13.884962523348834
30
0
10
-40.793444989693981
20
-13.823334250397455
30
0
10
-40.763068336322306
20
-13.761635552370954
30
0
10
-40.733116735924185
20
-13.699868747433426
30
0
10
-40.703592765678813
20
-13.638035931461861
30
0
10
-40.674498904705061
20
-13.576138988777133
30
0
10
-40.645837616917277
20
-13.514179688849774
30
0
10
-40.617611414843097
20
-13.452159758762415
30
0
10
-40.589822921244341
20
-13.390080959196196
30
0
10
-40.56247494587759
20
-13.327945176604953
30
0
10
-40.535570477595606
20
-13.265754433659577
30
0
10
-40.509112615240312
20
-13.203510838439165
30
0
10
-40.483104508602629
20
-13.141216550453606
30
0
10
-40.457549303250005
20
-13.078873743927657
30
0
10
-40.432450053033975
20
-13.016484563584477
30
0
10
-40.407809747702998
20
-12.954051118954521
30
0
10
-40.383631460784592
20
-12.891575521196794
30
0
10
-40.359918471319276
20
-12.829059910451006
30
0
10
-40.336674373999337
20
-12.766506483881589
30
0
10
-40.313903237421222
20
-12.703917532300977
30
0
10
-40.291609574617056
20
-12.641295443197931
30
0
10
-40.269798057178662
20
-12.578642656132693
30
0
10
-40.248473268924172
20
-12.515961627369519
30
0
10
-40.227639483197983
20
-12.453254796812747
30
0
10
-40.207300322411697
20
-12.390524540291004
30
0
10
-40.187458818689159
20
-12.327773175766163
30
0
10
-40.168118132956039
20
-12.26500305843927
30
0
10
-40.149282165357327
20
-12.202216661483087
30
0
10
-40.130956111014214
20
-12.139416650515706
30
-1.7763568394002505e-14
10
-40.113147265811754
20
-12.076605990623648
30
-1.7763568394002505e-14
10
-40.09586495107694
20
-12.013787940244997
30
-1.7763568394002505e-14
10
-40.079118906892226
20
-11.950965847760241
30
-1.7763568394002505e-14
10
-40.062917913345061
20
-11.888142978187457
30
-1.7763568394002505e-14
10
-40.047268550609097
20
-11.825322357614196
30
-1.7763568394002505e-14
10
-40.032173329629089
20
-11.762506538266814
30
-1.7763568394002505e-14
10
-40.017631005547386
20
-11.69969764100725
30
-1.7763568394002505e-14
10
-40.003640480271031
20
-11.636897853970892
30
-1.7763568394002505e-14
10
-39.990204161255733
20
-11.574109862385711
30
-1.7763568394002505e-14
10
-39.97733094928379
20
-11.511337232011245
30
-1.7763568394002505e-14
10
-39.965040807392313
20
-11.448584992830192
30
-1.7763568394002505e-14
10
-39.953363651380243
20
-11.385859505033977
30
-1.7763568394002505e-14
10
-39.942330401709746
20
-11.323167334396292
30
0
10
-39.931965218554176
20
-11.260514277124859
30
0
10
-39.922278776834354
20
-11.197904517650512
30
0
10
-39.913257360419607
20
-11.13533925540866
30
0
10
-39.904867771412952
20
-11.072817341354089
30
0
10
-39.897078757248465
20
-11.010338014138245
30
0
10
-39.889879798008153
20
-10.947903299961776
30
0
10
-39.883297231641521
20
-10.885520077417816
30
0
10
-39.877420812504532
20
-10.823203461047395
30
0
10
-39.872386296331321
20
-10.760974629800115
30
0
10
-39.868326918514768
20
-10.698854738751979
30
0
10
-39.865330043968953
20
-10.636859460789772
30
0
10
-39.863400199529259
20
-10.574994389080034
30
0
10
-39.862397668585736
20
-10.51324721815474
30
0
10
-39.862103609700085
20
-10.451596556740819
30
0
10
-39.862339073408492
20
-10.390027798125976
30
0
10
-39.86307207370438
20
-10.328547473177856
30
0
10
-39.864517967923071
20
-10.267196610044918
30
0
10
-39.867273903111119
20
-10.206068869130135
30
0
10
-39.872164148998095
20
-10.145288361185901
30
0
10
-39.878455545718523
20
-10.097041286269292
30
0
10
-39.88481096453561
20
-10.061112067159705
30
0
10
-39.889813624315742
20
-10.037278645054233
30
0
10
-39.892506385932634
20
-10.025391782113608
30
0
0
LINE
5
154
100
AcDbEntity
8
0
100
AcDbLine
10
-39.892506385932634
20
-10.025391782113608
30
0
11
-40.297781985364537
21
-8.2363527994581531
31
3.6977854932234928e-31
0
ARC
5
155
100
AcDbEntity
8
0
100
AcDbCircle
10
-39.566315522775291
20
-8.0706518214670542
30
0
40
0.75000000000004552
100
AcDbArc
50
105.64644968738999
51
192.76393466119251
0
ARC
5
156
100
AcDbEntity
8
0
100
AcDbCircle
10
-43.638578186720444
20
6.4690352561668281
30
1.7763568394002505e-14
40
14.349199433071743
100
AcDbArc
50
285.64644968739168
51
293.47531485027861
0
ARC
5
157
100
AcDbEntity
8
0
100
AcDbCircle
10
-37.623752777001201
20
-7.3804303945458285
30
1.7763568394002505e-14
40
0.75000000000002554
100
AcDbArc
50
26.357829876482942
51
113.47531485030056
0
LINE
5
158
100
AcDbEntity
8
0
100
AcDbLine
10
-36.951723697678347
20
-7.0474485383666625
30
1.7763568394002505e-14
11
-36.137308339368268
21
-8.6911140813237644
31
0
0
SPLINE
5
159
100
AcDbEntity
8
0
100
AcDbSpline
70
1064
71
5
72
81
73
75
74
0
42
0.000000001
43
0.0000000001
44
0.0000000001
40
0
40
0
40
0
40
0
40
0
40
0
40
0.014285714285714285
40
0.028571428571428571
40
0.042857142857142858
40
0.057142857142857141
40
0.071428571428571425
40
0.085714285714285715
40
0.10000000000000001
40
0.1142857142857143
40
0.12857142857142859
40
0.14285714285714288
40
0.15714285714285717
40
0.17142857142857146
40
0.18571428571428575
40
0.20000000000000004
40
0.21428571428571433
40
0.22857142857142862
40
0.24285714285714291
40
0.25714285714285717
40
0.27142857142857146
40
0.28571428571428575
40
0.30000000000000004
40
0.31428571428571433
40
0.32857142857142863
40
0.34285714285714292
40
0.35714285714285721
40
0.3714285714285715
40
0.38571428571428579
40
0.40000000000000008
40
0.41428571428571437
40
0.42857142857142866
40
0.44285714285714295
40
0.45714285714285724
40
0.47142857142857153
40
0.48571428571428582
40
0.50000000000000011
40
0.51428571428571435
40
0.52857142857142858
40
0.54285714285714282
40
0.55714285714285705
40
0.57142857142857129
40
0.58571428571428552
40
0.59999999999999976
40
0.61428571428571399
40
0.62857142857142823
40
0.64285714285714246
40
0.6571428571428567
40
0.67142857142857093
40
0.68571428571428517
40
0.6999999999999994
40
0.71428571428571364
40
0.72857142857142787
40
0.74285714285714211
40
0.75714285714285634
40
0.77142857142857058
40
0.78571428571428481
40
0.79999999999999905
40
0.81428571428571328
40
0.82857142857142752
40
0.84285714285714175
40
0.85714285714285599
40
0.87142857142857022
40
0.88571428571428445
40
0.89999999999999869
40
0.91428571428571292
40
0.92857142857142716
40
0.94285714285714139
40
0.95714285714285563
40
0.97142857142856986
40
0.9857142857142841
40
1
40
1
40
1
40
1
40
1
40
1
10
-36.137308339368275
20
-8.6911140813237626
30
0
10
-36.131897141605208
20
-8.702035043482093
30
0
10
-36.120740051456011
20
-8.7236817049691702
30
0
10
-36.103000349214369
20
-8.7555659189087223
30
0
10
-36.077438773904262
20
-8.7969660128502589
30
0
10
-36.042881949106786
20
-8.8472055442046624
30
0
10
-36.006450217817296
20
-8.8963677740498976
30
0
10
-35.968861364311287
20
-8.9448765063498872
30
0
10
-35.930637756272851
20
-8.9930358609311618
30
0
10
-35.891972356936563
20
-9.0409498920149218
30
0
10
-35.852844472126797
20
-9.0885933506815189
30
0
10
-35.813106055230762
20
-9.1358646570752224
30
0
10
-35.772573830313327
20
-9.1826423241873627
30
0
10
-35.731131639893121
20
-9.2288477416168195
30
0
10
-35.688786525043128
20
-9.2744794264468933
30
0
10
-35.64561615318614
20
-9.3195803442338878
30
0
10
-35.601737237473394
20
-9.364218150335951
30
0
10
-35.5572684614175
20
-9.4084620718510124
30
0
10
-35.512288993886735
20
-9.4523570151712786
30
0
10
-35.466823608230634
20
-9.4959142623081316
30
0
10
-35.420865421498426
20
-9.5391256035628942
30
0
10
-35.374389707349032
20
-9.5819719101461196
30
0
10
-35.327369985615185
20
-9.6244331265994667
30
0
10
-35.279796372038106
20
-9.6664996679182504
30
0
10
-35.231679788546394
20
-9.7081750233533413
30
0
10
-35.183042636002767
20
-9.7494699405254455
30
0
10
-35.133913045521282
20
-9.79039883556392
30
0
10
-35.084318239075124
20
-9.8309756501773329
30
0
10
-35.034276877894797
20
-9.8712090781595681
30
0
10
-34.983798117156844
20
-9.9111019693017361
30
0
10
-34.932885518881506
20
-9.9506537594194135
30
0
10
-34.881539611809806
20
-9.9898620580780264
30
0
10
-34.829760768374165
20
-10.028724434429961
30
0
10
-34.777552546962255
20
-10.067240492772919
30
0
10
-34.724921961889528
20
-10.105412037343473
30
0
10
-34.671877884937622
20
-10.143242075095076
30
0
10
-34.618429985258039
20
-10.180734154036664
30
0
10
-34.564587550377951
20
-10.21789162773273
30
0
10
-34.510358111376746
20
-10.254716799337665
30
0
10
-34.455747380591177
20
-10.291210878815374
30
0
10
-34.400759944279365
20
-10.327374408338297
30
0
10
-34.345399740771398
20
-10.363207555176521
30
0
10
-34.289670584975177
20
-10.398710434220346
30
0
10
-34.233576786260102
20
-10.433883487920891
30
0
10
-34.177123199423519
20
-10.468727519738284
30
0
10
-34.120314930453034
20
-10.503243516340328
30
0
10
-34.063157142891924
20
-10.537432532736517
30
0
10
-34.005654844416242
20
-10.571295564287276
30
0
10
-33.947812636905873
20
-10.604833400929312
30
0
10
-33.889634695493527
20
-10.638046606232557
30
0
10
-33.8311249144462
20
-10.670935588840107
30
0
10
-33.77228701030657
20
-10.703500650205868
30
0
10
-33.713124633593338
20
-10.735742040185034
30
0
10
-33.653641506762412
20
-10.76766002177723
30
0
10
-33.593841442038119
20
-10.79925489296458
30
0
10
-33.533728245636787
20
-10.830526965809993
30
0
10
-33.473305651796821
20
-10.861476560129411
30
0
10
-33.412577255536227
20
-10.892103992599116
30
0
10
-33.351546426980029
20
-10.922409572569101
30
0
10
-33.290216311822583
20
-10.952393588976468
30
0
10
-33.22858994903816
20
-10.982056287269764
30
0
10
-33.166670366632005
20
-11.011397849339131
30
0
10
-33.10446067687235
20
-11.040418377566684
30
0
10
-33.041964201588947
20
-11.069117872081023
30
0
10
-32.979184496860825
20
-11.097496237003963
30
0
10
-32.916125138872744
20
-11.125553350642271
30
0
10
-32.852789556940699
20
-11.153289126693709
30
0
10
-32.789180855000893
20
-11.180703577526973
30
-1.7763568394002505e-14
10
-32.725301627113112
20
-11.207796888182068
30
-1.7763568394002505e-14
10
-32.661153814494746
20
-11.234569461191734
30
-1.7763568394002505e-14
10
-32.596738799882246
20
-11.261021792848041
30
-1.7763568394002505e-14
10
-32.544993738167001
20
-11.281927856676244
30
-1.7763568394002505e-14
10
-32.506065314562463
20
-11.297463685128651
30
-1.7763568394002505e-14
10
-32.480059882091233
20
-11.30775705004128
30
-1.7763568394002505e-14
10
-32.46704387834027
20
-11.312887768982145
30
-1.7763568394002505e-14
0
ARC
5
160
100
AcDbEntity
8
0
100
AcDbCircle
10
-43.638578186720444
20
6.4690352561668281
30
1.7763568394002505e-14
40
20.999999173229469
100
AcDbArc
50
302.13918751148526
51
306.98257702618338
0
SPLINE
5
161
100
AcDbEntity
8
0
100
AcDbSpline
70
1064
71
5
72
81
73
75
74
0
42
0.000000001
43
0.0000000001
44
0.0000000001
40
-1
40
-1
40
-1
40
-1
40
-1
40
-1
40
-0.9857142857142841
40
-0.97142857142856986
40
-0.95714285714285563
40
-0.94285714285714139
40
-0.92857142857142716
40
-0.91428571428571292
40
-0.89999999999999869
40
-0.88571428571428445
40
-0.87142857142857022
40
-0.85714285714285599
40
-0.84285714285714175
40
-0.82857142857142752
40
-0.81428571428571328
40
-0.79999999999999905
40
-0.78571428571428481
40
-0.77142857142857058
40
-0.75714285714285634
40
-0.74285714285714211
40
-0.72857142857142787
40
-0.71428571428571364
40
-0.6999999999999994
40
-0.68571428571428517
40
-0.67142857142857093
40
-0.6571428571428567
40
-0.64285714285714246
40
-0.62857142857142823
40
-0.61428571428571399
40
-0.59999999999999976
40
-0.58571428571428552
40
-0.57142857142857129
40
-0.55714285714285705
40
-0.54285714285714282
40
-0.52857142857142858
40
-0.51428571428571435
40
-0.50000000000000011
40
-0.48571428571428582
40
-0.47142857142857153
40
-0.45714285714285724
40
-0.44285714285714295
40
-0.42857142857142866
40
-0.41428571428571437
40
-0.40000000000000008
40
-0.38571428571428579
40
-0.3714285714285715
40
-0.35714285714285721
40
-0.34285714285714292
40
-0.32857142857142863
40
-0.31428571428571433
40
-0.30000000000000004
40
-0.28571428571428575
40
-0.27142857142857146
40
-0.25714285714285717
40
-0.24285714285714291
40
-0.22857142857142862
40
-0.21428571428571433
40
-0.20000000000000004
40
-0.18571428571428575
40
-0.17142857142857146
40
-0.15714285714285717
40
-0.14285714285714288
40
-0.12857142857142859
40
-0.1142857142857143
40
-0.10000000000000001
40
-0.085714285714285715
40
-0.071428571428571425
40
-0.057142857142857141
40
-0.042857142857142858
40
-0.028571428571428571
40
-0.014285714285714285
40
0
40
0
40
0
40
0
40
0
40
0
10
-31.005563751443027
20
-10.306152121436686
30
-1.7763568394002505e-14
10
-31.005718903140963
20
-10.292162248011749
30
-1.7763568394002505e-14
10
-31.006068508128219
20
-10.264195953019508
30
-1.7763568394002505e-14
10
-31.00671082037822
20
-10.222286866116892
30
-1.7763568394002505e-14
10
-31.007803124638158
20
-10.166488821454854
30
-1.7763568394002505e-14
10
-31.009562171186825
20
-10.096876137891982
30
-1.7763568394002505e-14
10
-31.011715658291543
20
-10.027398983210977
30
-1.7763568394002505e-14
10
-31.014264542441708
20
-9.9580584724875756
30
-1.7763568394002505e-14
10
-31.017209891556789
20
-9.888856276022814
30
-1.7763568394002505e-14
10
-31.020552803006165
20
-9.8197947516051816
30
0
10
-31.024294394536788
20
-9.7508767949581614
30
0
10
-31.028435807663325
20
-9.6821056409852506
30
0
10
-31.032978203174753
20
-9.6134846744280456
30
0
10
-31.037922758814744
20
-9.5450172520424932
30
0
10
-31.043270658547449
20
-9.476706477500894
30
0
10
-31.049023107192369
20
-9.4085552222324562
30
0
10
-31.055181353826647
20
-9.3405662506007641
30
0
10
-31.061746710821737
20
-9.2727423145670862
30
0
10
-31.068720569215422
20
-9.2050862503069233
30
0
10
-31.07610441910137
20
-9.1376010964155086
30
0
10
-31.083899837566541
20
-9.0702900990035893
30
0
10
-31.092108454247231
20
-9.0031566331421882
30
0
10
-31.100731917187442
20
-8.9362041439171911
30
0
10
-31.109771863416114
20
-8.8694360870461892
30
0
10
-31.119229865284687
20
-8.8028558468396874
30
0
10
-31.129107457226027
20
-8.7364667450788875
30
0
10
-31.139406245413561
20
-8.6702721468448765
30
0
10
-31.150127999509817
20
-8.604275545073266
30
0
10
-31.161274734027423
20
-8.5384806399104178
30
0
10
-31.17284882706803
20
-8.4728914495563128
30
0
10
-31.184852993287741
20
-8.4075122981529393
30
0
10
-31.197290058623622
20
-8.3423476342173526
30
0
10
-31.210162764646498
20
-8.2774018768458504
30
0
10
-31.223473592228995
20
-8.2126792757297817
30
0
10
-31.237224490557296
20
-8.1481836996029049
30
0
10
-31.251416926546707
20
-8.0839186719409781
30
0
10
-31.266052460038662
20
-8.0198878128707989
30
0
10
-31.281133232071404
20
-7.9560952142952965
30
0
10
-31.296662408942829
20
-7.8925457822680478
30
0
10
-31.312644826531454
20
-7.8292457325718292
30
0
10
-31.329086928124234
20
-7.7662025477603001
30
0
10
-31.345995474689747
20
-7.7034239976572438
30
0
10
-31.363376437497756
20
-7.6409172998949977
30
0
10
-31.381234002101991
20
-7.5786883652290635
30
0
10
-31.399569066931257
20
-7.5167406594246948
30
0
10
-31.418379493476216
20
-7.4550753967733723
30
0
10
-31.437663236692792
20
-7.3936939232094616
30
0
10
-31.457421038884775
20
-7.3325997679364407
30
0
10
-31.477658825476006
20
-7.271800469383809
30
-1.7763568394002505e-14
10
-31.498391369972399
20
-7.2113103651629249
30
-1.7763568394002505e-14
10
-31.519641400120094
20
-7.1511499212605978
30
-1.7763568394002505e-14
10
-31.54143241093799
20
-7.0913402840347208
30
-1.7763568394002505e-14
10
-31.563782427646103
20
-7.0318985532351128
30
-1.7763568394002505e-14
10
-31.586698602781635
20
-6.9728336901455883
30
-1.7763568394002505e-14
10
-31.610168458109271
20
-6.9141398754423324
30
-1.7763568394002505e-14
10
-31.634163817929483
20
-6.8557995150745228
30
-1.7763568394002505e-14
10
-31.658657997400518
20
-6.797796323411994
30
-1.7763568394002505e-14
10
-31.683640872905826
20
-6.7401267952369972
30
-1.7763568394002505e-14
10
-31.709131814482209
20
-6.6828100565606716
30
-1.7763568394002505e-14
10
-31.735200994411503
20
-6.6259040741375053
30
-1.7763568394002505e-14
10
-31.761955391133377
20
-6.5694950673429435
30
-1.7763568394002505e-14
10
-31.789499812344758
20
-6.5136679747066575
30
-1.7763568394002505e-14
10
-31.817902081837218
20
-6.4584800518037984
30
-1.7763568394002505e-14
10
-31.847163323381963
20
-6.4039384058763726
30
-1.7763568394002505e-14
10
-31.877168691579435
20
-6.3499625217714852
30
-1.7763568394002505e-14
10
-31.907739359821218
20
-6.2964244533840921
30
-1.7763568394002505e-14
10
-31.938727656681781
20
-6.2432220761983706
30
-1.7763568394002505e-14
10
-31.970102616033063
20
-6.1903450531083157
30
-1.7763568394002505e-14
10
-32.002030228724102
20
-6.1379365942004362
30
-1.7763568394002505e-14
10
-32.034980809065523
20
-6.0863763852863064
30
-1.7763568394002505e-14
10
-32.069606140206517
20
-6.0361840442951724
30
-1.7763568394002505e-14
10
-32.099178187050001
20
-5.997546550119309
30
-1.7763568394002505e-14
10
-32.122646750752075
20
-5.9696086430408108
30
-1.7763568394002505e-14
10
-32.138895892260898
20
-5.951469623928423
30
-1.7763568394002505e-14
10
-32.147171323697776
20
-5.9425216794589852
30
-1.7763568394002505e-14
0
LINE
5
162
100
AcDbEntity
8
0
100
AcDbLine
10
-32.147171323697783
20
-5.9425216794589861
30
-1.7763568394002505e-14
11
-33.392669779667457
21
-4.5958062718346477
31
-1.7763568394002505e-14
0
ARC
5
163
100
AcDbEntity
8
0
100
AcDbCircle
10
-32.842051730044375
20
-4.0865717841677931
30
0
40
0.75000000000003342
100
AcDbArc
50
135.64644968738895
51
222.76393466119299
0
ARC
5
164
100
AcDbEntity
8
0
100
AcDbCircle
10
-43.638578186720444
20
6.4690352561668281
30
1.7763568394002505e-14
40
14.349199433071513
100
AcDbArc
50
315.64644968739117
51
323.4753148502773
0
ARC
5
165
100
AcDbEntity
8
0
100
AcDbCircle
10
-31.504853757219369
20
-2.5175411213305838
30
0
40
0.75000000000003786
100
AcDbArc
50
56.357829876483677
51
143.47531485032039
0
LINE
5
166
100
AcDbEntity
8
0
100
AcDbLine
10
-31.089350430533496
20
-1.8931558352186917
30
-1.9979450760881166e-44
11
-29.562213269526229
21
-2.9094042715896311
31
-1.7763568394002505e-14
0
SPLINE
5
167
100
AcDbEntity
8
0
100
AcDbSpline
70
1064
71
5
72
81
73
75
74
0
42
0.000000001
43
0.0000000001
44
0.0000000001
40
0
40
0
40
0
40
0
40
0
40
0
40
0.014285714285714285
40
0.028571428571428571
40
0.042857142857142858
40
0.057142857142857141
40
0.071428571428571425
40
0.085714285714285715
40
0.10000000000000001
40
0.1142857142857143
40
0.12857142857142859
40
0.14285714285714288
40
0.15714285714285717
40
0.17142857142857146
40
0.18571428571428575
40
0.20000000000000004
40
0.21428571428571433
40
0.22857142857142862
40
0.24285714285714291
40
0.25714285714285717
40
0.27142857142857146
40
0.28571428571428575
40
0.30000000000000004
40
0.31428571428571433
40
0.32857142857142863
40
0.34285714285714292
40
0.35714285714285721
40
0.3714285714285715
40
0.38571428571428579
40
0.40000000000000008
40
0.41428571428571437
40
0.42857142857142866
40
0.44285714285714295
40
0.45714285714285724
40
0.47142857142857153
40
0.48571428571428582
40
0.50000000000000011
40
0.51428571428571435
40
0.52857142857142858
40
0.54285714285714282
40
0.55714285714285705
40
0.57142857142857129
40
0.58571428571428552
40
0.59999999999999976
40
0.61428571428571399
40
0.62857142857142823
40
0.64285714285714246
40
0.6571428571428567
40
0.67142857142857093
40
0.68571428571428517
40
0.6999999999999994
40
0.71428571428571364
40
0.72857142857142787
40
0.74285714285714211
40
0.75714285714285634
40
0.77142857142857058
40
0.78571428571428481
40
0.79999999999999905
40
0.81428571428571328
40
0.82857142857142752
40
0.84285714285714175
40
0.85714285714285599
40
0.87142857142857022
40
0.88571428571428445
40
0.89999999999999869
40
0.91428571428571292
40
0.92857142857142716
40
0.94285714285714139
40
0.95714285714285563
40
0.97142857142856986
40
0.9857142857142841
40
1
40
1
40
1
40
1
40
1
40
1
10
-29.562213269526232
20
-2.909404271589632
30
1.7763568394002505e-14
10
-29.552066553719353
20
-2.9161565033709853
30
1.7763568394002505e-14
10
-29.531580899474299
20
-2.9293245170513149
30
1.7763568394002505e-14
10
-29.500275759707687
20
-2.9480672051818417
30
1.7763568394002505e-14
10
-29.457438739157617
20
-2.9711399505992193
30
1.7763568394002505e-14
10
-29.402391885331667
20
-2.9973702486276181
30
1.7763568394002505e-14
10
-29.34625996560851
20
-3.0217301229355407
30
1.7763568394002505e-14
10
-29.289452697423179
20
-3.0449454906597011
30
1.7763568394002505e-14
10
-29.232270404546963
20
-3.067540911137729
30
1.7763568394002505e-14
10
-29.174828170932386
20
-3.0897029795858391
30
1.7763568394002505e-14
10
-29.117120699357478
20
-3.1113994827103815
30
1.7763568394002505e-14
10
-29.059070567622491
20
-3.1324684264693903
30
1.7763568394002505e-14
10
-29.000579797616012
20
-3.1527129620595606
30
1.7763568394002505e-14
10
-28.941587099208924
20
-3.1720069321358286
30
1.7763568394002505e-14
10
-28.882099311607625
20
-3.1903525729911579
30
1.7763568394002505e-14
10
-28.822162213995149
20
-3.2078259276001964
30
1.7763568394002505e-14
10
-28.761843055246359
20
-3.2245439437974097
30
1.7763568394002505e-14
10
-28.701210004749225
20
-3.2406259157645492
30
1.7763568394002505e-14
10
-28.640309171558755
20
-3.2561503180121965
30
1.7763568394002505e-14
10
-28.579156369019284
20
-3.2711393077235762
30
1.7763568394002505e-14
10
-28.517749741169951
20
-3.2855823336156935
30
0
10
-28.456077438765938
20
-3.2994504665004092
30
0
10
-28.394126557038881
20
-3.3127130977576686
30
0
10
-28.331893328471921
20
-3.3253569844005448
30
0
10
-28.269385467107231
20
-3.3373906091732235
30
0
10
-28.206616998850656
20
-3.3488344802196224
30
0
10
-28.143605077896932
20
-3.3597151478310265
30
0
10
-28.08036630831208
20
-3.3700582968678146
30
0
10
-28.016912504298848
20
-3.3798807869915932
30
0
10
-27.953250169577139
20
-3.3891896637821461
30
0
10
-27.889382671039186
20
-3.3979862196515342
30
0
10
-27.825311661805436
20
-3.4062686487932092
30
0
10
-27.761038679835636
20
-3.4140350322475972
30
0
10
-27.696567004635035
20
-3.4212868065202851
30
0
10
-27.631901808660729
20
-3.4280290412837027
30
0
10
-27.567049271624281
20
-3.4342687765267654
30
0
10
-27.502015993252048
20
-3.4400139194910802
30
0
10
-27.436808339996258
20
-3.4452720182122825
30
0
10
-27.371431682385765
20
-3.4500488328202739
30
0
10
-27.305890362467377
20
-3.4543482673429144
30
0
10
-27.240188080970903
20
-3.4581730844443657
30
0
10
-27.174328164955224
20
-3.4615253981498229
30
0
10
-27.108313860782317
20
-3.4644072154111494
30
0
10
-27.042148679250015
20
-3.4668210740869503
30
0
10
-26.975836423006093
20
-3.4687700973927948
30
0
10
-26.90938102063161
20
-3.4702576928018591
30
0
10
-26.842786416381482
20
-3.4712873557508099
30
0
10
-26.776056449350172
20
-3.4718624520850745
30
0
10
-26.7091947099142
20
-3.471985966849866
30
0
10
-26.642204532059605
20
-3.4716604756774077
30
0
10
-26.575089083998979
20
-3.4708882795965099
30
0
10
-26.507851433625746
20
-3.4696714979452397
30
0
10
-26.440494617454245
20
-3.4680121723639052
30
0
10
-26.37302172772603
20
-3.4659123918448054
30
0
10
-26.305435916933163
20
-3.4633743205602032
30
0
10
-26.237740325324225
20
-3.4604001318726563
30
0
10
-26.169938026936556
20
-3.4569919698701126
30
0
10
-26.102031976808938
20
-3.4531519063112719
30
0
10
-26.034024938880265
20
-3.4488818941636006
30
0
10
-25.96591949293321
20
-3.4441837565011451
30
0
10
-25.897718148072421
20
-3.439059225375718
30
0
10
-25.829423435682273
20
-3.4335099723114286
30
0
10
-25.761037999875089
20
-3.4275376421079051
30
0
10
-25.692564717375515
20
-3.4211438957913947
30
0
10
-25.624006715777398
20
-3.4143304283684621
30
0
10
-25.555367152994233
20
-3.40709892254206
30
0
10
-25.486649042051894
20
-3.3994510182302644
30
0
10
-25.41785506485364
20
-3.3913882781127613
30
0
10
-25.348987375401137
20
-3.382912159468805
30
0
10
-25.280047453571605
20
-3.3740239815106681
30
0
10
-25.21103624870387
20
-3.3647248654081077
30
0
10
-25.155770678823977
20
-3.3569575169188504
30
0
10
-25.11428976082696
20
-3.3509477272251962
30
0
10
-25.086621713214154
20
-3.3468593264943456
30
0
10
-25.072784163839643
20
-3.3447946575613279
30
0
0
ARC
5
168
100
AcDbEntity
8
0
100
AcDbCircle
10
-43.638578186720444
20
6.4690352561668281
30
1.7763568394002505e-14
40
20.999999173229082
100
AcDbArc
50
332.13918751148532
51
336.98257702618378
0
SPLINE
5
169
100
AcDbEntity
8
0
100
AcDbSpline
70
1064
71
5
72
81
73
75
74
0
42
0.000000001
43
0.0000000001
44
0.0000000001
40
-1
40
-1
40
-1
40
-1
40
-1
40
-1
40
-0.9857142857142841
40
-0.97142857142856986
40
-0.95714285714285563
40
-0.94285714285714139
40
-0.92857142857142716
40
-0.91428571428571292
40
-0.89999999999999869
40
-0.88571428571428445
40
-0.87142857142857022
40
-0.85714285714285599
40
-0.84285714285714175
40
-0.82857142857142752
40
-0.81428571428571328
40
-0.79999999999999905
40
-0.78571428571428481
40
-0.77142857142857058
40
-0.75714285714285634
40
-0.74285714285714211
40
-0.72857142857142787
40
-0.71428571428571364
40
-0.6999999999999994
40
-0.68571428571428517
40
-0.67142857142857093
40
-0.6571428571428567
40
-0.64285714285714246
40
-0.62857142857142823
40
-0.61428571428571399
40
-0.59999999999999976
40
-0.58571428571428552
40
-0.57142857142857129
40
-0.55714285714285705
40
-0.54285714285714282
40
-0.52857142857142858
40
-0.51428571428571435
40
-0.50000000000000011
40
-0.48571428571428582
40
-0.47142857142857153
40
-0.45714285714285724
40
-0.44285714285714295
40
-0.42857142857142866
40
-0.41428571428571437
40
-0.40000000000000008
40
-0.38571428571428579
40
-0.3714285714285715
40
-0.35714285714285721
40
-0.34285714285714292
40
-0.32857142857142863
40
-0.31428571428571433
40
-0.30000000000000004
40
-0.28571428571428575
40
-0.27142857142857146
40
-0.25714285714285717
40
-0.24285714285714291
40
-0.22857142857142862
40
-0.21428571428571433
40
-0.20000000000000004
40
-0.18571428571428575
40
-0.17142857142857146
40
-0.15714285714285717
40
-0.14285714285714288
40
-0.12857142857142859
40
-0.1142857142857143
40
-0.10000000000000001
40
-0.085714285714285715
40
-0.071428571428571425
40
-0.057142857142857141
40
-0.042857142857142858
40
-0.028571428571428571
40
-0.014285714285714285
40
0
40
0
40
0
40
0
40
0
40
0
10
-24.310473070593233
20
-1.7421959484429386
30
-1.7763568394002505e-14
10
-24.317602372617557
20
-1.7301579385101813
30
-1.7763568394002505e-14
10
-24.331888286913923
20
-1.7061132190907944
30
-1.7763568394002505e-14
10
-24.3533990890909
20
-1.6701400413087231
30
-1.7763568394002505e-14
10
-24.382244074659685
20
-1.6223636692798657
30
-1.7763568394002505e-14
10
-24.418573795438707
20
-1.5629568401631466
30
-1.7763568394002505e-14
10
-24.455177347318614
20
-1.5038646027790938
30
-1.7763568394002505e-14
10
-24.492055001105651
20
-1.4450884010563227
30
-1.7763568394002505e-14
10
-24.529206846494716
20
-1.3866302154777013
30
-1.7763568394002505e-14
10
-24.566632654941291
20
-1.3284926366326344
30
-1.7763568394002505e-14
10
-24.604331946580903
20
-1.2706787311647163
30
-1.7763568394002505e-14
10
-24.642304092542503
20
-1.2131918713398739
30
-1.7763568394002505e-14
10
-24.680548405728043
20
-1.1560355688248061
30
-1.7763568394002505e-14
10
-24.719064227715478
20
-1.0992133195272717
30
-1.7763568394002505e-14
10
-24.757851032011679
20
-1.0427284032884081
30
-1.7763568394002505e-14
10
-24.79690842630637
20
-0.98658390924860395
30
-1.7763568394002505e-14
10
-24.836236110150267
20
-0.93078285595551846
30
-1.7763568394002505e-14
10
-24.875833844109764
20
-0.87532828286324738
30
-1.7763568394002505e-14
10
-24.915701414771171
20
-0.82022334169071653
30
-1.7763568394002505e-14
10
-24.955838593295844
20
-0.76547140898542254
30
-1.7763568394002505e-14
10
-24.996245122425769
20
-0.71107608450522175
30
0
10
-25.036920725931871
20
-0.65704110596549747
30
0
10
-25.077865108519184
20
-0.60337028092014833
30
0
10
-25.119077960037565
20
-0.55006742062287206
30
0
10
-25.160558950028033
20
-0.4971362421482588
30
0
10
-25.202307746457851
20
-0.44458038945964684
30
0
10
-25.244324057773451
20
-0.39240357988945462
30
0
10
-25.286607670079746
20
-0.34060972323992489
30
0
10
-25.329158477922658
20
-0.28920303118811003
30
0
10
-25.371976531698639
20
-0.23818817264810571
30
0
10
-25.415062020297846
20
-0.18757024976477193
30
0
10
-25.458415166795039
20
-0.13735452803541939
30
0
10
-25.502036135912043
20
-0.087546205295118362
30
0
10
-25.545924951301913
20
-0.038150202320845879
30
0
10
-25.590081366642519
20
0.010829155872595362
30
0
10
-25.634504890581901
20
0.059388084408023123
30
0
10
-25.679195063918957
20
0.10752266824296325
30
0
10
-25.724151694895742
20
0.15522829316640047
30
0
10
-25.76937507257988
20
0.20249912726235764
30
0
10
-25.81486627707363
20
0.24932736956578855
30
0
10
-25.860627147150343
20
0.29570331835166003
30
0
10
-25.906659653068683
20
0.34161686427089977
30
0
10
-25.952965357283766
20
0.38705877103568159
30
0
10
-25.999544929213727
20
0.43202182700470171
30
0
10
-26.046397414038083
20
0.47650258152281733
30
0
10
-26.093520352607701
20
0.52050105223742138
30
0
10
-26.140911300895269
20
0.56401709605720429
30
0
10
-26.188569137152978
20
0.60704728545040132
30
0
10
-26.236495223733666
20
0.64958212923363723
30
0
10
-26.284695186063075
20
0.69160182391829439
30
0
10
-26.333178473953332
20
0.73307728156680863
30
0
10
-26.381954861508707
20
0.77397844138660477
30
0
10
-26.431031409152741
20
0.81428148194992156
30
0
10
-26.480409830522454
20
0.85397506628873365
30
0
10
-26.530082228810951
20
0.89307047320295063
30
0
10
-26.580033000172104
20
0.93159702743730988
30
0
10
-26.630247177670142
20
0.96958217518211631
30
0
10
-26.680717746604827
20
1.0070340138532718
30
0
10
-26.731451918914519
20
1.0439262948208534
30
0
10
-26.782481482200694
20
1.0801737312619766
30
0
10
-26.833855972822043
20
1.1156481657873794
30
0
10
-26.885623687641775
20
1.1502236356241413
30
0
10
-26.93781473599881
20
1.1838166440938793
30
0
10
-26.990426537486542
20
1.2164204742588738
30
0
10
-27.043399890647905
20
1.2481622769866945
30
0
10
-27.096643900149644
20
1.2792422701588346
30
0
10
-27.15008174104377
20
1.3098227319131088
30
0
10
-27.203691764429706
20
1.3399280975099492
30
0
10
-27.257546117556277
20
1.3693513479518471
30
0
10
-27.311862261658458
20
1.3975285085252054
30
0
10
-27.366944848536573
20
1.4236836853284434
30
0
10
-27.411873739432856
20
1.4423587134015712
30
0
10
-27.446167065328446
20
1.4548193688090802
30
0
10
-27.46930874422096
20
1.4624036494057298
30
0
10
-27.480949450307296
20
1.4660150809094734
30
0
0
LINE
5
170
100
AcDbEntity
8
0
100
AcDbLine
10
-27.480949450307296
20
1.4660150809094734
30
0
11
-29.232940457363483
21
2.009555607595201
31
-1.9721522630525295e-30
0
ARC
5
171
100
AcDbEntity
8
0
100
AcDbCircle
10
-29.010708482441071
20
2.7258746352093994
30
0
40
0.75000000000001776
100
AcDbArc
50
165.64644968739046
51
252.76393466119251
0
ARC
5
172
100
AcDbEntity
8
0
100
AcDbCircle
10
-43.638578186720444
20
6.4690352561668281
30
1.7763568394002505e-14
40
14.349199433071281
100
AcDbArc
50
345.64644968739168
51
353.47531485027918
0
ARC
5
173
100
AcDbEntity
8
0
100
AcDbCircle
10
-28.637176399504124
20
4.7532940349556982
30
0
40
0.75000000000004619
100
AcDbArc
50
86.357829876481105
51
173.47531485030061
0
LINE
5
174
100
AcDbEntity
8
0
100
AcDbLine
10
-28.589532606293126
20
5.5017792178207543
30
-1.1093356479671017e-31
11
-26.75886881161216
21
5.3852508358709699
31
0
0
SPLINE
5
175
100
AcDbEntity
8
0
100
AcDbSpline
70
1064
71
5
72
81
73
75
74
0
42
0.000000001
43
0.0000000001
44
0.0000000001
40
0
40
0
40
0
40
0
40
0
40
0
40
0.014285714285714285
40
0.028571428571428571
40
0.042857142857142858
40
0.057142857142857141
40
0.071428571428571425
40
0.085714285714285715
40
0.10000000000000001
40
0.1142857142857143
40
0.12857142857142859
40
0.14285714285714288
40
0.15714285714285717
40
0.17142857142857146
40
0.18571428571428575
40
0.20000000000000004
40
0.21428571428571433
40
0.22857142857142862
40
0.24285714285714291
40
0.25714285714285717
40
0.27142857142857146
40
0.28571428571428575
40
0.30000000000000004
40
0.31428571428571433
40
0.32857142857142863
40
0.34285714285714292
40
0.35714285714285721
40
0.3714285714285715
40
0.38571428571428579
40
0.40000000000000008
40
0.41428571428571437
40
0.42857142857142866
40
0.44285714285714295
40
0.45714285714285724
40
0.47142857142857153
40
0.48571428571428582
40
0.50000000000000011
40
0.51428571428571435
40
0.52857142857142858
40
0.54285714285714282
40
0.55714285714285705
40
0.57142857142857129
40
0.58571428571428552
40
0.59999999999999976
40
0.61428571428571399
40
0.62857142857142823
40
0.64285714285714246
40
0.6571428571428567
40
0.67142857142857093
40
0.68571428571428517
40
0.6999999999999994
40
0.71428571428571364
40
0.72857142857142787
40
0.74285714285714211
40
0.75714285714285634
40
0.77142857142857058
40
0.78571428571428481
40
0.79999999999999905
40
0.81428571428571328
40
0.82857142857142752
40
0.84285714285714175
40
0.85714285714285599
40
0.87142857142857022
40
0.88571428571428445
40
0.89999999999999869
40
0.91428571428571292
40
0.92857142857142716
40
0.94285714285714139
40
0.95714285714285563
40
0.97142857142856986
40
0.9857142857142841
40
1
40
1
40
1
40
1
40
1
40
1
10
-26.75886881161216
20
5.3852508358709708
30
0
10
-26.746705382067752
20
5.3844765895195152
30
0
10
-26.722380278238226
20
5.383315582277497
30
0
10
-26.685897887866052
20
5.3827365081045553
30
0
10
-26.637263567138568
20
5.3841734347130954
30
0
10
-26.576476444312686
20
5.3889807571846395
30
0
10
-26.515684838715284
20
5.3959504470625657
30
0
10
-26.454880617485109
20
5.4042489829479088
30
0
10
-26.394061588968647
20
5.4132719212428535
30
0
10
-26.333234121184251
20
5.4228001237736709
30
0
10
-26.272409733249944
20
5.4328641366819843
30
0
10
-26.211602372594903
20
5.443642962023274
30
0
10
-26.150825612087299
20
5.4553560649176083
30
0
10
-26.090089451590828
20
5.4681433458952498
30
0
10
-26.029398695885511
20
5.4819994486664791
30
0
10
-25.968754969419479
20
5.4968356284919553
30
0
10
-25.908158037509523
20
5.5125169811386829
30
0
10
-25.847607289486486
20
5.5289061101207597
30
0
10
-25.787103419708075
20
5.5459119999909658
30
0
10
-25.726649044340594
20
5.5635075553935822
30
0
10
-25.666247831716269
20
5.5817028419881609
30
0
10
-25.605903984682161
20
5.6005288378089464
30
0
10
-25.545621631691052
20
5.6200185030826653
30
0
10
-25.4854041314711
20
5.6401851903308478
30
0
10
-25.425253923206711
20
5.6610176962604424
30
0
10
-25.365172899616685
20
5.6824912473449141
30
0
10
-25.305162641523793
20
5.7045742732601665
30
0
10
-25.245224686040849
20
5.72723622823161
30
0
10
-25.185360834736741
20
5.7504566042626113
30
0
10
-25.125573197208237
20
5.7742260478421468
30
0
10
-25.06586404306351
20
5.7985417562624271
30
0
10
-25.006235706850141
20
5.8234044668375695
30
0
10
-24.946690479960118
20
5.8488150724554409
30
0
10
-24.887230484275516
20
5.8747706893130847
30
0
10
-24.82785766443936
20
5.9012643407168373
30
0
10
-24.768573852244394
20
5.9282868400016797
30
0
10
-24.709380809600496
20
5.9558280394323306
30
0
10
-24.650280275999211
20
5.9838782189920572
30
0
10
-24.591274022390017
20
6.0124297049976168
30
0
10
-24.532363857081812
20
6.0414769454382977
30
0
10
-24.47355160366854
20
6.0710156974118492
30
0
10
-24.414839086455125
20
6.1010424665893126
30
0
10
-24.35622811339757
20
6.1315538917183918
30
0
10
-24.297720456006687
20
6.1625460195501525
30
0
10
-24.23931784586426
20
6.1940142439766888
30
0
10
-24.181021981484715
20
6.2259536497491261
30
0
10
-24.122834530974661
20
6.2583592376030639
30
0
10
-24.064757136164708
20
6.2912261730836292
30
0
10
-24.006791413889552
20
6.3245500758775623
30
0
10
-23.94893896364966
20
6.3583270484289169
30
1.7763568394002505e-14
10
-23.891201378683235
20
6.3925535138819889
30
1.7763568394002505e-14
10
-23.833580256194878
20
6.4272261028894668
30
1.7763568394002505e-14
10
-23.776077205062975
20
6.4623415290818045
30
1.7763568394002505e-14
10
-23.718693858751148
20
6.4978964372178272
30
1.7763568394002505e-14
10
-23.661431865311464
20
6.5338873768233396
30
1.7763568394002505e-14
10
-23.604292857597674
20
6.570310895586875
30
1.7763568394002505e-14
10
-23.547278425760254
20
6.6071635996551272
30
1.7763568394002505e-14
10
-23.490390093058497
20
6.6444422173130402
30
1.7763568394002505e-14
10
-23.433629276649977
20
6.6821436752717283
30
1.7763568394002505e-14
10
-23.376997299154986
20
6.720265104811423
30
1.7763568394002505e-14
10
-23.320495467495988
20
6.7588037513789212
30
1.7763568394002505e-14
10
-23.264125138154114
20
6.7977569016996986
30
1.7763568394002505e-14
10
-23.207887778597986
20
6.8371218092793331
30
1.7763568394002505e-14
10
-23.151785049631101
20
6.8768955972645749
30
1.7763568394002505e-14
10
-23.095818812325906
20
6.917075233939749
30
1.7763568394002505e-14
10
-23.039990960164225
20
6.9576576830846122
30
1.7763568394002505e-14
10
-22.98430328254398
20
6.9986400179755117
30
1.7763568394002505e-14
10
-22.928757320721672
20
7.0400195443405114
30
1.7763568394002505e-14
10
-22.873354211477853
20
7.0817939231379201
30
1.7763568394002505e-14
10
-22.818094576817618
20
7.1239612719577927
30
1.7763568394002505e-14
10
-22.762978678307675
20
7.1665201451692164
30
1.7763568394002505e-14
10
-22.719000965081694
20
7.2008796512209061
30
1.7763568394002505e-14
10
-22.686082331170809
20
7.2268247407655215
30
1.7763568394002505e-14
10
-22.664165299430429
20
7.2441994234656928
30
1.7763568394002505e-14
10
-22.653213964612483
20
7.2529062538993472
30
1.7763568394002505e-14
0
ARC
5
176
100
AcDbEntity
8
0
100
AcDbCircle
10
-43.638578186720444
20
6.4690352561668281
30
1.7763568394002505e-14
40
20.999999173228908
100
AcDbArc
50
2.1391875114862544
51
6.9825770261866706
0
SPLINE
5
177
100
AcDbEntity
8
0
100
AcDbSpline
70
1064
71
5
72
81
73
75
74
0
42
0.000000001
43
0.0000000001
44
0.0000000001
40
-1
40
-1
40
-1
40
-1
40
-1
40
-1
40
-0.9857142857142841
40
-0.97142857142856986
40
-0.95714285714285563
40
-0.94285714285714139
40
-0.92857142857142716
40
-0.91428571428571292
40
-0.89999999999999869
40
-0.88571428571428445
40
-0.87142857142857022
40
-0.85714285714285599
40
-0.84285714285714175
40
-0.82857142857142752
40
-0.81428571428571328
40
-0.79999999999999905
40
-0.78571428571428481
40
-0.77142857142857058
40
-0.75714285714285634
40
-0.74285714285714211
40
-0.72857142857142787
40
-0.71428571428571364
40
-0.6999999999999994
40
-0.68571428571428517
40
-0.67142857142857093
40
-0.6571428571428567
40
-0.64285714285714246
40
-0.62857142857142823
40
-0.61428571428571399
40
-0.59999999999999976
40
-0.58571428571428552
40
-0.57142857142857129
40
-0.55714285714285705
40
-0.54285714285714282
40
-0.52857142857142858
40
-0.51428571428571435
40
-0.50000000000000011
40
-0.48571428571428582
40
-0.47142857142857153
40
-0.45714285714285724
40
-0.44285714285714295
40
-0.42857142857142866
40
-0.41428571428571437
40
-0.40000000000000008
40
-0.38571428571428579
40
-0.3714285714285715
40
-0.35714285714285721
40
-0.34285714285714292
40
-0.32857142857142863
40
-0.31428571428571433
40
-0.30000000000000004
40
-0.28571428571428575
40
-0.27142857142857146
40
-0.25714285714285717
40
-0.24285714285714291
40
-0.22857142857142862
40
-0.21428571428571433
40
-0.20000000000000004
40
-0.18571428571428575
40
-0.17142857142857146
40
-0.15714285714285717
40
-0.14285714285714288
40
-0.12857142857142859
40
-0.1142857142857143
40
-0.10000000000000001
40
-0.085714285714285715
40
-0.071428571428571425
40
-0.057142857142857141
40
-0.042857142857142858
40
-0.028571428571428571
40
-0.014285714285714285
40
0
40
0
40
0
40
0
40
0
40
0
10
-22.794332546833573
20
9.0219529946912385
30
0
10
-22.806525708464264
20
9.0288135660918574
30
0
10
-22.8309200328709
20
9.0424939467877294
30
0
10
-22.867535522902976
20
9.0628922315133682
30
0
10
-22.916404199191764
20
9.0898452906066218
30
0
10
-22.977570074857155
20
9.1231282533904725
30
0
10
-23.038815799345919
20
9.1560018561915673
30
0
10
-23.100140885218853
20
9.1884647131279245
30
0
10
-23.161544419912556
20
9.2205150642036262
30
0
10
-23.223024910206995
20
9.2521507801746878
30
0
10
-23.284580407205535
20
9.283369445182089
30
0
10
-23.346208680156909
20
9.3141684531933961
30
0
10
-23.407907378183403
20
9.3445451065650627
30
0
10
-23.469674183120929
20
9.3744967069631855
30
0
10
-23.531506999092496
20
9.404020677208571
30
0
10
-23.593403941777218
20
9.4331145381823216
30
0
10
-23.655363241704581
20
9.461775825970113
30
0
10
-23.717383171791933
20
9.4900020280442909
30
0
10
-23.779461971358153
20
9.517790521643045
30
0
10
-23.841597753949394
20
9.5451384970097877
30
0
10
-23.903788496894769
20
9.5720429652917751
30
0
10
-23.966032092115178
20
9.5985008276470722
30
-1.7763568394002505e-14
10
-24.028326380100733
20
9.6245089342847567
30
-1.7763568394002505e-14
10
-24.090669186626684
20
9.6500641396373812
30
0
10
-24.153058366969855
20
9.6751633898534077
30
0
10
-24.215491811599811
20
9.6998036951843929
30
0
10
-24.277967409357537
20
9.7239819821027975
30
0
10
-24.340483020103317
20
9.7476949715681123
30
0
10
-24.40303644667274
20
9.7709390688880511
30
0
10
-24.465625398253348
20
9.7937102054661729
30
0
10
-24.528247487356388
20
9.8160038682703377
30
0
10
-24.590900274421625
20
9.8378153857087298
30
0
10
-24.653581303184797
20
9.8591401739632207
30
0
10
-24.716288133741568
20
9.8799739596894156
30
0
10
-24.779018390263303
20
9.9003131204756905
30
0
10
-24.841769754788146
20
9.9201546241982346
30
0
10
-24.904539872115041
20
9.9394953099313561
30
0
10
-24.967326269071215
20
9.9583312775300676
30
0
10
-25.030126280038594
20
9.9766573318731773
30
0
10
-25.092936939930649
20
9.9944661770756476
30
0
10
-25.155754990309301
20
10.01174849181046
30
0
10
-25.218577082794056
20
10.028494535995174
30
0
10
-25.281399952366833
20
10.044695529542336
30
0
10
-25.344220572940092
20
10.060344892278311
30
0
10
-25.407036392287473
20
10.075440113258313
30
0
10
-25.469845289547031
20
10.089982437340019
30
0
10
-25.532645076583389
20
10.103972962616366
30
0
10
-25.595433068168568
20
10.117409281631669
30
0
10
-25.658205698543032
20
10.130282493603611
30
0
10
-25.720957937724087
20
10.142572635495085
30
0
10
-25.783683425520294
20
10.154249791507153
30
0
10
-25.846375596157984
20
10.165283041177659
30
0
10
-25.909028653429406
20
10.175648224333223
30
0
10
-25.971638412903751
20
10.185334666053041
30
0
10
-26.034203675145609
20
10.194356082467792
30
0
10
-26.096725589200172
20
10.20274567147445
30
0
10
-26.159204916416012
20
10.210534685638937
30
0
10
-26.221639630592477
20
10.217733644879253
30
0
10
-26.284022853136442
20
10.224316211245883
30
0
10
-26.346339469506859
20
10.230192630382867
30
0
10
-26.408568300754137
20
10.235227146556078
30
0
10
-26.470688191802267
20
10.239286524372631
30
0
10
-26.532683469764471
20
10.242283398918453
30
0
10
-26.594548541474211
20
10.244213243358143
30
0
10
-26.656295712399498
20
10.245215774301668
30
0
10
-26.717946373813422
20
10.245509833187317
30
0
10
-26.779515132428259
20
10.245274369478913
30
0
10
-26.84099545737638
20
10.244541369183027
30
0
10
-26.902346320509313
20
10.243095474964331
30
0
10
-26.963474061424094
20
10.240339539776286
30
0
10
-27.024254569368324
20
10.235449293889303
30
0
10
-27.072501644284927
20
10.229157897168877
30
0
10
-27.108430863394517
20
10.222802478351792
30
0
10
-27.132264285499986
20
10.217799818571658
30
0
10
-27.144151148440613
20
10.215107056954764
30
0
0
LINE
5
178
100
AcDbEntity
8
0
100
AcDbLine
10
-27.144151148440613
20
10.215107056954764
30
0
11
-28.933190131096001
21
9.8098314575228525
31
-9.8607613152626476e-31
0
ARC
5
179
100
AcDbEntity
8
0
100
AcDbCircle
10
-29.098891109087091
20
10.541297920112122
30
0
40
0.7500000000000191
100
AcDbArc
50
195.64644968739364
51
282.76393466119146
0
ARC
5
180
100
AcDbEntity
8
0
100
AcDbCircle
10
-43.638578186720444
20
6.4690352561668281
30
1.7763568394002505e-14
40
14.349199433071295
100
AcDbArc
50
15.646449687392606
51
23.475314850282253
0
ARC
5
181
100
AcDbEntity
8
0
100
AcDbCircle
10
-29.789112536008293
20
12.483860665886283
30
0
40
0.75000000000004119
100
AcDbArc
50
116.35782987647781
51
203.47531485026084
0
LINE
5
182
100
AcDbEntity
8
0
100
AcDbLine
10
-30.122094392187403
20
13.155889745209176
30
2.9582283945788687e-31
11
-28.478428849230404
21
13.970305103519262
31
9.8607613152626476e-31
0
SPLINE
5
183
100
AcDbEntity
8
0
100
AcDbSpline
70
1064
71
5
72
81
73
75
74
0
42
0.000000001
43
0.0000000001
44
0.0000000001
40
0
40
0
40
0
40
0
40
0
40
0
40
0.014285714285714285
40
0.028571428571428571
40
0.042857142857142858
40
0.057142857142857141
40
0.071428571428571425
40
0.085714285714285715
40
0.10000000000000001
40
0.1142857142857143
40
0.12857142857142859
40
0.14285714285714288
40
0.15714285714285717
40
0.17142857142857146
40
0.18571428571428575
40
0.20000000000000004
40
0.21428571428571433
40
0.22857142857142862
40
0.24285714285714291
40
0.25714285714285717
40
0.27142857142857146
40
0.28571428571428575
40
0.30000000000000004
40
0.31428571428571433
40
0.32857142857142863
40
0.34285714285714292
40
0.35714285714285721
40
0.3714285714285715
40
0.38571428571428579
40
0.40000000000000008
40
0.41428571428571437
40
0.42857142857142866
40
0.44285714285714295
40
0.45714285714285724
40
0.47142857142857153
40
0.48571428571428582
40
0.50000000000000011
40
0.51428571428571435
40
0.52857142857142858
40
0.54285714285714282
40
0.55714285714285705
40
0.57142857142857129
40
0.58571428571428552
40
0.59999999999999976
40
0.61428571428571399
40
0.62857142857142823
40
0.64285714285714246
40
0.6571428571428567
40
0.67142857142857093
40
0.68571428571428517
40
0.6999999999999994
40
0.71428571428571364
40
0.72857142857142787
40
0.74285714285714211
40
0.75714285714285634
40
0.77142857142857058
40
0.78571428571428481
40
0.79999999999999905
40
0.81428571428571328
40
0.82857142857142752
40
0.84285714285714175
40
0.85714285714285599
40
0.87142857142857022
40
0.88571428571428445
40
0.89999999999999869
40
0.91428571428571292
40
0.92857142857142716
40
0.94285714285714139
40
0.95714285714285563
40
0.97142857142856986
40
0.9857142857142841
40
1
40
1
40
1
40
1
40
1
40
1
10
-28.478428849230404
20
13.970305103519262
30
0
10
-28.467507887072077
20
13.975716301282324
30
0
10
-28.445861225585002
20
13.986873391431519
30
0
10
-28.41397701164545
20
14.004613093673166
30
0
10
-28.372576917703917
20
14.03017466898328
30
0
10
-28.32233738634951
20
14.06473149378076
30
0
10
-28.273175156504276
20
14.101163225070248
30
0
10
-28.224666424204294
20
14.138752078576257
30
0
10
-28.176507069623021
20
14.176975686614689
30
0
10
-28.128593038539258
20
14.215641085950981
30
0
10
-28.080949579872666
20
14.25476897076075
30
0
10
-28.033678273478966
20
14.294507387656783
30
0
10
-27.986900606366824
20
14.335039612574221
30
0
10
-27.940695188937372
20
14.376481802994427
30
0
10
-27.895063504107299
20
14.41882691784442
30
0
10
-27.849962586320302
20
14.461997289701413
30
0
10
-27.80532478021825
20
14.505876205414161
30
0
10
-27.761080858703188
20
14.550344981470058
30
0
10
-27.717185915382917
20
14.595324449000826
30
0
10
-27.673628668246067
20
14.640789834656928
30
0
10
-27.63041732699131
20
14.686748021389137
30
0
10
-27.587571020408078
20
14.73322373553853
30
0
10
-27.545109803954734
20
14.78024345727238
30
0
10
-27.503043262635956
20
14.827817070849459
30
0
10
-27.461367907200863
20
14.875933654341173
30
0
10
-27.420072990028768
20
14.924570806884807
30
0
10
-27.379144094990288
20
14.973700397366287
30
0
10
-27.338567280376871
20
15.023295203812452
30
0
10
-27.298333852394645
20
15.073336564992781
30
0
10
-27.258440961252475
20
15.123815325730732
30
0
10
-27.218889171134801
20
15.174727924006078
30
0
10
-27.179680872476194
20
15.226073831077775
30
0
10
-27.140818496124261
20
15.277852674513415
30
0
10
-27.102302437781297
20
15.330060895925328
30
0
10
-27.064130893210748
20
15.382691480998062
30
0
10
-27.026300855459144
20
15.43573555794997
30
0
10
-26.988808776517558
20
15.489183457629558
30
0
10
-26.951651302821492
20
15.543025892509641
30
0
10
-26.914826131216564
20
15.597255331510848
30
0
10
-26.878332051738852
20
15.651866062296417
30
0
10
-26.842168522215935
20
15.706853498608238
30
0
10
-26.80633537537771
20
15.762213702116203
30
0
10
-26.770832496333881
20
15.817942857912431
30
0
10
-26.735659442633345
20
15.87403665662751
30
0
10
-26.700815410815949
20
15.930490243464092
30
0
10
-26.666299414213906
20
15.987298512434581
30
0
10
-26.632110397817716
20
16.044456299995687
30
0
10
-26.598247366266968
20
16.101958598471377
30
0
10
-26.564709529624931
20
16.159800805981746
30
0
10
-26.531496324321687
20
16.217978747394096
30
0
10
-26.498607341714134
20
16.276488528441419
30
0
10
-26.466042280348375
20
16.335326432581056
30
0
10
-26.433800890369209
20
16.394488809294284
30
0
10
-26.401882908777011
20
16.453971936125221
30
0
10
-26.370288037589663
20
16.513772000849507
30
0
10
-26.339015964744256
20
16.573885197250842
30
0
10
-26.308066370424839
20
16.634307791090809
30
0
10
-26.277438937955132
20
16.695036187351409
30
0
10
-26.247133357985149
20
16.756067015907604
30
0
10
-26.217149341577787
20
16.817397131065057
30
0
10
-26.187486643284487
20
16.879023493849481
30
0
10
-26.158145081215125
20
16.940943076255643
30
0
10
-26.12912455298757
20
17.003152766015297
30
0
10
-26.100425058473231
20
17.065649241298701
30
-1.7763568394002505e-14
10
-26.072046693550291
20
17.12842894602683
30
-1.7763568394002505e-14
10
-26.04398957991199
20
17.191488304014911
30
-1.7763568394002505e-14
10
-26.01625380386055
20
17.254823885946951
30
-1.7763568394002505e-14
10
-25.988839353027288
20
17.318432587886768
30
-1.7763568394002505e-14
10
-25.961746042372198
20
17.38231181577455
30
-1.7763568394002505e-14
10
-25.934973469362529
20
17.446459628392912
30
-1.7763568394002505e-14
10
-25.908521137706224
20
17.510874643005419
30
-1.7763568394002505e-14
10
-25.887615073878013
20
17.562619704720664
30
-1.7763568394002505e-14
10
-25.872079245425613
20
17.601548128325209
30
-1.7763568394002505e-14
10
-25.861785880512983
20
17.627553560796436
30
-1.7763568394002505e-14
10
-25.856655161572121
20
17.640569564547398
30
-1.7763568394002505e-14
0
ARC
5
184
100
AcDbEntity
8
0
100
AcDbCircle
10
-43.638578186720444
20
6.4690352561668281
30
1.7763568394002505e-14
40
20.999999173229128
100
AcDbArc
50
32.13918751148713
51
36.982577026189148
0
SPLINE
5
185
100
AcDbEntity
8
0
100
AcDbSpline
70
1064
71
5
72
81
73
75
74
0
42
0.000000001
43
0.0000000001
44
0.0000000001
40
-1
40
-1
40
-1
40
-1
40
-1
40
-1
40
-0.9857142857142841
40
-0.97142857142856986
40
-0.95714285714285563
40
-0.94285714285714139
40
-0.92857142857142716
40
-0.91428571428571292
40
-0.89999999999999869
40
-0.88571428571428445
40
-0.87142857142857022
40
-0.85714285714285599
40
-0.84285714285714175
40
-0.82857142857142752
40
-0.81428571428571328
40
-0.79999999999999905
40
-0.78571428571428481
40
-0.77142857142857058
40
-0.75714285714285634
40
-0.74285714285714211
40
-0.72857142857142787
40
-0.71428571428571364
40
-0.6999999999999994
40
-0.68571428571428517
40
-0.67142857142857093
40
-0.6571428571428567
40
-0.64285714285714246
40
-0.62857142857142823
40
-0.61428571428571399
40
-0.59999999999999976
40
-0.58571428571428552
40
-0.57142857142857129
40
-0.55714285714285705
40
-0.54285714285714282
40
-0.52857142857142858
40
-0.51428571428571435
40
-0.50000000000000011
40
-0.48571428571428582
40
-0.47142857142857153
40
-0.45714285714285724
40
-0.44285714285714295
40
-0.42857142857142866
40
-0.41428571428571437
40
-0.40000000000000008
40
-0.38571428571428579
40
-0.3714285714285715
40
-0.35714285714285721
40
-0.34285714285714292
40
-0.32857142857142863
40
-0.31428571428571433
40
-0.30000000000000004
40
-0.28571428571428575
40
-0.27142857142857146
40
-0.25714285714285717
40
-0.24285714285714291
40
-0.22857142857142862
40
-0.21428571428571433
40
-0.20000000000000004
40
-0.18571428571428575
40
-0.17142857142857146
40
-0.15714285714285717
40
-0.14285714285714288
40
-0.12857142857142859
40
-0.1142857142857143
40
-0.10000000000000001
40
-0.085714285714285715
40
-0.071428571428571425
40
-0.057142857142857141
40
-0.042857142857142858
40
-0.028571428571428571
40
-0.014285714285714285
40
0
40
0
40
0
40
0
40
0
40
0
10
-26.86339080911754
20
19.102049691444694
30
0
10
-26.877380682542476
20
19.101894539746763
30
0
10
-26.90534697753472
20
19.101544934759509
30
0
10
-26.947256064437333
20
19.100902622509505
30
0
10
-27.00305410909937
20
19.099810318249567
30
0
10
-27.07266679266224
20
19.0980512717009
30
0
10
-27.142143947343239
20
19.095897784596183
30
0
10
-27.211484458066639
20
19.093348900446024
30
0
10
-27.280686654531397
20
19.090403551330933
30
0
10
-27.349748178949032
20
19.087060639881564
30
0
10
-27.418666135596045
20
19.083319048350937
30
0
10
-27.487437289568952
20
19.079177635224401
30
0
10
-27.556058256126157
20
19.074635239712972
30
0
10
-27.624525678511706
20
19.069690684072981
30
0
10
-27.692836453053303
20
19.064342784340276
30
0
10
-27.760987708321739
20
19.058590335695353
30
0
10
-27.828976679953428
20
19.052432089061078
30
0
10
-27.896800615987097
20
19.045866732065988
30
0
10
-27.96445668024726
20
19.038892873672303
30
0
10
-28.031941834138678
20
19.031509023786352
30
0
10
-28.099252831550594
20
19.023713605321177
30
0
10
-28.166386297411989
20
19.01550498864049
30
0
10
-28.233338786636985
20
19.00688152570028
30
0
10
-28.30010684350799
20
18.997841579471604
30
0
10
-28.366687083714485
20
18.988383577603038
30
0
10
-28.433076185475286
20
18.978505985661695
30
0
10
-28.499270783709289
20
18.968207197474165
30
0
10
-28.565267385480894
20
18.957485443377905
30
0
10
-28.631062290643744
20
18.946338708860299
30
0
10
-28.696651480997847
20
18.934764615819692
30
0
10
-28.76203063240122
20
18.922760449599981
30
0
10
-28.827195296336804
20
18.910323384264096
30
0
10
-28.892141053708301
20
18.897450678241221
30
0
10
-28.956863654824364
20
18.884139850658723
30
0
10
-29.021359230951248
20
18.870388952330423
30
0
10
-29.085624258613162
20
18.856196516341008
30
0
10
-29.149655117683338
20
18.841560982849057
30
0
10
-29.213447716258845
20
18.82648021081631
30
0
10
-29.276997148286089
20
18.810951033944889
30
0
10
-29.340297197982306
20
18.794968616356261
30
0
10
-29.403340382793832
20
18.778526514763481
30
0
10
-29.466118932896883
20
18.76161796819796
30
0
10
-29.528625630659132
20
18.744237005389962
30
0
10
-29.59085456532506
20
18.726379440785724
30
0
10
-29.652802271129424
20
18.708044375956455
30
0
10
-29.714467533780745
20
18.689233949411495
30
0
10
-29.775849007344661
20
18.669950206194915
30
0
10
-29.836943162617679
20
18.650192404002933
30
0
10
-29.897742461170303
20
18.629954617411705
30
0
10
-29.958232565391189
20
18.609222072915308
30
0
10
-30.018393009293515
20
18.587972042767607
30
0
10
-30.078202646519394
20
18.566181031949714
30
0
10
-30.137644377318992
20
18.543831015241597
30
0
10
-30.19670924040852
20
18.520914840106069
30
0
10
-30.255403055111767
20
18.497444984778429
30
0
10
-30.313743415479578
20
18.473449624958221
30
0
10
-30.371746607142104
20
18.448955445487183
30
0
10
-30.429416135317098
20
18.423972569981871
30
0
10
-30.486732873993425
20
18.398481628405495
30
0
10
-30.543638856416582
20
18.372412448476197
30
0
10
-30.600047863211152
20
18.34565805175432
30
0
10
-30.65587495584743
20
18.318113630542946
30
0
10
-30.711062878750287
20
18.289711361050475
30
0
10
-30.765604524677705
20
18.260450119505734
30
0
10
-30.819580408782592
20
18.230444751308259
30
-1.7763568394002505e-14
10
-30.873118477169982
20
18.199874083066479
30
-1.7763568394002505e-14
10
-30.926320854355701
20
18.168885786205912
30
-1.7763568394002505e-14
10
-30.97919787744576
20
18.13751082685463
30
-1.7763568394002505e-14
10
-31.031606336353637
20
18.105583214163588
30
-1.7763568394002505e-14
10
-31.083166545267765
20
18.072632633822167
30
-1.7763568394002505e-14
10
-31.133358886258897
20
18.038007302681169
30
-1.7763568394002505e-14
10
-31.171996380434756
20
18.008435255837689
30
-1.7763568394002505e-14
10
-31.199934287513255
20
17.984966692135611
30
-1.7763568394002505e-14
10
-31.218073306625644
20
17.968717550626788
30
-1.7763568394002505e-14
10
-31.227021251095074
20
17.960442119189906
30
-1.7763568394002505e-14
0
LINE
5
186
100
AcDbEntity
8
0
100
AcDbLine
10
-31.227021251095081
20
17.960442119189906
30
-1.7763568394002505e-14
11
-32.573736658719369
21
16.714943663220179
31
-1.7763568394002505e-14
0
ARC
5
187
100
AcDbEntity
8
0
100
AcDbCircle
10
-33.0829711463862
20
17.265561712843279
30
-1.7763568394002505e-14
40
0.7500000000000312
100
AcDbArc
50
225.64644968739566
51
312.76393466119072
0
ARC
5
188
100
AcDbEntity
8
0
100
AcDbCircle
10
-43.638578186720444
20
6.4690352561668281
30
1.7763568394002505e-14
40
14.349199433071524
100
AcDbArc
50
45.646449687392987
51
53.475314850283574
0
ARC
5
189
100
AcDbEntity
8
0
100
AcDbCircle
10
-34.652001809223364
20
18.602759685668349
30
0
40
0.7500000000000272
100
AcDbArc
50
146.35782987647755
51
233.47531485024066
0
LINE
5
190
100
AcDbEntity
8
0
100
AcDbLine
10
-35.276387095335203
20
19.018263012354282
30
-5.9164567891578075e-31
11
-34.260138658964323
21
20.545400173361553
31
0
0
SPLINE
5
191
100
AcDbEntity
8
0
100
AcDbSpline
70
1064
71
5
72
81
73
75
74
0
42
0.000000001
43
0.0000000001
44
0.0000000001
40
0
40
0
40
0
40
0
40
0
40
0
40
0.014285714285714285
40
0.028571428571428571
40
0.042857142857142858
40
0.057142857142857141
40
0.071428571428571425
40
0.085714285714285715
40
0.10000000000000001
40
0.1142857142857143
40
0.12857142857142859
40
0.14285714285714288
40
0.15714285714285717
40
0.17142857142857146
40
0.18571428571428575
40
0.20000000000000004
40
0.21428571428571433
40
0.22857142857142862
40
0.24285714285714291
40
0.25714285714285717
40
0.27142857142857146
40
0.28571428571428575
40
0.30000000000000004
40
0.31428571428571433
40
0.32857142857142863
40
0.34285714285714292
40
0.35714285714285721
40
0.3714285714285715
40
0.38571428571428579
40
0.40000000000000008
40
0.41428571428571437
40
0.42857142857142866
40
0.44285714285714295
40
0.45714285714285724
40
0.47142857142857153
40
0.48571428571428582
40
0.50000000000000011
40
0.51428571428571435
40
0.52857142857142858
40
0.54285714285714282
40
0.55714285714285705
40
0.57142857142857129
40
0.58571428571428552
40
0.59999999999999976
40
0.61428571428571399
40
0.62857142857142823
40
0.64285714285714246
40
0.6571428571428567
40
0.67142857142857093
40
0.68571428571428517
40
0.6999999999999994
40
0.71428571428571364
40
0.72857142857142787
40
0.74285714285714211
40
0.75714285714285634
40
0.77142857142857058
40
0.78571428571428481
40
0.79999999999999905
40
0.81428571428571328
40
0.82857142857142752
40
0.84285714285714175
40
0.85714285714285599
40
0.87142857142857022
40
0.88571428571428445
40
0.89999999999999869
40
0.91428571428571292
40
0.92857142857142716
40
0.94285714285714139
40
0.95714285714285563
40
0.97142857142856986
40
0.9857142857142841
40
1
40
1
40
1
40
1
40
1
40
1
10
-34.260138658964323
20
20.545400173361557
30
0
10
-34.253386427182974
20
20.555546889168433
30
0
10
-34.240218413502639
20
20.576032543413486
30
0
10
-34.221475725372116
20
20.607337683180095
30
0
10
-34.198402979954736
20
20.65017470373018
30
0
10
-34.172172681926341
20
20.705221557556122
30
0
10
-34.147812807618422
20
20.76135347727929
30
0
10
-34.124597439894259
20
20.818160745464624
30
0
10
-34.102002019416233
20
20.875343038340834
30
0
10
-34.079839950968122
20
20.932785271955417
30
0
10
-34.058143447843584
20
20.990492743530321
30
0
10
-34.037074504084572
20
21.048542875265319
30
0
10
-34.016829968494406
20
21.107033645271795
30
0
10
-33.997535998418144
20
21.166026343678897
30
0
10
-33.979190357562807
20
21.225514131280189
30
0
10
-33.961717002953769
20
21.285451228892668
30
0
10
-33.944998986756559
20
21.345770387641458
30
0
10
-33.92891701478942
20
21.406403438138597
30
0
10
-33.91339261254177
20
21.46730427132907
30
0
10
-33.898403622830394
20
21.528457073868541
30
0
10
-33.88396059693828
20
21.589863701717881
30
0
10
-33.870092464053563
20
21.65153600412189
30
0
10
-33.856829832796301
20
21.713486885848955
30
0
10
-33.844185946153431
20
21.775720114415922
30
0
10
-33.832152321380747
20
21.838227975780605
30
0
10
-33.820708450334351
20
21.90099644403718
30
0
10
-33.809827782722948
20
21.96400836499091
30
-1.7763568394002505e-14
10
-33.799484633686163
20
22.027247134575767
30
-1.7763568394002505e-14
10
-33.789662143562381
20
22.090700938588999
30
-1.7763568394002505e-14
10
-33.780353266771833
20
22.154363273310711
30
-1.7763568394002505e-14
10
-33.771556710902438
20
22.218230771848667
30
-1.7763568394002505e-14
10
-33.763274281760765
20
22.282301781082417
30
0
10
-33.755507898306377
20
22.346574763052224
30
0
10
-33.748256124033695
20
22.411046438252828
30
0
10
-33.741513889270273
20
22.475711634227132
30
0
10
-33.735274154027209
20
22.540564171263586
30
0
10
-33.729529011062894
20
22.605597449635813
30
0
10
-33.724270912341694
20
22.670805102891613
30
0
10
-33.719494097733701
20
22.736181760502102
30
0
10
-33.715194663211065
20
22.801723080420494
30
0
10
-33.711369846109612
20
22.867425361916972
30
0
10
-33.708017532404149
20
22.933285277932658
30
0
10
-33.705135715142831
20
22.999299582105568
30
0
10
-33.702721856467029
20
23.065464763637863
30
0
10
-33.700772833161182
20
23.131777019881795
30
0
10
-33.699285237752122
20
23.198232422256279
30
0
10
-33.69825557480317
20
23.264827026506406
30
0
10
-33.697680478468904
20
23.331556993537728
30
0
10
-33.697556963704109
20
23.398418732973699
30
0
10
-33.69788245487657
20
23.465408910828298
30
0
10
-33.698654650957465
20
23.532524358888914
30
0
10
-33.699871432608738
20
23.599762009262157
30
0
10
-33.701530758190074
20
23.667118825433665
30
0
10
-33.70363053870917
20
23.734591715161883
30
0
10
-33.706168609993775
20
23.802177525954743
30
0
10
-33.70914279868132
20
23.869873117563692
30
0
10
-33.712550960683863
20
23.937675415951361
30
0
10
-33.716391024242704
20
24.005581466078979
30
0
10
-33.720661036390375
20
24.073588504007652
30
0
10
-33.725359174052826
20
24.141693949954718
30
0
10
-33.730483705178258
20
24.209895294815507
30
0
10
-33.736032958242546
20
24.278190007205652
30
0
10
-33.742005288446073
20
24.346575443012842
30
0
10
-33.748399034762578
20
24.41504872551242
30
0
10
-33.755212502185515
20
24.483606727110534
30
0
10
-33.762444008011919
20
24.552246289893706
30
0
10
-33.770091912323707
20
24.620964400836051
30
0
10
-33.778154652441216
20
24.689758378034306
30
0
10
-33.786630771085171
20
24.758626067486812
30
0
10
-33.795518949043306
20
24.827565989316348
30
0
10
-33.804818065145867
20
24.896577194184083
30
0
10
-33.812585413635119
20
24.951842764063976
30
0
10
-33.818595203328776
20
24.993323682060996
30
0
10
-33.822683604059634
20
25.020991729673799
30
0
10
-33.824748272992643
20
25.03482927904831
30
0
0
ARC
5
192
100
AcDbEntity
8
0
100
AcDbCircle
10
-43.638578186720444
20
6.4690352561668281
30
1.7763568394002505e-14
40
20.999999173229519
100
AcDbArc
50
62.139187511487052
51
66.982577026188835
0
SPLINE
5
193
100
AcDbEntity
8
0
100
AcDbSpline
70
1064
71
5
72
81
73
75
74
0
42
0.000000001
43
0.0000000001
44
0.0000000001
40
-1
40
-1
40
-1
40
-1
40
-1
40
-1
40
-0.9857142857142841
40
-0.97142857142856986
40
-0.95714285714285563
40
-0.94285714285714139
40
-0.92857142857142716
40
-0.91428571428571292
40
-0.89999999999999869
40
-0.88571428571428445
40
-0.87142857142857022
40
-0.85714285714285599
40
-0.84285714285714175
40
-0.82857142857142752
40
-0.81428571428571328
40
-0.79999999999999905
40
-0.78571428571428481
40
-0.77142857142857058
40
-0.75714285714285634
40
-0.74285714285714211
40
-0.72857142857142787
40
-0.71428571428571364
40
-0.6999999999999994
40
-0.68571428571428517
40
-0.67142857142857093
40
-0.6571428571428567
40
-0.64285714285714246
40
-0.62857142857142823
40
-0.61428571428571399
40
-0.59999999999999976
40
-0.58571428571428552
40
-0.57142857142857129
40
-0.55714285714285705
40
-0.54285714285714282
40
-0.52857142857142858
40
-0.51428571428571435
40
-0.50000000000000011
40
-0.48571428571428582
40
-0.47142857142857153
40
-0.45714285714285724
40
-0.44285714285714295
40
-0.42857142857142866
40
-0.41428571428571437
40
-0.40000000000000008
40
-0.38571428571428579
40
-0.3714285714285715
40
-0.35714285714285721
40
-0.34285714285714292
40
-0.32857142857142863
40
-0.31428571428571433
40
-0.30000000000000004
40
-0.28571428571428575
40
-0.27142857142857146
40
-0.25714285714285717
40
-0.24285714285714291
40
-0.22857142857142862
40
-0.21428571428571433
40
-0.20000000000000004
40
-0.18571428571428575
40
-0.17142857142857146
40
-0.15714285714285717
40
-0.14285714285714288
40
-0.12857142857142859
40
-0.1142857142857143
40
-0.10000000000000001
40
-0.085714285714285715
40
-0.071428571428571425
40
-0.057142857142857141
40
-0.042857142857142858
40
-0.028571428571428571
40
-0.014285714285714285
40
0
40
0
40
0
40
0
40
0
40
0
10
-35.427346982110976
20
25.797140372294752
30
0
10
-35.439384992043728
20
25.790011070270431
30
0
10
-35.463429711463121
20
25.775725155974062
30
0
10
-35.499402889245189
20
25.754214353797082
30
0
10
-35.547179261274039
20
25.725369368228293
30
0
10
-35.606586090390763
20
25.689039647449277
30
0
10
-35.665678327774813
20
25.652436095569367
30
0
10
-35.724454529497585
20
25.615558441782326
30
0
10
-35.782912715076201
20
25.578406596393265
30
0
10
-35.841050293921263
20
25.540980787946687
30
0
10
-35.89886419938918
20
25.503281496307075
30
0
10
-35.956351059214022
20
25.465309350345471
30
0
10
-36.013507361729083
20
25.427065037159934
30
0
10
-36.070329611026615
20
25.388549215172503
30
0
10
-36.126814527265481
20
25.349762410876288
30
0
10
-36.18295902130528
20
25.310705016581597
30
0
10
-36.23876007459836
20
25.2713773327377
30
0
10
-36.29421464769063
20
25.2317795987782
30
0
10
-36.34931958886316
20
25.191912028116793
30
0
10
-36.404071521568454
20
25.151774849592123
30
0
10
-36.458466846048651
20
25.111368320462187
30
0
10
-36.512501824588377
20
25.070692716956088
30
0
10
-36.566172649633721
20
25.029748334368772
30
0
10
-36.619475509930993
20
24.988535482850391
30
0
10
-36.672406688405609
20
24.94705449285992
30
0
10
-36.724962541094214
20
24.905305696430101
30
0
10
-36.777139350664413
20
24.863289385114498
30
0
10
-36.828933207313938
20
24.821005772808206
30
0
10
-36.880339899365751
20
24.778454964965292
30
0
10
-36.931354757905751
20
24.73563691118931
30
0
10
-36.981972680789085
20
24.692551422590103
30
0
10
-37.032188402518436
20
24.649198276092903
30
0
10
-37.081996725258733
20
24.605577306975896
30
0
10
-37.131392728233003
20
24.561688491586029
30
0
10
-37.180372086426445
20
24.517532076245416
30
0
10
-37.228931014961873
20
24.473108552306041
30
0
10
-37.27706559879681
20
24.428418378968978
30
0
10
-37.324771223720241
20
24.383461747992186
30
0
10
-37.372042057816202
20
24.338238370308044
30
0
10
-37.418870300119629
20
24.292747165814301
30
0
10
-37.465246248905501
20
24.246986295737582
30
0
10
-37.511159794824735
20
24.200953789819238
30
0
10
-37.556601701589514
20
24.154648085604158
30
0
10
-37.601564757558535
20
24.108068513674201
30
0
10
-37.646045512076647
20
24.061216028849831
30
0
10
-37.690043982791252
20
24.014093090280216
30
-1.7763568394002505e-14
10
-37.73356002661103
20
23.966702141992648
30
-1.7763568394002505e-14
10
-37.776590216004223
20
23.919044305734932
30
-1.7763568394002505e-14
10
-37.81912505978746
20
23.871118219154248
30
-1.7763568394002505e-14
10
-37.861144754472114
20
23.822918256824831
30
-1.7763568394002505e-14
10
-37.902620212120631
20
23.774434968934575
30
-1.7763568394002505e-14
10
-37.94352137194042
20
23.725658581379207
30
-1.7763568394002505e-14
10
-37.983824412503743
20
23.676582033735162
30
-1.7763568394002505e-14
10
-38.023517996842543
20
23.627203612365449
30
-1.7763568394002505e-14
10
-38.062613403756764
20
23.577531214076949
30
-1.7763568394002505e-14
10
-38.101139957991123
20
23.527580442715795
30
-1.7763568394002505e-14
10
-38.139125105735928
20
23.477366265217757
30
-1.7763568394002505e-14
10
-38.176576944407081
20
23.426895696283072
30
-1.7763568394002505e-14
10
-38.213469225374666
20
23.37616152397338
30
-1.7763568394002505e-14
10
-38.249716661815782
20
23.325131960687202
30
-1.7763568394002505e-14
10
-38.28519109634118
20
23.273757470065846
30
-1.7763568394002505e-14
10
-38.319766566177947
20
23.221989755246113
30
-1.7763568394002505e-14
10
-38.353359574647683
20
23.169798706889075
30
-1.7763568394002505e-14
10
-38.385963404812678
20
23.117186905401347
30
-1.7763568394002505e-14
10
-38.417705207540493
20
23.06421355223998
30
-1.7763568394002505e-14
10
-38.448785200712635
20
23.010969542738234
30
-1.7763568394002505e-14
10
-38.479365662466904
20
22.957531701844111
30
-1.7763568394002505e-14
10
-38.509471028063743
20
22.903921678458165
30
-1.7763568394002505e-14
10
-38.538894278505644
20
22.85006732533159
30
-1.7763568394002505e-14
10
-38.567071439079001
20
22.795751181229416
30
-1.7763568394002505e-14
10
-38.593226615882237
20
22.740668594351302
30
-1.7763568394002505e-14
10
-38.611901643955363
20
22.695739703455011
30
-1.7763568394002505e-14
10
-38.624362299362872
20
22.661446377559432
30
-1.7763568394002505e-14
10
-38.631946579959518
20
22.638304698666907
30
-1.7763568394002505e-14
10
-38.635558011463267
20
22.626663992580575
30
-1.7763568394002505e-14
0
LINE
5
194
100
AcDbEntity
8
0
100
AcDbLine
10
-38.635558011463267
20
22.626663992580575
30
-1.7763568394002505e-14
11
-39.17909853814897
21
20.874672985524324
31
-1.7763568394002505e-14
0
ARC
5
195
100
AcDbEntity
8
0
100
AcDbCircle
10
-39.895417565763147
20
21.096904960446743
30
0
40
0.75000000000004408
100
AcDbArc
50
255.64644968737167
51
342.76393466119151
0
CIRCLE
5
196
100
AcDbEntity
8
0
100
AcDbCircle
10
-43.638578186720444
20
6.4690352561668281
30
1.7763568394002505e-14
40
3.0000000000001852
0
ENDSEC
0
SECTION
2
OBJECTS
0
DICTIONARY
5
C
100
AcDbDictionary
3
ACAD_GROUP
350
D
3
ACAD_MLINESTYLE
350
17
0
DICTIONARY
5
D
100
AcDbDictionary
0
DICTIONARY
5
1A
330
C
100
AcDbDictionary
0
DICTIONARY
5
17
100
AcDbDictionary
0
ENDSEC
0
EOF
