  0
SECTION
  2
HEADER
  9
$ACADVER
  1
AC1014
  9
$HANDSEED
  5
FFFF
  9
$MEASUREMENT
 70
     1
  0
ENDSEC
  0
SECTION
  2
TABLES
  0
TABLE
  2
VPORT
  5
8
330
0
100
AcDbSymbolTable
 70
     4
  0
VPORT
  5
2E
330
8
100
AcDbSymbolTableRecord
100
AcDbViewportTableRecord
  2
*ACTIVE
 70
     0
 10
0.0
 20
0.0
 11
1.0
 21
1.0
 12
210.0
 22
148.5
 13
0.0
 23
0.0
 14
10.0
 24
10.0
 15
10.0
 25
10.0
 16
0.0
 26
0.0
 36
1.0
 17
0.0
 27
0.0
 37
0.0
 40
341.0
 41
1.24
 42
50.0
 43
0.0
 44
0.0
 50
0.0
 51
0.0
 71
     0
 72
   100
 73
     1
 74
     3
 75
     0
 76
     0
 77
     0
 78
     0
  0
ENDTAB
  0
TABLE
  2
LTYPE
  5
5
330
0
100
AcDbSymbolTable
 70
     1
  0
LTYPE
  5
14
330
5
100
AcDbSymbolTableRecord
100
AcDbLinetypeTableRecord
  2
BYBLOCK
 70
     0
  3

 72
    65
 73
     0
 40
0.0
  0
LTYPE
  5
15
330
5
100
AcDbSymbolTableRecord
100
AcDbLinetypeTableRecord
  2
BYLAYER
 70
     0
  3

 72
    65
 73
     0
 40
0.0
  0
LTYPE
  5
16
330
5
100
AcDbSymbolTableRecord
100
AcDbLinetypeTableRecord
  2
CONTINUOUS
 70
     0
  3
Solid line
 72
    65
 73
     0
 40
0.0
  0
ENDTAB
  0
TABLE
  2
LAYER
  5
2
100
AcDbSymbolTable
 70
1
  0
LAYER
  5
50
100
AcDbSymbolTableRecord
100
AcDbLayerTableRecord
  2
0
 70
0
  6
CONTINUOUS
  0
ENDTAB
  0
TABLE
  2
STYLE
  5
3
330
0
100
AcDbSymbolTable
 70
     1
  0
STYLE
  5
11
330
3
100
AcDbSymbolTableRecord
100
AcDbTextStyleTableRecord
  2
STANDARD
 70
     0
 40
0.0
 41
1.0
 50
0.0
 71
     0
 42
2.5
  3
txt
  4

  0
ENDTAB
  0
TABLE
  2
VIEW
  5
6
330
0
100
AcDbSymbolTable
 70
     0
  0
ENDTAB
  0
TABLE
  2
UCS
  5
7
330
0
100
AcDbSymbolTable
 70
     0
  0
ENDTAB
  0
TABLE
  2
APPID
  5
9
330
0
100
AcDbSymbolTable
 70
     2
  0
APPID
  5
12
330
9
100
AcDbSymbolTableRecord
100
AcDbRegAppTableRecord
  2
ACAD
 70
     0
  0
ENDTAB
  0
TABLE
  2
DIMSTYLE
  5
A
330
0
100
AcDbSymbolTable
 70
     1
  0
DIMSTYLE
105
27
330
A
100
AcDbSymbolTableRecord
100
AcDbDimStyleTableRecord
  2
ISO-25
 70
     0
  3

  4

  5

  6

  7

 40
1.0
 41
2.5
 42
0.625
 43
3.75
 44
1.25
 45
0.0
 46
0.0
 47
0.0
 48
0.0
140
2.5
141
2.5
142
0.0
143
0.03937007874016
144
1.0
145
0.0
146
1.0
147
0.625
 71
     0
 72
     0
 73
     0
 74
     0
 75
     0
 76
     0
 77
     1
 78
     8
170
     0
171
     3
172
     1
173
     0
174
     0
175
     0
176
     0
177
     0
178
     0
270
     2
271
     2
272
     2
273
     2
274
     3
340
11
275
     0
280
     0
281
     0
282
     0
283
     0
284
     8
285
     0
286
     0
287
     3
288
     0
  0
ENDTAB
  0
TABLE
  2
BLOCK_RECORD
  5
1
330
0
100
AcDbSymbolTable
 70
     1
  0
BLOCK_RECORD
  5
1F
330
1
100
AcDbSymbolTableRecord
100
AcDbBlockTableRecord
  2
*MODEL_SPACE
  0
BLOCK_RECORD
  5
1B
330
1
100
AcDbSymbolTableRecord
100
AcDbBlockTableRecord
  2
*PAPER_SPACE
  0
ENDTAB
  0
ENDSEC
  0
SECTION
  2
BLOCKS
  0
BLOCK
  5
20
330
1F
100
AcDbEntity
  8
0
100
AcDbBlockBegin
  2
*MODEL_SPACE
 70
     0
 10
0.0
 20
0.0
 30
0.0
  3
*MODEL_SPACE
  1

  0
ENDBLK
  5
21
330
1F
100
AcDbEntity
  8
0
100
AcDbBlockEnd
  0
BLOCK
  5
1C
330
1B
100
AcDbEntity
 67
     1
  8
0
100
AcDbBlockBegin
  2
*PAPER_SPACE
  1

  0
ENDBLK
  5
1D
330
1B
100
AcDbEntity
 67
     1
  8
0
100
AcDbBlockEnd
  0
ENDSEC
  0
SECTION
  2
ENTITIES
  0
LWPOLYLINE
  5
100
100
AcDbEntity
  8
0
 62
5
100
AcDbPolyline
 90
4
 70
0
 10
15.724746
 20
299.871259
 30
0.0
 10
21.724746
 20
299.871259
 30
0.0
 10
21.724746
 20
319.871259
 30
0.0
 10
15.724746
 20
319.871259
 30
0.0
  0
SPLINE
  5
101
100
AcDbEntity
  8
0
 62
5
100
AcDbSpline
 70
8
 71
3
 72
8
 73
4
 74
0
 40
0
 40
0
 40
0
 40
0
 40
1
 40
1
 40
1
 40
1
 10
71.724745
 20
389.871259
 30
0.0
 10
44.110508
 20
389.871259
 30
0.0
 10
21.724746
 20
367.485496
 30
0.0
 10
21.724746
 20
339.871259
 30
0.0
  0
LWPOLYLINE
  5
102
100
AcDbEntity
  8
0
 62
5
100
AcDbPolyline
 90
2
 70
0
 10
15.724746
 20
339.871259
 30
0.0
 10
21.724746
 20
339.871259
 30
0.0
  0
SPLINE
  5
103
100
AcDbEntity
  8
0
 62
5
100
AcDbSpline
 70
8
 71
3
 72
8
 73
4
 74
0
 40
0
 40
0
 40
0
 40
0
 40
1
 40
1
 40
1
 40
1
 10
303.144746
 20
359.871259
 30
0.0
 10
303.144746
 20
349.057524
 30
0.0
 10
311.911011
 20
340.291260
 30
0.0
 10
322.724746
 20
340.291260
 30
0.0
  0
SPLINE
  5
104
100
AcDbEntity
  8
0
 62
5
100
AcDbSpline
 70
8
 71
3
 72
8
 73
4
 74
0
 40
0
 40
0
 40
0
 40
0
 40
1
 40
1
 40
1
 40
1
 10
322.724746
 20
340.291260
 30
0.0
 10
333.538481
 20
340.291260
 30
0.0
 10
342.304745
 20
349.057524
 30
0.0
 10
342.304746
 20
359.871259
 30
0.0
  0
LWPOLYLINE
  5
105
100
AcDbEntity
  8
0
 62
5
100
AcDbPolyline
 90
2
 70
0
 10
303.144746
 20
389.871259
 30
0.0
 10
303.144746
 20
359.871259
 30
0.0
  0
LWPOLYLINE
  5
106
100
AcDbEntity
  8
0
 62
5
100
AcDbPolyline
 90
2
 70
0
 10
342.304746
 20
359.871259
 30
0.0
 10
342.304746
 20
389.871259
 30
0.0
  0
SPLINE
  5
107
100
AcDbEntity
  8
0
 62
5
100
AcDbSpline
 70
8
 71
3
 72
8
 73
4
 74
0
 40
0
 40
0
 40
0
 40
0
 40
1
 40
1
 40
1
 40
1
 10
623.724746
 20
339.871259
 30
0.0
 10
623.724746
 20
353.132084
 30
0.0
 10
618.456904
 20
365.849779
 30
0.0
 10
609.080085
 20
375.226598
 30
0.0
  0
SPLINE
  5
108
100
AcDbEntity
  8
0
 62
5
100
AcDbSpline
 70
8
 71
3
 72
8
 73
4
 74
0
 40
0
 40
0
 40
0
 40
0
 40
1
 40
1
 40
1
 40
1
 10
609.080085
 20
375.226598
 30
0.0
 10
599.703266
 20
384.603417
 30
0.0
 10
586.985570
 20
389.871259
 30
0.0
 10
573.724746
 20
389.871259
 30
0.0
  0
LWPOLYLINE
  5
109
100
AcDbEntity
  8
0
 62
5
100
AcDbPolyline
 90
2
 70
0
 10
573.724746
 20
389.871259
 30
0.0
 10
342.304746
 20
389.871259
 30
0.0
  0
LWPOLYLINE
  5
10a
100
AcDbEntity
  8
0
 62
5
100
AcDbPolyline
 90
2
 70
0
 10
623.724746
 20
339.871259
 30
0.0
 10
629.724746
 20
339.871259
 30
0.0
  0
LWPOLYLINE
  5
10b
100
AcDbEntity
  8
0
 62
5
100
AcDbPolyline
 90
4
 70
0
 10
629.724746
 20
319.871259
 30
0.0
 10
623.724746
 20
319.871259
 30
0.0
 10
623.724746
 20
299.871259
 30
0.0
 10
629.724746
 20
299.871259
 30
0.0
  0
LWPOLYLINE
  5
10c
100
AcDbEntity
  8
0
 62
5
100
AcDbPolyline
 90
2
 70
0
 10
629.724746
 20
279.871259
 30
0.0
 10
629.724746
 20
299.871259
 30
0.0
  0
LWPOLYLINE
  5
10d
100
AcDbEntity
  8
0
 62
5
100
AcDbPolyline
 90
4
 70
0
 10
629.724746
 20
279.871259
 30
0.0
 10
623.724746
 20
279.871259
 30
0.0
 10
623.724746
 20
269.871259
 30
0.0
 10
602.724745
 20
269.871259
 30
0.0
  0
LWPOLYLINE
  5
10e
100
AcDbEntity
  8
0
 62
5
100
AcDbPolyline
 90
2
 70
0
 10
602.724745
 20
263.871259
 30
0.0
 10
602.724745
 20
269.871259
 30
0.0
  0
LWPOLYLINE
  5
10f
100
AcDbEntity
  8
0
 62
5
100
AcDbPolyline
 90
2
 70
0
 10
582.724746
 20
263.871259
 30
0.0
 10
602.724745
 20
263.871259
 30
0.0
  0
SPLINE
  5
110
100
AcDbEntity
  8
0
 62
5
100
AcDbSpline
 70
8
 71
3
 72
8
 73
4
 74
0
 40
0
 40
0
 40
0
 40
0
 40
1
 40
1
 40
1
 40
1
 10
562.724746
 20
279.871259
 30
0.0
 10
562.724745
 20
285.394106
 30
0.0
 10
558.247593
 20
289.871258
 30
0.0
 10
552.724746
 20
289.871258
 30
0.0
  0
SPLINE
  5
111
100
AcDbEntity
  8
0
 62
5
100
AcDbSpline
 70
8
 71
3
 72
8
 73
4
 74
0
 40
0
 40
0
 40
0
 40
0
 40
1
 40
1
 40
1
 40
1
 10
552.724746
 20
289.871258
 30
0.0
 10
547.201898
 20
289.871258
 30
0.0
 10
542.724746
 20
285.394106
 30
0.0
 10
542.724746
 20
279.871259
 30
0.0
  0
LWPOLYLINE
  5
112
100
AcDbEntity
  8
0
 62
5
100
AcDbPolyline
 90
4
 70
0
 10
582.724746
 20
263.871259
 30
0.0
 10
582.724746
 20
269.871259
 30
0.0
 10
562.724746
 20
269.871259
 30
0.0
 10
562.724746
 20
279.871259
 30
0.0
  0
LWPOLYLINE
  5
113
100
AcDbEntity
  8
0
 62
5
100
AcDbPolyline
 90
2
 70
0
 10
542.724746
 20
263.871259
 30
0.0
 10
542.724746
 20
279.871259
 30
0.0
  0
LWPOLYLINE
  5
114
100
AcDbEntity
  8
0
 62
5
100
AcDbPolyline
 90
2
 70
0
 10
522.724745
 20
263.871259
 30
0.0
 10
542.724746
 20
263.871259
 30
0.0
  0
LWPOLYLINE
  5
115
100
AcDbEntity
  8
0
 62
5
100
AcDbPolyline
 90
2
 70
0
 10
522.724745
 20
269.871259
 30
0.0
 10
522.724745
 20
263.871259
 30
0.0
  0
LWPOLYLINE
  5
116
100
AcDbEntity
  8
0
 62
5
100
AcDbPolyline
 90
2
 70
0
 10
502.724746
 20
269.871259
 30
0.0
 10
522.724745
 20
269.871259
 30
0.0
  0
LWPOLYLINE
  5
117
100
AcDbEntity
  8
0
 62
5
100
AcDbPolyline
 90
2
 70
0
 10
502.724746
 20
263.871259
 30
0.0
 10
502.724746
 20
269.871259
 30
0.0
  0
LWPOLYLINE
  5
118
100
AcDbEntity
  8
0
 62
5
100
AcDbPolyline
 90
2
 70
0
 10
482.724746
 20
263.871259
 30
0.0
 10
502.724746
 20
263.871259
 30
0.0
  0
LWPOLYLINE
  5
119
100
AcDbEntity
  8
0
 62
5
100
AcDbPolyline
 90
2
 70
0
 10
482.724746
 20
263.871259
 30
0.0
 10
482.724746
 20
269.871259
 30
0.0
  0
LWPOLYLINE
  5
11a
100
AcDbEntity
  8
0
 62
5
100
AcDbPolyline
 90
2
 70
0
 10
462.724746
 20
269.871259
 30
0.0
 10
482.724746
 20
269.871259
 30
0.0
  0
LWPOLYLINE
  5
11b
100
AcDbEntity
  8
0
 62
5
100
AcDbPolyline
 90
2
 70
0
 10
462.724746
 20
263.871259
 30
0.0
 10
462.724746
 20
269.871259
 30
0.0
  0
LWPOLYLINE
  5
11c
100
AcDbEntity
  8
0
 62
5
100
AcDbPolyline
 90
2
 70
0
 10
442.724746
 20
263.871259
 30
0.0
 10
462.724746
 20
263.871259
 30
0.0
  0
LWPOLYLINE
  5
11d
100
AcDbEntity
  8
0
 62
5
100
AcDbPolyline
 90
2
 70
0
 10
442.724746
 20
263.871259
 30
0.0
 10
442.724746
 20
269.871259
 30
0.0
  0
LWPOLYLINE
  5
11e
100
AcDbEntity
  8
0
 62
5
100
AcDbPolyline
 90
2
 70
0
 10
422.724746
 20
269.871259
 30
0.0
 10
442.724746
 20
269.871259
 30
0.0
  0
LWPOLYLINE
  5
11f
100
AcDbEntity
  8
0
 62
5
100
AcDbPolyline
 90
2
 70
0
 10
422.724746
 20
263.871259
 30
0.0
 10
422.724746
 20
269.871259
 30
0.0
  0
LWPOLYLINE
  5
120
100
AcDbEntity
  8
0
 62
5
100
AcDbPolyline
 90
2
 70
0
 10
402.724746
 20
263.871259
 30
0.0
 10
422.724746
 20
263.871259
 30
0.0
  0
LWPOLYLINE
  5
121
100
AcDbEntity
  8
0
 62
5
100
AcDbPolyline
 90
2
 70
0
 10
402.724746
 20
263.871259
 30
0.0
 10
402.724746
 20
269.871259
 30
0.0
  0
LWPOLYLINE
  5
122
100
AcDbEntity
  8
0
 62
5
100
AcDbPolyline
 90
2
 70
0
 10
382.724746
 20
269.871259
 30
0.0
 10
402.724746
 20
269.871259
 30
0.0
  0
LWPOLYLINE
  5
123
100
AcDbEntity
  8
0
 62
5
100
AcDbPolyline
 90
2
 70
0
 10
382.724746
 20
263.871259
 30
0.0
 10
382.724746
 20
269.871259
 30
0.0
  0
LWPOLYLINE
  5
124
100
AcDbEntity
  8
0
 62
5
100
AcDbPolyline
 90
2
 70
0
 10
362.724746
 20
263.871259
 30
0.0
 10
382.724746
 20
263.871259
 30
0.0
  0
LWPOLYLINE
  5
125
100
AcDbEntity
  8
0
 62
5
100
AcDbPolyline
 90
2
 70
0
 10
362.724746
 20
263.871259
 30
0.0
 10
362.724746
 20
269.871259
 30
0.0
  0
LWPOLYLINE
  5
126
100
AcDbEntity
  8
0
 62
5
100
AcDbPolyline
 90
2
 70
0
 10
342.724746
 20
269.871259
 30
0.0
 10
362.724746
 20
269.871259
 30
0.0
  0
LWPOLYLINE
  5
127
100
AcDbEntity
  8
0
 62
5
100
AcDbPolyline
 90
2
 70
0
 10
342.724746
 20
263.871259
 30
0.0
 10
342.724746
 20
269.871259
 30
0.0
  0
LWPOLYLINE
  5
128
100
AcDbEntity
  8
0
 62
5
100
AcDbPolyline
 90
2
 70
0
 10
322.724746
 20
263.871259
 30
0.0
 10
342.724746
 20
263.871259
 30
0.0
  0
LWPOLYLINE
  5
129
100
AcDbEntity
  8
0
 62
5
100
AcDbPolyline
 90
2
 70
0
 10
322.724746
 20
263.871259
 30
0.0
 10
322.724746
 20
269.871259
 30
0.0
  0
LWPOLYLINE
  5
12a
100
AcDbEntity
  8
0
 62
5
100
AcDbPolyline
 90
2
 70
0
 10
302.724745
 20
269.871259
 30
0.0
 10
322.724746
 20
269.871259
 30
0.0
  0
LWPOLYLINE
  5
12b
100
AcDbEntity
  8
0
 62
5
100
AcDbPolyline
 90
2
 70
0
 10
302.724745
 20
263.871259
 30
0.0
 10
302.724745
 20
269.871259
 30
0.0
  0
LWPOLYLINE
  5
12c
100
AcDbEntity
  8
0
 62
5
100
AcDbPolyline
 90
2
 70
0
 10
282.724746
 20
263.871259
 30
0.0
 10
302.724745
 20
263.871259
 30
0.0
  0
LWPOLYLINE
  5
12d
100
AcDbEntity
  8
0
 62
5
100
AcDbPolyline
 90
2
 70
0
 10
282.724746
 20
263.871259
 30
0.0
 10
282.724746
 20
269.871259
 30
0.0
  0
LWPOLYLINE
  5
12e
100
AcDbEntity
  8
0
 62
5
100
AcDbPolyline
 90
2
 70
0
 10
262.724746
 20
269.871259
 30
0.0
 10
282.724746
 20
269.871259
 30
0.0
  0
LWPOLYLINE
  5
12f
100
AcDbEntity
  8
0
 62
5
100
AcDbPolyline
 90
2
 70
0
 10
262.724746
 20
263.871259
 30
0.0
 10
262.724746
 20
269.871259
 30
0.0
  0
LWPOLYLINE
  5
130
100
AcDbEntity
  8
0
 62
5
100
AcDbPolyline
 90
2
 70
0
 10
242.724746
 20
263.871259
 30
0.0
 10
262.724746
 20
263.871259
 30
0.0
  0
LWPOLYLINE
  5
131
100
AcDbEntity
  8
0
 62
5
100
AcDbPolyline
 90
2
 70
0
 10
242.724746
 20
263.871259
 30
0.0
 10
242.724746
 20
269.871259
 30
0.0
  0
LWPOLYLINE
  5
132
100
AcDbEntity
  8
0
 62
5
100
AcDbPolyline
 90
2
 70
0
 10
222.724745
 20
269.871259
 30
0.0
 10
242.724746
 20
269.871259
 30
0.0
  0
LWPOLYLINE
  5
133
100
AcDbEntity
  8
0
 62
5
100
AcDbPolyline
 90
2
 70
0
 10
222.724745
 20
263.871259
 30
0.0
 10
222.724745
 20
269.871259
 30
0.0
  0
LWPOLYLINE
  5
134
100
AcDbEntity
  8
0
 62
5
100
AcDbPolyline
 90
2
 70
0
 10
202.724746
 20
263.871259
 30
0.0
 10
222.724745
 20
263.871259
 30
0.0
  0
LWPOLYLINE
  5
135
100
AcDbEntity
  8
0
 62
5
100
AcDbPolyline
 90
2
 70
0
 10
202.724746
 20
263.871259
 30
0.0
 10
202.724746
 20
269.871259
 30
0.0
  0
LWPOLYLINE
  5
136
100
AcDbEntity
  8
0
 62
5
100
AcDbPolyline
 90
2
 70
0
 10
182.724746
 20
269.871259
 30
0.0
 10
202.724746
 20
269.871259
 30
0.0
  0
LWPOLYLINE
  5
137
100
AcDbEntity
  8
0
 62
5
100
AcDbPolyline
 90
2
 70
0
 10
182.724746
 20
263.871259
 30
0.0
 10
182.724746
 20
269.871259
 30
0.0
  0
LWPOLYLINE
  5
138
100
AcDbEntity
  8
0
 62
5
100
AcDbPolyline
 90
2
 70
0
 10
162.724746
 20
263.871259
 30
0.0
 10
182.724746
 20
263.871259
 30
0.0
  0
LWPOLYLINE
  5
139
100
AcDbEntity
  8
0
 62
5
100
AcDbPolyline
 90
2
 70
0
 10
162.724746
 20
263.871259
 30
0.0
 10
162.724746
 20
269.871259
 30
0.0
  0
LWPOLYLINE
  5
13a
100
AcDbEntity
  8
0
 62
5
100
AcDbPolyline
 90
2
 70
0
 10
142.724746
 20
269.871259
 30
0.0
 10
162.724746
 20
269.871259
 30
0.0
  0
LWPOLYLINE
  5
13b
100
AcDbEntity
  8
0
 62
5
100
AcDbPolyline
 90
2
 70
0
 10
142.724746
 20
263.871259
 30
0.0
 10
142.724746
 20
269.871259
 30
0.0
  0
LWPOLYLINE
  5
13c
100
AcDbEntity
  8
0
 62
5
100
AcDbPolyline
 90
2
 70
0
 10
122.724746
 20
263.871259
 30
0.0
 10
142.724746
 20
263.871259
 30
0.0
  0
LWPOLYLINE
  5
13d
100
AcDbEntity
  8
0
 62
5
100
AcDbPolyline
 90
2
 70
0
 10
122.724746
 20
263.871259
 30
0.0
 10
122.724746
 20
269.871259
 30
0.0
  0
LWPOLYLINE
  5
13e
100
AcDbEntity
  8
0
 62
5
100
AcDbPolyline
 90
2
 70
0
 10
102.724746
 20
269.871259
 30
0.0
 10
122.724746
 20
269.871259
 30
0.0
  0
SPLINE
  5
13f
100
AcDbEntity
  8
0
 62
5
100
AcDbSpline
 70
8
 71
3
 72
8
 73
4
 74
0
 40
0
 40
0
 40
0
 40
0
 40
1
 40
1
 40
1
 40
1
 10
102.724746
 20
279.871259
 30
0.0
 10
102.724746
 20
283.443915
 30
0.0
 10
100.818756
 20
286.745185
 30
0.0
 10
97.724746
 20
288.531513
 30
0.0
  0
SPLINE
  5
140
100
AcDbEntity
  8
0
 62
5
100
AcDbSpline
 70
8
 71
3
 72
8
 73
4
 74
0
 40
0
 40
0
 40
0
 40
0
 40
1
 40
1
 40
1
 40
1
 10
97.724746
 20
288.531513
 30
0.0
 10
94.630735
 20
290.317841
 30
0.0
 10
90.818756
 20
290.317841
 30
0.0
 10
87.724746
 20
288.531513
 30
0.0
  0
SPLINE
  5
141
100
AcDbEntity
  8
0
 62
5
100
AcDbSpline
 70
8
 71
3
 72
8
 73
4
 74
0
 40
0
 40
0
 40
0
 40
0
 40
1
 40
1
 40
1
 40
1
 10
87.724746
 20
288.531513
 30
0.0
 10
84.630735
 20
286.745185
 30
0.0
 10
82.724746
 20
283.443915
 30
0.0
 10
82.724746
 20
279.871259
 30
0.0
  0
LWPOLYLINE
  5
142
100
AcDbEntity
  8
0
 62
5
100
AcDbPolyline
 90
2
 70
0
 10
102.724746
 20
269.871259
 30
0.0
 10
102.724746
 20
279.871259
 30
0.0
  0
LWPOLYLINE
  5
143
100
AcDbEntity
  8
0
 62
5
100
AcDbPolyline
 90
2
 70
0
 10
82.724746
 20
269.871259
 30
0.0
 10
82.724746
 20
279.871259
 30
0.0
  0
LWPOLYLINE
  5
144
100
AcDbEntity
  8
0
 62
5
100
AcDbPolyline
 90
2
 70
0
 10
62.724746
 20
269.871259
 30
0.0
 10
82.724746
 20
269.871259
 30
0.0
  0
LWPOLYLINE
  5
145
100
AcDbEntity
  8
0
 62
5
100
AcDbPolyline
 90
2
 70
0
 10
62.724746
 20
263.871259
 30
0.0
 10
62.724746
 20
269.871259
 30
0.0
  0
LWPOLYLINE
  5
146
100
AcDbEntity
  8
0
 62
5
100
AcDbPolyline
 90
2
 70
0
 10
42.724746
 20
263.871259
 30
0.0
 10
62.724746
 20
263.871259
 30
0.0
  0
LWPOLYLINE
  5
147
100
AcDbEntity
  8
0
 62
5
100
AcDbPolyline
 90
2
 70
0
 10
42.724746
 20
263.871259
 30
0.0
 10
42.724746
 20
269.871259
 30
0.0
  0
LWPOLYLINE
  5
148
100
AcDbEntity
  8
0
 62
5
100
AcDbPolyline
 90
2
 70
0
 10
21.724746
 20
269.871259
 30
0.0
 10
42.724746
 20
269.871259
 30
0.0
  0
LWPOLYLINE
  5
149
100
AcDbEntity
  8
0
 62
5
100
AcDbPolyline
 90
3
 70
0
 10
21.724746
 20
269.871259
 30
0.0
 10
21.724746
 20
279.871259
 30
0.0
 10
15.724746
 20
279.871259
 30
0.0
  0
LWPOLYLINE
  5
14a
100
AcDbEntity
  8
0
 62
5
100
AcDbPolyline
 90
2
 70
0
 10
15.724746
 20
299.871259
 30
0.0
 10
15.724746
 20
279.871259
 30
0.0
  0
LWPOLYLINE
  5
14b
100
AcDbEntity
  8
0
 62
5
100
AcDbPolyline
 90
2
 70
0
 10
303.144746
 20
389.871259
 30
0.0
 10
71.724745
 20
389.871259
 30
0.0
  0
LWPOLYLINE
  5
14c
100
AcDbEntity
  8
0
 62
5
100
AcDbPolyline
 90
2
 70
0
 10
15.724746
 20
339.871259
 30
0.0
 10
15.724746
 20
319.871259
 30
0.0
  0
LWPOLYLINE
  5
14d
100
AcDbEntity
  8
0
 62
5
100
AcDbPolyline
 90
2
 70
0
 10
629.724746
 20
319.871259
 30
0.0
 10
629.724746
 20
339.871259
 30
0.0
  0
LWPOLYLINE
  5
14e
100
AcDbEntity
  8
0
 62
5
100
AcDbPolyline
 90
4
 70
0
 10
11.592131
 20
161.841941
 30
0.0
 10
17.592131
 20
161.841941
 30
0.0
 10
17.592131
 20
181.841941
 30
0.0
 10
11.592131
 20
181.841941
 30
0.0
  0
SPLINE
  5
14f
100
AcDbEntity
  8
0
 62
5
100
AcDbSpline
 70
8
 71
3
 72
8
 73
4
 74
0
 40
0
 40
0
 40
0
 40
0
 40
1
 40
1
 40
1
 40
1
 10
67.592131
 20
251.841941
 30
0.0
 10
54.331307
 20
251.841941
 30
0.0
 10
41.613611
 20
246.574099
 30
0.0
 10
32.236792
 20
237.197281
 30
0.0
  0
SPLINE
  5
150
100
AcDbEntity
  8
0
 62
5
100
AcDbSpline
 70
8
 71
3
 72
8
 73
4
 74
0
 40
0
 40
0
 40
0
 40
0
 40
1
 40
1
 40
1
 40
1
 10
32.236792
 20
237.197281
 30
0.0
 10
22.859973
 20
227.820462
 30
0.0
 10
17.592131
 20
215.102766
 30
0.0
 10
17.592131
 20
201.841942
 30
0.0
  0
LWPOLYLINE
  5
151
100
AcDbEntity
  8
0
 62
5
100
AcDbPolyline
 90
2
 70
0
 10
11.592131
 20
201.841942
 30
0.0
 10
17.592131
 20
201.841942
 30
0.0
  0
SPLINE
  5
152
100
AcDbEntity
  8
0
 62
5
100
AcDbSpline
 70
8
 71
3
 72
8
 73
4
 74
0
 40
0
 40
0
 40
0
 40
0
 40
1
 40
1
 40
1
 40
1
 10
299.012131
 20
221.841941
 30
0.0
 10
299.013430
 20
211.029124
 30
0.0
 10
307.779314
 20
202.264292
 30
0.0
 10
318.592131
 20
202.264292
 30
0.0
  0
SPLINE
  5
153
100
AcDbEntity
  8
0
 62
5
100
AcDbSpline
 70
8
 71
3
 72
8
 73
4
 74
0
 40
0
 40
0
 40
0
 40
0
 40
1
 40
1
 40
1
 40
1
 10
318.592131
 20
202.264292
 30
0.0
 10
329.404949
 20
202.264292
 30
0.0
 10
338.170833
 20
211.029124
 30
0.0
 10
338.172131
 20
221.841941
 30
0.0
  0
LWPOLYLINE
  5
154
100
AcDbEntity
  8
0
 62
5
100
AcDbPolyline
 90
2
 70
0
 10
299.012131
 20
251.841941
 30
0.0
 10
299.012131
 20
221.841941
 30
0.0
  0
LWPOLYLINE
  5
155
100
AcDbEntity
  8
0
 62
5
100
AcDbPolyline
 90
2
 70
0
 10
338.172131
 20
221.841941
 30
0.0
 10
338.172131
 20
251.841941
 30
0.0
  0
SPLINE
  5
156
100
AcDbEntity
  8
0
 62
5
100
AcDbSpline
 70
8
 71
3
 72
8
 73
4
 74
0
 40
0
 40
0
 40
0
 40
0
 40
1
 40
1
 40
1
 40
1
 10
619.592131
 20
201.841942
 30
0.0
 10
619.592131
 20
215.102766
 30
0.0
 10
614.324289
 20
227.820462
 30
0.0
 10
604.947470
 20
237.197281
 30
0.0
  0
SPLINE
  5
157
100
AcDbEntity
  8
0
 62
5
100
AcDbSpline
 70
8
 71
3
 72
8
 73
4
 74
0
 40
0
 40
0
 40
0
 40
0
 40
1
 40
1
 40
1
 40
1
 10
604.947470
 20
237.197281
 30
0.0
 10
595.570651
 20
246.574100
 30
0.0
 10
582.852956
 20
251.841941
 30
0.0
 10
569.592131
 20
251.841941
 30
0.0
  0
LWPOLYLINE
  5
158
100
AcDbEntity
  8
0
 62
5
100
AcDbPolyline
 90
2
 70
0
 10
569.592131
 20
251.841941
 30
0.0
 10
338.172131
 20
251.841941
 30
0.0
  0
LWPOLYLINE
  5
159
100
AcDbEntity
  8
0
 62
5
100
AcDbPolyline
 90
2
 70
0
 10
619.592131
 20
201.841942
 30
0.0
 10
625.592131
 20
201.841942
 30
0.0
  0
LWPOLYLINE
  5
15a
100
AcDbEntity
  8
0
 62
5
100
AcDbPolyline
 90
4
 70
0
 10
625.592131
 20
181.841941
 30
0.0
 10
619.592131
 20
181.841941
 30
0.0
 10
619.592131
 20
161.841941
 30
0.0
 10
625.592131
 20
161.841941
 30
0.0
  0
LWPOLYLINE
  5
15b
100
AcDbEntity
  8
0
 62
5
100
AcDbPolyline
 90
2
 70
0
 10
625.592131
 20
141.841941
 30
0.0
 10
625.592131
 20
161.841941
 30
0.0
  0
LWPOLYLINE
  5
15c
100
AcDbEntity
  8
0
 62
5
100
AcDbPolyline
 90
4
 70
0
 10
625.592131
 20
141.841941
 30
0.0
 10
619.592131
 20
141.841941
 30
0.0
 10
619.592131
 20
131.841941
 30
0.0
 10
598.592131
 20
131.841941
 30
0.0
  0
LWPOLYLINE
  5
15d
100
AcDbEntity
  8
0
 62
5
100
AcDbPolyline
 90
2
 70
0
 10
598.592131
 20
125.841941
 30
0.0
 10
598.592131
 20
131.841941
 30
0.0
  0
LWPOLYLINE
  5
15e
100
AcDbEntity
  8
0
 62
5
100
AcDbPolyline
 90
2
 70
0
 10
578.592131
 20
125.841941
 30
0.0
 10
598.592131
 20
125.841941
 30
0.0
  0
SPLINE
  5
15f
100
AcDbEntity
  8
0
 62
5
100
AcDbSpline
 70
8
 71
3
 72
8
 73
4
 74
0
 40
0
 40
0
 40
0
 40
0
 40
1
 40
1
 40
1
 40
1
 10
558.592131
 20
141.841941
 30
0.0
 10
558.591203
 20
147.364133
 30
0.0
 10
554.114323
 20
151.840261
 30
0.0
 10
548.592131
 20
151.840261
 30
0.0
  0
SPLINE
  5
160
100
AcDbEntity
  8
0
 62
5
100
AcDbSpline
 70
8
 71
3
 72
8
 73
4
 74
0
 40
0
 40
0
 40
0
 40
0
 40
1
 40
1
 40
1
 40
1
 10
548.592131
 20
151.840261
 30
0.0
 10
543.069940
 20
151.840261
 30
0.0
 10
538.593059
 20
147.364133
 30
0.0
 10
538.592131
 20
141.841941
 30
0.0
  0
LWPOLYLINE
  5
161
100
AcDbEntity
  8
0
 62
5
100
AcDbPolyline
 90
4
 70
0
 10
578.592131
 20
125.841941
 30
0.0
 10
578.592131
 20
131.841941
 30
0.0
 10
558.592131
 20
131.841941
 30
0.0
 10
558.592131
 20
141.841941
 30
0.0
  0
LWPOLYLINE
  5
162
100
AcDbEntity
  8
0
 62
5
100
AcDbPolyline
 90
2
 70
0
 10
538.592131
 20
125.841941
 30
0.0
 10
538.592131
 20
141.841941
 30
0.0
  0
LWPOLYLINE
  5
163
100
AcDbEntity
  8
0
 62
5
100
AcDbPolyline
 90
2
 70
0
 10
518.592131
 20
125.841941
 30
0.0
 10
538.592131
 20
125.841941
 30
0.0
  0
LWPOLYLINE
  5
164
100
AcDbEntity
  8
0
 62
5
100
AcDbPolyline
 90
2
 70
0
 10
518.592131
 20
131.841941
 30
0.0
 10
518.592131
 20
125.841941
 30
0.0
  0
LWPOLYLINE
  5
165
100
AcDbEntity
  8
0
 62
5
100
AcDbPolyline
 90
2
 70
0
 10
498.592131
 20
131.841941
 30
0.0
 10
518.592131
 20
131.841941
 30
0.0
  0
LWPOLYLINE
  5
166
100
AcDbEntity
  8
0
 62
5
100
AcDbPolyline
 90
2
 70
0
 10
498.592131
 20
125.841941
 30
0.0
 10
498.592131
 20
131.841941
 30
0.0
  0
LWPOLYLINE
  5
167
100
AcDbEntity
  8
0
 62
5
100
AcDbPolyline
 90
2
 70
0
 10
478.592131
 20
125.841941
 30
0.0
 10
498.592131
 20
125.841941
 30
0.0
  0
LWPOLYLINE
  5
168
100
AcDbEntity
  8
0
 62
5
100
AcDbPolyline
 90
2
 70
0
 10
478.592131
 20
125.841941
 30
0.0
 10
478.592131
 20
131.841941
 30
0.0
  0
LWPOLYLINE
  5
169
100
AcDbEntity
  8
0
 62
5
100
AcDbPolyline
 90
2
 70
0
 10
458.592131
 20
131.841941
 30
0.0
 10
478.592131
 20
131.841941
 30
0.0
  0
LWPOLYLINE
  5
16a
100
AcDbEntity
  8
0
 62
5
100
AcDbPolyline
 90
2
 70
0
 10
458.592131
 20
125.841941
 30
0.0
 10
458.592131
 20
131.841941
 30
0.0
  0
LWPOLYLINE
  5
16b
100
AcDbEntity
  8
0
 62
5
100
AcDbPolyline
 90
2
 70
0
 10
438.592131
 20
125.841941
 30
0.0
 10
458.592131
 20
125.841941
 30
0.0
  0
LWPOLYLINE
  5
16c
100
AcDbEntity
  8
0
 62
5
100
AcDbPolyline
 90
2
 70
0
 10
438.592131
 20
125.841941
 30
0.0
 10
438.592131
 20
131.841941
 30
0.0
  0
LWPOLYLINE
  5
16d
100
AcDbEntity
  8
0
 62
5
100
AcDbPolyline
 90
2
 70
0
 10
418.592131
 20
131.841941
 30
0.0
 10
438.592131
 20
131.841941
 30
0.0
  0
LWPOLYLINE
  5
16e
100
AcDbEntity
  8
0
 62
5
100
AcDbPolyline
 90
2
 70
0
 10
418.592131
 20
125.841941
 30
0.0
 10
418.592131
 20
131.841941
 30
0.0
  0
LWPOLYLINE
  5
16f
100
AcDbEntity
  8
0
 62
5
100
AcDbPolyline
 90
2
 70
0
 10
398.592131
 20
125.841941
 30
0.0
 10
418.592131
 20
125.841941
 30
0.0
  0
LWPOLYLINE
  5
170
100
AcDbEntity
  8
0
 62
5
100
AcDbPolyline
 90
2
 70
0
 10
398.592131
 20
125.841941
 30
0.0
 10
398.592131
 20
131.841941
 30
0.0
  0
LWPOLYLINE
  5
171
100
AcDbEntity
  8
0
 62
5
100
AcDbPolyline
 90
2
 70
0
 10
378.592131
 20
131.841941
 30
0.0
 10
398.592131
 20
131.841941
 30
0.0
  0
LWPOLYLINE
  5
172
100
AcDbEntity
  8
0
 62
5
100
AcDbPolyline
 90
2
 70
0
 10
378.592131
 20
125.841941
 30
0.0
 10
378.592131
 20
131.841941
 30
0.0
  0
LWPOLYLINE
  5
173
100
AcDbEntity
  8
0
 62
5
100
AcDbPolyline
 90
2
 70
0
 10
358.592131
 20
125.841941
 30
0.0
 10
378.592131
 20
125.841941
 30
0.0
  0
LWPOLYLINE
  5
174
100
AcDbEntity
  8
0
 62
5
100
AcDbPolyline
 90
2
 70
0
 10
358.592131
 20
125.841941
 30
0.0
 10
358.592131
 20
131.841941
 30
0.0
  0
LWPOLYLINE
  5
175
100
AcDbEntity
  8
0
 62
5
100
AcDbPolyline
 90
2
 70
0
 10
338.592131
 20
131.841941
 30
0.0
 10
358.592131
 20
131.841941
 30
0.0
  0
LWPOLYLINE
  5
176
100
AcDbEntity
  8
0
 62
5
100
AcDbPolyline
 90
2
 70
0
 10
338.592131
 20
125.841941
 30
0.0
 10
338.592131
 20
131.841941
 30
0.0
  0
LWPOLYLINE
  5
177
100
AcDbEntity
  8
0
 62
5
100
AcDbPolyline
 90
2
 70
0
 10
318.592131
 20
125.841941
 30
0.0
 10
338.592131
 20
125.841941
 30
0.0
  0
LWPOLYLINE
  5
178
100
AcDbEntity
  8
0
 62
5
100
AcDbPolyline
 90
2
 70
0
 10
318.592131
 20
125.841941
 30
0.0
 10
318.592131
 20
131.841941
 30
0.0
  0
LWPOLYLINE
  5
179
100
AcDbEntity
  8
0
 62
5
100
AcDbPolyline
 90
2
 70
0
 10
298.592131
 20
131.841941
 30
0.0
 10
318.592131
 20
131.841941
 30
0.0
  0
LWPOLYLINE
  5
17a
100
AcDbEntity
  8
0
 62
5
100
AcDbPolyline
 90
2
 70
0
 10
298.592131
 20
125.841941
 30
0.0
 10
298.592131
 20
131.841941
 30
0.0
  0
LWPOLYLINE
  5
17b
100
AcDbEntity
  8
0
 62
5
100
AcDbPolyline
 90
2
 70
0
 10
278.592131
 20
125.841941
 30
0.0
 10
298.592131
 20
125.841941
 30
0.0
  0
LWPOLYLINE
  5
17c
100
AcDbEntity
  8
0
 62
5
100
AcDbPolyline
 90
2
 70
0
 10
278.592131
 20
125.841941
 30
0.0
 10
278.592131
 20
131.841941
 30
0.0
  0
LWPOLYLINE
  5
17d
100
AcDbEntity
  8
0
 62
5
100
AcDbPolyline
 90
2
 70
0
 10
258.592131
 20
131.841941
 30
0.0
 10
278.592131
 20
131.841941
 30
0.0
  0
LWPOLYLINE
  5
17e
100
AcDbEntity
  8
0
 62
5
100
AcDbPolyline
 90
2
 70
0
 10
258.592131
 20
125.841941
 30
0.0
 10
258.592131
 20
131.841941
 30
0.0
  0
LWPOLYLINE
  5
17f
100
AcDbEntity
  8
0
 62
5
100
AcDbPolyline
 90
2
 70
0
 10
238.592131
 20
125.841941
 30
0.0
 10
258.592131
 20
125.841941
 30
0.0
  0
LWPOLYLINE
  5
180
100
AcDbEntity
  8
0
 62
5
100
AcDbPolyline
 90
2
 70
0
 10
238.592131
 20
125.841941
 30
0.0
 10
238.592131
 20
131.841941
 30
0.0
  0
LWPOLYLINE
  5
181
100
AcDbEntity
  8
0
 62
5
100
AcDbPolyline
 90
2
 70
0
 10
218.592131
 20
131.841941
 30
0.0
 10
238.592131
 20
131.841941
 30
0.0
  0
LWPOLYLINE
  5
182
100
AcDbEntity
  8
0
 62
5
100
AcDbPolyline
 90
2
 70
0
 10
218.592131
 20
125.841941
 30
0.0
 10
218.592131
 20
131.841941
 30
0.0
  0
LWPOLYLINE
  5
183
100
AcDbEntity
  8
0
 62
5
100
AcDbPolyline
 90
2
 70
0
 10
198.592131
 20
125.841941
 30
0.0
 10
218.592131
 20
125.841941
 30
0.0
  0
LWPOLYLINE
  5
184
100
AcDbEntity
  8
0
 62
5
100
AcDbPolyline
 90
2
 70
0
 10
198.592131
 20
125.841941
 30
0.0
 10
198.592131
 20
131.841941
 30
0.0
  0
LWPOLYLINE
  5
185
100
AcDbEntity
  8
0
 62
5
100
AcDbPolyline
 90
2
 70
0
 10
178.592131
 20
131.841941
 30
0.0
 10
198.592131
 20
131.841941
 30
0.0
  0
LWPOLYLINE
  5
186
100
AcDbEntity
  8
0
 62
5
100
AcDbPolyline
 90
2
 70
0
 10
178.592131
 20
125.841941
 30
0.0
 10
178.592131
 20
131.841941
 30
0.0
  0
LWPOLYLINE
  5
187
100
AcDbEntity
  8
0
 62
5
100
AcDbPolyline
 90
2
 70
0
 10
158.592131
 20
125.841941
 30
0.0
 10
178.592131
 20
125.841941
 30
0.0
  0
LWPOLYLINE
  5
188
100
AcDbEntity
  8
0
 62
5
100
AcDbPolyline
 90
2
 70
0
 10
158.592131
 20
125.841941
 30
0.0
 10
158.592131
 20
131.841941
 30
0.0
  0
LWPOLYLINE
  5
189
100
AcDbEntity
  8
0
 62
5
100
AcDbPolyline
 90
2
 70
0
 10
138.592131
 20
131.841941
 30
0.0
 10
158.592131
 20
131.841941
 30
0.0
  0
LWPOLYLINE
  5
18a
100
AcDbEntity
  8
0
 62
5
100
AcDbPolyline
 90
2
 70
0
 10
138.592131
 20
125.841941
 30
0.0
 10
138.592131
 20
131.841941
 30
0.0
  0
LWPOLYLINE
  5
18b
100
AcDbEntity
  8
0
 62
5
100
AcDbPolyline
 90
2
 70
0
 10
118.592131
 20
125.841941
 30
0.0
 10
138.592131
 20
125.841941
 30
0.0
  0
LWPOLYLINE
  5
18c
100
AcDbEntity
  8
0
 62
5
100
AcDbPolyline
 90
2
 70
0
 10
118.592131
 20
125.841941
 30
0.0
 10
118.592131
 20
131.841941
 30
0.0
  0
LWPOLYLINE
  5
18d
100
AcDbEntity
  8
0
 62
5
100
AcDbPolyline
 90
2
 70
0
 10
98.592131
 20
131.841941
 30
0.0
 10
118.592131
 20
131.841941
 30
0.0
  0
SPLINE
  5
18e
100
AcDbEntity
  8
0
 62
5
100
AcDbSpline
 70
8
 71
3
 72
8
 73
4
 74
0
 40
0
 40
0
 40
0
 40
0
 40
1
 40
1
 40
1
 40
1
 10
98.592131
 20
141.841941
 30
0.0
 10
98.592131
 20
145.414597
 30
0.0
 10
96.686142
 20
148.715867
 30
0.0
 10
93.592131
 20
150.502195
 30
0.0
  0
SPLINE
  5
18f
100
AcDbEntity
  8
0
 62
5
100
AcDbSpline
 70
8
 71
3
 72
8
 73
4
 74
0
 40
0
 40
0
 40
0
 40
0
 40
1
 40
1
 40
1
 40
1
 10
93.592131
 20
150.502195
 30
0.0
 10
90.498121
 20
152.288523
 30
0.0
 10
86.686142
 20
152.288523
 30
0.0
 10
83.592131
 20
150.502195
 30
0.0
  0
SPLINE
  5
190
100
AcDbEntity
  8
0
 62
5
100
AcDbSpline
 70
8
 71
3
 72
8
 73
4
 74
0
 40
0
 40
0
 40
0
 40
0
 40
1
 40
1
 40
1
 40
1
 10
83.592131
 20
150.502195
 30
0.0
 10
80.498121
 20
148.715867
 30
0.0
 10
78.592131
 20
145.414597
 30
0.0
 10
78.592131
 20
141.841941
 30
0.0
  0
LWPOLYLINE
  5
191
100
AcDbEntity
  8
0
 62
5
100
AcDbPolyline
 90
2
 70
0
 10
98.592131
 20
131.841941
 30
0.0
 10
98.592131
 20
141.841941
 30
0.0
  0
LWPOLYLINE
  5
192
100
AcDbEntity
  8
0
 62
5
100
AcDbPolyline
 90
2
 70
0
 10
78.592131
 20
131.841941
 30
0.0
 10
78.592131
 20
141.841941
 30
0.0
  0
LWPOLYLINE
  5
193
100
AcDbEntity
  8
0
 62
5
100
AcDbPolyline
 90
2
 70
0
 10
58.592131
 20
131.841941
 30
0.0
 10
78.592131
 20
131.841941
 30
0.0
  0
LWPOLYLINE
  5
194
100
AcDbEntity
  8
0
 62
5
100
AcDbPolyline
 90
2
 70
0
 10
58.592131
 20
125.841941
 30
0.0
 10
58.592131
 20
131.841941
 30
0.0
  0
LWPOLYLINE
  5
195
100
AcDbEntity
  8
0
 62
5
100
AcDbPolyline
 90
2
 70
0
 10
38.592131
 20
125.841941
 30
0.0
 10
58.592131
 20
125.841941
 30
0.0
  0
LWPOLYLINE
  5
196
100
AcDbEntity
  8
0
 62
5
100
AcDbPolyline
 90
2
 70
0
 10
38.592131
 20
125.841941
 30
0.0
 10
38.592131
 20
131.841941
 30
0.0
  0
LWPOLYLINE
  5
197
100
AcDbEntity
  8
0
 62
5
100
AcDbPolyline
 90
2
 70
0
 10
17.592131
 20
131.841941
 30
0.0
 10
38.592131
 20
131.841941
 30
0.0
  0
LWPOLYLINE
  5
198
100
AcDbEntity
  8
0
 62
5
100
AcDbPolyline
 90
3
 70
0
 10
17.592131
 20
131.841941
 30
0.0
 10
17.592131
 20
141.841941
 30
0.0
 10
11.592131
 20
141.841941
 30
0.0
  0
LWPOLYLINE
  5
199
100
AcDbEntity
  8
0
 62
5
100
AcDbPolyline
 90
2
 70
0
 10
11.592131
 20
161.841941
 30
0.0
 10
11.592131
 20
141.841941
 30
0.0
  0
LWPOLYLINE
  5
19a
100
AcDbEntity
  8
0
 62
5
100
AcDbPolyline
 90
2
 70
0
 10
299.012131
 20
251.841941
 30
0.0
 10
67.592131
 20
251.841941
 30
0.0
  0
LWPOLYLINE
  5
19b
100
AcDbEntity
  8
0
 62
5
100
AcDbPolyline
 90
2
 70
0
 10
11.592131
 20
201.841942
 30
0.0
 10
11.592131
 20
181.841941
 30
0.0
  0
LWPOLYLINE
  5
19c
100
AcDbEntity
  8
0
 62
5
100
AcDbPolyline
 90
2
 70
0
 10
625.592131
 20
181.841941
 30
0.0
 10
625.592131
 20
201.841942
 30
0.0
  0
ENDSEC
  0
SECTION
  2
OBJECTS
  0
DICTIONARY
  5
C
330
0
100
AcDbDictionary
  3
ACAD_GROUP
350
D
  3
ACAD_MLINESTYLE
350
17
  0
DICTIONARY
  5
D
330
C
100
AcDbDictionary
  0
DICTIONARY
  5
1A
330
C
100
AcDbDictionary
  0
DICTIONARY
  5
17
330
C
100
AcDbDictionary
  3
STANDARD
350
18
  0
DICTIONARY
  5
19
330
C
100
AcDbDictionary
  0
ENDSEC
  0
EOF
