  0
SECTION
  2
HEADER
  9
$ACADVER
  1
AC1009
  0
ENDSEC
  0
SECTION
  2
BLOCKS
  0
ENDSEC
  0
SECTION
  2
ENTITIES
  0
LINE
  8
CutLine
  6
CONTINUOUS
 62
8
 10
86.947184
 20
179.177085
 11
92.634802
 21
213.226935
  0
LINE
  8
CutLine
  6
CONTINUOUS
 62
8
 10
92.634802
 20
213.226935
 11
88.215656
 21
214.124983
  0
LINE
  8
MountainLine
  6
CONTINUOUS
 62
5
 10
88.215656
 20
214.124983
 11
58.918846
 21
184.972280
  0
LINE
  8
CutLine
  6
CONTINUOUS
 62
8
 10
58.077362
 20
183.502511
 11
44.609879
 21
164.776462
  0
LINE
  8
CutLine
  6
CONTINUOUS
 62
8
 10
25.881554
 20
132.519252
 11
41.048493
 21
126.439214
  0
LINE
  8
CutLine
  6
CONTINUOUS
 62
8
 10
44.524858
 20
164.649125
 11
25.881554
 21
132.519252
  0
LINE
  8
CutLine
  6
CONTINUOUS
 62
8
 10
87.630066
 20
153.332011
 11
86.949404
 21
178.704543
  0
LINE
  8
CutLine
  6
CONTINUOUS
 62
8
 10
122.462639
 20
115.883377
 11
92.634802
 21
122.310387
  0
LINE
  8
CutLine
  6
CONTINUOUS
 62
8
 10
92.634802
 20
122.310387
 11
87.638105
 21
153.599694
  0
LINE
  8
CutLine
  6
CONTINUOUS
 62
8
 10
61.965196
 20
102.276224
 11
58.805175
 21
78.259098
  0
LINE
  8
CutLine
  6
CONTINUOUS
 62
8
 10
76.330460
 20
60.464981
 11
78.717345
 21
65.675367
  0
LINE
  8
CutLine
  6
CONTINUOUS
 62
8
 10
71.057316
 20
44.476785
 11
76.330460
 21
60.464981
  0
LINE
  8
CutLine
  6
CONTINUOUS
 62
8
 10
63.550369
 20
14.949304
 11
71.057316
 21
44.476785
  0
LINE
  8
CutLine
  6
CONTINUOUS
 62
8
 10
49.545081
 20
25.204507
 11
63.550369
 21
14.949304
  0
LINE
  8
CutLine
  6
CONTINUOUS
 62
8
 10
58.805175
 20
78.259098
 11
54.501871
 21
51.691115
  0
LINE
  8
CutLine
  6
CONTINUOUS
 62
8
 10
54.501871
 20
51.691115
 11
49.545081
 21
25.204507
  0
LINE
  8
CutLine
  6
CONTINUOUS
 62
8
 10
41.048493
 20
126.439214
 11
35.706149
 21
117.422159
  0
LINE
  8
CutLine
  6
CONTINUOUS
 62
8
 10
57.642544
 20
78.440720
 11
62.049046
 21
102.260686
  0
LINE
  8
CutLine
  6
CONTINUOUS
 62
8
 10
35.706149
 20
117.422159
 11
28.764432
 21
90.946609
  0
LINE
  8
CutLine
  6
CONTINUOUS
 62
8
 10
39.491309
 20
27.740679
 11
49.045462
 21
52.936479
  0
LINE
  8
CutLine
  6
CONTINUOUS
 62
8
 10
49.045462
 20
52.936479
 11
57.642544
 21
78.440720
  0
LINE
  8
CutLine
  6
CONTINUOUS
 62
8
 10
24.533173
 20
64.788283
 11
15.395247
 21
34.522679
  0
LINE
  8
CutLine
  6
CONTINUOUS
 62
8
 10
15.395247
 20
34.522679
 11
39.491309
 21
27.740679
  0
LINE
  8
CutLine
  6
CONTINUOUS
 62
8
 10
28.764432
 20
90.946609
 11
24.533173
 21
64.788283
  0
LINE
  8
CutLine
  6
CONTINUOUS
 62
8
 10
78.500661
 20
65.743109
 11
113.879985
 21
54.640430
  0
LINE
  8
CutLine
  6
CONTINUOUS
 62
8
 10
156.761297
 20
59.480156
 11
165.849396
 21
70.927239
  0
LINE
  8
CutLine
  6
CONTINUOUS
 62
8
 10
165.849396
 20
70.927239
 11
173.021909
 21
79.819705
  0
LINE
  8
CutLine
  6
CONTINUOUS
 62
8
 10
172.822423
 20
137.857676
 11
159.956985
 21
147.200406
  0
LINE
  8
CutLine
  6
CONTINUOUS
 62
8
 10
159.956985
 20
147.200406
 11
122.462639
 21
115.883377
  0
LINE
  8
CutLine
  6
CONTINUOUS
 62
8
 10
113.745142
 20
54.659722
 11
156.761297
 21
59.480156
  0
LINE
  8
CutLine
  6
CONTINUOUS
 62
8
 10
177.204023
 20
133.816820
 11
172.822423
 21
137.857676
  0
LINE
  8
CutLine
  6
CONTINUOUS
 62
8
 10
172.998489
 20
79.780072
 11
178.204682
 21
92.310676
  0
LINE
  8
CutLine
  6
CONTINUOUS
 62
8
 10
180.644334
 20
122.626730
 11
177.204023
 21
133.816820
  0
LINE
  8
CutLine
  6
CONTINUOUS
 62
8
 10
183.788770
 20
111.953444
 11
180.644334
 21
122.626730
  0
LINE
  8
CutLine
  6
CONTINUOUS
 62
8
 10
178.204682
 20
92.310676
 11
183.788770
 21
111.953444
  0
LINE
  8
CutLine
  6
CONTINUOUS
 62
8
 10
62.126522
 20
208.168795
 11
40.481097
 21
208.196358
  0
LINE
  8
CutLine
  6
CONTINUOUS
 62
8
 10
19.846423
 20
197.412669
 11
12.884206
 21
173.513441
  0
LINE
  8
CutLine
  6
CONTINUOUS
 62
8
 10
40.725955
 20
208.156123
 11
22.916814
 21
215.552880
  0
LINE
  8
CutLine
  6
CONTINUOUS
 62
8
 10
22.916814
 20
215.552880
 11
19.846423
 21
197.412669
  0
LINE
  8
CutLine
  6
CONTINUOUS
 62
8
 10
39.069320
 20
173.378610
 11
59.011371
 21
184.969666
  0
LINE
  8
CutLine
  6
CONTINUOUS
 62
8
 10
5.894198
 20
156.805934
 11
39.133434
 21
173.390707
  0
LINE
  8
CutLine
  6
CONTINUOUS
 62
8
 10
12.884206
 20
173.513441
 11
5.894198
 21
156.805934
  0
LINE
  8
CutLine
  6
CONTINUOUS
 62
8
 10
88.215656
 20
214.124983
 11
62.050775
 21
208.188928
  0
LINE
  8
CutLine
  6
CONTINUOUS
 62
8
 10
177.865560
 20
160.545131
 11
159.475551
 21
182.346051
  0
LINE
  8
CutLine
  6
CONTINUOUS
 62
8
 10
130.898039
 20
271.657787
 11
118.532338
 21
239.426889
  0
LINE
  8
CutLine
  6
CONTINUOUS
 62
8
 10
118.532338
 20
239.426889
 11
112.802693
 21
214.700388
  0
LINE
  8
CutLine
  6
CONTINUOUS
 62
8
 10
112.802693
 20
214.700388
 11
108.679823
 21
183.283996
  0
LINE
  8
ValleyLine
  6
CONTINUOUS
 62
1
 10
108.679823
 20
183.283996
 11
140.634642
 21
205.577985
  0
LINE
  8
CutLine
  6
CONTINUOUS
 62
8
 10
159.475551
 20
182.346051
 11
140.634642
 21
205.577985
  0
LINE
  8
CutLine
  6
CONTINUOUS
 62
8
 10
108.679823
 20
183.283996
 11
129.025591
 21
160.545131
  0
LINE
  8
CutLine
  6
CONTINUOUS
 62
8
 10
136.798418
 20
244.333780
 11
135.376027
 21
271.125841
  0
LINE
  8
CutLine
  6
CONTINUOUS
 62
8
 10
135.376027
 20
271.125841
 11
130.898039
 21
271.657787
  0
LINE
  8
CutLine
  6
CONTINUOUS
 62
8
 10
140.126691
 20
224.190356
 11
136.594355
 21
245.545631
  0
LINE
  8
CutLine
  6
CONTINUOUS
 62
8
 10
140.634642
 20
205.577985
 11
147.629673
 21
209.036458
  0
LINE
  8
CutLine
  6
CONTINUOUS
 62
8
 10
147.629673
 20
209.036458
 11
139.434737
 21
226.492705
  0
LINE
  8
CutLine
  6
CONTINUOUS
 62
8
 10
129.025591
 20
160.545131
 11
177.865560
 21
160.545131
  0
ENDSEC
  0
EOF
