  0
SECTION
  2
HEADER
  9
$ACADVER
  1
AC1009
  9
$DWGCODEPAGE
  3
ansi_1252
  9
$INSBASE
 10
0.0
 20
0.0
 30
0.0
  9
$EXTMIN
 10
-943.0729375523122
 20
369.0715659410928
 30
75.0810541665491
  9
$EXTMAX
 10
-638.268560992178
 20
673.8759425012271
 30
80.6810541665492
  9
$LIMMIN
 10
0.0
 20
0.0
  9
$LIMMAX
 10
12.0
 20
9.0
  9
$ORTHOMODE
 70
     0
  9
$REGENMODE
 70
     1
  9
$FILLMODE
 70
     1
  9
$QTEXTMODE
 70
     0
  9
$MIRRTEXT
 70
     1
  9
$DRAGMODE
 70
     2
  9
$LTSCALE
 40
1.0
  9
$OSMODE
 70
    37
  9
$ATTMODE
 70
     1
  9
$TEXTSIZE
 40
0.2
  9
$TRACEWID
 40
0.05
  9
$TEXTSTYLE
  7
STANDARD
  9
$CLAYER
  8
DEFAULT
  9
$CELTYPE
  6
BYLAYER
  9
$CECOLOR
 62
   256
  9
$DIMSCALE
 40
1.0
  9
$DIMASZ
 40
0.18
  9
$DIMEXO
 40
0.0625
  9
$DIMDLI
 40
0.38
  9
$DIMRND
 40
0.0
  9
$DIMDLE
 40
0.0
  9
$DIMEXE
 40
0.18
  9
$DIMTP
 40
0.0
  9
$DIMTM
 40
0.0
  9
$DIMTXT
 40
0.18
  9
$DIMCEN
 40
0.09
  9
$DIMTSZ
 40
0.0
  9
$DIMTOL
 70
     0
  9
$DIMLIM
 70
     0
  9
$DIMTIH
 70
     1
  9
$DIMTOH
 70
     1
  9
$DIMSE1
 70
     0
  9
$DIMSE2
 70
     0
  9
$DIMTAD
 70
     0
  9
$DIMZIN
 70
     0
  9
$DIMBLK
  1

  9
$DIMASO
 70
     1
  9
$DIMSHO
 70
     1
  9
$DIMPOST
  1

  9
$DIMAPOST
  1

  9
$DIMALT
 70
     0
  9
$DIMALTD
 70
     2
  9
$DIMALTF
 40
25.4
  9
$DIMLFAC
 40
1.0
  9
$DIMTOFL
 70
     0
  9
$DIMTVP
 40
0.0
  9
$DIMTIX
 70
     0
  9
$DIMSOXD
 70
     0
  9
$DIMSAH
 70
     0
  9
$DIMBLK1
  1

  9
$DIMBLK2
  1

  9
$DIMSTYLE
  2
STANDARD
  9
$DIMCLRD
 70
     0
  9
$DIMCLRE
 70
     0
  9
$DIMCLRT
 70
     0
  9
$DIMTFAC
 40
1.0
  9
$DIMGAP
 40
0.09
  9
$LUNITS
 70
     2
  9
$LUPREC
 70
     2
  9
$SKETCHINC
 40
0.1
  9
$FILLETRAD
 40
0.5
  9
$AUNITS
 70
     0
  9
$AUPREC
 70
     0
  9
$MENU
  1
.
  9
$ELEVATION
 40
0.0
  9
$PELEVATION
 40
0.0
  9
$THICKNESS
 40
0.0
  9
$LIMCHECK
 70
     0
  9
$CHAMFERA
 40
0.5
  9
$CHAMFERB
 40
0.5
  9
$SKPOLY
 70
     0
  9
$TDCREATE
 40
2456067.799235926
  9
$TDUPDATE
 40
2456067.799235938
  9
$TDINDWG
 40
0.0000000116
  9
$TDUSRTIMER
 40
0.0000000116
  9
$USRTIMER
 70
     1
  9
$ANGBASE
 50
0.0
  9
$ANGDIR
 70
     0
  9
$PDMODE
 70
     0
  9
$PDSIZE
 40
0.0
  9
$PLINEWID
 40
0.0
  9
$COORDS
 70
     1
  9
$SPLFRAME
 70
     0
  9
$SPLINETYPE
 70
     6
  9
$SPLINESEGS
 70
     8
  9
$ATTDIA
 70
     0
  9
$ATTREQ
 70
     1
  9
$HANDLING
 70
     1
  9
$HANDSEED
  5
11F
  9
$SURFTAB1
 70
     6
  9
$SURFTAB2
 70
     6
  9
$SURFTYPE
 70
     6
  9
$SURFU
 70
     6
  9
$SURFV
 70
     6
  9
$UCSNAME
  2

  9
$UCSORG
 10
0.0
 20
0.0
 30
0.0
  9
$UCSXDIR
 10
1.0
 20
0.0
 30
0.0
  9
$UCSYDIR
 10
0.0
 20
1.0
 30
0.0
  9
$PUCSNAME
  2

  9
$PUCSORG
 10
0.0
 20
0.0
 30
0.0
  9
$PUCSXDIR
 10
1.0
 20
0.0
 30
0.0
  9
$PUCSYDIR
 10
0.0
 20
1.0
 30
0.0
  9
$USERI1
 70
     0
  9
$USERI2
 70
     0
  9
$USERI3
 70
     0
  9
$USERI4
 70
     0
  9
$USERI5
 70
     0
  9
$USERR1
 40
0.0
  9
$USERR2
 40
0.0
  9
$USERR3
 40
0.0
  9
$USERR4
 40
0.0
  9
$USERR5
 40
0.0
  9
$WORLDVIEW
 70
     1
  9
$SHADEDGE
 70
     3
  9
$SHADEDIF
 70
    70
  9
$TILEMODE
 70
     1
  9
$MAXACTVP
 70
    64
  9
$PLIMCHECK
 70
     0
  9
$PEXTMIN
 10
1.000000000000000E+20
 20
1.000000000000000E+20
 30
1.000000000000000E+20
  9
$PEXTMAX
 10
-1.000000000000000E+20
 20
-1.000000000000000E+20
 30
-1.000000000000000E+20
  9
$PLIMMIN
 10
0.0
 20
0.0
  9
$PLIMMAX
 10
12.0
 20
9.0
  9
$UNITMODE
 70
     0
  9
$VISRETAIN
 70
     1
  9
$PLINEGEN
 70
     0
  9
$PSLTSCALE
 70
     1
  0
ENDSEC
  0
SECTION
  2
TABLES
  0
TABLE
  2
VPORT
 70
     1
  0
VPORT
  2
*ACTIVE
 70
     0
 10
0.0
 20
0.0
 11
1.0
 21
1.0
 12
0.0
 22
0.0
 13
0.0
 23
0.0
 14
0.5
 24
0.5
 15
0.5
 25
0.5
 16
0.0
 26
0.0
 36
1.0
 17
-790.6707492722451
 27
521.4737542211599
 37
0.0
 40
310.9004640913369
 41
0.9999999999999998
 42
50.0
 43
0.0
 44
0.0
 50
0.0
 51
0.0
 71
     0
 72
   100
 73
     1
 74
     3
 75
     0
 76
     0
 77
     0
 78
     0
  0
ENDTAB
  0
TABLE
  2
LTYPE
 70
     1
  0
LTYPE
  2
CONTINUOUS
 70
     0
  3
Solid line
 72
    65
 73
     0
 40
0.0
  0
ENDTAB
  0
TABLE
  2
LAYER
 70
     2
  0
LAYER
  2
0
 70
     0
 62
     7
  6
CONTINUOUS
  0
LAYER
  2
DEFAULT
 70
     0
 62
     7
  6
CONTINUOUS
  0
ENDTAB
  0
TABLE
  2
STYLE
 70
     1
  0
STYLE
  2
STANDARD
 70
     0
 40
0.0
 41
1.0
 50
0.0
 71
     0
 42
0.2
  3
txt
  4

  0
ENDTAB
  0
TABLE
  2
VIEW
 70
     0
  0
ENDTAB
  0
TABLE
  2
UCS
 70
     0
  0
ENDTAB
  0
TABLE
  2
APPID
 70
     1
  0
APPID
  2
ACAD
 70
     0
  0
ENDTAB
  0
TABLE
  2
DIMSTYLE
 70
     1
  0
DIMSTYLE
  2
STANDARD
 70
     0
  3

  4

  5

  6

  7

 40
1.0
 41
0.18
 42
0.0625
 43
0.38
 44
0.18
 45
0.0
 46
0.0
 47
0.0
 48
0.0
140
0.18
141
0.09
142
0.0
143
25.4
144
1.0
145
0.0
146
1.0
147
0.09
 71
     0
 72
     0
 73
     1
 74
     1
 75
     0
 76
     0
 77
     0
 78
     0
170
     0
171
     2
172
     0
173
     0
174
     0
175
     0
176
     0
177
     0
178
     0
  0
ENDTAB
  0
ENDSEC
  0
SECTION
  2
BLOCKS
  0
BLOCK
  8
0
  2
$MODEL_SPACE
 70
     0
 10
0.0
 20
0.0
 30
0.0
  3
$MODEL_SPACE
  1

  0
ENDBLK
  5
21
  8
0
  0
BLOCK
 67
     1
  8
0
  2
$PAPER_SPACE
 70
     0
 10
0.0
 20
0.0
 30
0.0
  3
$PAPER_SPACE
  1

  0
ENDBLK
  5
1D
 67
     1
  8
0
  0
ENDSEC
  0
SECTION
  2
ENTITIES
  0
LINE
  5
2B
  8
DEFAULT
 10
-943.0685609607563
 20
369.0715659410928
 30
75.08105416654914
 11
-943.0729375523122
 21
673.8715659096713
 31
75.08105416654914
  0
LINE
  5
2C
  8
DEFAULT
 10
-943.0729375523122
 20
673.8715659096713
 30
75.08105416654914
 11
-638.2729375837337
 21
673.8759425012271
 31
75.08105416654914
  0
LINE
  5
2D
  8
DEFAULT
 10
-638.2729375837337
 20
673.8759425012271
 30
75.08105416654914
 11
-638.268560992178
 21
369.0759425326487
 31
75.08105416654914
  0
LINE
  5
2E
  8
DEFAULT
 10
-638.268560992178
 20
369.0759425326487
 30
75.08105416654914
 11
-943.0685609607563
 21
369.0715659410928
 31
75.08105416654914
  0
LINE
  5
2F
  8
DEFAULT
 10
-943.0685609607563
 20
369.0715659410928
 30
80.68105416654916
 11
-943.0729375523122
 21
673.8715659096713
 31
80.68105416654916
  0
LINE
  5
30
  8
DEFAULT
 10
-943.0729375523122
 20
673.8715659096713
 30
80.68105416654916
 11
-638.2729375837337
 21
673.8759425012271
 31
80.68105416654916
  0
LINE
  5
31
  8
DEFAULT
 10
-638.2729375837337
 20
673.8759425012271
 30
80.68105416654916
 11
-638.268560992178
 21
369.0759425326487
 31
80.68105416654916
  0
LINE
  5
32
  8
DEFAULT
 10
-638.268560992178
 20
369.0759425326487
 30
80.68105416654916
 11
-943.0685609607563
 21
369.0715659410928
 31
80.68105416654916
  0
LINE
  5
33
  8
DEFAULT
 10
-943.0685609607563
 20
369.0715659410928
 30
75.08105416654914
 11
-943.0685609607563
 21
369.0715659410928
 31
80.68105416654916
  0
LINE
  5
34
  8
DEFAULT
 10
-943.0729375523122
 20
673.8715659096713
 30
75.08105416654914
 11
-943.0729375523122
 21
673.8715659096713
 31
80.68105416654916
  0
LINE
  5
35
  8
DEFAULT
 10
-638.2729375837337
 20
673.8759425012271
 30
75.08105416654914
 11
-638.2729375837337
 21
673.8759425012271
 31
80.68105416654916
  0
LINE
  5
36
  8
DEFAULT
 10
-638.268560992178
 20
369.0759425326487
 30
75.08105416654914
 11
-638.268560992178
 21
369.0759425326487
 31
80.68105416654916
  0
CIRCLE
  5
37
  8
DEFAULT
 10
-652.2478756914188
 20
639.2817108865809
 30
75.08105416654914
 40
3.174999999999823
  0
CIRCLE
  5
38
  8
DEFAULT
 10
-652.2478756914187
 20
639.2817108865808
 30
80.68105416654916
 40
3.17499999999994
  0
LINE
  5
39
  8
DEFAULT
 10
-655.4210769596941
 20
639.3885692555318
 30
80.68105416654916
 11
-655.4210769596941
 21
639.3885692555318
 31
75.08105416654914
  0
CIRCLE
  5
3A
  8
DEFAULT
 10
-925.0519940018708
 20
643.8718246674366
 30
75.08105416654914
 40
3.174999999999844
  0
CIRCLE
  5
3B
  8
DEFAULT
 10
-925.0519940018706
 20
643.8718246674359
 30
80.68105416654916
 40
3.17499999999973
  0
LINE
  5
3C
  8
DEFAULT
 10
-921.8769940021982
 20
643.8718702569316
 30
80.68105416654916
 11
-921.8769940021982
 21
643.8718702569316
 31
75.08105416654914
  0
CIRCLE
  5
3D
  8
DEFAULT
 10
-656.2895045426194
 20
399.0756837748838
 30
75.08105416654915
 40
3.174999999999844
  0
CIRCLE
  5
3E
  8
DEFAULT
 10
-656.2895045426194
 20
399.0756837748839
 30
80.68105416654916
 40
3.174999999999844
  0
LINE
  5
3F
  8
DEFAULT
 10
-659.4645045422919
 20
399.0756381853882
 30
80.68105416654916
 11
-659.4645045422919
 21
399.0756381853882
 31
75.08105416654914
  0
CIRCLE
  5
40
  8
DEFAULT
 10
-925.0484789440858
 20
399.0718246926724
 30
75.08105416654914
 40
3.17499999999973
  0
CIRCLE
  5
41
  8
DEFAULT
 10
-925.0484789440858
 20
399.0718246926724
 30
80.68105416654917
 40
3.17499999999973
  0
LINE
  5
42
  8
DEFAULT
 10
-921.8734789444134
 20
399.0718702821678
 30
80.68105416654916
 11
-921.8734789444134
 21
399.0718702821678
 31
75.08105416654914
  0
ARC
  5
43
  8
DEFAULT
 10
-776.2654614140879
 20
551.0673186428699
 30
75.08105416654911
 40
3.824999999999962
 50
227.6098941610788
 51
312.3917512472265
  0
LINE
  5
44
  8
DEFAULT
 10
-766.2654208512367
 20
548.2424622321229
 30
75.08105416654914
 11
-773.6866614588262
 21
548.2423556712995
 31
75.08105416654914
  0
LINE
  5
45
  8
DEFAULT
 10
-766.2655019790002
 20
553.8924622315404
 30
75.08105416654914
 11
-766.2654208512367
 21
548.2424622321229
 31
75.08105416654914
  0
LINE
  5
46
  8
DEFAULT
 10
-773.6867425865894
 20
553.8923556707169
 30
75.08105416654914
 11
-766.2655019790002
 21
553.8924622315404
 31
75.08105416654914
  0
ARC
  5
47
  8
DEFAULT
 10
-776.2654614140877
 20
551.0673186428692
 30
75.0810541665491
 40
3.82500000000055
 50
47.6098941610796
 51
132.3917512472185
  0
LINE
  5
48
  8
DEFAULT
 10
-786.2655019769384
 20
553.8921750536167
 30
75.08105416654914
 11
-778.8442613693492
 21
553.8922816144402
 31
75.08105416654914
  0
LINE
  5
49
  8
DEFAULT
 10
-786.2654208491751
 20
548.2421750541993
 30
75.08105416654914
 11
-786.2655019769384
 21
553.8921750536167
 31
75.08105416654914
  0
LINE
  5
4A
  8
DEFAULT
 10
-778.8441802415857
 20
548.2422816150225
 30
75.08105416654914
 11
-786.2654208491751
 21
548.2421750541993
 31
75.08105416654914
  0
ARC
  5
4B
  8
DEFAULT
 10
-776.2654614140879
 20
551.0673186428699
 30
80.68105416654903
 40
3.825000000000019
 50
227.6098941610788
 51
312.3917512472265
  0
LINE
  5
4C
  8
DEFAULT
 10
-773.6866614588262
 20
548.2423556712995
 30
80.68105416654916
 11
-766.2654208512367
 21
548.2424622321229
 31
80.68105416654916
  0
LINE
  5
4D
  8
DEFAULT
 10
-766.2654208512367
 20
548.2424622321229
 30
80.68105416654916
 11
-766.2655019790002
 21
553.8924622315404
 31
80.68105416654916
  0
LINE
  5
4E
  8
DEFAULT
 10
-766.2655019790002
 20
553.8924622315404
 30
80.68105416654916
 11
-773.6867425865894
 21
553.8923556707169
 31
80.68105416654916
  0
ARC
  5
4F
  8
DEFAULT
 10
-776.2654614140877
 20
551.0673186428692
 30
80.68105416654912
 40
3.825000000000661
 50
47.60989416107834
 51
132.3917512472186
  0
LINE
  5
50
  8
DEFAULT
 10
-778.8442613693492
 20
553.8922816144402
 30
80.68105416654916
 11
-786.2655019769384
 21
553.8921750536167
 31
80.68105416654916
  0
LINE
  5
51
  8
DEFAULT
 10
-786.2655019769384
 20
553.8921750536167
 30
80.68105416654916
 11
-786.2654208491751
 21
548.2421750541993
 31
80.68105416654916
  0
LINE
  5
52
  8
DEFAULT
 10
-786.2654208491751
 20
548.2421750541993
 30
80.68105416654916
 11
-778.8441802415857
 21
548.2422816150225
 31
80.68105416654916
  0
LINE
  5
53
  8
DEFAULT
 10
-778.8441802415857
 20
548.2422816150225
 30
75.08105416654914
 11
-778.8441802415857
 21
548.2422816150225
 31
80.68105416654916
  0
LINE
  5
54
  8
DEFAULT
 10
-773.6866614588262
 20
548.2423556712995
 30
75.08105416654914
 11
-773.6866614588262
 21
548.2423556712995
 31
80.68105416654916
  0
LINE
  5
55
  8
DEFAULT
 10
-766.2654208512367
 20
548.2424622321229
 30
75.08105416654914
 11
-766.2654208512367
 21
548.2424622321229
 31
80.68105416654916
  0
LINE
  5
56
  8
DEFAULT
 10
-766.2655019790002
 20
553.8924622315404
 30
75.08105416654914
 11
-766.2655019790002
 21
553.8924622315404
 31
80.68105416654916
  0
LINE
  5
57
  8
DEFAULT
 10
-773.6867425865894
 20
553.8923556707169
 30
75.08105416654914
 11
-773.6867425865894
 21
553.8923556707169
 31
80.68105416654916
  0
LINE
  5
58
  8
DEFAULT
 10
-778.8442613693492
 20
553.8922816144402
 30
75.08105416654914
 11
-778.8442613693492
 21
553.8922816144402
 31
80.68105416654916
  0
LINE
  5
59
  8
DEFAULT
 10
-786.2655019769384
 20
553.8921750536167
 30
75.08105416654914
 11
-786.2655019769384
 21
553.8921750536167
 31
80.68105416654916
  0
LINE
  5
5A
  8
DEFAULT
 10
-786.2654208491751
 20
548.2421750541993
 30
75.08105416654914
 11
-786.2654208491751
 21
548.2421750541993
 31
80.68105416654916
  0
ARC
  5
5B
  8
DEFAULT
 10
-805.2312865586914
 20
551.0669027255932
 30
75.08105416654912
 40
3.824999999999389
 50
227.609894161072
 51
312.3917512472298
  0
LINE
  5
5C
  8
DEFAULT
 10
-795.2312459958405
 20
548.2420463148468
 30
75.08105416654914
 11
-802.6524866034299
 21
548.2419397540235
 31
75.08105416654914
  0
LINE
  5
5D
  8
DEFAULT
 10
-795.2313271236039
 20
553.8920463142642
 30
75.08105416654914
 11
-795.2312459958405
 21
548.2420463148468
 31
75.08105416654914
  0
LINE
  5
5E
  8
DEFAULT
 10
-802.6525677311931
 20
553.8919397534407
 30
75.08105416654914
 11
-795.2313271236039
 21
553.8920463142642
 31
75.08105416654914
  0
ARC
  5
5F
  8
DEFAULT
 10
-805.2312865586912
 20
551.0669027255936
 30
75.0810541665491
 40
3.825000000000129
 50
47.60989416107386
 51
132.3917512472242
  0
LINE
  5
60
  8
DEFAULT
 10
-815.2313271215421
 20
553.8917591363407
 30
75.08105416654914
 11
-807.8100865139527
 21
553.8918656971641
 31
75.08105416654914
  0
LINE
  5
61
  8
DEFAULT
 10
-815.2312459937787
 20
548.2417591369232
 30
75.08105416654914
 11
-815.2313271215421
 21
553.8917591363407
 31
75.08105416654914
  0
LINE
  5
62
  8
DEFAULT
 10
-807.8100053861892
 20
548.2418656977466
 30
75.08105416654914
 11
-815.2312459937787
 21
548.2417591369232
 31
75.08105416654914
  0
ARC
  5
63
  8
DEFAULT
 10
-805.2312865586914
 20
551.0669027255932
 30
80.68105416654903
 40
3.824999999999515
 50
227.6098941610719
 51
312.3917512472298
  0
LINE
  5
64
  8
DEFAULT
 10
-802.6524866034299
 20
548.2419397540235
 30
80.68105416654916
 11
-795.2312459958405
 21
548.2420463148468
 31
80.68105416654916
  0
LINE
  5
65
  8
DEFAULT
 10
-795.2312459958405
 20
548.2420463148468
 30
80.68105416654916
 11
-795.2313271236039
 21
553.8920463142642
 31
80.68105416654916
  0
LINE
  5
66
  8
DEFAULT
 10
-795.2313271236039
 20
553.8920463142642
 30
80.68105416654916
 11
-802.6525677311931
 21
553.8919397534407
 31
80.68105416654916
  0
ARC
  5
67
  8
DEFAULT
 10
-805.2312865586912
 20
551.0669027255936
 30
80.68105416654912
 40
3.825000000000004
 50
47.60989416107396
 51
132.3917512472254
  0
LINE
  5
68
  8
DEFAULT
 10
-807.8100865139527
 20
553.8918656971641
 30
80.68105416654916
 11
-815.2313271215421
 21
553.8917591363407
 31
80.68105416654916
  0
LINE
  5
69
  8
DEFAULT
 10
-815.2313271215421
 20
553.8917591363407
 30
80.68105416654916
 11
-815.2312459937787
 21
548.2417591369232
 31
80.68105416654916
  0
LINE
  5
6A
  8
DEFAULT
 10
-815.2312459937787
 20
548.2417591369232
 30
80.68105416654916
 11
-807.8100053861892
 21
548.2418656977466
 31
80.68105416654916
  0
LINE
  5
6B
  8
DEFAULT
 10
-807.8100053861892
 20
548.2418656977466
 30
75.08105416654914
 11
-807.8100053861892
 21
548.2418656977466
 31
80.68105416654916
  0
LINE
  5
6C
  8
DEFAULT
 10
-802.6524866034299
 20
548.2419397540235
 30
75.08105416654914
 11
-802.6524866034299
 21
548.2419397540235
 31
80.68105416654916
  0
LINE
  5
6D
  8
DEFAULT
 10
-795.2312459958405
 20
548.2420463148468
 30
75.08105416654914
 11
-795.2312459958405
 21
548.2420463148468
 31
80.68105416654916
  0
LINE
  5
6E
  8
DEFAULT
 10
-795.2313271236039
 20
553.8920463142642
 30
75.08105416654914
 11
-795.2313271236039
 21
553.8920463142642
 31
80.68105416654916
  0
LINE
  5
6F
  8
DEFAULT
 10
-802.6525677311931
 20
553.8919397534407
 30
75.08105416654914
 11
-802.6525677311931
 21
553.8919397534407
 31
80.68105416654916
  0
LINE
  5
70
  8
DEFAULT
 10
-807.8100865139527
 20
553.8918656971641
 30
75.08105416654914
 11
-807.8100865139527
 21
553.8918656971641
 31
80.68105416654916
  0
LINE
  5
71
  8
DEFAULT
 10
-815.2313271215421
 20
553.8917591363407
 30
75.08105416654914
 11
-815.2313271215421
 21
553.8917591363407
 31
80.68105416654916
  0
LINE
  5
72
  8
DEFAULT
 10
-815.2312459937787
 20
548.2417591369232
 30
75.08105416654914
 11
-815.2312459937787
 21
548.2417591369232
 31
80.68105416654916
  0
ARC
  5
73
  8
DEFAULT
 10
-776.2650363907608
 20
521.4673186459211
 30
75.0810541665492
 40
3.824999999999801
 50
227.6098941610753
 51
312.3917512472265
  0
LINE
  5
74
  8
DEFAULT
 10
-766.2649958279098
 20
518.6424622351743
 30
75.08105416654914
 11
-773.6862364354993
 21
518.6423556743509
 31
75.08105416654914
  0
LINE
  5
75
  8
DEFAULT
 10
-766.2650769556733
 20
524.2924622345919
 30
75.08105416654914
 11
-766.2649958279098
 21
518.6424622351743
 31
75.08105416654914
  0
LINE
  5
76
  8
DEFAULT
 10
-773.6863175632625
 20
524.2923556737685
 30
75.08105416654914
 11
-766.2650769556733
 21
524.2924622345919
 31
75.08105416654914
  0
ARC
  5
77
  8
DEFAULT
 10
-776.2650363907607
 20
521.4673186459208
 30
75.0810541665491
 40
3.825000000000458
 50
47.60989416107844
 51
132.3917512472221
  0
LINE
  5
78
  8
DEFAULT
 10
-786.2650769536115
 20
524.2921750566683
 30
75.08105416654914
 11
-778.8438363460223
 21
524.2922816174917
 31
75.08105416654914
  0
LINE
  5
79
  8
DEFAULT
 10
-786.2649958258482
 20
518.6421750572507
 30
75.08105416654914
 11
-786.2650769536115
 21
524.2921750566683
 31
75.08105416654914
  0
LINE
  5
7A
  8
DEFAULT
 10
-778.8437552182586
 20
518.6422816180741
 30
75.08105416654914
 11
-786.2649958258482
 21
518.6421750572507
 31
75.08105416654914
  0
ARC
  5
7B
  8
DEFAULT
 10
-776.2650363907608
 20
521.4673186459211
 30
80.68105416654916
 40
3.824999999999767
 50
227.6098941610753
 51
312.3917512472265
  0
LINE
  5
7C
  8
DEFAULT
 10
-773.6862364354993
 20
518.6423556743509
 30
80.68105416654916
 11
-766.2649958279098
 21
518.6424622351743
 31
80.68105416654916
  0
LINE
  5
7D
  8
DEFAULT
 10
-766.2649958279098
 20
518.6424622351743
 30
80.68105416654916
 11
-766.2650769556733
 21
524.2924622345919
 31
80.68105416654916
  0
LINE
  5
7E
  8
DEFAULT
 10
-766.2650769556733
 20
524.2924622345919
 30
80.68105416654916
 11
-773.6863175632625
 21
524.2923556737685
 31
80.68105416654916
  0
ARC
  5
7F
  8
DEFAULT
 10
-776.2650363907605
 20
521.4673186459213
 30
80.68105416654912
 40
3.825000000000088
 50
47.60989416107512
 51
132.3917512472266
  0
LINE
  5
80
  8
DEFAULT
 10
-778.843836346022
 20
524.2922816174917
 30
80.68105416654916
 11
-786.2650769536115
 21
524.2921750566683
 31
80.68105416654916
  0
LINE
  5
81
  8
DEFAULT
 10
-786.2650769536115
 20
524.2921750566683
 30
80.68105416654916
 11
-786.2649958258482
 21
518.6421750572507
 31
80.68105416654916
  0
LINE
  5
82
  8
DEFAULT
 10
-786.2649958258482
 20
518.6421750572507
 30
80.68105416654916
 11
-778.8437552182586
 21
518.6422816180741
 31
80.68105416654916
  0
LINE
  5
83
  8
DEFAULT
 10
-778.8437552182586
 20
518.6422816180741
 30
75.08105416654914
 11
-778.8437552182586
 21
518.6422816180741
 31
80.68105416654916
  0
LINE
  5
84
  8
DEFAULT
 10
-773.6862364354993
 20
518.6423556743509
 30
75.08105416654914
 11
-773.6862364354993
 21
518.6423556743509
 31
80.68105416654916
  0
LINE
  5
85
  8
DEFAULT
 10
-766.2649958279098
 20
518.6424622351743
 30
75.08105416654914
 11
-766.2649958279098
 21
518.6424622351743
 31
80.68105416654916
  0
LINE
  5
86
  8
DEFAULT
 10
-766.2650769556733
 20
524.2924622345919
 30
75.08105416654914
 11
-766.2650769556733
 21
524.2924622345919
 31
80.68105416654916
  0
LINE
  5
87
  8
DEFAULT
 10
-773.6863175632625
 20
524.2923556737685
 30
75.08105416654914
 11
-773.6863175632625
 21
524.2923556737685
 31
80.68105416654916
  0
LINE
  5
88
  8
DEFAULT
 10
-778.8438363460223
 20
524.2922816174917
 30
75.08105416654914
 11
-778.843836346022
 21
524.2922816174917
 31
80.68105416654916
  0
LINE
  5
89
  8
DEFAULT
 10
-786.2650769536115
 20
524.2921750566683
 30
75.08105416654914
 11
-786.2650769536115
 21
524.2921750566683
 31
80.68105416654916
  0
LINE
  5
8A
  8
DEFAULT
 10
-786.2649958258482
 20
518.6421750572507
 30
75.08105416654914
 11
-786.2649958258482
 21
518.6421750572507
 31
80.68105416654916
  0
ARC
  5
8B
  8
DEFAULT
 10
-805.2308615353643
 20
521.4669027286451
 30
75.08105416654914
 40
3.824999999999892
 50
227.6098941610728
 51
312.3917512472229
  0
LINE
  5
8C
  8
DEFAULT
 10
-795.2308209725136
 20
518.6420463178982
 30
75.08105416654914
 11
-802.652061580103
 21
518.6419397570747
 31
75.08105416654914
  0
LINE
  5
8D
  8
DEFAULT
 10
-795.230902100277
 20
524.2920463173158
 30
75.08105416654914
 11
-795.2308209725136
 21
518.6420463178982
 31
75.08105416654914
  0
LINE
  5
8E
  8
DEFAULT
 10
-802.6521427078662
 20
524.2919397564923
 30
75.08105416654914
 11
-795.230902100277
 21
524.2920463173158
 31
75.08105416654914
  0
ARC
  5
8F
  8
DEFAULT
 10
-805.2308615353643
 20
521.466902728645
 30
75.0810541665491
 40
3.825000000000214
 50
47.609894161075
 51
132.3917512472231
  0
LINE
  5
90
  8
DEFAULT
 10
-815.2309020982152
 20
524.2917591393921
 30
75.08105416654914
 11
-807.8096614906258
 21
524.2918657002156
 31
75.08105416654914
  0
LINE
  5
91
  8
DEFAULT
 10
-815.2308209704518
 20
518.6417591399745
 30
75.08105416654914
 11
-815.2309020982152
 21
524.2917591393921
 31
75.08105416654914
  0
LINE
  5
92
  8
DEFAULT
 10
-807.8095803628623
 20
518.641865700798
 30
75.08105416654914
 11
-815.2308209704518
 21
518.6417591399745
 31
75.08105416654914
  0
ARC
  5
93
  8
DEFAULT
 10
-805.2308615353643
 20
521.4669027286451
 30
80.68105416654916
 40
3.825000000000004
 50
227.609894161074
 51
312.3917512472217
  0
LINE
  5
94
  8
DEFAULT
 10
-802.652061580103
 20
518.6419397570747
 30
80.68105416654916
 11
-795.2308209725136
 21
518.6420463178982
 31
80.68105416654916
  0
LINE
  5
95
  8
DEFAULT
 10
-795.2308209725136
 20
518.6420463178982
 30
80.68105416654916
 11
-795.230902100277
 21
524.2920463173158
 31
80.68105416654916
  0
LINE
  5
96
  8
DEFAULT
 10
-795.230902100277
 20
524.2920463173158
 30
80.68105416654916
 11
-802.6521427078662
 21
524.2919397564923
 31
80.68105416654916
  0
ARC
  5
97
  8
DEFAULT
 10
-805.2308615353643
 20
521.466902728645
 30
80.68105416654912
 40
3.825000000000172
 50
47.60989416107627
 51
132.3917512472218
  0
LINE
  5
98
  8
DEFAULT
 10
-807.8096614906258
 20
524.2918657002156
 30
80.68105416654916
 11
-815.2309020982152
 21
524.2917591393921
 31
80.68105416654916
  0
LINE
  5
99
  8
DEFAULT
 10
-815.2309020982152
 20
524.2917591393921
 30
80.68105416654916
 11
-815.2308209704518
 21
518.6417591399745
 31
80.68105416654916
  0
LINE
  5
9A
  8
DEFAULT
 10
-815.2308209704518
 20
518.6417591399745
 30
80.68105416654916
 11
-807.8095803628623
 21
518.641865700798
 31
80.68105416654916
  0
LINE
  5
9B
  8
DEFAULT
 10
-807.8095803628623
 20
518.641865700798
 30
75.08105416654914
 11
-807.8095803628623
 21
518.641865700798
 31
80.68105416654916
  0
LINE
  5
9C
  8
DEFAULT
 10
-802.652061580103
 20
518.6419397570747
 30
75.08105416654914
 11
-802.652061580103
 21
518.6419397570747
 31
80.68105416654916
  0
LINE
  5
9D
  8
DEFAULT
 10
-795.2308209725136
 20
518.6420463178982
 30
75.08105416654914
 11
-795.2308209725136
 21
518.6420463178982
 31
80.68105416654916
  0
LINE
  5
9E
  8
DEFAULT
 10
-795.230902100277
 20
524.2920463173158
 30
75.08105416654914
 11
-795.230902100277
 21
524.2920463173158
 31
80.68105416654916
  0
LINE
  5
9F
  8
DEFAULT
 10
-802.6521427078662
 20
524.2919397564923
 30
75.08105416654914
 11
-802.6521427078662
 21
524.2919397564923
 31
80.68105416654916
  0
LINE
  5
A0
  8
DEFAULT
 10
-807.8096614906258
 20
524.2918657002156
 30
75.08105416654914
 11
-807.8096614906258
 21
524.2918657002156
 31
80.68105416654916
  0
LINE
  5
A1
  8
DEFAULT
 10
-815.2309020982152
 20
524.2917591393921
 30
75.08105416654914
 11
-815.2309020982152
 21
524.2917591393921
 31
80.68105416654916
  0
LINE
  5
A2
  8
DEFAULT
 10
-815.2308209704518
 20
518.6417591399745
 30
75.08105416654914
 11
-815.2308209704518
 21
518.6417591399745
 31
80.68105416654916
  0
CIRCLE
  5
A3
  8
DEFAULT
 10
-925.0852449784477
 20
440.922446513084
 30
75.08105416654912
 40
3.175000000000189
  0
CIRCLE
  5
A4
  8
DEFAULT
 10
-925.0852449784478
 20
440.9224465130844
 30
80.68105416654916
 40
3.175000000000075
  0
LINE
  5
A5
  8
DEFAULT
 10
-928.2602446788073
 20
440.9238259032891
 30
80.68105416654916
 11
-928.2602446788073
 21
440.9238259032891
 31
75.08105416654914
  0
CIRCLE
  5
A6
  8
DEFAULT
 10
-925.0513939392479
 20
602.081521640402
 30
75.08105416654915
 40
3.175000000000298
  0
CIRCLE
  5
A7
  8
DEFAULT
 10
-925.0513939392481
 20
602.0815216404011
 30
80.68105416654917
 40
3.175000000000071
  0
LINE
  5
A8
  8
DEFAULT
 10
-928.2263939389209
 20
602.0814760509062
 30
80.68105416654916
 11
-928.2263939389209
 21
602.0814760509062
 31
75.08105416654914
  0
CIRCLE
  5
A9
  8
DEFAULT
 10
-656.2912619853216
 20
521.4696812016921
 30
75.08105416654915
 40
3.174999999999844
  0
CIRCLE
  5
AA
  8
DEFAULT
 10
-656.2912619853219
 20
521.4696812016927
 30
80.68105416654916
 40
3.175000000000071
  0
LINE
  5
AB
  8
DEFAULT
 10
-653.1162619856491
 20
521.4697267911877
 30
80.68105416654916
 11
-653.1162619856491
 21
521.4697267911877
 31
75.08105416654914
  0
CIRCLE
  5
AC
  8
DEFAULT
 10
-656.2924195377817
 20
602.0853807226126
 30
75.08105416654914
 40
3.174999999999957
  0
CIRCLE
  5
AD
  8
DEFAULT
 10
-656.2924195377817
 20
602.0853807226131
 30
80.68105416654915
 40
3.174999999999957
  0
LINE
  5
AE
  8
DEFAULT
 10
-653.1174195381091
 20
602.0854263121081
 30
80.68105416654916
 11
-653.1174195381091
 21
602.0854263121081
 31
75.08105416654914
  0
CIRCLE
  5
AF
  8
DEFAULT
 10
-656.2901046052418
 20
440.8659868019181
 30
75.08105416654914
 40
3.175000000000071
  0
CIRCLE
  5
B0
  8
DEFAULT
 10
-656.2901046052418
 20
440.8659868019185
 30
80.68105416654915
 40
3.175000000000071
  0
LINE
  5
B1
  8
DEFAULT
 10
-653.1151046055691
 20
440.8660323914137
 30
80.68105416654916
 11
-653.1151046055691
 21
440.8660323914137
 31
75.08105416654914
  0
CIRCLE
  5
B2
  8
DEFAULT
 10
-925.0502363867882
 20
521.4658221194808
 30
75.08105416654915
 40
3.17499999999973
  0
CIRCLE
  5
B3
  8
DEFAULT
 10
-925.0502363867879
 20
521.465822119481
 30
80.68105416654916
 40
3.175000000000071
  0
LINE
  5
B4
  8
DEFAULT
 10
-928.2252363864607
 20
521.4657765299856
 30
80.68105416654916
 11
-928.2252363864607
 21
521.4657765299856
 31
75.08105416654914
  0
CIRCLE
  5
B5
  8
DEFAULT
 10
-656.2930196004041
 20
570.8756837496476
 30
75.08105416654912
 40
3.174999999999841
  0
CIRCLE
  5
B6
  8
DEFAULT
 10
-656.2930196004041
 20
570.8756837496475
 30
80.68105416654915
 40
3.174999999999841
  0
LINE
  5
B7
  8
DEFAULT
 10
-659.468019600404
 20
570.8756837496475
 30
80.68105416654916
 11
-659.468019600404
 21
570.8756837496475
 31
75.08105416654914
  0
CIRCLE
  5
B8
  8
DEFAULT
 10
-925.0484789440858
 20
570.8756837496476
 30
75.08105416654915
 40
3.174999999999841
  0
CIRCLE
  5
B9
  8
DEFAULT
 10
-925.048478944086
 20
570.8756837496477
 30
80.68105416654915
 40
3.175000000000068
  0
LINE
  5
BA
  8
DEFAULT
 10
-921.873478944086
 20
570.8756837496475
 30
80.68105416654916
 11
-921.873478944086
 21
570.8756837496475
 31
75.08105416654914
  0
CIRCLE
  5
BB
  8
DEFAULT
 10
-656.2930196004043
 20
472.0718246926723
 30
75.08105416654915
 40
3.174999999999727
  0
CIRCLE
  5
BC
  8
DEFAULT
 10
-656.2930196004041
 20
472.0718246926724
 30
80.68105416654917
 40
3.174999999999841
  0
LINE
  5
BD
  8
DEFAULT
 10
-659.468019600404
 20
472.0718246926724
 30
80.68105416654916
 11
-659.468019600404
 21
472.0718246926724
 31
75.08105416654914
  0
CIRCLE
  5
BE
  8
DEFAULT
 10
-925.0484789440859
 20
472.0718246926724
 30
75.08105416654914
 40
3.174999999999955
  0
CIRCLE
  5
BF
  8
DEFAULT
 10
-925.048478944086
 20
472.0718246926727
 30
80.68105416654917
 40
3.175000000000068
  0
LINE
  5
C0
  8
DEFAULT
 10
-921.873478944086
 20
472.0718246926724
 30
80.68105416654916
 11
-921.873478944086
 21
472.0718246926724
 31
75.08105416654914
  0
LINE
  5
C1
  8
DEFAULT
 10
-943.0685609607563
 20
369.0715659410928
 30
77.88105416654915
 11
-943.0729375523122
 21
673.8715659096713
 31
77.88105416654915
  0
LINE
  5
C2
  8
DEFAULT
 10
-943.0707492565342
 20
521.471565925382
 30
75.08105416654914
 11
-943.0707492565342
 21
521.471565925382
 31
80.68105416654916
  0
LINE
  5
C3
  8
DEFAULT
 10
-943.0729375523122
 20
673.8715659096713
 30
77.88105416654915
 11
-638.2729375837337
 21
673.8759425012271
 31
77.88105416654915
  0
LINE
  5
C4
  8
DEFAULT
 10
-790.6729375680229
 20
673.8737542054491
 30
75.08105416654914
 11
-790.6729375680229
 21
673.8737542054491
 31
80.68105416654916
  0
LINE
  5
C5
  8
DEFAULT
 10
-638.2729375837337
 20
673.8759425012271
 30
77.88105416654915
 11
-638.268560992178
 21
369.0759425326487
 31
77.88105416654915
  0
LINE
  5
C6
  8
DEFAULT
 10
-638.2707492879558
 20
521.475942516938
 30
75.08105416654914
 11
-638.2707492879558
 21
521.475942516938
 31
80.68105416654916
  0
LINE
  5
C7
  8
DEFAULT
 10
-638.268560992178
 20
369.0759425326487
 30
77.88105416654915
 11
-943.0685609607563
 21
369.0715659410928
 31
77.88105416654915
  0
LINE
  5
C8
  8
DEFAULT
 10
-790.6685609764671
 20
369.0737542368707
 30
75.08105416654914
 11
-790.6685609764671
 21
369.0737542368707
 31
80.68105416654916
  0
LINE
  5
C9
  8
DEFAULT
 10
-943.0707492565342
 20
521.471565925382
 30
75.08105416654914
 11
-928.225230789991
 21
521.4717790906404
 31
75.08105416654914
  0
LINE
  5
CA
  8
DEFAULT
 10
-921.8752421546425
 20
521.471870269468
 30
75.08105416654914
 11
-815.2308616297114
 21
521.4734015650564
 31
75.08105416654914
  0
LINE
  5
CB
  8
DEFAULT
 10
-795.2308616317731
 20
521.4736887429799
 30
75.08105416654914
 11
-786.2650364851078
 21
521.4738174823325
 31
75.08105416654914
  0
LINE
  5
CC
  8
DEFAULT
 10
-766.2650364871695
 20
521.4741046602561
 30
75.08105416654914
 11
-659.4662563898477
 21
521.475638172852
 31
75.08105416654914
  0
LINE
  5
CD
  8
DEFAULT
 10
-653.1162677544991
 20
521.4757293516795
 30
75.08105416654914
 11
-638.2707492879558
 21
521.475942516938
 31
75.08105416654914
  0
LINE
  5
CE
  8
DEFAULT
 10
-790.6685609764671
 20
369.0737542368707
 30
75.08105416654914
 11
-790.6729375680229
 21
673.8737542054491
 31
75.08105416654914
  0
LINE
  5
CF
  8
DEFAULT
 10
-790.6685609764671
 20
369.0737542368707
 30
80.68105416654916
 11
-790.6729375680229
 21
673.8737542054491
 31
80.68105416654916
  0
LINE
  5
D0
  8
DEFAULT
 10
-943.0707492565342
 20
521.471565925382
 30
80.68105416654916
 11
-928.225230789991
 21
521.4717790906404
 31
80.68105416654916
  0
LINE
  5
D1
  8
DEFAULT
 10
-921.8752421546425
 20
521.471870269468
 30
80.68105416654916
 11
-815.2308616297114
 21
521.4734015650564
 31
80.68105416654916
  0
LINE
  5
D2
  8
DEFAULT
 10
-795.2308616317731
 20
521.4736887429801
 30
80.68105416654916
 11
-786.2650364851078
 21
521.4738174823326
 31
80.68105416654916
  0
LINE
  5
D3
  8
DEFAULT
 10
-766.2650364871695
 20
521.4741046602561
 30
80.68105416654916
 11
-659.4662563898477
 21
521.475638172852
 31
80.68105416654916
  0
LINE
  5
D4
  8
DEFAULT
 10
-653.1162677544991
 20
521.4757293516795
 30
80.68105416654916
 11
-638.2707492879558
 21
521.475942516938
 31
80.68105416654916
  0
LINE
  5
D5
  8
DEFAULT
 10
-652.1410173224676
 20
642.4549121548565
 30
80.68105416654916
 11
-652.1410173224676
 21
642.4549121548565
 31
75.08105416654917
  0
LINE
  5
D6
  8
DEFAULT
 10
-649.074674423143
 20
639.1748525176301
 30
80.68105416654916
 11
-649.074674423143
 21
639.1748525176301
 31
75.08105416654917
  0
LINE
  5
D7
  8
DEFAULT
 10
-652.3547340603694
 20
636.1085096183053
 30
80.68105416654916
 11
-652.3547340603694
 21
636.1085096183053
 31
75.08105416654917
  0
LINE
  5
D8
  8
DEFAULT
 10
-925.0520395913661
 20
647.0468246671087
 30
80.68105416654916
 11
-925.0520395913661
 21
647.0468246671087
 31
75.08105416654917
  0
LINE
  5
D9
  8
DEFAULT
 10
-928.2269940015433
 20
643.8717790779409
 30
80.68105416654916
 11
-928.2269940015433
 21
643.8717790779409
 31
75.08105416654917
  0
LINE
  5
DA
  8
DEFAULT
 10
-925.0519484123753
 20
640.6968246677637
 30
80.68105416654916
 11
-925.0519484123753
 21
640.6968246677637
 31
75.08105416654917
  0
LINE
  5
DB
  8
DEFAULT
 10
-656.2894589531238
 20
395.9006837752113
 30
80.68105416654916
 11
-656.2894589531238
 21
395.9006837752113
 31
75.08105416654917
  0
LINE
  5
DC
  8
DEFAULT
 10
-653.1145045429469
 20
399.0757293643794
 30
80.68105416654916
 11
-653.1145045429469
 21
399.0757293643794
 31
75.08105416654917
  0
LINE
  5
DD
  8
DEFAULT
 10
-656.289550132115
 20
402.2506837745564
 30
80.68105416654916
 11
-656.289550132115
 21
402.2506837745564
 31
75.08105416654917
  0
LINE
  5
DE
  8
DEFAULT
 10
-925.0484333545905
 20
395.8968246929999
 30
80.68105416654916
 11
-925.0484333545905
 21
395.8968246929999
 31
75.08105416654917
  0
LINE
  5
DF
  8
DEFAULT
 10
-928.2234789437584
 20
399.0717791031771
 30
80.68105416654916
 11
-928.2234789437584
 21
399.0717791031771
 31
75.08105416654917
  0
LINE
  5
E0
  8
DEFAULT
 10
-925.0485245335813
 20
402.2468246923449
 30
80.68105416654916
 11
-925.0485245335813
 21
402.2468246923449
 31
75.08105416654917
  0
LINE
  5
E1
  8
DEFAULT
 10
-776.2654064913099
 20
547.2423186432642
 30
75.08105416654914
 11
-776.2654064913099
 21
547.2423186432641
 31
80.68105416654916
  0
LINE
  5
E2
  8
DEFAULT
 10
-769.9760411550313
 20
548.2424089517102
 30
75.08105416654911
 11
-769.9760411550313
 21
548.2424089517102
 31
80.68105416654913
  0
LINE
  5
E3
  8
DEFAULT
 10
-766.2654614151193
 20
551.0674622318306
 30
75.08105416654911
 11
-766.2654614151193
 21
551.0674622318307
 31
80.68105416654913
  0
LINE
  5
E4
  8
DEFAULT
 10
-769.9761222827947
 20
553.8924089511275
 30
75.08105416654912
 11
-769.9761222827947
 21
553.8924089511275
 31
80.68105416654913
  0
LINE
  5
E5
  8
DEFAULT
 10
-776.2655163368653
 20
554.8923186424755
 30
75.08105416654912
 11
-776.2655163368653
 21
554.8923186424754
 31
80.68105416654913
  0
LINE
  5
E6
  8
DEFAULT
 10
-782.5548816731445
 20
553.8922283340295
 30
75.08105416654917
 11
-782.5548816731445
 21
553.8922283340295
 31
80.68105416654913
  0
LINE
  5
E7
  8
DEFAULT
 10
-786.2654614130574
 20
551.067175053908
 30
75.08105416654917
 11
-786.2654614130574
 21
551.067175053908
 31
80.68105416654913
  0
LINE
  5
E8
  8
DEFAULT
 10
-782.5548005453807
 20
548.242228334611
 30
75.08105416654914
 11
-782.5548005453807
 21
548.2422283346111
 31
80.68105416654913
  0
LINE
  5
E9
  8
DEFAULT
 10
-805.2312316359137
 20
547.2419027259881
 30
75.08105416654917
 11
-805.2312316359137
 21
547.2419027259881
 31
80.68105416654916
  0
LINE
  5
EA
  8
DEFAULT
 10
-798.9418662996343
 20
548.2419930344364
 30
75.08105416654912
 11
-798.9418662996343
 21
548.2419930344364
 31
80.68105416654916
  0
LINE
  5
EB
  8
DEFAULT
 10
-795.2312865597224
 20
551.0670463145567
 30
75.08105416654917
 11
-795.2312865597224
 21
551.0670463145567
 31
80.6810541665492
  0
LINE
  5
EC
  8
DEFAULT
 10
-798.9419474273976
 20
553.891993033854
 30
75.08105416654917
 11
-798.9419474273976
 21
553.891993033854
 31
80.68105416654917
  0
LINE
  5
ED
  8
DEFAULT
 10
-805.2313414814688
 20
554.8919027251993
 30
75.08105416654912
 11
-805.2313414814688
 21
554.8919027251993
 31
80.68105416654913
  0
LINE
  5
EE
  8
DEFAULT
 10
-811.5207068177481
 20
553.8918124167524
 30
75.08105416654914
 11
-811.5207068177481
 21
553.8918124167524
 31
80.6810541665492
  0
LINE
  5
EF
  8
DEFAULT
 10
-815.2312865576604
 20
551.066759136632
 30
75.08105416654915
 11
-815.2312865576604
 21
551.066759136632
 31
80.6810541665492
  0
LINE
  5
F0
  8
DEFAULT
 10
-811.5206256899846
 20
548.2418124173348
 30
75.08105416654914
 11
-811.5206256899846
 21
548.2418124173348
 31
80.68105416654917
  0
LINE
  5
F1
  8
DEFAULT
 10
-776.2649814679833
 20
517.6423186463156
 30
75.08105416654917
 11
-776.2649814679833
 21
517.6423186463156
 31
80.68105416654916
  0
LINE
  5
F2
  8
DEFAULT
 10
-769.9756161317044
 20
518.6424089547615
 30
75.08105416654912
 11
-769.9756161317044
 21
518.6424089547615
 31
80.68105416654913
  0
LINE
  5
F3
  8
DEFAULT
 10
-766.2650363917924
 20
521.467462234882
 30
75.08105416654917
 11
-766.2650363917924
 21
521.467462234882
 31
80.68105416654917
  0
LINE
  5
F4
  8
DEFAULT
 10
-769.9756972594678
 20
524.2924089541791
 30
75.08105416654914
 11
-769.9756972594678
 21
524.2924089541791
 31
80.68105416654916
  0
LINE
  5
F5
  8
DEFAULT
 10
-776.2650913135382
 20
525.2923186455272
 30
75.08105416654912
 11
-776.2650913135382
 21
525.2923186455272
 31
80.68105416654913
  0
LINE
  5
F6
  8
DEFAULT
 10
-782.5544566498176
 20
524.2922283370799
 30
75.08105416654911
 11
-782.5544566498176
 21
524.2922283370799
 31
80.68105416654916
  0
LINE
  5
F7
  8
DEFAULT
 10
-786.2650363897305
 20
521.4671750569595
 30
75.08105416654911
 11
-786.2650363897305
 21
521.4671750569595
 31
80.68105416654917
  0
LINE
  5
F8
  8
DEFAULT
 10
-782.5543755220536
 20
518.6422283376623
 30
75.08105416654914
 11
-782.5543755220536
 21
518.6422283376623
 31
80.68105416654919
  0
LINE
  5
F9
  8
DEFAULT
 10
-805.230806612587
 20
517.6419027290395
 30
75.08105416654914
 11
-805.230806612587
 21
517.6419027290395
 31
80.68105416654915
  0
LINE
  5
FA
  8
DEFAULT
 10
-798.9414412763074
 20
518.6419930374877
 30
75.08105416654912
 11
-798.9414412763074
 21
518.6419930374877
 31
80.68105416654913
  0
LINE
  5
FB
  8
DEFAULT
 10
-795.2308615363955
 20
521.4670463176083
 30
75.08105416654912
 11
-795.2308615363955
 21
521.4670463176083
 31
80.68105416654916
  0
LINE
  5
FC
  8
DEFAULT
 10
-798.9415224040707
 20
524.2919930369051
 30
75.08105416654912
 11
-798.9415224040707
 21
524.2919930369051
 31
80.68105416654913
  0
LINE
  5
FD
  8
DEFAULT
 10
-805.2309164581428
 20
525.291902728251
 30
75.08105416654912
 11
-805.2309164581428
 21
525.291902728251
 31
80.68105416654913
  0
LINE
  5
FE
  8
DEFAULT
 10
-811.5202817944212
 20
524.2918124198038
 30
75.08105416654911
 11
-811.5202817944212
 21
524.2918124198038
 31
80.68105416654913
  0
LINE
  5
FF
  8
DEFAULT
 10
-815.2308615343335
 20
521.4667591396833
 30
75.08105416654912
 11
-815.2308615343335
 21
521.4667591396833
 31
80.68105416654916
  0
LINE
  5
100
  8
DEFAULT
 10
-811.5202006666577
 20
518.6418124203863
 30
75.08105416654914
 11
-811.5202006666577
 21
518.6418124203863
 31
80.68105416654916
  0
LINE
  5
101
  8
DEFAULT
 10
-925.0838655882428
 20
444.0974462134438
 30
80.68105416654916
 11
-925.0838655882428
 21
444.0974462134438
 31
75.08105416654915
  0
LINE
  5
102
  8
DEFAULT
 10
-921.910245278088
 20
440.9210671228793
 30
80.68105416654916
 11
-921.910245278088
 21
440.9210671228793
 31
75.08105416654915
  0
LINE
  5
103
  8
DEFAULT
 10
-925.0866243686526
 20
437.7474468127245
 30
80.68105416654917
 11
-925.0866243686526
 21
437.7474468127245
 31
75.08105416654915
  0
LINE
  5
104
  8
DEFAULT
 10
-925.0513483497527
 20
598.9065216407289
 30
80.68105416654916
 11
-925.0513483497527
 21
598.9065216407289
 31
75.08105416654915
  0
LINE
  5
105
  8
DEFAULT
 10
-921.8763939395753
 20
602.0815672298969
 30
80.68105416654916
 11
-921.8763939395753
 21
602.0815672298969
 31
75.08105416654915
  0
LINE
  5
106
  8
DEFAULT
 10
-925.0514395287436
 20
605.2565216400743
 30
80.68105416654916
 11
-925.0514395287436
 21
605.2565216400743
 31
75.08105416654915
  0
LINE
  5
107
  8
DEFAULT
 10
-656.2912163958265
 20
518.2946812020199
 30
80.68105416654916
 11
-656.2912163958265
 21
518.2946812020199
 31
75.08105416654915
  0
LINE
  5
108
  8
DEFAULT
 10
-659.4662619849942
 20
521.4696356121972
 30
80.68105416654916
 11
-659.4662619849942
 21
521.4696356121972
 31
75.08105416654915
  0
LINE
  5
109
  8
DEFAULT
 10
-656.2913075748169
 20
524.6446812013651
 30
80.68105416654917
 11
-656.2913075748169
 21
524.6446812013651
 31
75.08105416654915
  0
LINE
  5
10A
  8
DEFAULT
 10
-656.2923739482864
 20
598.9103807229404
 30
80.68105416654916
 11
-656.2923739482864
 21
598.9103807229404
 31
75.08105416654915
  0
LINE
  5
10B
  8
DEFAULT
 10
-659.4674195374541
 20
602.0853351331178
 30
80.68105416654916
 11
-659.4674195374541
 21
602.0853351331178
 31
75.08105416654915
  0
LINE
  5
10C
  8
DEFAULT
 10
-656.2924651272767
 20
605.2603807222854
 30
80.68105416654916
 11
-656.2924651272767
 21
605.2603807222854
 31
75.08105416654915
  0
LINE
  5
10D
  8
DEFAULT
 10
-656.2901501947372
 20
444.0409868015911
 30
80.68105416654916
 11
-656.2901501947372
 21
444.0409868015911
 31
75.08105416654915
  0
LINE
  5
10E
  8
DEFAULT
 10
-659.4651046049146
 20
440.865941212423
 30
80.68105416654916
 11
-659.4651046049146
 21
440.865941212423
 31
75.08105416654915
  0
LINE
  5
10F
  8
DEFAULT
 10
-656.2900590157465
 20
437.6909868022456
 30
80.68105416654917
 11
-656.2900590157465
 21
437.6909868022456
 31
75.08105416654915
  0
LINE
  5
110
  8
DEFAULT
 10
-925.0501907972927
 20
518.2908221198086
 30
80.68105416654916
 11
-925.0501907972927
 21
518.2908221198086
 31
75.08105416654915
  0
LINE
  5
111
  8
DEFAULT
 10
-921.8752363871156
 20
521.4658677089766
 30
80.68105416654916
 11
-921.8752363871156
 21
521.4658677089766
 31
75.08105416654915
  0
LINE
  5
112
  8
DEFAULT
 10
-925.0502819762836
 20
524.6408221191537
 30
80.68105416654917
 11
-925.0502819762836
 21
524.6408221191537
 31
75.08105416654915
  0
LINE
  5
113
  8
DEFAULT
 10
-656.2930196004041
 20
574.0506837496474
 30
80.68105416654916
 11
-656.2930196004041
 21
574.0506837496474
 31
75.08105416654915
  0
LINE
  5
114
  8
DEFAULT
 10
-653.1180196004041
 20
570.8756837496475
 30
80.68105416654916
 11
-653.1180196004041
 21
570.8756837496475
 31
75.08105416654914
  0
LINE
  5
115
  8
DEFAULT
 10
-656.293019600404
 20
567.7006837496476
 30
80.68105416654916
 11
-656.293019600404
 21
567.7006837496476
 31
75.08105416654914
  0
LINE
  5
116
  8
DEFAULT
 10
-925.0484789440859
 20
574.0506837496473
 30
80.68105416654916
 11
-925.0484789440859
 21
574.0506837496473
 31
75.08105416654914
  0
LINE
  5
117
  8
DEFAULT
 10
-928.2234789440859
 20
570.8756837496475
 30
80.68105416654916
 11
-928.2234789440859
 21
570.8756837496475
 31
75.08105416654914
  0
LINE
  5
118
  8
DEFAULT
 10
-925.0484789440858
 20
567.7006837496475
 30
80.68105416654916
 11
-925.0484789440858
 21
567.7006837496475
 31
75.08105416654912
  0
LINE
  5
119
  8
DEFAULT
 10
-656.293019600404
 20
468.8968246926725
 30
80.68105416654916
 11
-656.293019600404
 21
468.8968246926725
 31
75.08105416654914
  0
LINE
  5
11A
  8
DEFAULT
 10
-653.1180196004041
 20
472.0718246926724
 30
80.68105416654916
 11
-653.1180196004041
 21
472.0718246926724
 31
75.08105416654914
  0
LINE
  5
11B
  8
DEFAULT
 10
-656.293019600404
 20
475.2468246926724
 30
80.68105416654916
 11
-656.293019600404
 21
475.2468246926724
 31
75.08105416654912
  0
LINE
  5
11C
  8
DEFAULT
 10
-925.0484789440859
 20
468.8968246926725
 30
80.68105416654916
 11
-925.0484789440859
 21
468.8968246926725
 31
75.08105416654915
  0
LINE
  5
11D
  8
DEFAULT
 10
-928.2234789440859
 20
472.0718246926724
 30
80.68105416654916
 11
-928.2234789440859
 21
472.0718246926724
 31
75.08105416654914
  0
LINE
  5
11E
  8
DEFAULT
 10
-925.0484789440859
 20
475.2468246926724
 30
80.68105416654916
 11
-925.0484789440859
 21
475.2468246926724
 31
75.08105416654914
  0
ENDSEC
  0
EOF
