  0
SECTION
  2
HEADER
  9
$ACADVER
  1
AC1014
  9
$HANDSEED
  5
FFFF
  9
$MEASUREMENT
 70
     1
  0
ENDSEC
  0
SECTION
  2
TABLES
  0
TABLE
  2
VPORT
  5
8
330
0
100
AcDbSymbolTable
 70
     4
  0
VPORT
  5
2E
330
8
100
AcDbSymbolTableRecord
100
AcDbViewportTableRecord
  2
*ACTIVE
 70
     0
 10
0.0
 20
0.0
 11
1.0
 21
1.0
 12
210.0
 22
148.5
 13
0.0
 23
0.0
 14
10.0
 24
10.0
 15
10.0
 25
10.0
 16
0.0
 26
0.0
 36
1.0
 17
0.0
 27
0.0
 37
0.0
 40
341.0
 41
1.24
 42
50.0
 43
0.0
 44
0.0
 50
0.0
 51
0.0
 71
     0
 72
   100
 73
     1
 74
     3
 75
     0
 76
     0
 77
     0
 78
     0
  0
ENDTAB
  0
TABLE
  2
LTYPE
  5
5
330
0
100
AcDbSymbolTable
 70
     1
  0
LTYPE
  5
14
330
5
100
AcDbSymbolTableRecord
100
AcDbLinetypeTableRecord
  2
BYBLOCK
 70
     0
  3

 72
    65
 73
     0
 40
0.0
  0
LTYPE
  5
15
330
5
100
AcDbSymbolTableRecord
100
AcDbLinetypeTableRecord
  2
BYLAYER
 70
     0
  3

 72
    65
 73
     0
 40
0.0
  0
LTYPE
  5
16
330
5
100
AcDbSymbolTableRecord
100
AcDbLinetypeTableRecord
  2
CONTINUOUS
 70
     0
  3
Solid line
 72
    65
 73
     0
 40
0.0
  0
ENDTAB
  0
TABLE
  2
LAYER
  5
2
100
AcDbSymbolTable
 70
2
  0
LAYER
  5
50
100
AcDbSymbolTableRecord
100
AcDbLayerTableRecord
  2
0
 70
0
  6
CONTINUOUS
  0
LAYER
  5
51
100
AcDbSymbolTableRecord
100
AcDbLayerTableRecord
  2
Layer_1
 70
0
  6
CONTINUOUS
  0
ENDTAB
  0
TABLE
  2
STYLE
  5
3
330
0
100
AcDbSymbolTable
 70
     1
  0
STYLE
  5
11
330
3
100
AcDbSymbolTableRecord
100
AcDbTextStyleTableRecord
  2
STANDARD
 70
     0
 40
0.0
 41
1.0
 50
0.0
 71
     0
 42
2.5
  3
txt
  4

  0
ENDTAB
  0
TABLE
  2
VIEW
  5
6
330
0
100
AcDbSymbolTable
 70
     0
  0
ENDTAB
  0
TABLE
  2
UCS
  5
7
330
0
100
AcDbSymbolTable
 70
     0
  0
ENDTAB
  0
TABLE
  2
APPID
  5
9
330
0
100
AcDbSymbolTable
 70
     2
  0
APPID
  5
12
330
9
100
AcDbSymbolTableRecord
100
AcDbRegAppTableRecord
  2
ACAD
 70
     0
  0
ENDTAB
  0
TABLE
  2
DIMSTYLE
  5
A
330
0
100
AcDbSymbolTable
 70
     1
  0
DIMSTYLE
105
27
330
A
100
AcDbSymbolTableRecord
100
AcDbDimStyleTableRecord
  2
ISO-25
 70
     0
  3

  4

  5

  6

  7

 40
1.0
 41
2.5
 42
0.625
 43
3.75
 44
1.25
 45
0.0
 46
0.0
 47
0.0
 48
0.0
140
2.5
141
2.5
142
0.0
143
0.03937007874016
144
1.0
145
0.0
146
1.0
147
0.625
 71
     0
 72
     0
 73
     0
 74
     0
 75
     0
 76
     0
 77
     1
 78
     8
170
     0
171
     3
172
     1
173
     0
174
     0
175
     0
176
     0
177
     0
178
     0
270
     2
271
     2
272
     2
273
     2
274
     3
340
11
275
     0
280
     0
281
     0
282
     0
283
     0
284
     8
285
     0
286
     0
287
     3
288
     0
  0
ENDTAB
  0
TABLE
  2
BLOCK_RECORD
  5
1
330
0
100
AcDbSymbolTable
 70
     1
  0
BLOCK_RECORD
  5
1F
330
1
100
AcDbSymbolTableRecord
100
AcDbBlockTableRecord
  2
*MODEL_SPACE
  0
BLOCK_RECORD
  5
1B
330
1
100
AcDbSymbolTableRecord
100
AcDbBlockTableRecord
  2
*PAPER_SPACE
  0
ENDTAB
  0
ENDSEC
  0
SECTION
  2
BLOCKS
  0
BLOCK
  5
20
330
1F
100
AcDbEntity
  8
0
100
AcDbBlockBegin
  2
*MODEL_SPACE
 70
     0
 10
0.0
 20
0.0
 30
0.0
  3
*MODEL_SPACE
  1

  0
ENDBLK
  5
21
330
1F
100
AcDbEntity
  8
0
100
AcDbBlockEnd
  0
BLOCK
  5
1C
330
1B
100
AcDbEntity
 67
     1
  8
0
100
AcDbBlockBegin
  2
*PAPER_SPACE
  1

  0
ENDBLK
  5
1D
330
1B
100
AcDbEntity
 67
     1
  8
0
100
AcDbBlockEnd
  0
ENDSEC
  0
SECTION
  2
ENTITIES
  0
LINE
  5
100
100
AcDbEntity
  8
Layer_1
 62
1
100
AcDbLine
 10
175.011800
 20
131.256820
 30
0.0
 11
177.933080
 21
131.256820
 31
0.0
  0
LINE
  5
101
100
AcDbEntity
  8
Layer_1
 62
1
100
AcDbLine
 10
177.933080
 20
131.256820
 30
0.0
 11
177.933080
 21
141.256730
 31
0.0
  0
LINE
  5
102
100
AcDbEntity
  8
Layer_1
 62
1
100
AcDbLine
 10
177.933080
 20
141.256730
 30
0.0
 11
175.011800
 21
141.256730
 31
0.0
  0
LINE
  5
103
100
AcDbEntity
  8
Layer_1
 62
1
100
AcDbLine
 10
175.011800
 20
141.256730
 30
0.0
 11
175.011800
 21
150.752270
 31
0.0
  0
LINE
  5
104
100
AcDbEntity
  8
Layer_1
 62
1
100
AcDbLine
 10
175.011800
 20
150.752270
 30
0.0
 11
177.933080
 21
150.752270
 31
0.0
  0
LINE
  5
105
100
AcDbEntity
  8
Layer_1
 62
1
100
AcDbLine
 10
177.933080
 20
150.752270
 30
0.0
 11
177.933080
 21
160.752180
 31
0.0
  0
LINE
  5
106
100
AcDbEntity
  8
Layer_1
 62
1
100
AcDbLine
 10
177.933080
 20
160.752180
 30
0.0
 11
175.011800
 21
160.752180
 31
0.0
  0
LINE
  5
107
100
AcDbEntity
  8
Layer_1
 62
1
100
AcDbLine
 10
175.011800
 20
160.752180
 30
0.0
 11
175.011800
 21
170.247720
 31
0.0
  0
LINE
  5
108
100
AcDbEntity
  8
Layer_1
 62
1
100
AcDbLine
 10
175.011800
 20
170.247720
 30
0.0
 11
177.933080
 21
170.247720
 31
0.0
  0
LINE
  5
109
100
AcDbEntity
  8
Layer_1
 62
1
100
AcDbLine
 10
177.933080
 20
170.247720
 30
0.0
 11
177.933080
 21
180.247630
 31
0.0
  0
LINE
  5
10a
100
AcDbEntity
  8
Layer_1
 62
1
100
AcDbLine
 10
177.933080
 20
180.247630
 30
0.0
 11
175.011800
 21
180.247630
 31
0.0
  0
LINE
  5
10b
100
AcDbEntity
  8
Layer_1
 62
1
100
AcDbLine
 10
175.011800
 20
180.247630
 30
0.0
 11
175.011800
 21
189.743690
 31
0.0
  0
LINE
  5
10c
100
AcDbEntity
  8
Layer_1
 62
1
100
AcDbLine
 10
175.011800
 20
189.743690
 30
0.0
 11
177.933080
 21
189.743690
 31
0.0
  0
LINE
  5
10d
100
AcDbEntity
  8
Layer_1
 62
1
100
AcDbLine
 10
177.933080
 20
189.743690
 30
0.0
 11
177.933080
 21
199.743604
 31
0.0
  0
LINE
  5
10e
100
AcDbEntity
  8
Layer_1
 62
1
100
AcDbLine
 10
177.933080
 20
199.743604
 30
0.0
 11
175.011800
 21
199.743604
 31
0.0
  0
LINE
  5
10f
100
AcDbEntity
  8
Layer_1
 62
1
100
AcDbLine
 10
175.011800
 20
199.743604
 30
0.0
 11
174.992800
 21
214.009394
 31
0.0
  0
LINE
  5
110
100
AcDbEntity
  8
Layer_1
 62
1
100
AcDbLine
 10
174.992800
 20
214.009394
 30
0.0
 11
165.073530
 21
214.009394
 31
0.0
  0
LINE
  5
111
100
AcDbEntity
  8
Layer_1
 62
1
100
AcDbLine
 10
165.073530
 20
214.009394
 30
0.0
 11
165.073530
 21
199.743604
 31
0.0
  0
LINE
  5
112
100
AcDbEntity
  8
Layer_1
 62
1
100
AcDbLine
 10
165.073530
 20
199.743604
 30
0.0
 11
162.152250
 21
199.743604
 31
0.0
  0
LINE
  5
113
100
AcDbEntity
  8
Layer_1
 62
1
100
AcDbLine
 10
162.152250
 20
199.743604
 30
0.0
 11
162.152250
 21
189.743690
 31
0.0
  0
LINE
  5
114
100
AcDbEntity
  8
Layer_1
 62
1
100
AcDbLine
 10
162.152250
 20
189.743690
 30
0.0
 11
165.073530
 21
189.743690
 31
0.0
  0
LINE
  5
115
100
AcDbEntity
  8
Layer_1
 62
1
100
AcDbLine
 10
165.073530
 20
189.743690
 30
0.0
 11
165.073530
 21
180.247630
 31
0.0
  0
LINE
  5
116
100
AcDbEntity
  8
Layer_1
 62
1
100
AcDbLine
 10
165.073530
 20
180.247630
 30
0.0
 11
162.152250
 21
180.247630
 31
0.0
  0
LINE
  5
117
100
AcDbEntity
  8
Layer_1
 62
1
100
AcDbLine
 10
162.152250
 20
180.247630
 30
0.0
 11
162.152250
 21
170.247720
 31
0.0
  0
LINE
  5
118
100
AcDbEntity
  8
Layer_1
 62
1
100
AcDbLine
 10
162.152250
 20
170.247720
 30
0.0
 11
165.073530
 21
170.247720
 31
0.0
  0
LINE
  5
119
100
AcDbEntity
  8
Layer_1
 62
1
100
AcDbLine
 10
165.073530
 20
170.247720
 30
0.0
 11
165.073530
 21
160.752180
 31
0.0
  0
LINE
  5
11a
100
AcDbEntity
  8
Layer_1
 62
1
100
AcDbLine
 10
165.073530
 20
160.752180
 30
0.0
 11
162.152250
 21
160.752180
 31
0.0
  0
LINE
  5
11b
100
AcDbEntity
  8
Layer_1
 62
1
100
AcDbLine
 10
162.152250
 20
160.752180
 30
0.0
 11
162.152250
 21
150.752270
 31
0.0
  0
LINE
  5
11c
100
AcDbEntity
  8
Layer_1
 62
1
100
AcDbLine
 10
162.152250
 20
150.752270
 30
0.0
 11
165.073530
 21
150.752270
 31
0.0
  0
LINE
  5
11d
100
AcDbEntity
  8
Layer_1
 62
1
100
AcDbLine
 10
165.073530
 20
150.752270
 30
0.0
 11
165.073530
 21
141.256730
 31
0.0
  0
LINE
  5
11e
100
AcDbEntity
  8
Layer_1
 62
1
100
AcDbLine
 10
165.073530
 20
141.256730
 30
0.0
 11
162.152250
 21
141.256730
 31
0.0
  0
LINE
  5
11f
100
AcDbEntity
  8
Layer_1
 62
1
100
AcDbLine
 10
162.152250
 20
141.256730
 30
0.0
 11
162.152250
 21
131.256820
 31
0.0
  0
LINE
  5
120
100
AcDbEntity
  8
Layer_1
 62
1
100
AcDbLine
 10
162.152250
 20
131.256820
 30
0.0
 11
165.073530
 21
131.256820
 31
0.0
  0
LINE
  5
121
100
AcDbEntity
  8
Layer_1
 62
1
100
AcDbLine
 10
165.073530
 20
131.256820
 30
0.0
 11
165.073530
 21
116.990510
 31
0.0
  0
LINE
  5
122
100
AcDbEntity
  8
Layer_1
 62
1
100
AcDbLine
 10
165.073530
 20
116.990510
 30
0.0
 11
174.992800
 21
116.990510
 31
0.0
  0
LINE
  5
123
100
AcDbEntity
  8
Layer_1
 62
1
100
AcDbLine
 10
174.992800
 20
116.990510
 30
0.0
 11
175.011800
 21
131.256820
 31
0.0
  0
LINE
  5
124
100
AcDbEntity
  8
Layer_1
 62
1
100
AcDbLine
 10
199.757330
 20
73.090340
 30
0.0
 11
199.757330
 21
91.600840
 31
0.0
  0
LINE
  5
125
100
AcDbEntity
  8
Layer_1
 62
1
100
AcDbLine
 10
199.757330
 20
91.600840
 30
0.0
 11
196.775600
 21
91.600840
 31
0.0
  0
LINE
  5
126
100
AcDbEntity
  8
Layer_1
 62
1
100
AcDbLine
 10
196.775600
 20
91.600840
 30
0.0
 11
196.775600
 21
101.600750
 31
0.0
  0
LINE
  5
127
100
AcDbEntity
  8
Layer_1
 62
1
100
AcDbLine
 10
196.775600
 20
101.600750
 30
0.0
 11
199.757330
 21
101.600750
 31
0.0
  0
LINE
  5
128
100
AcDbEntity
  8
Layer_1
 62
1
100
AcDbLine
 10
199.757330
 20
101.600750
 30
0.0
 11
199.757330
 21
111.096290
 31
0.0
  0
LINE
  5
129
100
AcDbEntity
  8
Layer_1
 62
1
100
AcDbLine
 10
199.757330
 20
111.096290
 30
0.0
 11
196.775600
 21
111.096290
 31
0.0
  0
LINE
  5
12a
100
AcDbEntity
  8
Layer_1
 62
1
100
AcDbLine
 10
196.775600
 20
111.096290
 30
0.0
 11
196.775600
 21
121.096200
 31
0.0
  0
LINE
  5
12b
100
AcDbEntity
  8
Layer_1
 62
1
100
AcDbLine
 10
196.775600
 20
121.096200
 30
0.0
 11
199.757330
 21
121.096200
 31
0.0
  0
LINE
  5
12c
100
AcDbEntity
  8
Layer_1
 62
1
100
AcDbLine
 10
199.757330
 20
121.096200
 30
0.0
 11
199.757330
 21
131.266130
 31
0.0
  0
LINE
  5
12d
100
AcDbEntity
  8
Layer_1
 62
1
100
AcDbLine
 10
199.757330
 20
131.266130
 30
0.0
 11
196.775600
 21
131.266130
 31
0.0
  0
LINE
  5
12e
100
AcDbEntity
  8
Layer_1
 62
1
100
AcDbLine
 10
196.775600
 20
131.266130
 30
0.0
 11
196.775600
 21
141.266550
 31
0.0
  0
LINE
  5
12f
100
AcDbEntity
  8
Layer_1
 62
1
100
AcDbLine
 10
196.775600
 20
141.266550
 30
0.0
 11
199.757330
 21
141.266550
 31
0.0
  0
LINE
  5
130
100
AcDbEntity
  8
Layer_1
 62
1
100
AcDbLine
 10
199.757330
 20
141.266550
 30
0.0
 11
199.757330
 21
150.762100
 31
0.0
  0
LINE
  5
131
100
AcDbEntity
  8
Layer_1
 62
1
100
AcDbLine
 10
199.757330
 20
150.762100
 30
0.0
 11
196.775600
 21
150.762100
 31
0.0
  0
LINE
  5
132
100
AcDbEntity
  8
Layer_1
 62
1
100
AcDbLine
 10
196.775600
 20
150.762100
 30
0.0
 11
196.775600
 21
160.762000
 31
0.0
  0
LINE
  5
133
100
AcDbEntity
  8
Layer_1
 62
1
100
AcDbLine
 10
196.775600
 20
160.762000
 30
0.0
 11
199.757330
 21
160.762000
 31
0.0
  0
LINE
  5
134
100
AcDbEntity
  8
Layer_1
 62
1
100
AcDbLine
 10
199.757330
 20
160.762000
 30
0.0
 11
199.757330
 21
170.257540
 31
0.0
  0
LINE
  5
135
100
AcDbEntity
  8
Layer_1
 62
1
100
AcDbLine
 10
199.757330
 20
170.257540
 30
0.0
 11
196.775600
 21
170.257540
 31
0.0
  0
LINE
  5
136
100
AcDbEntity
  8
Layer_1
 62
1
100
AcDbLine
 10
196.775600
 20
170.257540
 30
0.0
 11
196.775600
 21
180.257450
 31
0.0
  0
LINE
  5
137
100
AcDbEntity
  8
Layer_1
 62
1
100
AcDbLine
 10
196.775600
 20
180.257450
 30
0.0
 11
199.757330
 21
180.257450
 31
0.0
  0
LINE
  5
138
100
AcDbEntity
  8
Layer_1
 62
1
100
AcDbLine
 10
199.757330
 20
180.257450
 30
0.0
 11
199.757330
 21
189.752990
 31
0.0
  0
LINE
  5
139
100
AcDbEntity
  8
Layer_1
 62
1
100
AcDbLine
 10
199.757330
 20
189.752990
 30
0.0
 11
196.775600
 21
189.752990
 31
0.0
  0
LINE
  5
13a
100
AcDbEntity
  8
Layer_1
 62
1
100
AcDbLine
 10
196.775600
 20
189.752990
 30
0.0
 11
196.775600
 21
199.752904
 31
0.0
  0
LINE
  5
13b
100
AcDbEntity
  8
Layer_1
 62
1
100
AcDbLine
 10
196.775600
 20
199.752904
 30
0.0
 11
199.757330
 21
199.752904
 31
0.0
  0
LINE
  5
13c
100
AcDbEntity
  8
Layer_1
 62
1
100
AcDbLine
 10
199.757330
 20
199.752904
 30
0.0
 11
199.757330
 21
218.263404
 31
0.0
  0
LINE
  5
13d
100
AcDbEntity
  8
Layer_1
 62
1
100
AcDbLine
 10
199.757330
 20
218.263404
 30
0.0
 11
209.695670
 21
218.263394
 31
0.0
  0
LINE
  5
13e
100
AcDbEntity
  8
Layer_1
 62
1
100
AcDbLine
 10
209.695670
 20
218.263394
 30
0.0
 11
209.714670
 21
199.752904
 31
0.0
  0
LINE
  5
13f
100
AcDbEntity
  8
Layer_1
 62
1
100
AcDbLine
 10
209.714670
 20
199.752904
 30
0.0
 11
212.696400
 21
199.752904
 31
0.0
  0
LINE
  5
140
100
AcDbEntity
  8
Layer_1
 62
1
100
AcDbLine
 10
212.696400
 20
199.752904
 30
0.0
 11
212.696400
 21
189.752990
 31
0.0
  0
LINE
  5
141
100
AcDbEntity
  8
Layer_1
 62
1
100
AcDbLine
 10
212.696400
 20
189.752990
 30
0.0
 11
209.714670
 21
189.752990
 31
0.0
  0
LINE
  5
142
100
AcDbEntity
  8
Layer_1
 62
1
100
AcDbLine
 10
209.714670
 20
189.752990
 30
0.0
 11
209.714670
 21
180.257440
 31
0.0
  0
LINE
  5
143
100
AcDbEntity
  8
Layer_1
 62
1
100
AcDbLine
 10
209.714670
 20
180.257440
 30
0.0
 11
212.696400
 21
180.257440
 31
0.0
  0
LINE
  5
144
100
AcDbEntity
  8
Layer_1
 62
1
100
AcDbLine
 10
212.696400
 20
180.257440
 30
0.0
 11
212.696400
 21
170.257540
 31
0.0
  0
LINE
  5
145
100
AcDbEntity
  8
Layer_1
 62
1
100
AcDbLine
 10
212.696400
 20
170.257540
 30
0.0
 11
209.714670
 21
170.257540
 31
0.0
  0
LINE
  5
146
100
AcDbEntity
  8
Layer_1
 62
1
100
AcDbLine
 10
209.714670
 20
170.257540
 30
0.0
 11
209.714670
 21
160.762000
 31
0.0
  0
LINE
  5
147
100
AcDbEntity
  8
Layer_1
 62
1
100
AcDbLine
 10
209.714670
 20
160.762000
 30
0.0
 11
212.696400
 21
160.762000
 31
0.0
  0
LINE
  5
148
100
AcDbEntity
  8
Layer_1
 62
1
100
AcDbLine
 10
212.696400
 20
160.762000
 30
0.0
 11
212.696400
 21
150.762100
 31
0.0
  0
LINE
  5
149
100
AcDbEntity
  8
Layer_1
 62
1
100
AcDbLine
 10
212.696400
 20
150.762100
 30
0.0
 11
209.714670
 21
150.762100
 31
0.0
  0
LINE
  5
14a
100
AcDbEntity
  8
Layer_1
 62
1
100
AcDbLine
 10
209.714670
 20
150.762100
 30
0.0
 11
209.714670
 21
141.266550
 31
0.0
  0
LINE
  5
14b
100
AcDbEntity
  8
Layer_1
 62
1
100
AcDbLine
 10
209.714670
 20
141.266550
 30
0.0
 11
212.696400
 21
141.266550
 31
0.0
  0
LINE
  5
14c
100
AcDbEntity
  8
Layer_1
 62
1
100
AcDbLine
 10
212.696400
 20
141.266550
 30
0.0
 11
212.696400
 21
131.266130
 31
0.0
  0
LINE
  5
14d
100
AcDbEntity
  8
Layer_1
 62
1
100
AcDbLine
 10
212.696400
 20
131.266130
 30
0.0
 11
209.714670
 21
131.266130
 31
0.0
  0
LINE
  5
14e
100
AcDbEntity
  8
Layer_1
 62
1
100
AcDbLine
 10
209.714670
 20
131.266130
 30
0.0
 11
209.714670
 21
121.096190
 31
0.0
  0
LINE
  5
14f
100
AcDbEntity
  8
Layer_1
 62
1
100
AcDbLine
 10
209.714670
 20
121.096190
 30
0.0
 11
212.696400
 21
121.096190
 31
0.0
  0
LINE
  5
150
100
AcDbEntity
  8
Layer_1
 62
1
100
AcDbLine
 10
212.696400
 20
121.096190
 30
0.0
 11
212.696400
 21
111.096290
 31
0.0
  0
LINE
  5
151
100
AcDbEntity
  8
Layer_1
 62
1
100
AcDbLine
 10
212.696400
 20
111.096290
 30
0.0
 11
209.714670
 21
111.096290
 31
0.0
  0
LINE
  5
152
100
AcDbEntity
  8
Layer_1
 62
1
100
AcDbLine
 10
209.714670
 20
111.096290
 30
0.0
 11
209.714670
 21
101.600750
 31
0.0
  0
LINE
  5
153
100
AcDbEntity
  8
Layer_1
 62
1
100
AcDbLine
 10
209.714670
 20
101.600750
 30
0.0
 11
212.696400
 21
101.600750
 31
0.0
  0
LINE
  5
154
100
AcDbEntity
  8
Layer_1
 62
1
100
AcDbLine
 10
212.696400
 20
101.600750
 30
0.0
 11
212.696400
 21
91.600840
 31
0.0
  0
LINE
  5
155
100
AcDbEntity
  8
Layer_1
 62
1
100
AcDbLine
 10
212.696400
 20
91.600840
 30
0.0
 11
209.714670
 21
91.600840
 31
0.0
  0
LINE
  5
156
100
AcDbEntity
  8
Layer_1
 62
1
100
AcDbLine
 10
209.714670
 20
91.600840
 30
0.0
 11
209.695670
 21
73.090340
 31
0.0
  0
LINE
  5
157
100
AcDbEntity
  8
Layer_1
 62
1
100
AcDbLine
 10
209.695670
 20
73.090340
 30
0.0
 11
199.757330
 21
73.090340
 31
0.0
  0
LINE
  5
158
100
AcDbEntity
  8
Layer_1
 62
1
100
AcDbLine
 10
192.642080
 20
131.464010
 30
0.0
 11
195.563360
 21
131.464010
 31
0.0
  0
LINE
  5
159
100
AcDbEntity
  8
Layer_1
 62
1
100
AcDbLine
 10
195.563360
 20
131.464010
 30
0.0
 11
195.563360
 21
141.463920
 31
0.0
  0
LINE
  5
15a
100
AcDbEntity
  8
Layer_1
 62
1
100
AcDbLine
 10
195.563360
 20
141.463920
 30
0.0
 11
192.642080
 21
141.463920
 31
0.0
  0
LINE
  5
15b
100
AcDbEntity
  8
Layer_1
 62
1
100
AcDbLine
 10
192.642080
 20
141.463920
 30
0.0
 11
192.642080
 21
150.959460
 31
0.0
  0
LINE
  5
15c
100
AcDbEntity
  8
Layer_1
 62
1
100
AcDbLine
 10
192.642080
 20
150.959460
 30
0.0
 11
195.563360
 21
150.959460
 31
0.0
  0
LINE
  5
15d
100
AcDbEntity
  8
Layer_1
 62
1
100
AcDbLine
 10
195.563360
 20
150.959460
 30
0.0
 11
195.563360
 21
160.959370
 31
0.0
  0
LINE
  5
15e
100
AcDbEntity
  8
Layer_1
 62
1
100
AcDbLine
 10
195.563360
 20
160.959370
 30
0.0
 11
192.642080
 21
160.959370
 31
0.0
  0
LINE
  5
15f
100
AcDbEntity
  8
Layer_1
 62
1
100
AcDbLine
 10
192.642080
 20
160.959370
 30
0.0
 11
192.642080
 21
170.454910
 31
0.0
  0
LINE
  5
160
100
AcDbEntity
  8
Layer_1
 62
1
100
AcDbLine
 10
192.642080
 20
170.454910
 30
0.0
 11
195.563360
 21
170.454910
 31
0.0
  0
LINE
  5
161
100
AcDbEntity
  8
Layer_1
 62
1
100
AcDbLine
 10
195.563360
 20
170.454910
 30
0.0
 11
195.563360
 21
180.454830
 31
0.0
  0
LINE
  5
162
100
AcDbEntity
  8
Layer_1
 62
1
100
AcDbLine
 10
195.563360
 20
180.454830
 30
0.0
 11
192.642080
 21
180.454830
 31
0.0
  0
LINE
  5
163
100
AcDbEntity
  8
Layer_1
 62
1
100
AcDbLine
 10
192.642080
 20
180.454830
 30
0.0
 11
192.642080
 21
189.950880
 31
0.0
  0
LINE
  5
164
100
AcDbEntity
  8
Layer_1
 62
1
100
AcDbLine
 10
192.642080
 20
189.950880
 30
0.0
 11
195.563360
 21
189.950880
 31
0.0
  0
LINE
  5
165
100
AcDbEntity
  8
Layer_1
 62
1
100
AcDbLine
 10
195.563360
 20
189.950880
 30
0.0
 11
195.563360
 21
199.950794
 31
0.0
  0
LINE
  5
166
100
AcDbEntity
  8
Layer_1
 62
1
100
AcDbLine
 10
195.563360
 20
199.950794
 30
0.0
 11
192.642080
 21
199.950794
 31
0.0
  0
LINE
  5
167
100
AcDbEntity
  8
Layer_1
 62
1
100
AcDbLine
 10
192.642080
 20
199.950794
 30
0.0
 11
192.623080
 21
214.216584
 31
0.0
  0
LINE
  5
168
100
AcDbEntity
  8
Layer_1
 62
1
100
AcDbLine
 10
192.623080
 20
214.216584
 30
0.0
 11
182.703800
 21
214.216584
 31
0.0
  0
LINE
  5
169
100
AcDbEntity
  8
Layer_1
 62
1
100
AcDbLine
 10
182.703800
 20
214.216584
 30
0.0
 11
182.703800
 21
199.950794
 31
0.0
  0
LINE
  5
16a
100
AcDbEntity
  8
Layer_1
 62
1
100
AcDbLine
 10
182.703800
 20
199.950794
 30
0.0
 11
179.782520
 21
199.950794
 31
0.0
  0
LINE
  5
16b
100
AcDbEntity
  8
Layer_1
 62
1
100
AcDbLine
 10
179.782520
 20
199.950794
 30
0.0
 11
179.782520
 21
189.950880
 31
0.0
  0
LINE
  5
16c
100
AcDbEntity
  8
Layer_1
 62
1
100
AcDbLine
 10
179.782520
 20
189.950880
 30
0.0
 11
182.703800
 21
189.950880
 31
0.0
  0
LINE
  5
16d
100
AcDbEntity
  8
Layer_1
 62
1
100
AcDbLine
 10
182.703800
 20
189.950880
 30
0.0
 11
182.703800
 21
180.454830
 31
0.0
  0
LINE
  5
16e
100
AcDbEntity
  8
Layer_1
 62
1
100
AcDbLine
 10
182.703800
 20
180.454830
 30
0.0
 11
179.782520
 21
180.454830
 31
0.0
  0
LINE
  5
16f
100
AcDbEntity
  8
Layer_1
 62
1
100
AcDbLine
 10
179.782520
 20
180.454830
 30
0.0
 11
179.782520
 21
170.454910
 31
0.0
  0
LINE
  5
170
100
AcDbEntity
  8
Layer_1
 62
1
100
AcDbLine
 10
179.782520
 20
170.454910
 30
0.0
 11
182.703800
 21
170.454910
 31
0.0
  0
LINE
  5
171
100
AcDbEntity
  8
Layer_1
 62
1
100
AcDbLine
 10
182.703800
 20
170.454910
 30
0.0
 11
182.703800
 21
160.959370
 31
0.0
  0
LINE
  5
172
100
AcDbEntity
  8
Layer_1
 62
1
100
AcDbLine
 10
182.703800
 20
160.959370
 30
0.0
 11
179.782520
 21
160.959370
 31
0.0
  0
LINE
  5
173
100
AcDbEntity
  8
Layer_1
 62
1
100
AcDbLine
 10
179.782520
 20
160.959370
 30
0.0
 11
179.782520
 21
150.959460
 31
0.0
  0
LINE
  5
174
100
AcDbEntity
  8
Layer_1
 62
1
100
AcDbLine
 10
179.782520
 20
150.959460
 30
0.0
 11
182.703800
 21
150.959460
 31
0.0
  0
LINE
  5
175
100
AcDbEntity
  8
Layer_1
 62
1
100
AcDbLine
 10
182.703800
 20
150.959460
 30
0.0
 11
182.703800
 21
141.463920
 31
0.0
  0
LINE
  5
176
100
AcDbEntity
  8
Layer_1
 62
1
100
AcDbLine
 10
182.703800
 20
141.463920
 30
0.0
 11
179.782520
 21
141.463920
 31
0.0
  0
LINE
  5
177
100
AcDbEntity
  8
Layer_1
 62
1
100
AcDbLine
 10
179.782520
 20
141.463920
 30
0.0
 11
179.782520
 21
131.464010
 31
0.0
  0
LINE
  5
178
100
AcDbEntity
  8
Layer_1
 62
1
100
AcDbLine
 10
179.782520
 20
131.464010
 30
0.0
 11
182.703800
 21
131.464010
 31
0.0
  0
LINE
  5
179
100
AcDbEntity
  8
Layer_1
 62
1
100
AcDbLine
 10
182.703800
 20
131.464010
 30
0.0
 11
182.703800
 21
117.197700
 31
0.0
  0
LINE
  5
17a
100
AcDbEntity
  8
Layer_1
 62
1
100
AcDbLine
 10
182.703800
 20
117.197700
 30
0.0
 11
192.623080
 21
117.197700
 31
0.0
  0
LINE
  5
17b
100
AcDbEntity
  8
Layer_1
 62
1
100
AcDbLine
 10
192.623080
 20
117.197700
 30
0.0
 11
192.642080
 21
131.464010
 31
0.0
  0
SPLINE
  5
17c
100
AcDbEntity
  8
Layer_1
 62
1
100
AcDbSpline
 70
8
 71
3
 72
8
 73
4
 74
0
 40
0
 40
0
 40
0
 40
0
 40
1
 40
1
 40
1
 40
1
 10
3.214012
 20
220.219184
 30
0.0
 10
0.444012
 20
220.219184
 30
0.0
 10
-1.785688
 20
217.988974
 30
0.0
 10
-1.785688
 20
215.218964
 30
0.0
  0
LINE
  5
17d
100
AcDbEntity
  8
Layer_1
 62
1
100
AcDbLine
 10
-1.785688
 20
215.218964
 30
0.0
 11
-1.785688
 21
114.132630
 31
0.0
  0
SPLINE
  5
17e
100
AcDbEntity
  8
Layer_1
 62
1
100
AcDbSpline
 70
8
 71
3
 72
8
 73
4
 74
0
 40
0
 40
0
 40
0
 40
0
 40
1
 40
1
 40
1
 40
1
 10
-1.785688
 20
114.132630
 30
0.0
 10
-1.785688
 20
111.362630
 30
0.0
 10
0.444012
 20
109.132940
 30
0.0
 10
3.214012
 20
109.132940
 30
0.0
  0
LINE
  5
17f
100
AcDbEntity
  8
Layer_1
 62
1
100
AcDbLine
 10
3.214012
 20
109.132940
 30
0.0
 11
152.913910
 21
109.132940
 31
0.0
  0
SPLINE
  5
180
100
AcDbEntity
  8
Layer_1
 62
1
100
AcDbSpline
 70
8
 71
3
 72
8
 73
4
 74
0
 40
0
 40
0
 40
0
 40
0
 40
1
 40
1
 40
1
 40
1
 10
152.913910
 20
109.132940
 30
0.0
 10
155.683910
 20
109.132940
 30
0.0
 10
157.914120
 20
111.362630
 30
0.0
 10
157.914120
 20
114.132630
 30
0.0
  0
LINE
  5
181
100
AcDbEntity
  8
Layer_1
 62
1
100
AcDbLine
 10
157.914120
 20
114.132630
 30
0.0
 11
157.914120
 21
215.218964
 31
0.0
  0
SPLINE
  5
182
100
AcDbEntity
  8
Layer_1
 62
1
100
AcDbSpline
 70
8
 71
3
 72
8
 73
4
 74
0
 40
0
 40
0
 40
0
 40
0
 40
1
 40
1
 40
1
 40
1
 10
157.914120
 20
215.218964
 30
0.0
 10
157.914120
 20
217.988974
 30
0.0
 10
155.683910
 20
220.219184
 30
0.0
 10
152.913910
 20
220.219184
 30
0.0
  0
LINE
  5
183
100
AcDbEntity
  8
Layer_1
 62
1
100
AcDbLine
 10
152.913910
 20
220.219184
 30
0.0
 11
99.306851
 21
220.219184
 31
0.0
  0
SPLINE
  5
184
100
AcDbEntity
  8
Layer_1
 62
1
100
AcDbSpline
 70
8
 71
3
 72
8
 73
4
 74
0
 40
0
 40
0
 40
0
 40
0
 40
1
 40
1
 40
1
 40
1
 10
99.306851
 20
220.219184
 30
0.0
 10
98.250691
 20
220.055654
 30
0.0
 10
97.439701
 20
219.148194
 30
0.0
 10
97.421691
 20
218.076674
 30
0.0
  0
SPLINE
  5
185
100
AcDbEntity
  8
Layer_1
 62
1
100
AcDbSpline
 70
8
 71
3
 72
8
 73
4
 74
0
 40
0
 40
0
 40
0
 40
0
 40
1
 40
1
 40
1
 40
1
 10
97.421691
 20
218.076674
 30
0.0
 10
96.127051
 20
208.567944
 30
0.0
 10
87.955321
 20
201.207424
 30
0.0
 10
78.064221
 20
201.207424
 30
0.0
  0
SPLINE
  5
186
100
AcDbEntity
  8
Layer_1
 62
1
100
AcDbSpline
 70
8
 71
3
 72
8
 73
4
 74
0
 40
0
 40
0
 40
0
 40
0
 40
1
 40
1
 40
1
 40
1
 10
78.064221
 20
201.207424
 30
0.0
 10
68.183931
 20
201.207424
 30
0.0
 10
60.018941
 20
208.551754
 30
0.0
 10
58.731033
 20
218.062204
 30
0.0
  0
SPLINE
  5
187
100
AcDbEntity
  8
Layer_1
 62
1
100
AcDbSpline
 70
8
 71
3
 72
8
 73
4
 74
0
 40
0
 40
0
 40
0
 40
0
 40
1
 40
1
 40
1
 40
1
 10
58.731033
 20
218.062204
 30
0.0
 10
58.731562
 20
219.143304
 30
0.0
 10
57.930864
 20
220.048524
 30
0.0
 10
56.883082
 20
220.219184
 30
0.0
  0
LINE
  5
188
100
AcDbEntity
  8
Layer_1
 62
1
100
AcDbLine
 10
56.883082
 20
220.219184
 30
0.0
 11
3.214012
 21
220.219184
 31
0.0
  0
SPLINE
  5
189
100
AcDbEntity
  8
Layer_1
 62
1
100
AcDbSpline
 70
8
 71
3
 72
8
 73
4
 74
0
 40
0
 40
0
 40
0
 40
0
 40
1
 40
1
 40
1
 40
1
 10
2.390792
 20
213.778374
 30
0.0
 10
1.979707
 20
213.778374
 30
0.0
 10
1.585458
 20
213.941677
 30
0.0
 10
1.294777
 20
214.232358
 30
0.0
  0
SPLINE
  5
18a
100
AcDbEntity
  8
Layer_1
 62
1
100
AcDbSpline
 70
8
 71
3
 72
8
 73
4
 74
0
 40
0
 40
0
 40
0
 40
0
 40
1
 40
1
 40
1
 40
1
 10
1.294777
 20
214.232358
 30
0.0
 10
1.004095
 20
214.523040
 30
0.0
 10
0.840792
 20
214.917288
 30
0.0
 10
0.840792
 20
215.328374
 30
0.0
  0
SPLINE
  5
18b
100
AcDbEntity
  8
Layer_1
 62
1
100
AcDbSpline
 70
8
 71
3
 72
8
 73
4
 74
0
 40
0
 40
0
 40
0
 40
0
 40
1
 40
1
 40
1
 40
1
 10
0.840792
 20
215.328374
 30
0.0
 10
0.840792
 20
215.739460
 30
0.0
 10
1.004095
 20
216.133708
 30
0.0
 10
1.294777
 20
216.424390
 30
0.0
  0
SPLINE
  5
18c
100
AcDbEntity
  8
Layer_1
 62
1
100
AcDbSpline
 70
8
 71
3
 72
8
 73
4
 74
0
 40
0
 40
0
 40
0
 40
0
 40
1
 40
1
 40
1
 40
1
 10
1.294777
 20
216.424390
 30
0.0
 10
1.585458
 20
216.715071
 30
0.0
 10
1.979707
 20
216.878374
 30
0.0
 10
2.390792
 20
216.878374
 30
0.0
  0
SPLINE
  5
18d
100
AcDbEntity
  8
Layer_1
 62
1
100
AcDbSpline
 70
8
 71
3
 72
8
 73
4
 74
0
 40
0
 40
0
 40
0
 40
0
 40
1
 40
1
 40
1
 40
1
 10
2.390792
 20
216.878374
 30
0.0
 10
2.801878
 20
216.878374
 30
0.0
 10
3.196127
 20
216.715071
 30
0.0
 10
3.486808
 20
216.424390
 30
0.0
  0
SPLINE
  5
18e
100
AcDbEntity
  8
Layer_1
 62
1
100
AcDbSpline
 70
8
 71
3
 72
8
 73
4
 74
0
 40
0
 40
0
 40
0
 40
0
 40
1
 40
1
 40
1
 40
1
 10
3.486808
 20
216.424390
 30
0.0
 10
3.777489
 20
216.133708
 30
0.0
 10
3.940793
 20
215.739460
 30
0.0
 10
3.940792
 20
215.328374
 30
0.0
  0
SPLINE
  5
18f
100
AcDbEntity
  8
Layer_1
 62
1
100
AcDbSpline
 70
8
 71
3
 72
8
 73
4
 74
0
 40
0
 40
0
 40
0
 40
0
 40
1
 40
1
 40
1
 40
1
 10
3.940792
 20
215.328374
 30
0.0
 10
3.940793
 20
214.917288
 30
0.0
 10
3.777489
 20
214.523040
 30
0.0
 10
3.486808
 20
214.232358
 30
0.0
  0
SPLINE
  5
190
100
AcDbEntity
  8
Layer_1
 62
1
100
AcDbSpline
 70
8
 71
3
 72
8
 73
4
 74
0
 40
0
 40
0
 40
0
 40
0
 40
1
 40
1
 40
1
 40
1
 10
3.486808
 20
214.232358
 30
0.0
 10
3.196127
 20
213.941677
 30
0.0
 10
2.801878
 20
213.778374
 30
0.0
 10
2.390792
 20
213.778374
 30
0.0
  0
LINE
  5
191
100
AcDbEntity
  8
Layer_1
 62
1
100
AcDbLine
 10
2.390792
 20
213.778374
 30
0.0
 11
2.390792
 21
213.778374
 31
0.0
  0
SPLINE
  5
192
100
AcDbEntity
  8
Layer_1
 62
1
100
AcDbSpline
 70
8
 71
3
 72
8
 73
4
 74
0
 40
0
 40
0
 40
0
 40
0
 40
1
 40
1
 40
1
 40
1
 10
153.848140
 20
213.778374
 30
0.0
 10
153.437054
 20
213.778374
 30
0.0
 10
153.042806
 20
213.941677
 30
0.0
 10
152.752124
 20
214.232358
 30
0.0
  0
SPLINE
  5
193
100
AcDbEntity
  8
Layer_1
 62
1
100
AcDbSpline
 70
8
 71
3
 72
8
 73
4
 74
0
 40
0
 40
0
 40
0
 40
0
 40
1
 40
1
 40
1
 40
1
 10
152.752124
 20
214.232358
 30
0.0
 10
152.461443
 20
214.523040
 30
0.0
 10
152.298140
 20
214.917288
 30
0.0
 10
152.298140
 20
215.328374
 30
0.0
  0
SPLINE
  5
194
100
AcDbEntity
  8
Layer_1
 62
1
100
AcDbSpline
 70
8
 71
3
 72
8
 73
4
 74
0
 40
0
 40
0
 40
0
 40
0
 40
1
 40
1
 40
1
 40
1
 10
152.298140
 20
215.328374
 30
0.0
 10
152.298140
 20
215.739460
 30
0.0
 10
152.461443
 20
216.133708
 30
0.0
 10
152.752124
 20
216.424390
 30
0.0
  0
SPLINE
  5
195
100
AcDbEntity
  8
Layer_1
 62
1
100
AcDbSpline
 70
8
 71
3
 72
8
 73
4
 74
0
 40
0
 40
0
 40
0
 40
0
 40
1
 40
1
 40
1
 40
1
 10
152.752124
 20
216.424390
 30
0.0
 10
153.042806
 20
216.715071
 30
0.0
 10
153.437054
 20
216.878374
 30
0.0
 10
153.848140
 20
216.878374
 30
0.0
  0
SPLINE
  5
196
100
AcDbEntity
  8
Layer_1
 62
1
100
AcDbSpline
 70
8
 71
3
 72
8
 73
4
 74
0
 40
0
 40
0
 40
0
 40
0
 40
1
 40
1
 40
1
 40
1
 10
153.848140
 20
216.878374
 30
0.0
 10
154.259226
 20
216.878374
 30
0.0
 10
154.653474
 20
216.715071
 30
0.0
 10
154.944156
 20
216.424390
 30
0.0
  0
SPLINE
  5
197
100
AcDbEntity
  8
Layer_1
 62
1
100
AcDbSpline
 70
8
 71
3
 72
8
 73
4
 74
0
 40
0
 40
0
 40
0
 40
0
 40
1
 40
1
 40
1
 40
1
 10
154.944156
 20
216.424390
 30
0.0
 10
155.234837
 20
216.133708
 30
0.0
 10
155.398140
 20
215.739460
 30
0.0
 10
155.398140
 20
215.328374
 30
0.0
  0
SPLINE
  5
198
100
AcDbEntity
  8
Layer_1
 62
1
100
AcDbSpline
 70
8
 71
3
 72
8
 73
4
 74
0
 40
0
 40
0
 40
0
 40
0
 40
1
 40
1
 40
1
 40
1
 10
155.398140
 20
215.328374
 30
0.0
 10
155.398140
 20
214.917288
 30
0.0
 10
155.234837
 20
214.523040
 30
0.0
 10
154.944156
 20
214.232358
 30
0.0
  0
SPLINE
  5
199
100
AcDbEntity
  8
Layer_1
 62
1
100
AcDbSpline
 70
8
 71
3
 72
8
 73
4
 74
0
 40
0
 40
0
 40
0
 40
0
 40
1
 40
1
 40
1
 40
1
 10
154.944156
 20
214.232358
 30
0.0
 10
154.653474
 20
213.941677
 30
0.0
 10
154.259226
 20
213.778374
 30
0.0
 10
153.848140
 20
213.778374
 30
0.0
  0
LINE
  5
19a
100
AcDbEntity
  8
Layer_1
 62
1
100
AcDbLine
 10
153.848140
 20
213.778374
 30
0.0
 11
153.848140
 21
213.778374
 31
0.0
  0
SPLINE
  5
19b
100
AcDbEntity
  8
Layer_1
 62
1
100
AcDbSpline
 70
8
 71
3
 72
8
 73
4
 74
0
 40
0
 40
0
 40
0
 40
0
 40
1
 40
1
 40
1
 40
1
 10
2.335542
 20
111.973560
 30
0.0
 10
1.924457
 20
111.973560
 30
0.0
 10
1.530208
 20
112.136863
 30
0.0
 10
1.239527
 20
112.427544
 30
0.0
  0
SPLINE
  5
19c
100
AcDbEntity
  8
Layer_1
 62
1
100
AcDbSpline
 70
8
 71
3
 72
8
 73
4
 74
0
 40
0
 40
0
 40
0
 40
0
 40
1
 40
1
 40
1
 40
1
 10
1.239527
 20
112.427544
 30
0.0
 10
0.948845
 20
112.718226
 30
0.0
 10
0.785542
 20
113.112474
 30
0.0
 10
0.785542
 20
113.523560
 30
0.0
  0
SPLINE
  5
19d
100
AcDbEntity
  8
Layer_1
 62
1
100
AcDbSpline
 70
8
 71
3
 72
8
 73
4
 74
0
 40
0
 40
0
 40
0
 40
0
 40
1
 40
1
 40
1
 40
1
 10
0.785542
 20
113.523560
 30
0.0
 10
0.785542
 20
113.934646
 30
0.0
 10
0.948845
 20
114.328894
 30
0.0
 10
1.239527
 20
114.619576
 30
0.0
  0
SPLINE
  5
19e
100
AcDbEntity
  8
Layer_1
 62
1
100
AcDbSpline
 70
8
 71
3
 72
8
 73
4
 74
0
 40
0
 40
0
 40
0
 40
0
 40
1
 40
1
 40
1
 40
1
 10
1.239527
 20
114.619576
 30
0.0
 10
1.530208
 20
114.910257
 30
0.0
 10
1.924457
 20
115.073560
 30
0.0
 10
2.335542
 20
115.073560
 30
0.0
  0
SPLINE
  5
19f
100
AcDbEntity
  8
Layer_1
 62
1
100
AcDbSpline
 70
8
 71
3
 72
8
 73
4
 74
0
 40
0
 40
0
 40
0
 40
0
 40
1
 40
1
 40
1
 40
1
 10
2.335542
 20
115.073560
 30
0.0
 10
2.746628
 20
115.073560
 30
0.0
 10
3.140877
 20
114.910257
 30
0.0
 10
3.431558
 20
114.619576
 30
0.0
  0
SPLINE
  5
1a0
100
AcDbEntity
  8
Layer_1
 62
1
100
AcDbSpline
 70
8
 71
3
 72
8
 73
4
 74
0
 40
0
 40
0
 40
0
 40
0
 40
1
 40
1
 40
1
 40
1
 10
3.431558
 20
114.619576
 30
0.0
 10
3.722239
 20
114.328894
 30
0.0
 10
3.885543
 20
113.934646
 30
0.0
 10
3.885542
 20
113.523560
 30
0.0
  0
SPLINE
  5
1a1
100
AcDbEntity
  8
Layer_1
 62
1
100
AcDbSpline
 70
8
 71
3
 72
8
 73
4
 74
0
 40
0
 40
0
 40
0
 40
0
 40
1
 40
1
 40
1
 40
1
 10
3.885542
 20
113.523560
 30
0.0
 10
3.885543
 20
113.112474
 30
0.0
 10
3.722239
 20
112.718226
 30
0.0
 10
3.431558
 20
112.427544
 30
0.0
  0
SPLINE
  5
1a2
100
AcDbEntity
  8
Layer_1
 62
1
100
AcDbSpline
 70
8
 71
3
 72
8
 73
4
 74
0
 40
0
 40
0
 40
0
 40
0
 40
1
 40
1
 40
1
 40
1
 10
3.431558
 20
112.427544
 30
0.0
 10
3.140877
 20
112.136863
 30
0.0
 10
2.746628
 20
111.973560
 30
0.0
 10
2.335542
 20
111.973560
 30
0.0
  0
LINE
  5
1a3
100
AcDbEntity
  8
Layer_1
 62
1
100
AcDbLine
 10
2.335542
 20
111.973560
 30
0.0
 11
2.335542
 21
111.973560
 31
0.0
  0
SPLINE
  5
1a4
100
AcDbEntity
  8
Layer_1
 62
1
100
AcDbSpline
 70
8
 71
3
 72
8
 73
4
 74
0
 40
0
 40
0
 40
0
 40
0
 40
1
 40
1
 40
1
 40
1
 10
153.792890
 20
111.973560
 30
0.0
 10
153.381804
 20
111.973560
 30
0.0
 10
152.987556
 20
112.136863
 30
0.0
 10
152.696874
 20
112.427544
 30
0.0
  0
SPLINE
  5
1a5
100
AcDbEntity
  8
Layer_1
 62
1
100
AcDbSpline
 70
8
 71
3
 72
8
 73
4
 74
0
 40
0
 40
0
 40
0
 40
0
 40
1
 40
1
 40
1
 40
1
 10
152.696874
 20
112.427544
 30
0.0
 10
152.406193
 20
112.718226
 30
0.0
 10
152.242890
 20
113.112474
 30
0.0
 10
152.242890
 20
113.523560
 30
0.0
  0
SPLINE
  5
1a6
100
AcDbEntity
  8
Layer_1
 62
1
100
AcDbSpline
 70
8
 71
3
 72
8
 73
4
 74
0
 40
0
 40
0
 40
0
 40
0
 40
1
 40
1
 40
1
 40
1
 10
152.242890
 20
113.523560
 30
0.0
 10
152.242890
 20
113.934646
 30
0.0
 10
152.406193
 20
114.328894
 30
0.0
 10
152.696874
 20
114.619576
 30
0.0
  0
SPLINE
  5
1a7
100
AcDbEntity
  8
Layer_1
 62
1
100
AcDbSpline
 70
8
 71
3
 72
8
 73
4
 74
0
 40
0
 40
0
 40
0
 40
0
 40
1
 40
1
 40
1
 40
1
 10
152.696874
 20
114.619576
 30
0.0
 10
152.987556
 20
114.910257
 30
0.0
 10
153.381804
 20
115.073560
 30
0.0
 10
153.792890
 20
115.073560
 30
0.0
  0
SPLINE
  5
1a8
100
AcDbEntity
  8
Layer_1
 62
1
100
AcDbSpline
 70
8
 71
3
 72
8
 73
4
 74
0
 40
0
 40
0
 40
0
 40
0
 40
1
 40
1
 40
1
 40
1
 10
153.792890
 20
115.073560
 30
0.0
 10
154.203976
 20
115.073560
 30
0.0
 10
154.598224
 20
114.910257
 30
0.0
 10
154.888906
 20
114.619576
 30
0.0
  0
SPLINE
  5
1a9
100
AcDbEntity
  8
Layer_1
 62
1
100
AcDbSpline
 70
8
 71
3
 72
8
 73
4
 74
0
 40
0
 40
0
 40
0
 40
0
 40
1
 40
1
 40
1
 40
1
 10
154.888906
 20
114.619576
 30
0.0
 10
155.179587
 20
114.328894
 30
0.0
 10
155.342890
 20
113.934646
 30
0.0
 10
155.342890
 20
113.523560
 30
0.0
  0
SPLINE
  5
1aa
100
AcDbEntity
  8
Layer_1
 62
1
100
AcDbSpline
 70
8
 71
3
 72
8
 73
4
 74
0
 40
0
 40
0
 40
0
 40
0
 40
1
 40
1
 40
1
 40
1
 10
155.342890
 20
113.523560
 30
0.0
 10
155.342890
 20
113.112474
 30
0.0
 10
155.179587
 20
112.718226
 30
0.0
 10
154.888906
 20
112.427544
 30
0.0
  0
SPLINE
  5
1ab
100
AcDbEntity
  8
Layer_1
 62
1
100
AcDbSpline
 70
8
 71
3
 72
8
 73
4
 74
0
 40
0
 40
0
 40
0
 40
0
 40
1
 40
1
 40
1
 40
1
 10
154.888906
 20
112.427544
 30
0.0
 10
154.598224
 20
112.136863
 30
0.0
 10
154.203976
 20
111.973560
 30
0.0
 10
153.792890
 20
111.973560
 30
0.0
  0
LINE
  5
1ac
100
AcDbEntity
  8
Layer_1
 62
1
100
AcDbLine
 10
153.792890
 20
111.973560
 30
0.0
 11
153.792890
 21
111.973560
 31
0.0
  0
LINE
  5
1ad
100
AcDbEntity
  8
Layer_1
 62
1
100
AcDbLine
 10
154.970170
 20
198.548404
 30
0.0
 11
154.970170
 21
188.548390
 31
0.0
  0
LINE
  5
1ae
100
AcDbEntity
  8
Layer_1
 62
1
100
AcDbLine
 10
154.970170
 20
188.548390
 30
0.0
 11
151.970180
 21
188.548390
 31
0.0
  0
LINE
  5
1af
100
AcDbEntity
  8
Layer_1
 62
1
100
AcDbLine
 10
151.970180
 20
188.548390
 30
0.0
 11
151.970180
 21
198.548404
 31
0.0
  0
LINE
  5
1b0
100
AcDbEntity
  8
Layer_1
 62
1
100
AcDbLine
 10
151.970180
 20
198.548404
 30
0.0
 11
154.970170
 21
198.548404
 31
0.0
  0
LINE
  5
1b1
100
AcDbEntity
  8
Layer_1
 62
1
100
AcDbLine
 10
154.970170
 20
179.052810
 30
0.0
 11
154.970170
 21
169.052810
 31
0.0
  0
LINE
  5
1b2
100
AcDbEntity
  8
Layer_1
 62
1
100
AcDbLine
 10
154.970170
 20
169.052810
 30
0.0
 11
151.970180
 21
169.052810
 31
0.0
  0
LINE
  5
1b3
100
AcDbEntity
  8
Layer_1
 62
1
100
AcDbLine
 10
151.970180
 20
169.052810
 30
0.0
 11
151.970180
 21
179.052810
 31
0.0
  0
LINE
  5
1b4
100
AcDbEntity
  8
Layer_1
 62
1
100
AcDbLine
 10
151.970180
 20
179.052810
 30
0.0
 11
154.970170
 21
179.052810
 31
0.0
  0
LINE
  5
1b5
100
AcDbEntity
  8
Layer_1
 62
1
100
AcDbLine
 10
154.970170
 20
159.557230
 30
0.0
 11
154.970170
 21
149.557220
 31
0.0
  0
LINE
  5
1b6
100
AcDbEntity
  8
Layer_1
 62
1
100
AcDbLine
 10
154.970170
 20
149.557220
 30
0.0
 11
151.970180
 21
149.557220
 31
0.0
  0
LINE
  5
1b7
100
AcDbEntity
  8
Layer_1
 62
1
100
AcDbLine
 10
151.970180
 20
149.557220
 30
0.0
 11
151.970180
 21
159.557230
 31
0.0
  0
LINE
  5
1b8
100
AcDbEntity
  8
Layer_1
 62
1
100
AcDbLine
 10
151.970180
 20
159.557230
 30
0.0
 11
154.970170
 21
159.557230
 31
0.0
  0
LINE
  5
1b9
100
AcDbEntity
  8
Layer_1
 62
1
100
AcDbLine
 10
154.970170
 20
140.061640
 30
0.0
 11
154.970170
 21
130.061630
 31
0.0
  0
LINE
  5
1ba
100
AcDbEntity
  8
Layer_1
 62
1
100
AcDbLine
 10
154.970170
 20
130.061630
 30
0.0
 11
151.970180
 21
130.061630
 31
0.0
  0
LINE
  5
1bb
100
AcDbEntity
  8
Layer_1
 62
1
100
AcDbLine
 10
151.970180
 20
130.061630
 30
0.0
 11
151.970180
 21
140.061640
 31
0.0
  0
LINE
  5
1bc
100
AcDbEntity
  8
Layer_1
 62
1
100
AcDbLine
 10
151.970180
 20
140.061640
 30
0.0
 11
154.970170
 21
140.061640
 31
0.0
  0
LINE
  5
1bd
100
AcDbEntity
  8
Layer_1
 62
1
100
AcDbLine
 10
92.474831
 20
112.212460
 30
0.0
 11
82.474821
 21
112.212460
 31
0.0
  0
LINE
  5
1be
100
AcDbEntity
  8
Layer_1
 62
1
100
AcDbLine
 10
82.474821
 20
112.212460
 30
0.0
 11
82.474821
 21
115.212460
 31
0.0
  0
LINE
  5
1bf
100
AcDbEntity
  8
Layer_1
 62
1
100
AcDbLine
 10
82.474821
 20
115.212460
 30
0.0
 11
92.474831
 21
115.212460
 31
0.0
  0
LINE
  5
1c0
100
AcDbEntity
  8
Layer_1
 62
1
100
AcDbLine
 10
92.474831
 20
115.212460
 30
0.0
 11
92.474831
 21
112.212460
 31
0.0
  0
LINE
  5
1c1
100
AcDbEntity
  8
Layer_1
 62
1
100
AcDbLine
 10
72.979251
 20
112.212460
 30
0.0
 11
62.979251
 21
112.212460
 31
0.0
  0
LINE
  5
1c2
100
AcDbEntity
  8
Layer_1
 62
1
100
AcDbLine
 10
62.979251
 20
112.212460
 30
0.0
 11
62.979251
 21
115.212460
 31
0.0
  0
LINE
  5
1c3
100
AcDbEntity
  8
Layer_1
 62
1
100
AcDbLine
 10
62.979251
 20
115.212460
 30
0.0
 11
72.979251
 21
115.212460
 31
0.0
  0
LINE
  5
1c4
100
AcDbEntity
  8
Layer_1
 62
1
100
AcDbLine
 10
72.979251
 20
115.212460
 30
0.0
 11
72.979251
 21
112.212460
 31
0.0
  0
LINE
  5
1c5
100
AcDbEntity
  8
Layer_1
 62
1
100
AcDbLine
 10
53.483663
 20
112.212460
 30
0.0
 11
43.483653
 21
112.212460
 31
0.0
  0
LINE
  5
1c6
100
AcDbEntity
  8
Layer_1
 62
1
100
AcDbLine
 10
43.483653
 20
112.212460
 30
0.0
 11
43.483653
 21
115.212460
 31
0.0
  0
LINE
  5
1c7
100
AcDbEntity
  8
Layer_1
 62
1
100
AcDbLine
 10
43.483653
 20
115.212460
 30
0.0
 11
53.483663
 21
115.212460
 31
0.0
  0
LINE
  5
1c8
100
AcDbEntity
  8
Layer_1
 62
1
100
AcDbLine
 10
53.483663
 20
115.212460
 30
0.0
 11
53.483663
 21
112.212460
 31
0.0
  0
LINE
  5
1c9
100
AcDbEntity
  8
Layer_1
 62
1
100
AcDbLine
 10
33.988072
 20
112.212460
 30
0.0
 11
23.988062
 21
112.212460
 31
0.0
  0
LINE
  5
1ca
100
AcDbEntity
  8
Layer_1
 62
1
100
AcDbLine
 10
23.988062
 20
112.212460
 30
0.0
 11
23.988062
 21
115.212460
 31
0.0
  0
LINE
  5
1cb
100
AcDbEntity
  8
Layer_1
 62
1
100
AcDbLine
 10
23.988062
 20
115.212460
 30
0.0
 11
33.988072
 21
115.212460
 31
0.0
  0
LINE
  5
1cc
100
AcDbEntity
  8
Layer_1
 62
1
100
AcDbLine
 10
33.988072
 20
115.212460
 30
0.0
 11
33.988072
 21
112.212460
 31
0.0
  0
LINE
  5
1cd
100
AcDbEntity
  8
Layer_1
 62
1
100
AcDbLine
 10
132.140370
 20
112.212480
 30
0.0
 11
122.140370
 21
112.212480
 31
0.0
  0
LINE
  5
1ce
100
AcDbEntity
  8
Layer_1
 62
1
100
AcDbLine
 10
122.140370
 20
112.212480
 30
0.0
 11
122.140370
 21
115.212470
 31
0.0
  0
LINE
  5
1cf
100
AcDbEntity
  8
Layer_1
 62
1
100
AcDbLine
 10
122.140370
 20
115.212470
 30
0.0
 11
132.140370
 21
115.212470
 31
0.0
  0
LINE
  5
1d0
100
AcDbEntity
  8
Layer_1
 62
1
100
AcDbLine
 10
132.140370
 20
115.212470
 30
0.0
 11
132.140370
 21
112.212480
 31
0.0
  0
LINE
  5
1d1
100
AcDbEntity
  8
Layer_1
 62
1
100
AcDbLine
 10
112.644780
 20
112.212480
 30
0.0
 11
102.644780
 21
112.212480
 31
0.0
  0
LINE
  5
1d2
100
AcDbEntity
  8
Layer_1
 62
1
100
AcDbLine
 10
102.644780
 20
112.212480
 30
0.0
 11
102.644780
 21
115.212470
 31
0.0
  0
LINE
  5
1d3
100
AcDbEntity
  8
Layer_1
 62
1
100
AcDbLine
 10
102.644780
 20
115.212470
 30
0.0
 11
112.644780
 21
115.212470
 31
0.0
  0
LINE
  5
1d4
100
AcDbEntity
  8
Layer_1
 62
1
100
AcDbLine
 10
112.644780
 20
115.212470
 30
0.0
 11
112.644780
 21
112.212480
 31
0.0
  0
LINE
  5
1d5
100
AcDbEntity
  8
Layer_1
 62
1
100
AcDbLine
 10
3.976122
 20
198.548394
 30
0.0
 11
3.976122
 21
188.548380
 31
0.0
  0
LINE
  5
1d6
100
AcDbEntity
  8
Layer_1
 62
1
100
AcDbLine
 10
3.976122
 20
188.548380
 30
0.0
 11
0.976132
 21
188.548380
 31
0.0
  0
LINE
  5
1d7
100
AcDbEntity
  8
Layer_1
 62
1
100
AcDbLine
 10
0.976132
 20
188.548380
 30
0.0
 11
0.976132
 21
198.548394
 31
0.0
  0
LINE
  5
1d8
100
AcDbEntity
  8
Layer_1
 62
1
100
AcDbLine
 10
0.976132
 20
198.548394
 30
0.0
 11
3.976122
 21
198.548394
 31
0.0
  0
LINE
  5
1d9
100
AcDbEntity
  8
Layer_1
 62
1
100
AcDbLine
 10
3.976122
 20
179.052810
 30
0.0
 11
3.976122
 21
169.052810
 31
0.0
  0
LINE
  5
1da
100
AcDbEntity
  8
Layer_1
 62
1
100
AcDbLine
 10
3.976122
 20
169.052810
 30
0.0
 11
0.976132
 21
169.052810
 31
0.0
  0
LINE
  5
1db
100
AcDbEntity
  8
Layer_1
 62
1
100
AcDbLine
 10
0.976132
 20
169.052810
 30
0.0
 11
0.976132
 21
179.052810
 31
0.0
  0
LINE
  5
1dc
100
AcDbEntity
  8
Layer_1
 62
1
100
AcDbLine
 10
0.976132
 20
179.052810
 30
0.0
 11
3.976122
 21
179.052810
 31
0.0
  0
LINE
  5
1dd
100
AcDbEntity
  8
Layer_1
 62
1
100
AcDbLine
 10
3.976122
 20
159.557220
 30
0.0
 11
3.976122
 21
149.557210
 31
0.0
  0
LINE
  5
1de
100
AcDbEntity
  8
Layer_1
 62
1
100
AcDbLine
 10
3.976122
 20
149.557210
 30
0.0
 11
0.976132
 21
149.557210
 31
0.0
  0
LINE
  5
1df
100
AcDbEntity
  8
Layer_1
 62
1
100
AcDbLine
 10
0.976132
 20
149.557210
 30
0.0
 11
0.976132
 21
159.557220
 31
0.0
  0
LINE
  5
1e0
100
AcDbEntity
  8
Layer_1
 62
1
100
AcDbLine
 10
0.976132
 20
159.557220
 30
0.0
 11
3.976122
 21
159.557220
 31
0.0
  0
LINE
  5
1e1
100
AcDbEntity
  8
Layer_1
 62
1
100
AcDbLine
 10
3.976122
 20
140.061630
 30
0.0
 11
3.976122
 21
130.061620
 31
0.0
  0
LINE
  5
1e2
100
AcDbEntity
  8
Layer_1
 62
1
100
AcDbLine
 10
3.976122
 20
130.061620
 30
0.0
 11
0.976132
 21
130.061620
 31
0.0
  0
LINE
  5
1e3
100
AcDbEntity
  8
Layer_1
 62
1
100
AcDbLine
 10
0.976132
 20
130.061620
 30
0.0
 11
0.976132
 21
140.061630
 31
0.0
  0
LINE
  5
1e4
100
AcDbEntity
  8
Layer_1
 62
1
100
AcDbLine
 10
0.976132
 20
140.061630
 30
0.0
 11
3.976122
 21
140.061630
 31
0.0
  0
ENDSEC
  0
SECTION
  2
OBJECTS
  0
DICTIONARY
  5
C
330
0
100
AcDbDictionary
  3
ACAD_GROUP
350
D
  3
ACAD_MLINESTYLE
350
17
  0
DICTIONARY
  5
D
330
C
100
AcDbDictionary
  0
DICTIONARY
  5
1A
330
C
100
AcDbDictionary
  0
DICTIONARY
  5
17
330
C
100
AcDbDictionary
  3
STANDARD
350
18
  0
DICTIONARY
  5
19
330
C
100
AcDbDictionary
  0
ENDSEC
  0
EOF
