0
SECTION
2
HEADER
9
$INSUNITS
70
1
9
$ACADVER
1
AC1014
9
$HANDSEED
5
FFFF
0
ENDSEC
0
SECTION
2
TABLES
0
TABLE
2
VPORT
5
8
100
AcDbSymbolTable
0
ENDTAB
0
TABLE
2
LTYPE
5
5
100
AcDbSymbolTable
0
LTYPE
5
14
100
AcDbSymbolTableRecord
100
AcDbLinetypeTableRecord
2
BYBLOCK
70
0
0
LTYPE
5
15
100
AcDbSymbolTableRecord
100
AcDbLinetypeTableRecord
2
BYLAYER
70
0
0
ENDTAB
0
TABLE
2
LAYER
5
2
100
AcDbSymbolTable
70
2
0
LAYER
5
50
100
AcDbSymbolTableRecord
100
AcDbLayerTableRecord
2
0
70
0
6
CONTINUOUS
0
ENDTAB
0
TABLE
2
STYLE
5
3
100
AcDbSymbolTable
70
1
0
STYLE
5
11
100
AcDbSymbolTableRecord
100
AcDbTextStyleTableRecord
2
STANDARD
70
0
0
ENDTAB
0
TABLE
2
VIEW
5
6
100
AcDbSymbolTable
70
0
0
ENDTAB
0
TABLE
2
UCS
5
7
100
AcDbSymbolTable
70
0
0
ENDTAB
0
TABLE
2
APPID
5
9
100
AcDbSymbolTable
70
2
0
APPID
5
12
100
AcDbSymbolTableRecord
100
AcDbRegAppTableRecord
2
ACAD
70
0
0
ENDTAB
0
TABLE
2
DIMSTYLE
5
A
100
AcDbSymbolTable
70
1
0
ENDTAB
0
TABLE
2
BLOCK_RECORD
5
1
100
AcDbSymbolTable
70
1
0
BLOCK_RECORD
5
1F
100
AcDbSymbolTableRecord
100
AcDbBlockTableRecord
2
*MODEL_SPACE
0
BLOCK_RECORD
5
1B
100
AcDbSymbolTableRecord
100
AcDbBlockTableRecord
2
*PAPER_SPACE
0
ENDTAB
0
ENDSEC
0
SECTION
2
BLOCKS
0
BLOCK
5
20
100
AcDbEntity
100
AcDbBlockBegin
2
*MODEL_SPACE
0
ENDBLK
5
21
100
AcDbEntity
100
AcDbBlockEnd
0
BLOCK
5
1C
100
AcDbEntity
100
AcDbBlockBegin
2
*PAPER_SPACE
0
ENDBLK
5
1D
100
AcDbEntity
100
AcDbBlockEnd
0
ENDSEC
0
SECTION
2
ENTITIES
0
LWPOLYLINE
5
100
100
AcDbEntity
8
0
100
AcDbPolyline
90
8
70
1
43
0.0
10
12.999999999999998
20
0
10
0.49999999999999989
20
0
42
0.41421356237309548
10
-8.741913579725645e-17
20
-0.49999999999999978
10
3.4967654318902565e-16
20
-7.2499999999999991
42
0.41421356237309503
10
1.9999999999999991
20
-9.25
10
11.5
20
-9.25
42
0.4142135623730957
10
13.499999999999998
20
-7.2500000000000018
10
13.500000000000002
20
-0.49999999999999989
42
0.41421356237309293
0
LINE
5
101
100
AcDbEntity
8
0
100
AcDbLine
10
0.49999999999999989
20
0
30
0
11
0.62499999999999989
21
0
31
0
0
LINE
5
102
100
AcDbEntity
8
0
100
AcDbLine
10
0.62499999999999989
20
-0.56249999999999989
30
0
11
0.62499999999999989
21
-0.62499999999999989
31
0
0
LINE
5
103
100
AcDbEntity
8
0
100
AcDbLine
10
0.62499999999999989
20
-0.62499999999999989
30
0
11
0.56249999999999989
21
-0.62499999999999989
31
0
0
LINE
5
104
100
AcDbEntity
8
0
100
AcDbLine
10
0
20
-0.62499999999999989
30
0
11
-8.7419135797256413e-17
21
-0.49999999999999989
31
0
0
CIRCLE
5
105
100
AcDbEntity
8
0
100
AcDbCircle
10
0.62499999999999989
20
-0.62499999999999989
30
0
40
0.0625
210
0
220
0
230
1
0
CIRCLE
5
106
100
AcDbEntity
8
0
100
AcDbCircle
10
1.6249999999999998
20
-0.62499999999999989
30
0
40
0.062499999999999896
210
0
220
0
230
1
0
LINE
5
107
100
AcDbEntity
8
0
100
AcDbLine
10
0.62499999999999989
20
-0.62499999999999989
30
0
11
0.68749999999999989
21
-0.62499999999999989
31
0
0
LINE
5
108
100
AcDbEntity
8
0
100
AcDbLine
10
1.5624999999999998
20
-0.62499999999999989
30
0
11
1.6249999999999998
21
-0.62499999999999989
31
0
0
LINE
5
109
100
AcDbEntity
8
0
100
AcDbLine
10
6.7499999999999991
20
0
30
0
11
6.7499999999999991
21
-1.3906320961495824
31
0
0
LINE
5
110
100
AcDbEntity
8
0
100
AcDbLine
10
11.937499999999998
20
-0.62499999999999989
30
0
11
11.875
21
-0.62499999999999989
31
0
0
LINE
5
111
100
AcDbEntity
8
0
100
AcDbLine
10
12.875
20
-0.62499999999999989
30
0
11
12.937499999999998
21
-0.62499999999999989
31
0
0
LINE
5
112
100
AcDbEntity
8
0
100
AcDbLine
10
12.875
20
-0.56249999999999989
30
0
11
12.875
21
-0.62499999999999989
31
0
0
CIRCLE
5
113
100
AcDbEntity
8
0
100
AcDbCircle
10
11.875
20
-0.62499999999999989
30
0
40
0.062499999999999896
210
0
220
0
230
1
0
LINE
5
114
100
AcDbEntity
8
0
100
AcDbLine
10
12.875
20
-0.62499999999999989
30
0
11
12.8125
21
-0.62499999999999989
31
0
0
CIRCLE
5
115
100
AcDbEntity
8
0
100
AcDbCircle
10
12.875
20
-0.62499999999999989
30
0
40
0.0625
210
0
220
0
230
1
0
LWPOLYLINE
5
116
100
AcDbEntity
8
0
100
AcDbPolyline
90
4
70
1
43
0.0
10
-8.7499998498150671
20
2.9999999549445202
10
-9.9999998498150671
20
2.9999999549445202
10
-9.9999998498150671
20
-26.000000045055476
10
-8.7499998498150671
20
-26.000000045055476
0
CIRCLE
5
117
100
AcDbEntity
8
0
100
AcDbCircle
10
-9.3749998498150688
20
-7.5000000450554785
30
0
40
0.06249999999999923
210
0
220
0
230
1
0
CIRCLE
5
118
100
AcDbEntity
8
0
100
AcDbCircle
10
-9.3749998498150688
20
-6.5000000450554785
30
0
40
0.0625000000000005
210
0
220
0
230
1
0
CIRCLE
5
119
100
AcDbEntity
8
0
100
AcDbCircle
10
-9.3749998498150688
20
-16.500000045055479
30
0
40
0.0625000000000005
210
0
220
0
230
1
0
CIRCLE
5
120
100
AcDbEntity
8
0
100
AcDbCircle
10
-9.3749998498150688
20
-15.500000045055476
30
0
40
0.06249999999999923
210
0
220
0
230
1
0
ENDSEC
0
SECTION
2
OBJECTS
0
DICTIONARY
5
C
100
AcDbDictionary
3
ACAD_GROUP
350
D
3
ACAD_MLINESTYLE
350
17
0
DICTIONARY
5
D
100
AcDbDictionary
0
DICTIONARY
5
1A
330
C
100
AcDbDictionary
0
DICTIONARY
5
17
100
AcDbDictionary
0
ENDSEC
0
EOF
