  0
SECTION
  2
HEADER
  9
$ACADVER
  1
AC1014
  9
$HANDSEED
  5
FFFF
  9
$MEASUREMENT
 70
     1
  0
ENDSEC
  0
SECTION
  2
TABLES
  0
TABLE
  2
VPORT
  5
8
330
0
100
AcDbSymbolTable
 70
     4
  0
VPORT
  5
2E
330
8
100
AcDbSymbolTableRecord
100
AcDbViewportTableRecord
  2
*ACTIVE
 70
     0
 10
0.0
 20
0.0
 11
1.0
 21
1.0
 12
210.0
 22
148.5
 13
0.0
 23
0.0
 14
10.0
 24
10.0
 15
10.0
 25
10.0
 16
0.0
 26
0.0
 36
1.0
 17
0.0
 27
0.0
 37
0.0
 40
341.0
 41
1.24
 42
50.0
 43
0.0
 44
0.0
 50
0.0
 51
0.0
 71
     0
 72
   100
 73
     1
 74
     3
 75
     0
 76
     0
 77
     0
 78
     0
  0
ENDTAB
  0
TABLE
  2
LTYPE
  5
5
330
0
100
AcDbSymbolTable
 70
     1
  0
LTYPE
  5
14
330
5
100
AcDbSymbolTableRecord
100
AcDbLinetypeTableRecord
  2
BYBLOCK
 70
     0
  3

 72
    65
 73
     0
 40
0.0
  0
LTYPE
  5
15
330
5
100
AcDbSymbolTableRecord
100
AcDbLinetypeTableRecord
  2
BYLAYER
 70
     0
  3

 72
    65
 73
     0
 40
0.0
  0
LTYPE
  5
16
330
5
100
AcDbSymbolTableRecord
100
AcDbLinetypeTableRecord
  2
CONTINUOUS
 70
     0
  3
Solid line
 72
    65
 73
     0
 40
0.0
  0
ENDTAB
  0
TABLE
  2
LAYER
  5
2
100
AcDbSymbolTable
 70
2
  0
LAYER
  5
50
100
AcDbSymbolTableRecord
100
AcDbLayerTableRecord
  2
0
 70
0
  6
CONTINUOUS
  0
LAYER
  5
51
100
AcDbSymbolTableRecord
100
AcDbLayerTableRecord
  2
Layer_1
 70
0
  6
CONTINUOUS
  0
ENDTAB
  0
TABLE
  2
STYLE
  5
3
330
0
100
AcDbSymbolTable
 70
     1
  0
STYLE
  5
11
330
3
100
AcDbSymbolTableRecord
100
AcDbTextStyleTableRecord
  2
STANDARD
 70
     0
 40
0.0
 41
1.0
 50
0.0
 71
     0
 42
2.5
  3
txt
  4

  0
ENDTAB
  0
TABLE
  2
VIEW
  5
6
330
0
100
AcDbSymbolTable
 70
     0
  0
ENDTAB
  0
TABLE
  2
UCS
  5
7
330
0
100
AcDbSymbolTable
 70
     0
  0
ENDTAB
  0
TABLE
  2
APPID
  5
9
330
0
100
AcDbSymbolTable
 70
     2
  0
APPID
  5
12
330
9
100
AcDbSymbolTableRecord
100
AcDbRegAppTableRecord
  2
ACAD
 70
     0
  0
ENDTAB
  0
TABLE
  2
DIMSTYLE
  5
A
330
0
100
AcDbSymbolTable
 70
     1
  0
DIMSTYLE
105
27
330
A
100
AcDbSymbolTableRecord
100
AcDbDimStyleTableRecord
  2
ISO-25
 70
     0
  3

  4

  5

  6

  7

 40
1.0
 41
2.5
 42
0.625
 43
3.75
 44
1.25
 45
0.0
 46
0.0
 47
0.0
 48
0.0
140
2.5
141
2.5
142
0.0
143
0.03937007874016
144
1.0
145
0.0
146
1.0
147
0.625
 71
     0
 72
     0
 73
     0
 74
     0
 75
     0
 76
     0
 77
     1
 78
     8
170
     0
171
     3
172
     1
173
     0
174
     0
175
     0
176
     0
177
     0
178
     0
270
     2
271
     2
272
     2
273
     2
274
     3
340
11
275
     0
280
     0
281
     0
282
     0
283
     0
284
     8
285
     0
286
     0
287
     3
288
     0
  0
ENDTAB
  0
TABLE
  2
BLOCK_RECORD
  5
1
330
0
100
AcDbSymbolTable
 70
     1
  0
BLOCK_RECORD
  5
1F
330
1
100
AcDbSymbolTableRecord
100
AcDbBlockTableRecord
  2
*MODEL_SPACE
  0
BLOCK_RECORD
  5
1B
330
1
100
AcDbSymbolTableRecord
100
AcDbBlockTableRecord
  2
*PAPER_SPACE
  0
ENDTAB
  0
ENDSEC
  0
SECTION
  2
BLOCKS
  0
BLOCK
  5
20
330
1F
100
AcDbEntity
  8
0
100
AcDbBlockBegin
  2
*MODEL_SPACE
 70
     0
 10
0.0
 20
0.0
 30
0.0
  3
*MODEL_SPACE
  1

  0
ENDBLK
  5
21
330
1F
100
AcDbEntity
  8
0
100
AcDbBlockEnd
  0
BLOCK
  5
1C
330
1B
100
AcDbEntity
 67
     1
  8
0
100
AcDbBlockBegin
  2
*PAPER_SPACE
  1

  0
ENDBLK
  5
1D
330
1B
100
AcDbEntity
 67
     1
  8
0
100
AcDbBlockEnd
  0
ENDSEC
  0
SECTION
  2
ENTITIES
  0
SPLINE
  5
100
100
AcDbEntity
  8
Layer_1
 62
5
100
AcDbSpline
 70
8
 71
3
 72
8
 73
4
 74
0
 40
0
 40
0
 40
0
 40
0
 40
1
 40
1
 40
1
 40
1
 10
133.272465
 20
557.372835
 30
0.0
 10
145.774278
 20
557.094756
 30
0.0
 10
147.960899
 20
555.246595
 30
0.0
 10
155.131415
 20
554.205827
 30
0.0
  0
LWPOLYLINE
  5
101
100
AcDbEntity
  8
Layer_1
 62
5
100
AcDbPolyline
 90
2
 70
0
 10
133.190544
 20
557.375216
 30
0.0
 10
133.272465
 20
557.372835
 30
0.0
  0
SPLINE
  5
102
100
AcDbEntity
  8
Layer_1
 62
5
100
AcDbSpline
 70
8
 71
3
 72
8
 73
4
 74
0
 40
0
 40
0
 40
0
 40
0
 40
1
 40
1
 40
1
 40
1
 10
156.133128
 20
547.712447
 30
0.0
 10
158.371299
 20
546.247928
 30
0.0
 10
159.110949
 20
543.820337
 30
0.0
 10
158.849546
 20
541.592731
 30
0.0
  0
SPLINE
  5
103
100
AcDbEntity
  8
Layer_1
 62
5
100
AcDbSpline
 70
8
 71
3
 72
8
 73
4
 74
0
 40
0
 40
0
 40
0
 40
0
 40
1
 40
1
 40
1
 40
1
 10
158.849546
 20
541.592731
 30
0.0
 10
158.594173
 20
539.416573
 30
0.0
 10
157.521815
 20
537.417269
 30
0.0
 10
156.046127
 20
536.337638
 30
0.0
  0
LWPOLYLINE
  5
104
100
AcDbEntity
  8
Layer_1
 62
5
100
AcDbPolyline
 90
4
 70
0
 10
155.131415
 20
554.205827
 30
0.0
 10
155.652083
 20
554.130425
 30
0.0
 10
155.690663
 20
553.606044
 30
0.0
 10
156.133128
 20
547.712447
 30
0.0
  0
SPLINE
  5
105
100
AcDbEntity
  8
Layer_1
 62
5
100
AcDbSpline
 70
8
 71
3
 72
8
 73
4
 74
0
 40
0
 40
0
 40
0
 40
0
 40
1
 40
1
 40
1
 40
1
 10
156.229274
 20
531.206787
 30
0.0
 10
161.974131
 20
530.305512
 30
0.0
 10
165.785338
 20
527.959786
 30
0.0
 10
168.549627
 20
524.946217
 30
0.0
  0
SPLINE
  5
106
100
AcDbEntity
  8
Layer_1
 62
5
100
AcDbSpline
 70
8
 71
3
 72
8
 73
4
 74
0
 40
0
 40
0
 40
0
 40
0
 40
1
 40
1
 40
1
 40
1
 10
168.549627
 20
524.946217
 30
0.0
 10
171.364394
 20
521.877628
 30
0.0
 10
173.162154
 20
518.190009
 30
0.0
 10
175.142959
 20
514.724117
 30
0.0
  0
SPLINE
  5
107
100
AcDbEntity
  8
Layer_1
 62
5
100
AcDbSpline
 70
8
 71
3
 72
8
 73
4
 74
0
 40
0
 40
0
 40
0
 40
0
 40
1
 40
1
 40
1
 40
1
 10
175.142959
 20
514.724117
 30
0.0
 10
185.638924
 20
510.097550
 30
0.0
 10
188.674260
 20
501.145597
 30
0.0
 10
191.245439
 20
493.549682
 30
0.0
  0
LWPOLYLINE
  5
108
100
AcDbEntity
  8
Layer_1
 62
5
100
AcDbPolyline
 90
2
 70
0
 10
156.046127
 20
536.337638
 30
0.0
 10
156.229274
 20
531.206787
 30
0.0
  0
SPLINE
  5
109
100
AcDbEntity
  8
Layer_1
 62
5
100
AcDbSpline
 70
8
 71
3
 72
8
 73
4
 74
0
 40
0
 40
0
 40
0
 40
0
 40
1
 40
1
 40
1
 40
1
 10
190.941083
 20
492.765335
 30
0.0
 10
188.484494
 20
491.411565
 30
0.0
 10
185.881263
 20
490.924743
 30
0.0
 10
183.237012
 20
490.866491
 30
0.0
  0
SPLINE
  5
10a
100
AcDbEntity
  8
Layer_1
 62
5
100
AcDbSpline
 70
8
 71
3
 72
8
 73
4
 74
0
 40
0
 40
0
 40
0
 40
0
 40
1
 40
1
 40
1
 40
1
 10
183.237012
 20
490.866491
 30
0.0
 10
184.168471
 20
487.399011
 30
0.0
 10
184.830007
 20
483.961096
 30
0.0
 10
184.647016
 20
480.640649
 30
0.0
  0
LWPOLYLINE
  5
10b
100
AcDbEntity
  8
Layer_1
 62
5
100
AcDbPolyline
 90
3
 70
0
 10
191.245439
 20
493.549682
 30
0.0
 10
191.420790
 20
493.030375
 30
0.0
 10
190.941083
 20
492.765335
 30
0.0
  0
SPLINE
  5
10c
100
AcDbEntity
  8
Layer_1
 62
5
100
AcDbSpline
 70
8
 71
3
 72
8
 73
4
 74
0
 40
0
 40
0
 40
0
 40
0
 40
1
 40
1
 40
1
 40
1
 10
184.370865
 20
480.141666
 30
0.0
 10
181.920300
 20
478.407657
 30
0.0
 10
178.538896
 20
478.203420
 30
0.0
 10
175.435875
 20
477.769550
 30
0.0
  0
SPLINE
  5
10d
100
AcDbEntity
  8
Layer_1
 62
5
100
AcDbSpline
 70
8
 71
3
 72
8
 73
4
 74
0
 40
0
 40
0
 40
0
 40
0
 40
1
 40
1
 40
1
 40
1
 10
175.435875
 20
477.769550
 30
0.0
 10
174.607495
 20
473.616794
 30
0.0
 10
175.703664
 20
469.619178
 30
0.0
 10
174.700236
 20
464.627906
 30
0.0
  0
LWPOLYLINE
  5
10e
100
AcDbEntity
  8
Layer_1
 62
5
100
AcDbPolyline
 90
3
 70
0
 10
184.647016
 20
480.640649
 30
0.0
 10
184.629158
 20
480.324784
 30
0.0
 10
184.370865
 20
480.141666
 30
0.0
  0
SPLINE
  5
10f
100
AcDbEntity
  8
Layer_1
 62
5
100
AcDbSpline
 70
8
 71
3
 72
8
 73
4
 74
0
 40
0
 40
0
 40
0
 40
0
 40
1
 40
1
 40
1
 40
1
 10
172.935785
 20
463.037471
 30
0.0
 10
174.779328
 20
461.610454
 30
0.0
 10
175.723393
 20
459.911849
 30
0.0
 10
175.969746
 20
458.312173
 30
0.0
  0
SPLINE
  5
110
100
AcDbEntity
  8
Layer_1
 62
5
100
AcDbSpline
 70
8
 71
3
 72
8
 73
4
 74
0
 40
0
 40
0
 40
0
 40
0
 40
1
 40
1
 40
1
 40
1
 10
175.969746
 20
458.312173
 30
0.0
 10
176.247797
 20
456.506759
 30
0.0
 10
175.759812
 20
454.882139
 30
0.0
 10
175.020151
 20
453.852992
 30
0.0
  0
SPLINE
  5
111
100
AcDbEntity
  8
Layer_1
 62
5
100
AcDbSpline
 70
8
 71
3
 72
8
 73
4
 74
0
 40
0
 40
0
 40
0
 40
0
 40
1
 40
1
 40
1
 40
1
 10
175.020151
 20
453.852992
 30
0.0
 10
172.254458
 20
449.983871
 30
0.0
 10
168.454735
 20
449.645924
 30
0.0
 10
165.535041
 20
450.346082
 30
0.0
  0
SPLINE
  5
112
100
AcDbEntity
  8
Layer_1
 62
5
100
AcDbSpline
 70
8
 71
3
 72
8
 73
4
 74
0
 40
0
 40
0
 40
0
 40
0
 40
1
 40
1
 40
1
 40
1
 10
165.535041
 20
450.346082
 30
0.0
 10
162.614937
 20
451.046353
 30
0.0
 10
160.421114
 20
452.700255
 30
0.0
 10
160.421114
 20
452.700255
 30
0.0
  0
LWPOLYLINE
  5
113
100
AcDbEntity
  8
Layer_1
 62
5
100
AcDbPolyline
 90
3
 70
0
 10
174.700236
 20
464.627906
 30
0.0
 10
174.652841
 20
464.390929
 30
0.0
 10
172.935785
 20
463.037471
 30
0.0
  0
SPLINE
  5
114
100
AcDbEntity
  8
Layer_1
 62
5
100
AcDbSpline
 70
8
 71
3
 72
8
 73
4
 74
0
 40
0
 40
0
 40
0
 40
0
 40
1
 40
1
 40
1
 40
1
 10
160.377460
 20
452.737106
 30
0.0
 10
159.365248
 20
453.642038
 30
0.0
 10
158.957237
 20
455.272696
 30
0.0
 10
159.185137
 20
457.211537
 30
0.0
  0
SPLINE
  5
115
100
AcDbEntity
  8
Layer_1
 62
5
100
AcDbSpline
 70
8
 71
3
 72
8
 73
4
 74
0
 40
0
 40
0
 40
0
 40
0
 40
1
 40
1
 40
1
 40
1
 10
159.185137
 20
457.211537
 30
0.0
 10
159.383421
 20
458.898435
 30
0.0
 10
160.224415
 20
460.848359
 30
0.0
 10
161.627675
 20
462.802819
 30
0.0
  0
SPLINE
  5
116
100
AcDbEntity
  8
Layer_1
 62
5
100
AcDbSpline
 70
8
 71
3
 72
8
 73
4
 74
0
 40
0
 40
0
 40
0
 40
0
 40
1
 40
1
 40
1
 40
1
 10
161.627675
 20
462.802819
 30
0.0
 10
161.531864
 20
462.822661
 30
0.0
 10
161.444075
 20
462.840520
 30
0.0
 10
161.351099
 20
462.860362
 30
0.0
  0
SPLINE
  5
117
100
AcDbEntity
  8
Layer_1
 62
5
100
AcDbSpline
 70
8
 71
3
 72
8
 73
4
 74
0
 40
0
 40
0
 40
0
 40
0
 40
1
 40
1
 40
1
 40
1
 10
161.351099
 20
462.860362
 30
0.0
 10
160.953029
 20
462.945118
 30
0.0
 10
160.657455
 20
462.976016
 30
0.0
 10
160.303326
 20
463.176567
 30
0.0
  0
LWPOLYLINE
  5
118
100
AcDbEntity
  8
Layer_1
 62
5
100
AcDbPolyline
 90
3
 70
0
 10
160.421114
 20
452.700255
 30
0.0
 10
160.398153
 20
452.717263
 30
0.0
 10
160.377460
 20
452.737106
 30
0.0
  0
SPLINE
  5
119
100
AcDbEntity
  8
Layer_1
 62
5
100
AcDbSpline
 70
8
 71
3
 72
8
 73
4
 74
0
 40
0
 40
0
 40
0
 40
0
 40
1
 40
1
 40
1
 40
1
 10
159.974609
 20
463.677817
 30
0.0
 10
159.679020
 20
466.495710
 30
0.0
 10
159.426003
 20
471.164967
 30
0.0
 10
161.227193
 20
475.370192
 30
0.0
  0
SPLINE
  5
11a
100
AcDbEntity
  8
Layer_1
 62
5
100
AcDbSpline
 70
8
 71
3
 72
8
 73
4
 74
0
 40
0
 40
0
 40
0
 40
0
 40
1
 40
1
 40
1
 40
1
 10
161.227193
 20
475.370192
 30
0.0
 10
157.220561
 20
474.439351
 30
0.0
 10
153.207295
 20
473.926450
 30
0.0
 10
149.190874
 20
473.929370
 30
0.0
  0
SPLINE
  5
11b
100
AcDbEntity
  8
Layer_1
 62
5
100
AcDbSpline
 70
8
 71
3
 72
8
 73
4
 74
0
 40
0
 40
0
 40
0
 40
0
 40
1
 40
1
 40
1
 40
1
 10
149.190874
 20
473.929370
 30
0.0
 10
149.486468
 20
469.716832
 30
0.0
 10
149.734210
 20
465.074617
 30
0.0
 10
149.802270
 20
460.903861
 30
0.0
  0
LWPOLYLINE
  5
11c
100
AcDbEntity
  8
Layer_1
 62
5
100
AcDbPolyline
 90
3
 70
0
 10
160.303326
 20
463.176567
 30
0.0
 10
160.010155
 20
463.342677
 30
0.0
 10
159.974609
 20
463.677817
 30
0.0
  0
SPLINE
  5
11d
100
AcDbEntity
  8
Layer_1
 62
5
100
AcDbSpline
 70
8
 71
3
 72
8
 73
4
 74
0
 40
0
 40
0
 40
0
 40
0
 40
1
 40
1
 40
1
 40
1
 10
149.762656
 20
460.667169
 30
0.0
 10
149.423343
 20
459.739247
 30
0.0
 10
148.722321
 20
459.192416
 30
0.0
 10
148.027660
 20
458.914252
 30
0.0
  0
SPLINE
  5
11e
100
AcDbEntity
  8
Layer_1
 62
5
100
AcDbSpline
 70
8
 71
3
 72
8
 73
4
 74
0
 40
0
 40
0
 40
0
 40
0
 40
1
 40
1
 40
1
 40
1
 10
148.027660
 20
458.914252
 30
0.0
 10
147.848567
 20
458.842535
 30
0.0
 10
147.700610
 20
458.830630
 30
0.0
 10
147.523578
 20
458.779890
 30
0.0
  0
SPLINE
  5
11f
100
AcDbEntity
  8
Layer_1
 62
5
100
AcDbSpline
 70
8
 71
3
 72
8
 73
4
 74
0
 40
0
 40
0
 40
0
 40
0
 40
1
 40
1
 40
1
 40
1
 10
147.523578
 20
458.779890
 30
0.0
 10
150.831760
 20
456.358167
 30
0.0
 10
152.199176
 20
452.006674
 30
0.0
 10
150.245073
 20
448.972498
 30
0.0
  0
LWPOLYLINE
  5
120
100
AcDbEntity
  8
Layer_1
 62
5
100
AcDbPolyline
 90
3
 70
0
 10
149.802270
 20
460.903861
 30
0.0
 10
149.804977
 20
460.782255
 30
0.0
 10
149.762656
 20
460.667169
 30
0.0
  0
SPLINE
  5
121
100
AcDbEntity
  8
Layer_1
 62
5
100
AcDbSpline
 70
8
 71
3
 72
8
 73
4
 74
0
 40
0
 40
0
 40
0
 40
0
 40
1
 40
1
 40
1
 40
1
 10
150.191243
 20
448.902482
 30
0.0
 10
147.789771
 20
446.098706
 30
0.0
 10
144.897123
 20
444.573723
 30
0.0
 10
142.164884
 20
444.347150
 30
0.0
  0
SPLINE
  5
122
100
AcDbEntity
  8
Layer_1
 62
5
100
AcDbSpline
 70
8
 71
3
 72
8
 73
4
 74
0
 40
0
 40
0
 40
0
 40
0
 40
1
 40
1
 40
1
 40
1
 10
142.164884
 20
444.347150
 30
0.0
 10
139.432646
 20
444.120661
 30
0.0
 10
136.856347
 20
445.238617
 30
0.0
 10
135.298015
 20
447.586923
 30
0.0
  0
LWPOLYLINE
  5
123
100
AcDbEntity
  8
Layer_1
 62
5
100
AcDbPolyline
 90
3
 70
0
 10
150.245073
 20
448.972498
 30
0.0
 10
150.220695
 20
448.935647
 30
0.0
 10
150.191243
 20
448.902482
 30
0.0
  0
SPLINE
  5
124
100
AcDbEntity
  8
Layer_1
 62
5
100
AcDbSpline
 70
8
 71
3
 72
8
 73
4
 74
0
 40
0
 40
0
 40
0
 40
0
 40
1
 40
1
 40
1
 40
1
 10
135.206824
 20
447.794135
 30
0.0
 10
134.289748
 20
451.530057
 30
0.0
 10
135.641789
 20
454.480866
 30
0.0
 10
137.178462
 20
457.180753
 30
0.0
  0
LWPOLYLINE
  5
125
100
AcDbEntity
  8
Layer_1
 62
5
100
AcDbPolyline
 90
3
 70
0
 10
135.298015
 20
447.586923
 30
0.0
 10
135.234037
 20
447.683017
 30
0.0
 10
135.206824
 20
447.794135
 30
0.0
  0
SPLINE
  5
126
100
AcDbEntity
  8
Layer_1
 62
5
100
AcDbSpline
 70
8
 71
3
 72
8
 73
4
 74
0
 40
0
 40
0
 40
0
 40
0
 40
1
 40
1
 40
1
 40
1
 10
135.223404
 20
457.967509
 30
0.0
 10
135.223404
 20
457.967509
 30
0.0
 10
133.716603
 20
467.583562
 30
0.0
 10
134.249774
 20
473.612287
 30
0.0
  0
SPLINE
  5
127
100
AcDbEntity
  8
Layer_1
 62
5
100
AcDbSpline
 70
8
 71
3
 72
8
 73
4
 74
0
 40
0
 40
0
 40
0
 40
0
 40
1
 40
1
 40
1
 40
1
 10
134.249774
 20
473.612287
 30
0.0
 10
126.825806
 20
473.425483
 30
0.0
 10
121.258233
 20
474.516454
 30
0.0
 10
116.396725
 20
475.179704
 30
0.0
  0
LWPOLYLINE
  5
128
100
AcDbEntity
  8
Layer_1
 62
5
100
AcDbPolyline
 90
3
 70
0
 10
137.178462
 20
457.180753
 30
0.0
 10
135.296538
 20
457.502003
 30
0.0
 10
135.223404
 20
457.967509
 30
0.0
  0
SPLINE
  5
129
100
AcDbEntity
  8
Layer_1
 62
5
100
AcDbSpline
 70
8
 71
3
 72
8
 73
4
 74
0
 40
0
 40
0
 40
0
 40
0
 40
1
 40
1
 40
1
 40
1
 10
115.850662
 20
475.668085
 30
0.0
 10
114.645796
 20
480.453761
 30
0.0
 10
114.793410
 20
484.983666
 30
0.0
 10
114.986718
 20
489.442110
 30
0.0
  0
SPLINE
  5
12a
100
AcDbEntity
  8
Layer_1
 62
5
100
AcDbSpline
 70
8
 71
3
 72
8
 73
4
 74
0
 40
0
 40
0
 40
0
 40
0
 40
1
 40
1
 40
1
 40
1
 10
114.986718
 20
489.442110
 30
0.0
 10
111.523799
 20
489.349417
 30
0.0
 10
107.950873
 20
489.217039
 30
0.0
 10
104.752089
 20
490.795937
 30
0.0
  0
LWPOLYLINE
  5
12b
100
AcDbEntity
  8
Layer_1
 62
5
100
AcDbPolyline
 90
3
 70
0
 10
116.396725
 20
475.179704
 30
0.0
 10
115.957981
 20
475.239515
 30
0.0
 10
115.850662
 20
475.668085
 30
0.0
  0
SPLINE
  5
12c
100
AcDbEntity
  8
Layer_1
 62
5
100
AcDbSpline
 70
8
 71
3
 72
8
 73
4
 74
0
 40
0
 40
0
 40
0
 40
0
 40
1
 40
1
 40
1
 40
1
 10
104.405437
 20
491.534249
 30
0.0
 10
105.384713
 20
495.688479
 30
0.0
 10
106.557369
 20
500.764847
 30
0.0
 10
108.357849
 20
505.269694
 30
0.0
  0
SPLINE
  5
12d
100
AcDbEntity
  8
Layer_1
 62
5
100
AcDbSpline
 70
8
 71
3
 72
8
 73
4
 74
0
 40
0
 40
0
 40
0
 40
0
 40
1
 40
1
 40
1
 40
1
 10
108.357849
 20
505.269694
 30
0.0
 10
110.102513
 20
509.634850
 30
0.0
 10
112.455933
 20
513.466554
 30
0.0
 10
115.906870
 20
515.369906
 30
0.0
  0
SPLINE
  5
12e
100
AcDbEntity
  8
Layer_1
 62
5
100
AcDbSpline
 70
8
 71
3
 72
8
 73
4
 74
0
 40
0
 40
0
 40
0
 40
0
 40
1
 40
1
 40
1
 40
1
 10
115.906870
 20
515.369906
 30
0.0
 10
116.452556
 20
520.377874
 30
0.0
 10
117.692311
 20
522.977641
 30
0.0
 10
119.141246
 20
524.757855
 30
0.0
  0
SPLINE
  5
12f
100
AcDbEntity
  8
Layer_1
 62
5
100
AcDbSpline
 70
8
 71
3
 72
8
 73
4
 74
0
 40
0
 40
0
 40
0
 40
0
 40
1
 40
1
 40
1
 40
1
 10
119.141246
 20
524.757855
 30
0.0
 10
120.601692
 20
526.552243
 30
0.0
 10
122.111855
 20
527.510041
 30
0.0
 10
123.309981
 20
529.521420
 30
0.0
  0
SPLINE
  5
130
100
AcDbEntity
  8
Layer_1
 62
5
100
AcDbSpline
 70
8
 71
3
 72
8
 73
4
 74
0
 40
0
 40
0
 40
0
 40
0
 40
1
 40
1
 40
1
 40
1
 10
123.309981
 20
529.521420
 30
0.0
 10
124.009036
 20
532.654157
 30
0.0
 10
123.980071
 20
535.852857
 30
0.0
 10
124.281244
 20
539.128063
 30
0.0
  0
SPLINE
  5
131
100
AcDbEntity
  8
Layer_1
 62
5
100
AcDbSpline
 70
8
 71
3
 72
8
 73
4
 74
0
 40
0
 40
0
 40
0
 40
0
 40
1
 40
1
 40
1
 40
1
 10
124.281244
 20
539.128063
 30
0.0
 10
122.695469
 20
541.107978
 30
0.0
 10
122.592373
 20
543.151701
 30
0.0
 10
123.280529
 20
544.944444
 30
0.0
  0
SPLINE
  5
132
100
AcDbEntity
  8
Layer_1
 62
5
100
AcDbSpline
 70
8
 71
3
 72
8
 73
4
 74
0
 40
0
 40
0
 40
0
 40
0
 40
1
 40
1
 40
1
 40
1
 10
123.280529
 20
544.944444
 30
0.0
 10
123.992527
 20
546.799294
 30
0.0
 10
125.382189
 20
548.465074
 30
0.0
 10
126.533188
 20
550.098312
 30
0.0
  0
SPLINE
  5
133
100
AcDbEntity
  8
Layer_1
 62
5
100
AcDbSpline
 70
8
 71
3
 72
8
 73
4
 74
0
 40
0
 40
0
 40
0
 40
0
 40
1
 40
1
 40
1
 40
1
 10
126.533188
 20
550.098312
 30
0.0
 10
127.440300
 20
551.898737
 30
0.0
 10
128.098259
 20
553.443647
 30
0.0
 10
129.025491
 20
554.702088
 30
0.0
  0
SPLINE
  5
134
100
AcDbEntity
  8
Layer_1
 62
5
100
AcDbSpline
 70
8
 71
3
 72
8
 73
4
 74
0
 40
0
 40
0
 40
0
 40
0
 40
1
 40
1
 40
1
 40
1
 10
129.025491
 20
554.702088
 30
0.0
 10
129.960023
 20
555.970422
 30
0.0
 10
131.217463
 20
556.917846
 30
0.0
 10
133.109932
 20
557.357216
 30
0.0
  0
LWPOLYLINE
  5
135
100
AcDbEntity
  8
Layer_1
 62
5
100
AcDbPolyline
 90
3
 70
0
 10
104.752089
 20
490.795937
 30
0.0
 10
104.284908
 20
491.026110
 30
0.0
 10
104.405437
 20
491.534249
 30
0.0
  0
SPLINE
  5
136
100
AcDbEntity
  8
Layer_1
 62
5
100
AcDbSpline
 70
8
 71
3
 72
8
 73
4
 74
0
 40
0
 40
0
 40
0
 40
0
 40
1
 40
1
 40
1
 40
1
 10
133.765038
 20
556.045767
 30
0.0
 10
131.648876
 20
547.571083
 30
0.0
 10
131.355278
 20
540.074438
 30
0.0
 10
131.273751
 20
533.337109
 30
0.0
  0
SPLINE
  5
137
100
AcDbEntity
  8
Layer_1
 62
5
100
AcDbSpline
 70
8
 71
3
 72
8
 73
4
 74
0
 40
0
 40
0
 40
0
 40
0
 40
1
 40
1
 40
1
 40
1
 10
131.273751
 20
533.337109
 30
0.0
 10
132.607746
 20
533.631600
 30
0.0
 10
133.956346
 20
533.798617
 30
0.0
 10
135.313166
 20
533.863191
 30
0.0
  0
SPLINE
  5
138
100
AcDbEntity
  8
Layer_1
 62
5
100
AcDbSpline
 70
8
 71
3
 72
8
 73
4
 74
0
 40
0
 40
0
 40
0
 40
0
 40
1
 40
1
 40
1
 40
1
 10
135.313166
 20
533.863191
 30
0.0
 10
136.665629
 20
533.927537
 30
0.0
 10
138.025485
 20
533.893521
 30
0.0
 10
139.387113
 20
533.791474
 30
0.0
  0
SPLINE
  5
139
100
AcDbEntity
  8
Layer_1
 62
5
100
AcDbSpline
 70
8
 71
3
 72
8
 73
4
 74
0
 40
0
 40
0
 40
0
 40
0
 40
1
 40
1
 40
1
 40
1
 10
139.387113
 20
533.791474
 30
0.0
 10
144.576677
 20
533.402135
 30
0.0
 10
149.823700
 20
532.058003
 30
0.0
 10
154.910356
 20
531.419357
 30
0.0
  0
LWPOLYLINE
  5
13a
100
AcDbEntity
  8
Layer_1
 62
5
100
AcDbPolyline
 90
2
 70
0
 10
133.109932
 20
557.357216
 30
0.0
 10
133.190544
 20
557.375216
 30
0.0
  0
SPLINE
  5
13b
100
AcDbEntity
  8
Layer_1
 62
5
100
AcDbSpline
 70
8
 71
3
 72
8
 73
4
 74
0
 40
0
 40
0
 40
0
 40
0
 40
1
 40
1
 40
1
 40
1
 10
154.728910
 20
536.501792
 30
0.0
 10
153.625258
 20
539.401039
 30
0.0
 10
153.498110
 20
542.958350
 30
0.0
 10
154.838271
 20
547.459880
 30
0.0
  0
LWPOLYLINE
  5
13c
100
AcDbEntity
  8
Layer_1
 62
5
100
AcDbPolyline
 90
2
 70
0
 10
154.910356
 20
531.419357
 30
0.0
 10
154.728910
 20
536.501792
 30
0.0
  0
SPLINE
  5
13d
100
AcDbEntity
  8
Layer_1
 62
5
100
AcDbSpline
 70
8
 71
3
 72
8
 73
4
 74
0
 40
0
 40
0
 40
0
 40
0
 40
1
 40
1
 40
1
 40
1
 10
154.421195
 20
553.008501
 30
0.0
 10
147.656208
 20
554.067383
 30
0.0
 10
145.321946
 20
555.738718
 30
0.0
 10
133.765061
 20
556.045824
 30
0.0
  0
LWPOLYLINE
  5
13e
100
AcDbEntity
  8
Layer_1
 62
5
100
AcDbPolyline
 90
2
 70
0
 10
154.838271
 20
547.459880
 30
0.0
 10
154.421195
 20
553.008501
 30
0.0
  0
SPLINE
  5
13f
100
AcDbEntity
  8
Layer_1
 62
5
100
AcDbSpline
 70
8
 71
3
 72
8
 73
4
 74
0
 40
0
 40
0
 40
0
 40
0
 40
1
 40
1
 40
1
 40
1
 10
132.339801
 20
555.736365
 30
0.0
 10
131.350198
 20
555.332513
 30
0.0
 10
130.684640
 20
554.741830
 30
0.0
 10
130.081425
 20
553.923156
 30
0.0
  0
SPLINE
  5
140
100
AcDbEntity
  8
Layer_1
 62
5
100
AcDbSpline
 70
8
 71
3
 72
8
 73
4
 74
0
 40
0
 40
0
 40
0
 40
0
 40
1
 40
1
 40
1
 40
1
 10
130.081425
 20
553.923156
 30
0.0
 10
129.320606
 20
552.890580
 30
0.0
 10
128.680347
 20
551.462287
 30
0.0
 10
127.813232
 20
549.727682
 30
0.0
  0
SPLINE
  5
141
100
AcDbEntity
  8
Layer_1
 62
5
100
AcDbSpline
 70
8
 71
3
 72
8
 73
4
 74
0
 40
0
 40
0
 40
0
 40
0
 40
1
 40
1
 40
1
 40
1
 10
127.813232
 20
549.727682
 30
0.0
 10
128.898876
 20
546.881868
 30
0.0
 10
130.008013
 20
542.734498
 30
0.0
 10
128.624029
 20
538.159550
 30
0.0
  0
LWPOLYLINE
  5
142
100
AcDbEntity
  8
Layer_1
 62
5
100
AcDbPolyline
 90
1
 70
1
 10
133.765061
 20
556.045824
 30
0.0
  0
SPLINE
  5
143
100
AcDbEntity
  8
Layer_1
 62
5
100
AcDbSpline
 70
8
 71
3
 72
8
 73
4
 74
0
 40
0
 40
0
 40
0
 40
0
 40
1
 40
1
 40
1
 40
1
 10
128.328489
 20
537.784809
 30
0.0
 10
127.612474
 20
537.363099
 30
0.0
 10
126.846434
 20
537.155376
 30
0.0
 10
126.111076
 20
537.362674
 30
0.0
  0
SPLINE
  5
144
100
AcDbEntity
  8
Layer_1
 62
5
100
AcDbSpline
 70
8
 71
3
 72
8
 73
4
 74
0
 40
0
 40
0
 40
0
 40
0
 40
1
 40
1
 40
1
 40
1
 10
126.111076
 20
537.362674
 30
0.0
 10
125.884871
 20
537.426454
 30
0.0
 10
125.673106
 20
537.526517
 30
0.0
 10
125.475982
 20
537.659235
 30
0.0
  0
SPLINE
  5
145
100
AcDbEntity
  8
Layer_1
 62
5
100
AcDbSpline
 70
8
 71
3
 72
8
 73
4
 74
0
 40
0
 40
0
 40
0
 40
0
 40
1
 40
1
 40
1
 40
1
 10
125.475982
 20
537.659235
 30
0.0
 10
125.321465
 20
535.379811
 30
0.0
 10
125.256892
 20
533.062261
 30
0.0
 10
124.878801
 20
530.710753
 30
0.0
  0
SPLINE
  5
146
100
AcDbEntity
  8
Layer_1
 62
5
100
AcDbSpline
 70
8
 71
3
 72
8
 73
4
 74
0
 40
0
 40
0
 40
0
 40
0
 40
1
 40
1
 40
1
 40
1
 10
124.878801
 20
530.710753
 30
0.0
 10
126.532678
 20
531.761443
 30
0.0
 10
128.231240
 20
532.502022
 30
0.0
 10
129.958877
 20
533.003329
 30
0.0
  0
SPLINE
  5
147
100
AcDbEntity
  8
Layer_1
 62
5
100
AcDbSpline
 70
8
 71
3
 72
8
 73
4
 74
0
 40
0
 40
0
 40
0
 40
0
 40
1
 40
1
 40
1
 40
1
 10
129.958877
 20
533.003329
 30
0.0
 10
130.033230
 20
539.689351
 30
0.0
 10
130.290591
 20
547.222365
 30
0.0
 10
132.339804
 20
555.736394
 30
0.0
  0
LWPOLYLINE
  5
148
100
AcDbEntity
  8
Layer_1
 62
5
100
AcDbPolyline
 90
3
 70
0
 10
128.624029
 20
538.159550
 30
0.0
 10
128.549563
 20
537.915203
 30
0.0
 10
128.328489
 20
537.784809
 30
0.0
  0
SPLINE
  5
149
100
AcDbEntity
  8
Layer_1
 62
5
100
AcDbSpline
 70
8
 71
3
 72
8
 73
4
 74
0
 40
0
 40
0
 40
0
 40
0
 40
1
 40
1
 40
1
 40
1
 10
139.277764
 20
551.783282
 30
0.0
 10
145.555722
 20
551.811628
 30
0.0
 10
147.929751
 20
550.385943
 30
0.0
 10
154.174380
 20
549.620022
 30
0.0
  0
LWPOLYLINE
  5
14a
100
AcDbEntity
  8
Layer_1
 62
5
100
AcDbPolyline
 90
1
 70
1
 10
132.339804
 20
555.736394
 30
0.0
  0
SPLINE
  5
14b
100
AcDbEntity
  8
Layer_1
 62
5
100
AcDbSpline
 70
8
 71
3
 72
8
 73
4
 74
0
 40
0
 40
0
 40
0
 40
0
 40
1
 40
1
 40
1
 40
1
 10
154.015611
 20
548.319033
 30
0.0
 10
150.679233
 20
548.728243
 30
0.0
 10
148.471801
 20
549.303250
 30
0.0
 10
146.259405
 20
549.756454
 30
0.0
  0
SPLINE
  5
14c
100
AcDbEntity
  8
Layer_1
 62
5
100
AcDbSpline
 70
8
 71
3
 72
8
 73
4
 74
0
 40
0
 40
0
 40
0
 40
0
 40
1
 40
1
 40
1
 40
1
 10
146.259405
 20
549.756454
 30
0.0
 10
146.272728
 20
549.733776
 30
0.0
 10
146.287185
 20
549.713083
 30
0.0
 10
146.300026
 20
549.690690
 30
0.0
  0
SPLINE
  5
14d
100
AcDbEntity
  8
Layer_1
 62
5
100
AcDbSpline
 70
8
 71
3
 72
8
 73
4
 74
0
 40
0
 40
0
 40
0
 40
0
 40
1
 40
1
 40
1
 40
1
 10
146.300026
 20
549.690690
 30
0.0
 10
146.760729
 20
548.891858
 30
0.0
 10
146.895066
 20
547.826854
 30
0.0
 10
146.633822
 20
546.663146
 30
0.0
  0
SPLINE
  5
14e
100
AcDbEntity
  8
Layer_1
 62
5
100
AcDbSpline
 70
8
 71
3
 72
8
 73
4
 74
0
 40
0
 40
0
 40
0
 40
0
 40
1
 40
1
 40
1
 40
1
 10
146.633822
 20
546.663146
 30
0.0
 10
146.372581
 20
545.499468
 30
0.0
 10
145.759847
 20
544.433471
 30
0.0
 10
144.940465
 20
543.634611
 30
0.0
  0
SPLINE
  5
14f
100
AcDbEntity
  8
Layer_1
 62
5
100
AcDbSpline
 70
8
 71
3
 72
8
 73
4
 74
0
 40
0
 40
0
 40
0
 40
0
 40
1
 40
1
 40
1
 40
1
 10
144.940465
 20
543.634611
 30
0.0
 10
144.121082
 20
542.835780
 30
0.0
 10
143.062515
 20
542.296035
 30
0.0
 10
142.010433
 20
542.296035
 30
0.0
  0
SPLINE
  5
150
100
AcDbEntity
  8
Layer_1
 62
5
100
AcDbSpline
 70
8
 71
3
 72
8
 73
4
 74
0
 40
0
 40
0
 40
0
 40
0
 40
1
 40
1
 40
1
 40
1
 10
142.010433
 20
542.296035
 30
0.0
 10
140.958343
 20
542.296035
 30
0.0
 10
140.142345
 20
542.835780
 30
0.0
 10
139.681641
 20
543.634611
 30
0.0
  0
SPLINE
  5
151
100
AcDbEntity
  8
Layer_1
 62
5
100
AcDbSpline
 70
8
 71
3
 72
8
 73
4
 74
0
 40
0
 40
0
 40
0
 40
0
 40
1
 40
1
 40
1
 40
1
 10
139.681641
 20
543.634611
 30
0.0
 10
139.220932
 20
544.433471
 30
0.0
 10
139.086938
 20
545.499468
 30
0.0
 10
139.348182
 20
546.663146
 30
0.0
  0
SPLINE
  5
152
100
AcDbEntity
  8
Layer_1
 62
5
100
AcDbSpline
 70
8
 71
3
 72
8
 73
4
 74
0
 40
0
 40
0
 40
0
 40
0
 40
1
 40
1
 40
1
 40
1
 10
139.348182
 20
546.663146
 30
0.0
 10
139.609423
 20
547.826854
 30
0.0
 10
140.221823
 20
548.891858
 30
0.0
 10
141.041203
 20
549.690690
 30
0.0
  0
SPLINE
  5
153
100
AcDbEntity
  8
Layer_1
 62
5
100
AcDbSpline
 70
8
 71
3
 72
8
 73
4
 74
0
 40
0
 40
0
 40
0
 40
0
 40
1
 40
1
 40
1
 40
1
 10
141.041203
 20
549.690690
 30
0.0
 10
141.311316
 20
549.954028
 30
0.0
 10
141.607794
 20
550.188425
 30
0.0
 10
141.921060
 20
550.385376
 30
0.0
  0
SPLINE
  5
154
100
AcDbEntity
  8
Layer_1
 62
5
100
AcDbSpline
 70
8
 71
3
 72
8
 73
4
 74
0
 40
0
 40
0
 40
0
 40
0
 40
1
 40
1
 40
1
 40
1
 10
141.921060
 20
550.385376
 30
0.0
 10
140.953238
 20
550.456809
 30
0.0
 10
139.893208
 20
550.488841
 30
0.0
 10
138.682281
 20
550.465880
 30
0.0
  0
LWPOLYLINE
  5
155
100
AcDbEntity
  8
Layer_1
 62
5
100
AcDbPolyline
 90
2
 70
0
 10
154.174380
 20
549.620022
 30
0.0
 10
154.015611
 20
548.319033
 30
0.0
  0
SPLINE
  5
156
100
AcDbEntity
  8
Layer_1
 62
5
100
AcDbSpline
 70
8
 71
3
 72
8
 73
4
 74
0
 40
0
 40
0
 40
0
 40
0
 40
1
 40
1
 40
1
 40
1
 10
138.657903
 20
551.776025
 30
0.0
 10
138.868801
 20
551.778860
 30
0.0
 10
139.075248
 20
551.781694
 30
0.0
 10
139.277761
 20
551.784529
 30
0.0
  0
LWPOLYLINE
  5
157
100
AcDbEntity
  8
Layer_1
 62
5
100
AcDbPolyline
 90
2
 70
0
 10
138.682281
 20
550.465880
 30
0.0
 10
138.657903
 20
551.776025
 30
0.0
  0
SPLINE
  5
158
100
AcDbEntity
  8
Layer_1
 62
5
100
AcDbSpline
 70
8
 71
3
 72
8
 73
4
 74
0
 40
0
 40
0
 40
0
 40
0
 40
1
 40
1
 40
1
 40
1
 10
143.680431
 20
549.734457
 30
0.0
 10
143.144396
 20
549.734457
 30
0.0
 10
142.589106
 20
549.493512
 30
0.0
 10
142.073059
 20
549.044164
 30
0.0
  0
SPLINE
  5
159
100
AcDbEntity
  8
Layer_1
 62
5
100
AcDbSpline
 70
8
 71
3
 72
8
 73
4
 74
0
 40
0
 40
0
 40
0
 40
0
 40
1
 40
1
 40
1
 40
1
 10
142.073059
 20
549.044164
 30
0.0
 10
142.276728
 20
549.161235
 30
0.0
 10
142.514549
 20
549.232668
 30
0.0
 10
142.780938
 20
549.232668
 30
0.0
  0
SPLINE
  5
15a
100
AcDbEntity
  8
Layer_1
 62
5
100
AcDbSpline
 70
8
 71
3
 72
8
 73
4
 74
0
 40
0
 40
0
 40
0
 40
0
 40
1
 40
1
 40
1
 40
1
 10
142.780938
 20
549.232668
 30
0.0
 10
143.337518
 20
549.232668
 30
0.0
 10
143.864745
 20
548.927320
 30
0.0
 10
144.230550
 20
548.524120
 30
0.0
  0
SPLINE
  5
15b
100
AcDbEntity
  8
Layer_1
 62
5
100
AcDbSpline
 70
8
 71
3
 72
8
 73
4
 74
0
 40
0
 40
0
 40
0
 40
0
 40
1
 40
1
 40
1
 40
1
 10
144.230550
 20
548.524120
 30
0.0
 10
144.596344
 20
548.120920
 30
0.0
 10
144.837051
 20
547.609181
 30
0.0
 10
144.919811
 20
547.056227
 30
0.0
  0
SPLINE
  5
15c
100
AcDbEntity
  8
Layer_1
 62
5
100
AcDbSpline
 70
8
 71
3
 72
8
 73
4
 74
0
 40
0
 40
0
 40
0
 40
0
 40
1
 40
1
 40
1
 40
1
 10
144.919811
 20
547.056227
 30
0.0
 10
145.002583
 20
546.503272
 30
0.0
 10
144.915276
 20
545.990173
 30
0.0
 10
144.670306
 20
545.586973
 30
0.0
  0
SPLINE
  5
15d
100
AcDbEntity
  8
Layer_1
 62
5
100
AcDbSpline
 70
8
 71
3
 72
8
 73
4
 74
0
 40
0
 40
0
 40
0
 40
0
 40
1
 40
1
 40
1
 40
1
 10
144.670306
 20
545.586973
 30
0.0
 10
144.425194
 20
545.183773
 30
0.0
 10
143.989197
 20
544.879786
 30
0.0
 10
143.432617
 20
544.879786
 30
0.0
  0
SPLINE
  5
15e
100
AcDbEntity
  8
Layer_1
 62
5
100
AcDbSpline
 70
8
 71
3
 72
8
 73
4
 74
0
 40
0
 40
0
 40
0
 40
0
 40
1
 40
1
 40
1
 40
1
 10
143.432617
 20
544.879786
 30
0.0
 10
142.876043
 20
544.879786
 30
0.0
 10
142.347784
 20
545.183773
 30
0.0
 10
141.981990
 20
545.586973
 30
0.0
  0
SPLINE
  5
15f
100
AcDbEntity
  8
Layer_1
 62
5
100
AcDbSpline
 70
8
 71
3
 72
8
 73
4
 74
0
 40
0
 40
0
 40
0
 40
0
 40
1
 40
1
 40
1
 40
1
 10
141.981990
 20
545.586973
 30
0.0
 10
141.616191
 20
545.990173
 30
0.0
 10
141.375149
 20
546.503272
 30
0.0
 10
141.292392
 20
547.056227
 30
0.0
  0
SPLINE
  5
160
100
AcDbEntity
  8
Layer_1
 62
5
100
AcDbSpline
 70
8
 71
3
 72
8
 73
4
 74
0
 40
0
 40
0
 40
0
 40
0
 40
1
 40
1
 40
1
 40
1
 10
141.292392
 20
547.056227
 30
0.0
 10
141.219116
 20
547.545798
 30
0.0
 10
141.279636
 20
548.002715
 30
0.0
 10
141.464710
 20
548.380913
 30
0.0
  0
SPLINE
  5
161
100
AcDbEntity
  8
Layer_1
 62
5
100
AcDbSpline
 70
8
 71
3
 72
8
 73
4
 74
0
 40
0
 40
0
 40
0
 40
0
 40
1
 40
1
 40
1
 40
1
 10
141.464710
 20
548.380913
 30
0.0
 10
141.106045
 20
547.895537
 30
0.0
 10
140.819091
 20
547.305449
 30
0.0
 10
140.674904
 20
546.663175
 30
0.0
  0
SPLINE
  5
162
100
AcDbEntity
  8
Layer_1
 62
5
100
AcDbSpline
 70
8
 71
3
 72
8
 73
4
 74
0
 40
0
 40
0
 40
0
 40
0
 40
1
 40
1
 40
1
 40
1
 10
140.674904
 20
546.663175
 30
0.0
 10
140.475033
 20
545.772898
 30
0.0
 10
140.590205
 20
544.978403
 30
0.0
 10
140.905786
 20
544.431232
 30
0.0
  0
SPLINE
  5
163
100
AcDbEntity
  8
Layer_1
 62
5
100
AcDbSpline
 70
8
 71
3
 72
8
 73
4
 74
0
 40
0
 40
0
 40
0
 40
0
 40
1
 40
1
 40
1
 40
1
 10
140.905786
 20
544.431232
 30
0.0
 10
141.221358
 20
543.884032
 30
0.0
 10
141.707633
 20
543.590957
 30
0.0
 10
142.301234
 20
543.590957
 30
0.0
  0
SPLINE
  5
164
100
AcDbEntity
  8
Layer_1
 62
5
100
AcDbSpline
 70
8
 71
3
 72
8
 73
4
 74
0
 40
0
 40
0
 40
0
 40
0
 40
1
 40
1
 40
1
 40
1
 10
142.301234
 20
543.590957
 30
0.0
 10
142.894826
 20
543.590957
 30
0.0
 10
143.512546
 20
543.884032
 30
0.0
 10
144.073809
 20
544.431232
 30
0.0
  0
SPLINE
  5
165
100
AcDbEntity
  8
Layer_1
 62
5
100
AcDbSpline
 70
8
 71
3
 72
8
 73
4
 74
0
 40
0
 40
0
 40
0
 40
0
 40
1
 40
1
 40
1
 40
1
 10
144.073809
 20
544.431232
 30
0.0
 10
144.635071
 20
544.978403
 30
0.0
 10
145.108244
 20
545.772898
 30
0.0
 10
145.308112
 20
546.663175
 30
0.0
  0
SPLINE
  5
166
100
AcDbEntity
  8
Layer_1
 62
5
100
AcDbSpline
 70
8
 71
3
 72
8
 73
4
 74
0
 40
0
 40
0
 40
0
 40
0
 40
1
 40
1
 40
1
 40
1
 10
145.308112
 20
546.663175
 30
0.0
 10
145.507983
 20
547.553480
 30
0.0
 10
145.391451
 20
548.346954
 30
0.0
 10
145.075870
 20
548.894154
 30
0.0
  0
SPLINE
  5
167
100
AcDbEntity
  8
Layer_1
 62
5
100
AcDbSpline
 70
8
 71
3
 72
8
 73
4
 74
0
 40
0
 40
0
 40
0
 40
0
 40
1
 40
1
 40
1
 40
1
 10
145.075870
 20
548.894154
 30
0.0
 10
144.760292
 20
549.441326
 30
0.0
 10
144.274025
 20
549.734400
 30
0.0
 10
143.680425
 20
549.734400
 30
0.0
  0
LWPOLYLINE
  5
168
100
AcDbEntity
  8
Layer_1
 62
5
100
AcDbPolyline
 90
2
 70
0
 10
139.277761
 20
551.784529
 30
0.0
 10
139.277764
 20
551.783282
 30
0.0
  0
SPLINE
  5
169
100
AcDbEntity
  8
Layer_1
 62
5
100
AcDbSpline
 70
8
 71
3
 72
8
 73
4
 74
0
 40
0
 40
0
 40
0
 40
0
 40
1
 40
1
 40
1
 40
1
 10
126.908663
 20
548.375556
 30
0.0
 10
125.934299
 20
547.031735
 30
0.0
 10
124.984273
 20
545.728535
 30
0.0
 10
124.502686
 20
544.473921
 30
0.0
  0
SPLINE
  5
16a
100
AcDbEntity
  8
Layer_1
 62
5
100
AcDbSpline
 70
8
 71
3
 72
8
 73
4
 74
0
 40
0
 40
0
 40
0
 40
0
 40
1
 40
1
 40
1
 40
1
 10
124.502686
 20
544.473921
 30
0.0
 10
123.901081
 20
542.906674
 30
0.0
 10
123.904363
 20
541.494510
 30
0.0
 10
125.443140
 20
539.728328
 30
0.0
  0
LWPOLYLINE
  5
16b
100
AcDbEntity
  8
Layer_1
 62
5
100
AcDbPolyline
 90
1
 70
1
 10
143.680425
 20
549.734400
 30
0.0
  0
SPLINE
  5
16c
100
AcDbEntity
  8
Layer_1
 62
5
100
AcDbSpline
 70
8
 71
3
 72
8
 73
4
 74
0
 40
0
 40
0
 40
0
 40
0
 40
1
 40
1
 40
1
 40
1
 10
125.621014
 20
539.436076
 30
0.0
 10
125.918113
 20
538.913622
 30
0.0
 10
126.204891
 20
538.696091
 30
0.0
 10
126.465661
 20
538.622589
 30
0.0
  0
SPLINE
  5
16d
100
AcDbEntity
  8
Layer_1
 62
5
100
AcDbSpline
 70
8
 71
3
 72
8
 73
4
 74
0
 40
0
 40
0
 40
0
 40
0
 40
1
 40
1
 40
1
 40
1
 10
126.465661
 20
538.622589
 30
0.0
 10
126.695041
 20
538.557959
 30
0.0
 10
127.045633
 20
538.683534
 30
0.0
 10
127.425073
 20
538.856731
 30
0.0
  0
SPLINE
  5
16e
100
AcDbEntity
  8
Layer_1
 62
5
100
AcDbSpline
 70
8
 71
3
 72
8
 73
4
 74
0
 40
0
 40
0
 40
0
 40
0
 40
1
 40
1
 40
1
 40
1
 10
127.425073
 20
538.856731
 30
0.0
 10
128.423395
 20
542.474787
 30
0.0
 10
127.777714
 20
545.811676
 30
0.0
 10
126.908804
 20
548.375357
 30
0.0
  0
LWPOLYLINE
  5
16f
100
AcDbEntity
  8
Layer_1
 62
5
100
AcDbPolyline
 90
3
 70
0
 10
125.443140
 20
539.728328
 30
0.0
 10
125.628667
 20
539.516013
 30
0.0
 10
125.621014
 20
539.436076
 30
0.0
  0
SPLINE
  5
170
100
AcDbEntity
  8
Layer_1
 62
5
100
AcDbSpline
 70
8
 71
3
 72
8
 73
4
 74
0
 40
0
 40
0
 40
0
 40
0
 40
1
 40
1
 40
1
 40
1
 10
142.975936
 20
547.929383
 30
0.0
 10
142.894525
 20
547.929383
 30
0.0
 10
142.803958
 20
547.892249
 30
0.0
 10
142.713561
 20
547.743430
 30
0.0
  0
SPLINE
  5
171
100
AcDbEntity
  8
Layer_1
 62
5
100
AcDbSpline
 70
8
 71
3
 72
8
 73
4
 74
0
 40
0
 40
0
 40
0
 40
0
 40
1
 40
1
 40
1
 40
1
 10
142.713561
 20
547.743430
 30
0.0
 10
142.623164
 20
547.594611
 30
0.0
 10
142.567038
 20
547.345361
 30
0.0
 10
142.610295
 20
547.056198
 30
0.0
  0
SPLINE
  5
172
100
AcDbEntity
  8
Layer_1
 62
5
100
AcDbSpline
 70
8
 71
3
 72
8
 73
4
 74
0
 40
0
 40
0
 40
0
 40
0
 40
1
 40
1
 40
1
 40
1
 10
142.610295
 20
547.056198
 30
0.0
 10
142.653609
 20
546.767036
 30
0.0
 10
142.784484
 20
546.516283
 30
0.0
 10
142.919379
 20
546.367606
 30
0.0
  0
SPLINE
  5
173
100
AcDbEntity
  8
Layer_1
 62
5
100
AcDbSpline
 70
8
 71
3
 72
8
 73
4
 74
0
 40
0
 40
0
 40
0
 40
0
 40
1
 40
1
 40
1
 40
1
 10
142.919379
 20
546.367606
 30
0.0
 10
143.054252
 20
546.219071
 30
0.0
 10
143.155874
 20
546.183071
 30
0.0
 10
143.237265
 20
546.183071
 30
0.0
  0
SPLINE
  5
174
100
AcDbEntity
  8
Layer_1
 62
5
100
AcDbSpline
 70
8
 71
3
 72
8
 73
4
 74
0
 40
0
 40
0
 40
0
 40
0
 40
1
 40
1
 40
1
 40
1
 10
143.237265
 20
546.183071
 30
0.0
 10
143.318676
 20
546.183071
 30
0.0
 10
143.408563
 20
546.218787
 30
0.0
 10
143.498959
 20
546.367606
 30
0.0
  0
SPLINE
  5
175
100
AcDbEntity
  8
Layer_1
 62
5
100
AcDbSpline
 70
8
 71
3
 72
8
 73
4
 74
0
 40
0
 40
0
 40
0
 40
0
 40
1
 40
1
 40
1
 40
1
 10
143.498959
 20
546.367606
 30
0.0
 10
143.589328
 20
546.516142
 30
0.0
 10
143.646503
 20
546.767036
 30
0.0
 10
143.603218
 20
547.056198
 30
0.0
  0
SPLINE
  5
176
100
AcDbEntity
  8
Layer_1
 62
5
100
AcDbSpline
 70
8
 71
3
 72
8
 73
4
 74
0
 40
0
 40
0
 40
0
 40
0
 40
1
 40
1
 40
1
 40
1
 10
143.603218
 20
547.056198
 30
0.0
 10
143.559904
 20
547.345361
 30
0.0
 10
143.428008
 20
547.594753
 30
0.0
 10
143.293119
 20
547.743430
 30
0.0
  0
SPLINE
  5
177
100
AcDbEntity
  8
Layer_1
 62
5
100
AcDbSpline
 70
8
 71
3
 72
8
 73
4
 74
0
 40
0
 40
0
 40
0
 40
0
 40
1
 40
1
 40
1
 40
1
 10
143.293119
 20
547.743430
 30
0.0
 10
143.158246
 20
547.891965
 30
0.0
 10
143.057333
 20
547.929383
 30
0.0
 10
142.975911
 20
547.929383
 30
0.0
  0
LWPOLYLINE
  5
178
100
AcDbEntity
  8
Layer_1
 62
5
100
AcDbPolyline
 90
2
 70
0
 10
126.908804
 20
548.375357
 30
0.0
 10
126.908663
 20
548.375556
 30
0.0
  0
SPLINE
  5
179
100
AcDbEntity
  8
Layer_1
 62
5
100
AcDbSpline
 70
8
 71
3
 72
8
 73
4
 74
0
 40
0
 40
0
 40
0
 40
0
 40
1
 40
1
 40
1
 40
1
 10
150.152905
 20
547.502485
 30
0.0
 10
151.699589
 20
547.502485
 30
0.0
 10
153.072780
 20
546.423392
 30
0.0
 10
153.072780
 20
544.953969
 30
0.0
  0
SPLINE
  5
17a
100
AcDbEntity
  8
Layer_1
 62
5
100
AcDbSpline
 70
8
 71
3
 72
8
 73
4
 74
0
 40
0
 40
0
 40
0
 40
0
 40
1
 40
1
 40
1
 40
1
 10
153.072780
 20
544.953969
 30
0.0
 10
153.072780
 20
543.484573
 30
0.0
 10
151.699589
 20
542.403780
 30
0.0
 10
150.152905
 20
542.403780
 30
0.0
  0
SPLINE
  5
17b
100
AcDbEntity
  8
Layer_1
 62
5
100
AcDbSpline
 70
8
 71
3
 72
8
 73
4
 74
0
 40
0
 40
0
 40
0
 40
0
 40
1
 40
1
 40
1
 40
1
 10
150.152905
 20
542.403780
 30
0.0
 10
148.606223
 20
542.403780
 30
0.0
 10
147.234385
 20
543.484573
 30
0.0
 10
147.234385
 20
544.953969
 30
0.0
  0
SPLINE
  5
17c
100
AcDbEntity
  8
Layer_1
 62
5
100
AcDbSpline
 70
8
 71
3
 72
8
 73
4
 74
0
 40
0
 40
0
 40
0
 40
0
 40
1
 40
1
 40
1
 40
1
 10
147.234385
 20
544.953969
 30
0.0
 10
147.234385
 20
546.423392
 30
0.0
 10
148.606223
 20
547.502485
 30
0.0
 10
150.152905
 20
547.502485
 30
0.0
  0
LWPOLYLINE
  5
17d
100
AcDbEntity
  8
Layer_1
 62
5
100
AcDbPolyline
 90
1
 70
1
 10
142.975911
 20
547.929383
 30
0.0
  0
SPLINE
  5
17e
100
AcDbEntity
  8
Layer_1
 62
5
100
AcDbSpline
 70
8
 71
3
 72
8
 73
4
 74
0
 40
0
 40
0
 40
0
 40
0
 40
1
 40
1
 40
1
 40
1
 10
155.883308
 20
546.346715
 30
0.0
 10
154.936406
 20
542.805250
 30
0.0
 10
154.994950
 20
540.025398
 30
0.0
 10
155.697129
 20
537.717770
 30
0.0
  0
SPLINE
  5
17f
100
AcDbEntity
  8
Layer_1
 62
5
100
AcDbSpline
 70
8
 71
3
 72
8
 73
4
 74
0
 40
0
 40
0
 40
0
 40
0
 40
1
 40
1
 40
1
 40
1
 10
155.697129
 20
537.717770
 30
0.0
 10
156.583018
 20
538.614737
 30
0.0
 10
157.362180
 20
540.157521
 30
0.0
 10
157.548586
 20
541.746000
 30
0.0
  0
SPLINE
  5
180
100
AcDbEntity
  8
Layer_1
 62
5
100
AcDbSpline
 70
8
 71
3
 72
8
 73
4
 74
0
 40
0
 40
0
 40
0
 40
0
 40
1
 40
1
 40
1
 40
1
 10
157.548586
 20
541.746000
 30
0.0
 10
157.750894
 20
543.469918
 30
0.0
 10
157.352683
 20
545.171641
 30
0.0
 10
155.883322
 20
546.346715
 30
0.0
  0
LWPOLYLINE
  5
181
100
AcDbEntity
  8
Layer_1
 62
5
100
AcDbPolyline
 90
1
 70
1
 10
150.152905
 20
547.502485
 30
0.0
  0
SPLINE
  5
182
100
AcDbEntity
  8
Layer_1
 62
5
100
AcDbSpline
 70
8
 71
3
 72
8
 73
4
 74
0
 40
0
 40
0
 40
0
 40
0
 40
1
 40
1
 40
1
 40
1
 10
150.152905
 20
546.192227
 30
0.0
 10
149.198706
 20
546.192227
 30
0.0
 10
148.544518
 20
545.577024
 30
0.0
 10
148.544518
 20
544.953855
 30
0.0
  0
SPLINE
  5
183
100
AcDbEntity
  8
Layer_1
 62
5
100
AcDbSpline
 70
8
 71
3
 72
8
 73
4
 74
0
 40
0
 40
0
 40
0
 40
0
 40
1
 40
1
 40
1
 40
1
 10
148.544518
 20
544.953855
 30
0.0
 10
148.544518
 20
544.330715
 30
0.0
 10
149.198706
 20
543.713811
 30
0.0
 10
150.152905
 20
543.713811
 30
0.0
  0
SPLINE
  5
184
100
AcDbEntity
  8
Layer_1
 62
5
100
AcDbSpline
 70
8
 71
3
 72
8
 73
4
 74
0
 40
0
 40
0
 40
0
 40
0
 40
1
 40
1
 40
1
 40
1
 10
150.152905
 20
543.713811
 30
0.0
 10
151.107106
 20
543.713811
 30
0.0
 10
151.762646
 20
544.330715
 30
0.0
 10
151.762646
 20
544.953855
 30
0.0
  0
SPLINE
  5
185
100
AcDbEntity
  8
Layer_1
 62
5
100
AcDbSpline
 70
8
 71
3
 72
8
 73
4
 74
0
 40
0
 40
0
 40
0
 40
0
 40
1
 40
1
 40
1
 40
1
 10
151.762646
 20
544.953855
 30
0.0
 10
151.762646
 20
545.577024
 30
0.0
 10
151.107106
 20
546.192227
 30
0.0
 10
150.152905
 20
546.192227
 30
0.0
  0
LWPOLYLINE
  5
186
100
AcDbEntity
  8
Layer_1
 62
5
100
AcDbPolyline
 90
1
 70
1
 10
155.883322
 20
546.346715
 30
0.0
  0
SPLINE
  5
187
100
AcDbEntity
  8
Layer_1
 62
5
100
AcDbSpline
 70
8
 71
3
 72
8
 73
4
 74
0
 40
0
 40
0
 40
0
 40
0
 40
1
 40
1
 40
1
 40
1
 10
134.180762
 20
541.855928
 30
0.0
 10
139.343587
 20
541.567757
 30
0.0
 10
145.318969
 20
539.465301
 30
0.0
 10
152.344590
 20
539.396787
 30
0.0
  0
LWPOLYLINE
  5
188
100
AcDbEntity
  8
Layer_1
 62
5
100
AcDbPolyline
 90
1
 70
1
 10
150.152905
 20
546.192227
 30
0.0
  0
SPLINE
  5
189
100
AcDbEntity
  8
Layer_1
 62
5
100
AcDbSpline
 70
8
 71
3
 72
8
 73
4
 74
0
 40
0
 40
0
 40
0
 40
0
 40
1
 40
1
 40
1
 40
1
 10
152.332118
 20
538.086643
 30
0.0
 10
145.055781
 20
538.157509
 30
0.0
 10
138.962778
 20
540.277540
 30
0.0
 10
134.108031
 20
540.548476
 30
0.0
  0
LWPOLYLINE
  5
18a
100
AcDbEntity
  8
Layer_1
 62
5
100
AcDbPolyline
 90
2
 70
0
 10
152.344590
 20
539.396787
 30
0.0
 10
152.332118
 20
538.086643
 30
0.0
  0
SPLINE
  5
18b
100
AcDbEntity
  8
Layer_1
 62
5
100
AcDbSpline
 70
8
 71
3
 72
8
 73
4
 74
0
 40
0
 40
0
 40
0
 40
0
 40
1
 40
1
 40
1
 40
1
 10
136.348410
 20
532.587118
 30
0.0
 10
132.179437
 20
532.543181
 30
0.0
 10
128.191388
 20
531.605282
 30
0.0
 10
124.424821
 20
528.809414
 30
0.0
  0
SPLINE
  5
18c
100
AcDbEntity
  8
Layer_1
 62
5
100
AcDbSpline
 70
8
 71
3
 72
8
 73
4
 74
0
 40
0
 40
0
 40
0
 40
0
 40
1
 40
1
 40
1
 40
1
 10
124.424821
 20
528.809414
 30
0.0
 10
123.080888
 20
526.563780
 30
0.0
 10
121.462634
 20
525.533953
 30
0.0
 10
120.157234
 20
523.930082
 30
0.0
  0
SPLINE
  5
18d
100
AcDbEntity
  8
Layer_1
 62
5
100
AcDbSpline
 70
8
 71
3
 72
8
 73
4
 74
0
 40
0
 40
0
 40
0
 40
0
 40
1
 40
1
 40
1
 40
1
 10
120.157234
 20
523.930082
 30
0.0
 10
118.835657
 20
522.306340
 30
0.0
 10
117.687753
 20
520.030261
 30
0.0
 10
117.174050
 20
515.020819
 30
0.0
  0
SPLINE
  5
18e
100
AcDbEntity
  8
Layer_1
 62
5
100
AcDbSpline
 70
8
 71
3
 72
8
 73
4
 74
0
 40
0
 40
0
 40
0
 40
0
 40
1
 40
1
 40
1
 40
1
 10
117.174050
 20
515.020819
 30
0.0
 10
118.229930
 20
508.931632
 30
0.0
 10
117.395748
 20
498.818835
 30
0.0
 10
116.307737
 20
490.044954
 30
0.0
  0
SPLINE
  5
18f
100
AcDbEntity
  8
Layer_1
 62
5
100
AcDbSpline
 70
8
 71
3
 72
8
 73
4
 74
0
 40
0
 40
0
 40
0
 40
0
 40
1
 40
1
 40
1
 40
1
 10
116.307737
 20
490.044954
 30
0.0
 10
116.180688
 20
487.163537
 30
0.0
 10
116.071639
 20
484.308765
 30
0.0
 10
116.289595
 20
481.417370
 30
0.0
  0
SPLINE
  5
190
100
AcDbEntity
  8
Layer_1
 62
5
100
AcDbSpline
 70
8
 71
3
 72
8
 73
4
 74
0
 40
0
 40
0
 40
0
 40
0
 40
1
 40
1
 40
1
 40
1
 10
116.289595
 20
481.417370
 30
0.0
 10
125.819966
 20
481.186630
 30
0.0
 10
135.765595
 20
481.569874
 30
0.0
 10
144.754744
 20
480.227414
 30
0.0
  0
SPLINE
  5
191
100
AcDbEntity
  8
Layer_1
 62
5
100
AcDbSpline
 70
8
 71
3
 72
8
 73
4
 74
0
 40
0
 40
0
 40
0
 40
0
 40
1
 40
1
 40
1
 40
1
 10
144.754744
 20
480.227414
 30
0.0
 10
157.282994
 20
480.575112
 30
0.0
 10
170.305155
 20
483.095112
 30
0.0
 10
183.171844
 20
484.597247
 30
0.0
  0
SPLINE
  5
192
100
AcDbEntity
  8
Layer_1
 62
5
100
AcDbSpline
 70
8
 71
3
 72
8
 73
4
 74
0
 40
0
 40
0
 40
0
 40
0
 40
1
 40
1
 40
1
 40
1
 10
183.171844
 20
484.597247
 30
0.0
 10
182.933875
 20
486.757417
 30
0.0
 10
182.443686
 20
488.985222
 30
0.0
 10
181.807543
 20
491.255235
 30
0.0
  0
SPLINE
  5
193
100
AcDbEntity
  8
Layer_1
 62
5
100
AcDbSpline
 70
8
 71
3
 72
8
 73
4
 74
0
 40
0
 40
0
 40
0
 40
0
 40
1
 40
1
 40
1
 40
1
 10
181.807543
 20
491.255235
 30
0.0
 10
179.229864
 20
498.887235
 30
0.0
 10
178.417114
 20
507.006113
 30
0.0
 10
174.217898
 20
513.715436
 30
0.0
  0
LWPOLYLINE
  5
194
100
AcDbEntity
  8
Layer_1
 62
5
100
AcDbPolyline
 90
2
 70
0
 10
134.108031
 20
540.548476
 30
0.0
 10
134.180762
 20
541.855928
 30
0.0
  0
SPLINE
  5
195
100
AcDbEntity
  8
Layer_1
 62
5
100
AcDbSpline
 70
8
 71
3
 72
8
 73
4
 74
0
 40
0
 40
0
 40
0
 40
0
 40
1
 40
1
 40
1
 40
1
 10
174.099013
 20
513.910460
 30
0.0
 10
172.050644
 20
517.476501
 30
0.0
 10
170.272902
 20
521.131748
 30
0.0
 10
167.584895
 20
524.062148
 30
0.0
  0
SPLINE
  5
196
100
AcDbEntity
  8
Layer_1
 62
5
100
AcDbSpline
 70
8
 71
3
 72
8
 73
4
 74
0
 40
0
 40
0
 40
0
 40
0
 40
1
 40
1
 40
1
 40
1
 10
167.584895
 20
524.062148
 30
0.0
 10
164.896892
 20
526.992548
 30
0.0
 10
161.322755
 20
529.236964
 30
0.0
 10
155.503891
 20
530.028510
 30
0.0
  0
LWPOLYLINE
  5
197
100
AcDbEntity
  8
Layer_1
 62
5
100
AcDbPolyline
 90
3
 70
0
 10
174.217898
 20
513.715436
 30
0.0
 10
174.207694
 20
513.721106
 30
0.0
 10
174.099013
 20
513.910460
 30
0.0
  0
SPLINE
  5
198
100
AcDbEntity
  8
Layer_1
 62
5
100
AcDbSpline
 70
8
 71
3
 72
8
 73
4
 74
0
 40
0
 40
0
 40
0
 40
0
 40
1
 40
1
 40
1
 40
1
 10
155.467664
 20
530.034180
 30
0.0
 10
150.029167
 20
530.645187
 30
0.0
 10
144.549244
 20
532.092217
 30
0.0
 10
139.288674
 20
532.486885
 30
0.0
  0
SPLINE
  5
199
100
AcDbEntity
  8
Layer_1
 62
5
100
AcDbSpline
 70
8
 71
3
 72
8
 73
4
 74
0
 40
0
 40
0
 40
0
 40
0
 40
1
 40
1
 40
1
 40
1
 10
139.288674
 20
532.486885
 30
0.0
 10
138.299125
 20
532.561153
 30
0.0
 10
137.318956
 20
532.599420
 30
0.0
 10
136.348486
 20
532.589216
 30
0.0
  0
LWPOLYLINE
  5
19a
100
AcDbEntity
  8
Layer_1
 62
5
100
AcDbPolyline
 90
2
 70
0
 10
155.503891
 20
530.028510
 30
0.0
 10
155.467664
 20
530.034180
 30
0.0
  0
SPLINE
  5
19b
100
AcDbEntity
  8
Layer_1
 62
5
100
AcDbSpline
 70
8
 71
3
 72
8
 73
4
 74
0
 40
0
 40
0
 40
0
 40
0
 40
1
 40
1
 40
1
 40
1
 10
136.768195
 20
515.626129
 30
0.0
 10
138.555865
 20
515.617625
 30
0.0
 10
139.896479
 20
515.011153
 30
0.0
 10
140.734488
 20
514.091877
 30
0.0
  0
SPLINE
  5
19c
100
AcDbEntity
  8
Layer_1
 62
5
100
AcDbSpline
 70
8
 71
3
 72
8
 73
4
 74
0
 40
0
 40
0
 40
0
 40
0
 40
1
 40
1
 40
1
 40
1
 10
140.734488
 20
514.091877
 30
0.0
 10
141.628363
 20
513.111317
 30
0.0
 10
141.933044
 20
511.823650
 30
0.0
 10
141.746372
 20
510.664195
 30
0.0
  0
SPLINE
  5
19d
100
AcDbEntity
  8
Layer_1
 62
5
100
AcDbSpline
 70
8
 71
3
 72
8
 73
4
 74
0
 40
0
 40
0
 40
0
 40
0
 40
1
 40
1
 40
1
 40
1
 10
141.746372
 20
510.664195
 30
0.0
 10
141.559710
 20
509.504740
 30
0.0
 10
140.866390
 20
508.428510
 30
0.0
 10
139.731403
 20
507.949143
 30
0.0
  0
SPLINE
  5
19e
100
AcDbEntity
  8
Layer_1
 62
5
100
AcDbSpline
 70
8
 71
3
 72
8
 73
4
 74
0
 40
0
 40
0
 40
0
 40
0
 40
1
 40
1
 40
1
 40
1
 10
139.731403
 20
507.949143
 30
0.0
 10
138.596409
 20
507.469748
 30
0.0
 10
137.113586
 20
507.647991
 30
0.0
 10
135.517980
 20
508.686123
 30
0.0
  0
LWPOLYLINE
  5
19f
100
AcDbEntity
  8
Layer_1
 62
5
100
AcDbPolyline
 90
2
 70
0
 10
136.348486
 20
532.589216
 30
0.0
 10
136.348410
 20
532.587118
 30
0.0
  0
SPLINE
  5
1a0
100
AcDbEntity
  8
Layer_1
 62
5
100
AcDbSpline
 70
8
 71
3
 72
8
 73
4
 74
0
 40
0
 40
0
 40
0
 40
0
 40
1
 40
1
 40
1
 40
1
 10
135.229867
 20
509.123509
 30
0.0
 10
134.956551
 20
510.710145
 30
0.0
 10
134.610389
 20
512.540617
 30
0.0
 10
135.832802
 20
515.235798
 30
0.0
  0
LWPOLYLINE
  5
1a1
100
AcDbEntity
  8
Layer_1
 62
5
100
AcDbPolyline
 90
3
 70
0
 10
135.517980
 20
508.686123
 30
0.0
 10
135.278623
 20
508.842312
 30
0.0
 10
135.229867
 20
509.123509
 30
0.0
  0
SPLINE
  5
1a2
100
AcDbEntity
  8
Layer_1
 62
5
100
AcDbSpline
 70
8
 71
3
 72
8
 73
4
 74
0
 40
0
 40
0
 40
0
 40
0
 40
1
 40
1
 40
1
 40
1
 10
136.404598
 20
515.618617
 30
0.0
 10
136.527735
 20
515.624287
 30
0.0
 10
136.649001
 20
515.624287
 30
0.0
 10
136.768187
 20
515.624287
 30
0.0
  0
LWPOLYLINE
  5
1a3
100
AcDbEntity
  8
Layer_1
 62
5
100
AcDbPolyline
 90
3
 70
0
 10
135.832802
 20
515.235798
 30
0.0
 10
136.000386
 20
515.604444
 30
0.0
 10
136.404598
 20
515.618617
 30
0.0
  0
SPLINE
  5
1a4
100
AcDbEntity
  8
Layer_1
 62
5
100
AcDbSpline
 70
8
 71
3
 72
8
 73
4
 74
0
 40
0
 40
0
 40
0
 40
0
 40
1
 40
1
 40
1
 40
1
 10
161.413299
 20
515.214794
 30
0.0
 10
163.441726
 20
515.214794
 30
0.0
 10
165.036903
 20
513.247833
 30
0.0
 10
165.142956
 20
510.991909
 30
0.0
  0
SPLINE
  5
1a5
100
AcDbEntity
  8
Layer_1
 62
5
100
AcDbSpline
 70
8
 71
3
 72
8
 73
4
 74
0
 40
0
 40
0
 40
0
 40
0
 40
1
 40
1
 40
1
 40
1
 10
165.142956
 20
510.991909
 30
0.0
 10
165.249000
 20
508.735956
 30
0.0
 10
163.838832
 20
506.767975
 30
0.0
 10
161.810405
 20
506.767975
 30
0.0
  0
SPLINE
  5
1a6
100
AcDbEntity
  8
Layer_1
 62
5
100
AcDbSpline
 70
8
 71
3
 72
8
 73
4
 74
0
 40
0
 40
0
 40
0
 40
0
 40
1
 40
1
 40
1
 40
1
 10
161.810405
 20
506.767975
 30
0.0
 10
159.781975
 20
506.767975
 30
0.0
 10
158.186123
 20
508.735956
 30
0.0
 10
158.080071
 20
510.991909
 30
0.0
  0
SPLINE
  5
1a7
100
AcDbEntity
  8
Layer_1
 62
5
100
AcDbSpline
 70
8
 71
3
 72
8
 73
4
 74
0
 40
0
 40
0
 40
0
 40
0
 40
1
 40
1
 40
1
 40
1
 10
158.080071
 20
510.991909
 30
0.0
 10
157.974026
 20
513.247833
 30
0.0
 10
159.384872
 20
515.214794
 30
0.0
 10
161.413299
 20
515.214794
 30
0.0
  0
LWPOLYLINE
  5
1a8
100
AcDbEntity
  8
Layer_1
 62
5
100
AcDbPolyline
 90
2
 70
0
 10
136.768187
 20
515.624287
 30
0.0
 10
136.768195
 20
515.626129
 30
0.0
  0
SPLINE
  5
1a9
100
AcDbEntity
  8
Layer_1
 62
5
100
AcDbSpline
 70
8
 71
3
 72
8
 73
4
 74
0
 40
0
 40
0
 40
0
 40
0
 40
1
 40
1
 40
1
 40
1
 10
150.105509
 20
515.150164
 30
0.0
 10
151.136946
 20
515.105093
 30
0.0
 10
152.120616
 20
514.707959
 30
0.0
 10
152.911638
 20
514.099701
 30
0.0
  0
SPLINE
  5
1aa
100
AcDbEntity
  8
Layer_1
 62
5
100
AcDbSpline
 70
8
 71
3
 72
8
 73
4
 74
0
 40
0
 40
0
 40
0
 40
0
 40
1
 40
1
 40
1
 40
1
 10
152.911638
 20
514.099701
 30
0.0
 10
154.493683
 20
512.883184
 30
0.0
 10
155.504395
 20
510.856271
 30
0.0
 10
154.989573
 20
508.970183
 30
0.0
  0
LWPOLYLINE
  5
1ab
100
AcDbEntity
  8
Layer_1
 62
5
100
AcDbPolyline
 90
1
 70
1
 10
161.413299
 20
515.214794
 30
0.0
  0
SPLINE
  5
1ac
100
AcDbEntity
  8
Layer_1
 62
5
100
AcDbSpline
 70
8
 71
3
 72
8
 73
4
 74
0
 40
0
 40
0
 40
0
 40
0
 40
1
 40
1
 40
1
 40
1
 10
154.939541
 20
508.842340
 30
0.0
 10
154.654132
 20
508.289953
 30
0.0
 10
154.138073
 20
507.982904
 30
0.0
 10
153.588444
 20
507.762397
 30
0.0
  0
SPLINE
  5
1ad
100
AcDbEntity
  8
Layer_1
 62
5
100
AcDbSpline
 70
8
 71
3
 72
8
 73
4
 74
0
 40
0
 40
0
 40
0
 40
0
 40
1
 40
1
 40
1
 40
1
 10
153.588444
 20
507.762397
 30
0.0
 10
153.038812
 20
507.541861
 30
0.0
 10
152.419734
 20
507.408321
 30
0.0
 10
151.799618
 20
507.319597
 30
0.0
  0
SPLINE
  5
1ae
100
AcDbEntity
  8
Layer_1
 62
5
100
AcDbSpline
 70
8
 71
3
 72
8
 73
4
 74
0
 40
0
 40
0
 40
0
 40
0
 40
1
 40
1
 40
1
 40
1
 10
151.799618
 20
507.319597
 30
0.0
 10
150.559379
 20
507.142148
 30
0.0
 10
149.341745
 20
507.148951
 30
0.0
 10
148.759560
 20
507.196573
 30
0.0
  0
LWPOLYLINE
  5
1af
100
AcDbEntity
  8
Layer_1
 62
5
100
AcDbPolyline
 90
3
 70
0
 10
154.989573
 20
508.970183
 30
0.0
 10
154.971714
 20
508.903569
 30
0.0
 10
154.939541
 20
508.842340
 30
0.0
  0
SPLINE
  5
1b0
100
AcDbEntity
  8
Layer_1
 62
5
100
AcDbSpline
 70
8
 71
3
 72
8
 73
4
 74
0
 40
0
 40
0
 40
0
 40
0
 40
1
 40
1
 40
1
 40
1
 10
148.469094
 20
507.292668
 30
0.0
 10
147.411082
 20
507.944381
 30
0.0
 10
146.640591
 20
509.192901
 30
0.0
 10
146.263190
 20
510.491480
 30
0.0
  0
SPLINE
  5
1b1
100
AcDbEntity
  8
Layer_1
 62
5
100
AcDbSpline
 70
8
 71
3
 72
8
 73
4
 74
0
 40
0
 40
0
 40
0
 40
0
 40
1
 40
1
 40
1
 40
1
 10
146.263190
 20
510.491480
 30
0.0
 10
146.074487
 20
511.140784
 30
0.0
 10
145.990865
 20
511.808173
 30
0.0
 10
146.085457
 20
512.445175
 30
0.0
  0
SPLINE
  5
1b2
100
AcDbEntity
  8
Layer_1
 62
5
100
AcDbSpline
 70
8
 71
3
 72
8
 73
4
 74
0
 40
0
 40
0
 40
0
 40
0
 40
1
 40
1
 40
1
 40
1
 10
146.085457
 20
512.445175
 30
0.0
 10
146.179142
 20
513.076110
 30
0.0
 10
146.478557
 20
513.695962
 30
0.0
 10
147.033697
 20
514.099616
 30
0.0
  0
SPLINE
  5
1b3
100
AcDbEntity
  8
Layer_1
 62
5
100
AcDbSpline
 70
8
 71
3
 72
8
 73
4
 74
0
 40
0
 40
0
 40
0
 40
0
 40
1
 40
1
 40
1
 40
1
 10
147.033697
 20
514.099616
 30
0.0
 10
148.010581
 20
514.888923
 30
0.0
 10
149.081071
 20
515.196085
 30
0.0
 10
150.105574
 20
515.151439
 30
0.0
  0
LWPOLYLINE
  5
1b4
100
AcDbEntity
  8
Layer_1
 62
5
100
AcDbPolyline
 90
3
 70
0
 10
148.759560
 20
507.196573
 30
0.0
 10
148.603484
 20
507.210746
 30
0.0
 10
148.469094
 20
507.292668
 30
0.0
  0
SPLINE
  5
1b5
100
AcDbEntity
  8
Layer_1
 62
5
100
AcDbSpline
 70
8
 71
3
 72
8
 73
4
 74
0
 40
0
 40
0
 40
0
 40
0
 40
1
 40
1
 40
1
 40
1
 10
136.869080
 20
514.254387
 30
0.0
 10
136.078770
 20
512.286066
 30
0.0
 10
136.244900
 20
511.041940
 30
0.0
 10
136.483824
 20
509.677739
 30
0.0
  0
SPLINE
  5
1b6
100
AcDbEntity
  8
Layer_1
 62
5
100
AcDbSpline
 70
8
 71
3
 72
8
 73
4
 74
0
 40
0
 40
0
 40
0
 40
0
 40
1
 40
1
 40
1
 40
1
 10
136.483824
 20
509.677739
 30
0.0
 10
137.689444
 20
508.971572
 30
0.0
 10
138.606437
 20
508.896198
 30
0.0
 10
139.220889
 20
509.155710
 30
0.0
  0
SPLINE
  5
1b7
100
AcDbEntity
  8
Layer_1
 62
5
100
AcDbSpline
 70
8
 71
3
 72
8
 73
4
 74
0
 40
0
 40
0
 40
0
 40
0
 40
1
 40
1
 40
1
 40
1
 10
139.220889
 20
509.155710
 30
0.0
 10
139.882881
 20
509.435206
 30
0.0
 10
140.325942
 20
510.084680
 30
0.0
 10
140.452824
 20
510.872769
 30
0.0
  0
SPLINE
  5
1b8
100
AcDbEntity
  8
Layer_1
 62
5
100
AcDbSpline
 70
8
 71
3
 72
8
 73
4
 74
0
 40
0
 40
0
 40
0
 40
0
 40
1
 40
1
 40
1
 40
1
 10
140.452824
 20
510.872769
 30
0.0
 10
140.579702
 20
511.660857
 30
0.0
 10
140.374984
 20
512.542346
 30
0.0
 10
139.767287
 20
513.208998
 30
0.0
  0
SPLINE
  5
1b9
100
AcDbEntity
  8
Layer_1
 62
5
100
AcDbSpline
 70
8
 71
3
 72
8
 73
4
 74
0
 40
0
 40
0
 40
0
 40
0
 40
1
 40
1
 40
1
 40
1
 10
139.767287
 20
513.208998
 30
0.0
 10
139.220810
 20
513.808469
 30
0.0
 10
138.262093
 20
514.214277
 30
0.0
 10
136.869080
 20
514.254387
 30
0.0
  0
LWPOLYLINE
  5
1ba
100
AcDbEntity
  8
Layer_1
 62
5
100
AcDbPolyline
 90
2
 70
0
 10
150.105574
 20
515.151439
 30
0.0
 10
150.105509
 20
515.150164
 30
0.0
  0
SPLINE
  5
1bb
100
AcDbEntity
  8
Layer_1
 62
5
100
AcDbSpline
 70
8
 71
3
 72
8
 73
4
 74
0
 40
0
 40
0
 40
0
 40
0
 40
1
 40
1
 40
1
 40
1
 10
116.010164
 20
513.959187
 30
0.0
 10
113.255782
 20
512.187420
 30
0.0
 10
111.170996
 20
508.776746
 30
0.0
 10
109.574589
 20
504.782504
 30
0.0
  0
SPLINE
  5
1bc
100
AcDbEntity
  8
Layer_1
 62
5
100
AcDbSpline
 70
8
 71
3
 72
8
 73
4
 74
0
 40
0
 40
0
 40
0
 40
0
 40
1
 40
1
 40
1
 40
1
 10
109.574589
 20
504.782504
 30
0.0
 10
108.750600
 20
502.720866
 30
0.0
 10
108.059533
 20
500.523024
 30
0.0
 10
107.456029
 20
498.339468
 30
0.0
  0
SPLINE
  5
1bd
100
AcDbEntity
  8
Layer_1
 62
5
100
AcDbSpline
 70
8
 71
3
 72
8
 73
4
 74
0
 40
0
 40
0
 40
0
 40
0
 40
1
 40
1
 40
1
 40
1
 10
107.456029
 20
498.339468
 30
0.0
 10
108.154755
 20
498.412602
 30
0.0
 10
108.822246
 20
498.445767
 30
0.0
 10
109.467272
 20
498.445200
 30
0.0
  0
SPLINE
  5
1be
100
AcDbEntity
  8
Layer_1
 62
5
100
AcDbSpline
 70
8
 71
3
 72
8
 73
4
 74
0
 40
0
 40
0
 40
0
 40
0
 40
1
 40
1
 40
1
 40
1
 10
109.467272
 20
498.445200
 30
0.0
 10
111.703303
 20
498.442365
 30
0.0
 10
113.675406
 20
498.036954
 30
0.0
 10
115.793501
 20
497.529128
 30
0.0
  0
SPLINE
  5
1bf
100
AcDbEntity
  8
Layer_1
 62
5
100
AcDbSpline
 70
8
 71
3
 72
8
 73
4
 74
0
 40
0
 40
0
 40
0
 40
0
 40
1
 40
1
 40
1
 40
1
 10
115.793501
 20
497.529128
 30
0.0
 10
116.345421
 20
503.700803
 30
0.0
 10
116.573502
 20
509.788375
 30
0.0
 10
116.010153
 20
513.959301
 30
0.0
  0
LWPOLYLINE
  5
1c0
100
AcDbEntity
  8
Layer_1
 62
5
100
AcDbPolyline
 90
1
 70
1
 10
136.869080
 20
514.254387
 30
0.0
  0
SPLINE
  5
1c1
100
AcDbEntity
  8
Layer_1
 62
5
100
AcDbSpline
 70
8
 71
3
 72
8
 73
4
 74
0
 40
0
 40
0
 40
0
 40
0
 40
1
 40
1
 40
1
 40
1
 10
161.474576
 20
513.906180
 30
0.0
 10
160.326349
 20
513.906180
 30
0.0
 10
159.312288
 20
512.678353
 30
0.0
 10
159.391562
 20
510.992079
 30
0.0
  0
SPLINE
  5
1c2
100
AcDbEntity
  8
Layer_1
 62
5
100
AcDbSpline
 70
8
 71
3
 72
8
 73
4
 74
0
 40
0
 40
0
 40
0
 40
0
 40
1
 40
1
 40
1
 40
1
 10
159.391562
 20
510.992079
 30
0.0
 10
159.470847
 20
509.305776
 30
0.0
 10
160.600561
 20
508.076929
 30
0.0
 10
161.748791
 20
508.076929
 30
0.0
  0
SPLINE
  5
1c3
100
AcDbEntity
  8
Layer_1
 62
5
100
AcDbSpline
 70
8
 71
3
 72
8
 73
4
 74
0
 40
0
 40
0
 40
0
 40
0
 40
1
 40
1
 40
1
 40
1
 10
161.748791
 20
508.076929
 30
0.0
 10
162.897018
 20
508.076929
 30
0.0
 10
163.912090
 20
509.305776
 30
0.0
 10
163.832820
 20
510.992079
 30
0.0
  0
SPLINE
  5
1c4
100
AcDbEntity
  8
Layer_1
 62
5
100
AcDbSpline
 70
8
 71
3
 72
8
 73
4
 74
0
 40
0
 40
0
 40
0
 40
0
 40
1
 40
1
 40
1
 40
1
 10
163.832820
 20
510.992079
 30
0.0
 10
163.753534
 20
512.678353
 30
0.0
 10
162.622803
 20
513.906180
 30
0.0
 10
161.474576
 20
513.906180
 30
0.0
  0
LWPOLYLINE
  5
1c5
100
AcDbEntity
  8
Layer_1
 62
5
100
AcDbPolyline
 90
2
 70
0
 10
116.010153
 20
513.959301
 30
0.0
 10
116.010164
 20
513.959187
 30
0.0
  0
SPLINE
  5
1c6
100
AcDbEntity
  8
Layer_1
 62
5
100
AcDbSpline
 70
8
 71
3
 72
8
 73
4
 74
0
 40
0
 40
0
 40
0
 40
0
 40
1
 40
1
 40
1
 40
1
 10
149.812676
 20
513.883502
 30
0.0
 10
149.170252
 20
513.857991
 30
0.0
 10
148.503492
 20
513.611093
 30
0.0
 10
147.840701
 20
513.070328
 30
0.0
  0
LWPOLYLINE
  5
1c7
100
AcDbEntity
  8
Layer_1
 62
5
100
AcDbPolyline
 90
1
 70
1
 10
161.474576
 20
513.906180
 30
0.0
  0
SPLINE
  5
1c8
100
AcDbEntity
  8
Layer_1
 62
5
100
AcDbSpline
 70
8
 71
3
 72
8
 73
4
 74
0
 40
0
 40
0
 40
0
 40
0
 40
1
 40
1
 40
1
 40
1
 10
147.807252
 20
513.044816
 30
0.0
 10
147.572827
 20
512.877572
 30
0.0
 10
147.438281
 20
512.633480
 30
0.0
 10
147.381372
 20
512.250265
 30
0.0
  0
SPLINE
  5
1c9
100
AcDbEntity
  8
Layer_1
 62
5
100
AcDbSpline
 70
8
 71
3
 72
8
 73
4
 74
0
 40
0
 40
0
 40
0
 40
0
 40
1
 40
1
 40
1
 40
1
 10
147.381372
 20
512.250265
 30
0.0
 10
147.324453
 20
511.867049
 30
0.0
 10
147.373152
 20
511.367187
 30
0.0
 10
147.521857
 20
510.855506
 30
0.0
  0
SPLINE
  5
1ca
100
AcDbEntity
  8
Layer_1
 62
5
100
AcDbSpline
 70
8
 71
3
 72
8
 73
4
 74
0
 40
0
 40
0
 40
0
 40
0
 40
1
 40
1
 40
1
 40
1
 10
147.521857
 20
510.855506
 30
0.0
 10
147.803706
 20
509.885660
 30
0.0
 10
148.465341
 20
508.932198
 30
0.0
 10
149.057461
 20
508.508759
 30
0.0
  0
SPLINE
  5
1cb
100
AcDbEntity
  8
Layer_1
 62
5
100
AcDbSpline
 70
8
 71
3
 72
8
 73
4
 74
0
 40
0
 40
0
 40
0
 40
0
 40
1
 40
1
 40
1
 40
1
 10
149.057461
 20
508.508759
 30
0.0
 10
149.550786
 20
508.480413
 30
0.0
 10
150.581551
 20
508.468791
 30
0.0
 10
151.613748
 20
508.616476
 30
0.0
  0
SPLINE
  5
1cc
100
AcDbEntity
  8
Layer_1
 62
5
100
AcDbSpline
 70
8
 71
3
 72
8
 73
4
 74
0
 40
0
 40
0
 40
0
 40
0
 40
1
 40
1
 40
1
 40
1
 10
151.613748
 20
508.616476
 30
0.0
 10
152.168329
 20
508.695846
 30
0.0
 10
152.703768
 20
508.818302
 30
0.0
 10
153.100599
 20
508.977354
 30
0.0
  0
SPLINE
  5
1cd
100
AcDbEntity
  8
Layer_1
 62
5
100
AcDbSpline
 70
8
 71
3
 72
8
 73
4
 74
0
 40
0
 40
0
 40
0
 40
0
 40
1
 40
1
 40
1
 40
1
 10
153.100599
 20
508.977354
 30
0.0
 10
153.471645
 20
509.126173
 30
0.0
 10
153.657975
 20
509.299342
 30
0.0
 10
153.731290
 20
509.412359
 30
0.0
  0
SPLINE
  5
1ce
100
AcDbEntity
  8
Layer_1
 62
5
100
AcDbSpline
 70
8
 71
3
 72
8
 73
4
 74
0
 40
0
 40
0
 40
0
 40
0
 40
1
 40
1
 40
1
 40
1
 10
153.731290
 20
509.412359
 30
0.0
 10
153.997662
 20
510.595852
 30
0.0
 10
153.305442
 20
512.142973
 30
0.0
 10
152.112750
 20
513.060094
 30
0.0
  0
SPLINE
  5
1cf
100
AcDbEntity
  8
Layer_1
 62
5
100
AcDbSpline
 70
8
 71
3
 72
8
 73
4
 74
0
 40
0
 40
0
 40
0
 40
0
 40
1
 40
1
 40
1
 40
1
 10
152.112750
 20
513.060094
 30
0.0
 10
151.500855
 20
513.530617
 30
0.0
 10
150.811605
 20
513.842315
 30
0.0
 10
150.085933
 20
513.881717
 30
0.0
  0
SPLINE
  5
1d0
100
AcDbEntity
  8
Layer_1
 62
5
100
AcDbSpline
 70
8
 71
3
 72
8
 73
4
 74
0
 40
0
 40
0
 40
0
 40
0
 40
1
 40
1
 40
1
 40
1
 10
150.085933
 20
513.881717
 30
0.0
 10
149.995225
 20
513.887386
 30
0.0
 10
149.904176
 20
513.887386
 30
0.0
 10
149.812390
 20
513.883417
 30
0.0
  0
LWPOLYLINE
  5
1d1
100
AcDbEntity
  8
Layer_1
 62
5
100
AcDbPolyline
 90
3
 70
0
 10
147.840701
 20
513.070328
 30
0.0
 10
147.823977
 20
513.056154
 30
0.0
 10
147.807252
 20
513.044816
 30
0.0
  0
SPLINE
  5
1d2
100
AcDbEntity
  8
Layer_1
 62
5
100
AcDbSpline
 70
8
 71
3
 72
8
 73
4
 74
0
 40
0
 40
0
 40
0
 40
0
 40
1
 40
1
 40
1
 40
1
 10
176.304835
 20
512.727392
 30
0.0
 10
178.274123
 20
509.056980
 30
0.0
 10
179.418277
 20
505.114639
 30
0.0
 10
180.437012
 20
501.166063
 30
0.0
  0
SPLINE
  5
1d3
100
AcDbEntity
  8
Layer_1
 62
5
100
AcDbSpline
 70
8
 71
3
 72
8
 73
4
 74
0
 40
0
 40
0
 40
0
 40
0
 40
1
 40
1
 40
1
 40
1
 10
180.437012
 20
501.166063
 30
0.0
 10
182.002110
 20
501.692088
 30
0.0
 10
183.269883
 20
501.773131
 30
0.0
 10
184.413118
 20
501.670120
 30
0.0
  0
SPLINE
  5
1d4
100
AcDbEntity
  8
Layer_1
 62
5
100
AcDbSpline
 70
8
 71
3
 72
8
 73
4
 74
0
 40
0
 40
0
 40
0
 40
0
 40
1
 40
1
 40
1
 40
1
 10
184.413118
 20
501.670120
 30
0.0
 10
185.287090
 20
501.591317
 30
0.0
 10
186.089352
 20
501.405647
 30
0.0
 10
186.898652
 20
501.230041
 30
0.0
  0
SPLINE
  5
1d5
100
AcDbEntity
  8
Layer_1
 62
5
100
AcDbSpline
 70
8
 71
3
 72
8
 73
4
 74
0
 40
0
 40
0
 40
0
 40
0
 40
1
 40
1
 40
1
 40
1
 10
186.898652
 20
501.230041
 30
0.0
 10
184.784417
 20
505.698293
 30
0.0
 10
181.738463
 20
509.857682
 30
0.0
 10
176.304835
 20
512.727392
 30
0.0
  0
LWPOLYLINE
  5
1d6
100
AcDbEntity
  8
Layer_1
 62
5
100
AcDbPolyline
 90
2
 70
0
 10
149.812390
 20
513.883417
 30
0.0
 10
149.812676
 20
513.883502
 30
0.0
  0
LWPOLYLINE
  5
1d7
100
AcDbEntity
  8
Layer_1
 62
5
100
AcDbPolyline
 90
1
 70
1
 10
176.304835
 20
512.727392
 30
0.0
  0
SPLINE
  5
1d8
100
AcDbEntity
  8
Layer_1
 62
5
100
AcDbSpline
 70
8
 71
3
 72
8
 73
4
 74
0
 40
0
 40
0
 40
0
 40
0
 40
1
 40
1
 40
1
 40
1
 10
134.311436
 20
504.160838
 30
0.0
 10
146.119694
 20
504.027043
 30
0.0
 10
157.697583
 20
503.480891
 30
0.0
 10
169.682049
 20
503.791143
 30
0.0
  0
LWPOLYLINE
  5
1d9
100
AcDbEntity
  8
Layer_1
 62
5
100
AcDbPolyline
 90
2
 70
0
 10
133.745743
 20
504.166507
 30
0.0
 10
134.311436
 20
504.160838
 30
0.0
  0
SPLINE
  5
1da
100
AcDbEntity
  8
Layer_1
 62
5
100
AcDbSpline
 70
8
 71
3
 72
8
 73
4
 74
0
 40
0
 40
0
 40
0
 40
0
 40
1
 40
1
 40
1
 40
1
 10
170.233526
 20
502.760013
 30
0.0
 10
169.715049
 20
502.023572
 30
0.0
 10
169.640620
 20
501.257339
 30
0.0
 10
169.744680
 20
500.340161
 30
0.0
  0
SPLINE
  5
1db
100
AcDbEntity
  8
Layer_1
 62
5
100
AcDbSpline
 70
8
 71
3
 72
8
 73
4
 74
0
 40
0
 40
0
 40
0
 40
0
 40
1
 40
1
 40
1
 40
1
 10
169.744680
 20
500.340161
 30
0.0
 10
169.848740
 20
499.422983
 30
0.0
 10
170.157940
 20
498.401688
 30
0.0
 10
170.343550
 20
497.334643
 30
0.0
  0
LWPOLYLINE
  5
1dc
100
AcDbEntity
  8
Layer_1
 62
5
100
AcDbPolyline
 90
3
 70
0
 10
169.682049
 20
503.791143
 30
0.0
 10
170.984398
 20
503.825726
 30
0.0
 10
170.233526
 20
502.760013
 30
0.0
  0
SPLINE
  5
1dd
100
AcDbEntity
  8
Layer_1
 62
5
100
AcDbSpline
 70
8
 71
3
 72
8
 73
4
 74
0
 40
0
 40
0
 40
0
 40
0
 40
1
 40
1
 40
1
 40
1
 10
169.665457
 20
496.568183
 30
0.0
 10
157.621408
 20
497.177660
 30
0.0
 10
145.699832
 20
498.261543
 30
0.0
 10
133.514178
 20
497.492050
 30
0.0
  0
LWPOLYLINE
  5
1de
100
AcDbEntity
  8
Layer_1
 62
5
100
AcDbPolyline
 90
3
 70
0
 10
170.343550
 20
497.334643
 30
0.0
 10
170.484375
 20
496.526230
 30
0.0
 10
169.665457
 20
496.568183
 30
0.0
  0
SPLINE
  5
1df
100
AcDbEntity
  8
Layer_1
 62
5
100
AcDbSpline
 70
8
 71
3
 72
8
 73
4
 74
0
 40
0
 40
0
 40
0
 40
0
 40
1
 40
1
 40
1
 40
1
 10
132.824580
 20
498.246066
 30
0.0
 10
133.081852
 20
499.912668
 30
0.0
 10
133.180206
 20
500.623143
 30
0.0
 10
133.657379
 20
503.609499
 30
0.0
  0
LWPOLYLINE
  5
1e0
100
AcDbEntity
  8
Layer_1
 62
5
100
AcDbPolyline
 90
3
 70
0
 10
133.514178
 20
497.492050
 30
0.0
 10
132.700337
 20
497.441027
 30
0.0
 10
132.824580
 20
498.246066
 30
0.0
  0
SPLINE
  5
1e1
100
AcDbEntity
  8
Layer_1
 62
5
100
AcDbSpline
 70
8
 71
3
 72
8
 73
4
 74
0
 40
0
 40
0
 40
0
 40
0
 40
1
 40
1
 40
1
 40
1
 10
134.863929
 20
502.838079
 30
0.0
 10
134.586360
 20
501.087883
 30
0.0
 10
134.442289
 20
500.144712
 30
0.0
 10
134.289431
 20
499.143628
 30
0.0
  0
SPLINE
  5
1e2
100
AcDbEntity
  8
Layer_1
 62
5
100
AcDbSpline
 70
8
 71
3
 72
8
 73
4
 74
0
 40
0
 40
0
 40
0
 40
0
 40
1
 40
1
 40
1
 40
1
 10
134.289431
 20
499.143628
 30
0.0
 10
139.125980
 20
500.834183
 30
0.0
 10
144.539107
 20
501.506901
 30
0.0
 10
150.211811
 20
501.706006
 30
0.0
  0
SPLINE
  5
1e3
100
AcDbEntity
  8
Layer_1
 62
5
100
AcDbSpline
 70
8
 71
3
 72
8
 73
4
 74
0
 40
0
 40
0
 40
0
 40
0
 40
1
 40
1
 40
1
 40
1
 10
150.211811
 20
501.706006
 30
0.0
 10
156.136235
 20
501.914069
 30
0.0
 10
162.342034
 20
501.606794
 30
0.0
 10
168.470090
 20
501.404712
 30
0.0
  0
SPLINE
  5
1e4
100
AcDbEntity
  8
Layer_1
 62
5
100
AcDbSpline
 70
8
 71
3
 72
8
 73
4
 74
0
 40
0
 40
0
 40
0
 40
0
 40
1
 40
1
 40
1
 40
1
 10
168.470090
 20
501.404712
 30
0.0
 10
168.523013
 20
501.764117
 30
0.0
 10
168.612219
 20
502.125080
 30
0.0
 10
168.735158
 20
502.482614
 30
0.0
  0
SPLINE
  5
1e5
100
AcDbEntity
  8
Layer_1
 62
5
100
AcDbSpline
 70
8
 71
3
 72
8
 73
4
 74
0
 40
0
 40
0
 40
0
 40
0
 40
1
 40
1
 40
1
 40
1
 10
168.735158
 20
502.482614
 30
0.0
 10
157.237792
 20
502.228630
 30
0.0
 10
146.122302
 20
502.698047
 30
0.0
 10
134.863923
 20
502.838079
 30
0.0
  0
LWPOLYLINE
  5
1e6
100
AcDbEntity
  8
Layer_1
 62
5
100
AcDbPolyline
 90
2
 70
0
 10
133.657379
 20
503.609499
 30
0.0
 10
133.745743
 20
504.166507
 30
0.0
  0
SPLINE
  5
1e7
100
AcDbEntity
  8
Layer_1
 62
5
100
AcDbSpline
 70
8
 71
3
 72
8
 73
4
 74
0
 40
0
 40
0
 40
0
 40
0
 40
1
 40
1
 40
1
 40
1
 10
154.825384
 20
500.451052
 30
0.0
 10
149.057320
 20
500.459556
 30
0.0
 10
143.511284
 20
500.149984
 30
0.0
 10
138.521812
 20
498.996369
 30
0.0
  0
SPLINE
  5
1e8
100
AcDbEntity
  8
Layer_1
 62
5
100
AcDbSpline
 70
8
 71
3
 72
8
 73
4
 74
0
 40
0
 40
0
 40
0
 40
0
 40
1
 40
1
 40
1
 40
1
 10
138.521812
 20
498.996369
 30
0.0
 10
148.774005
 20
499.256872
 30
0.0
 10
158.825418
 20
498.448517
 30
0.0
 10
168.891228
 20
497.921187
 30
0.0
  0
SPLINE
  5
1e9
100
AcDbEntity
  8
Layer_1
 62
5
100
AcDbSpline
 70
8
 71
3
 72
8
 73
4
 74
0
 40
0
 40
0
 40
0
 40
0
 40
1
 40
1
 40
1
 40
1
 10
168.891228
 20
497.921187
 30
0.0
 10
168.733508
 20
498.625824
 30
0.0
 10
168.549778
 20
499.331934
 30
0.0
 10
168.454857
 20
500.094907
 30
0.0
  0
SPLINE
  5
1ea
100
AcDbEntity
  8
Layer_1
 62
5
100
AcDbSpline
 70
8
 71
3
 72
8
 73
4
 74
0
 40
0
 40
0
 40
0
 40
0
 40
1
 40
1
 40
1
 40
1
 10
168.454857
 20
500.094907
 30
0.0
 10
163.882324
 20
500.244860
 30
0.0
 10
159.287610
 20
500.443455
 30
0.0
 10
154.825384
 20
500.451052
 30
0.0
  0
LWPOLYLINE
  5
1eb
100
AcDbEntity
  8
Layer_1
 62
5
100
AcDbPolyline
 90
1
 70
1
 10
134.863923
 20
502.838079
 30
0.0
  0
SPLINE
  5
1ec
100
AcDbEntity
  8
Layer_1
 62
5
100
AcDbSpline
 70
8
 71
3
 72
8
 73
4
 74
0
 40
0
 40
0
 40
0
 40
0
 40
1
 40
1
 40
1
 40
1
 10
183.484176
 20
500.417603
 30
0.0
 10
182.730600
 20
500.409099
 30
0.0
 10
181.902336
 20
500.275304
 30
0.0
 10
180.907574
 20
499.941950
 30
0.0
  0
SPLINE
  5
1ed
100
AcDbEntity
  8
Layer_1
 62
5
100
AcDbSpline
 70
8
 71
3
 72
8
 73
4
 74
0
 40
0
 40
0
 40
0
 40
0
 40
1
 40
1
 40
1
 40
1
 10
180.907574
 20
499.941950
 30
0.0
 10
183.267306
 20
499.634220
 30
0.0
 10
185.466580
 20
499.705257
 30
0.0
 10
187.669500
 20
499.498809
 30
0.0
  0
SPLINE
  5
1ee
100
AcDbEntity
  8
Layer_1
 62
5
100
AcDbSpline
 70
8
 71
3
 72
8
 73
4
 74
0
 40
0
 40
0
 40
0
 40
0
 40
1
 40
1
 40
1
 40
1
 10
187.669500
 20
499.498809
 30
0.0
 10
187.632933
 20
499.586117
 30
0.0
 10
187.595260
 20
499.673140
 30
0.0
 10
187.558126
 20
499.760164
 30
0.0
  0
SPLINE
  5
1ef
100
AcDbEntity
  8
Layer_1
 62
5
100
AcDbSpline
 70
8
 71
3
 72
8
 73
4
 74
0
 40
0
 40
0
 40
0
 40
0
 40
1
 40
1
 40
1
 40
1
 10
187.558126
 20
499.760164
 30
0.0
 10
186.040210
 20
500.039093
 30
0.0
 10
184.886342
 20
500.436000
 30
0.0
 10
183.484182
 20
500.417603
 30
0.0
  0
LWPOLYLINE
  5
1f0
100
AcDbEntity
  8
Layer_1
 62
5
100
AcDbPolyline
 90
1
 70
1
 10
154.825384
 20
500.451052
 30
0.0
  0
SPLINE
  5
1f1
100
AcDbEntity
  8
Layer_1
 62
5
100
AcDbSpline
 70
8
 71
3
 72
8
 73
4
 74
0
 40
0
 40
0
 40
0
 40
0
 40
1
 40
1
 40
1
 40
1
 10
181.092078
 20
498.598639
 30
0.0
 10
181.104834
 20
498.547899
 30
0.0
 10
181.117874
 20
498.497159
 30
0.0
 10
181.130658
 20
498.446702
 30
0.0
  0
SPLINE
  5
1f2
100
AcDbEntity
  8
Layer_1
 62
5
100
AcDbSpline
 70
8
 71
3
 72
8
 73
4
 74
0
 40
0
 40
0
 40
0
 40
0
 40
1
 40
1
 40
1
 40
1
 10
181.130658
 20
498.446702
 30
0.0
 10
181.926595
 20
498.302986
 30
0.0
 10
182.646768
 20
498.142091
 30
0.0
 10
183.364656
 20
498.024539
 30
0.0
  0
LWPOLYLINE
  5
1f3
100
AcDbEntity
  8
Layer_1
 62
5
100
AcDbPolyline
 90
1
 70
1
 10
183.484182
 20
500.417603
 30
0.0
  0
SPLINE
  5
1f4
100
AcDbEntity
  8
Layer_1
 62
5
100
AcDbSpline
 70
8
 71
3
 72
8
 73
4
 74
0
 40
0
 40
0
 40
0
 40
0
 40
1
 40
1
 40
1
 40
1
 10
183.405957
 20
498.061672
 30
0.0
 10
183.420981
 20
498.044665
 30
0.0
 10
183.435182
 20
498.027657
 30
0.0
 10
183.449951
 20
498.010932
 30
0.0
  0
SPLINE
  5
1f5
100
AcDbEntity
  8
Layer_1
 62
5
100
AcDbSpline
 70
8
 71
3
 72
8
 73
4
 74
0
 40
0
 40
0
 40
0
 40
0
 40
1
 40
1
 40
1
 40
1
 10
183.449951
 20
498.010932
 30
0.0
 10
184.702445
 20
497.812224
 30
0.0
 10
185.966855
 20
497.759499
 30
0.0
 10
187.649495
 20
498.182428
 30
0.0
  0
SPLINE
  5
1f6
100
AcDbEntity
  8
Layer_1
 62
5
100
AcDbSpline
 70
8
 71
3
 72
8
 73
4
 74
0
 40
0
 40
0
 40
0
 40
0
 40
1
 40
1
 40
1
 40
1
 10
187.649495
 20
498.182428
 30
0.0
 10
185.622352
 20
498.374617
 30
0.0
 10
183.473887
 20
498.316791
 30
0.0
 10
181.092047
 20
498.598469
 30
0.0
  0
LWPOLYLINE
  5
1f7
100
AcDbEntity
  8
Layer_1
 62
5
100
AcDbPolyline
 90
2
 70
0
 10
183.364656
 20
498.024539
 30
0.0
 10
183.405957
 20
498.061672
 30
0.0
  0
SPLINE
  5
1f8
100
AcDbEntity
  8
Layer_1
 62
5
100
AcDbSpline
 70
8
 71
3
 72
8
 73
4
 74
0
 40
0
 40
0
 40
0
 40
0
 40
1
 40
1
 40
1
 40
1
 10
109.473367
 20
497.136501
 30
0.0
 10
108.719427
 20
497.136756
 30
0.0
 10
107.932085
 20
497.085761
 30
0.0
 10
107.091425
 20
496.974926
 30
0.0
  0
SPLINE
  5
1f9
100
AcDbEntity
  8
Layer_1
 62
5
100
AcDbSpline
 70
8
 71
3
 72
8
 73
4
 74
0
 40
0
 40
0
 40
0
 40
0
 40
1
 40
1
 40
1
 40
1
 10
107.091425
 20
496.974926
 30
0.0
 10
107.064213
 20
496.870611
 30
0.0
 10
107.034789
 20
496.765162
 30
0.0
 10
107.007803
 20
496.661102
 30
0.0
  0
SPLINE
  5
1fa
100
AcDbEntity
  8
Layer_1
 62
5
100
AcDbSpline
 70
8
 71
3
 72
8
 73
4
 74
0
 40
0
 40
0
 40
0
 40
0
 40
1
 40
1
 40
1
 40
1
 10
107.007803
 20
496.661102
 30
0.0
 10
107.662371
 20
496.728567
 30
0.0
 10
108.308378
 20
496.759748
 30
0.0
 10
108.945247
 20
496.759181
 30
0.0
  0
SPLINE
  5
1fb
100
AcDbEntity
  8
Layer_1
 62
5
100
AcDbSpline
 70
8
 71
3
 72
8
 73
4
 74
0
 40
0
 40
0
 40
0
 40
0
 40
1
 40
1
 40
1
 40
1
 10
108.945247
 20
496.759181
 30
0.0
 10
111.282846
 20
496.758019
 30
0.0
 10
113.503535
 20
496.341298
 30
0.0
 10
115.632692
 20
495.820772
 30
0.0
  0
SPLINE
  5
1fc
100
AcDbEntity
  8
Layer_1
 62
5
100
AcDbSpline
 70
8
 71
3
 72
8
 73
4
 74
0
 40
0
 40
0
 40
0
 40
0
 40
1
 40
1
 40
1
 40
1
 10
115.632692
 20
495.820772
 30
0.0
 10
115.645448
 20
495.950598
 30
0.0
 10
115.658203
 20
496.080142
 30
0.0
 10
115.670619
 20
496.210082
 30
0.0
  0
SPLINE
  5
1fd
100
AcDbEntity
  8
Layer_1
 62
5
100
AcDbSpline
 70
8
 71
3
 72
8
 73
4
 74
0
 40
0
 40
0
 40
0
 40
0
 40
1
 40
1
 40
1
 40
1
 10
115.670619
 20
496.210082
 30
0.0
 10
113.512139
 20
496.731713
 30
0.0
 10
111.618193
 20
497.135622
 30
0.0
 10
109.473375
 20
497.136302
 30
0.0
  0
LWPOLYLINE
  5
1fe
100
AcDbEntity
  8
Layer_1
 62
5
100
AcDbPolyline
 90
2
 70
0
 10
181.092047
 20
498.598469
 30
0.0
 10
181.092078
 20
498.598639
 30
0.0
  0
SPLINE
  5
1ff
100
AcDbEntity
  8
Layer_1
 62
5
100
AcDbSpline
 70
8
 71
3
 72
8
 73
4
 74
0
 40
0
 40
0
 40
0
 40
0
 40
1
 40
1
 40
1
 40
1
 10
188.610293
 20
497.088879
 30
0.0
 10
188.372041
 20
497.018013
 30
0.0
 10
188.140192
 20
496.955083
 30
0.0
 10
187.914263
 20
496.900375
 30
0.0
  0
SPLINE
  5
200
100
AcDbEntity
  8
Layer_1
 62
5
100
AcDbSpline
 70
8
 71
3
 72
8
 73
4
 74
0
 40
0
 40
0
 40
0
 40
0
 40
1
 40
1
 40
1
 40
1
 10
187.914263
 20
496.900375
 30
0.0
 10
188.109711
 20
495.819156
 30
0.0
 10
188.778730
 20
494.889052
 30
0.0
 10
189.704441
 20
493.976778
 30
0.0
  0
SPLINE
  5
201
100
AcDbEntity
  8
Layer_1
 62
5
100
AcDbSpline
 70
8
 71
3
 72
8
 73
4
 74
0
 40
0
 40
0
 40
0
 40
0
 40
1
 40
1
 40
1
 40
1
 10
189.704441
 20
493.976778
 30
0.0
 10
189.354662
 20
495.007370
 30
0.0
 10
188.993687
 20
496.047827
 30
0.0
 10
188.610293
 20
497.088935
 30
0.0
  0
LWPOLYLINE
  5
202
100
AcDbEntity
  8
Layer_1
 62
5
100
AcDbPolyline
 90
2
 70
0
 10
109.473375
 20
497.136302
 30
0.0
 10
109.473367
 20
497.136501
 30
0.0
  0
SPLINE
  5
203
100
AcDbEntity
  8
Layer_1
 62
5
100
AcDbSpline
 70
8
 71
3
 72
8
 73
4
 74
0
 40
0
 40
0
 40
0
 40
0
 40
1
 40
1
 40
1
 40
1
 10
181.488844
 20
497.046926
 30
0.0
 10
181.922451
 20
495.374598
 30
0.0
 10
182.377871
 20
493.717975
 30
0.0
 10
182.909004
 20
492.098202
 30
0.0
  0
SPLINE
  5
204
100
AcDbEntity
  8
Layer_1
 62
5
100
AcDbSpline
 70
8
 71
3
 72
8
 73
4
 74
0
 40
0
 40
0
 40
0
 40
0
 40
1
 40
1
 40
1
 40
1
 10
182.909004
 20
492.098202
 30
0.0
 10
183.278038
 20
492.101036
 30
0.0
 10
183.644167
 20
492.118044
 30
0.0
 10
184.007891
 20
492.143839
 30
0.0
  0
SPLINE
  5
205
100
AcDbEntity
  8
Layer_1
 62
5
100
AcDbSpline
 70
8
 71
3
 72
8
 73
4
 74
0
 40
0
 40
0
 40
0
 40
0
 40
1
 40
1
 40
1
 40
1
 10
184.007891
 20
492.143839
 30
0.0
 10
183.846628
 20
493.760693
 30
0.0
 10
183.447541
 20
495.695679
 30
0.0
 10
182.713666
 20
496.813606
 30
0.0
  0
SPLINE
  5
206
100
AcDbEntity
  8
Layer_1
 62
5
100
AcDbSpline
 70
8
 71
3
 72
8
 73
4
 74
0
 40
0
 40
0
 40
0
 40
0
 40
1
 40
1
 40
1
 40
1
 10
182.713666
 20
496.813606
 30
0.0
 10
182.303354
 20
496.886457
 30
0.0
 10
181.897430
 20
496.967528
 30
0.0
 10
181.488844
 20
497.046898
 30
0.0
  0
LWPOLYLINE
  5
207
100
AcDbEntity
  8
Layer_1
 62
5
100
AcDbPolyline
 90
1
 70
1
 10
188.610293
 20
497.088935
 30
0.0
  0
SPLINE
  5
208
100
AcDbEntity
  8
Layer_1
 62
5
100
AcDbSpline
 70
8
 71
3
 72
8
 73
4
 74
0
 40
0
 40
0
 40
0
 40
0
 40
1
 40
1
 40
1
 40
1
 10
186.627484
 20
496.658636
 30
0.0
 10
186.361736
 20
496.623770
 30
0.0
 10
186.104704
 20
496.600526
 30
0.0
 10
185.853929
 20
496.585502
 30
0.0
  0
SPLINE
  5
209
100
AcDbEntity
  8
Layer_1
 62
5
100
AcDbSpline
 70
8
 71
3
 72
8
 73
4
 74
0
 40
0
 40
0
 40
0
 40
0
 40
1
 40
1
 40
1
 40
1
 10
185.853929
 20
496.585502
 30
0.0
 10
186.695031
 20
495.497849
 30
0.0
 10
187.363114
 20
494.273169
 30
0.0
 10
187.580126
 20
492.820639
 30
0.0
  0
SPLINE
  5
20a
100
AcDbEntity
  8
Layer_1
 62
5
100
AcDbSpline
 70
8
 71
3
 72
8
 73
4
 74
0
 40
0
 40
0
 40
0
 40
0
 40
1
 40
1
 40
1
 40
1
 10
187.580126
 20
492.820639
 30
0.0
 10
187.932609
 20
492.932324
 30
0.0
 10
188.282001
 20
493.059600
 30
0.0
 10
188.629588
 20
493.198781
 30
0.0
  0
SPLINE
  5
20b
100
AcDbEntity
  8
Layer_1
 62
5
100
AcDbSpline
 70
8
 71
3
 72
8
 73
4
 74
0
 40
0
 40
0
 40
0
 40
0
 40
1
 40
1
 40
1
 40
1
 10
188.629588
 20
493.198781
 30
0.0
 10
187.670744
 20
494.174438
 30
0.0
 10
186.877157
 20
495.290835
 30
0.0
 10
186.627484
 20
496.658636
 30
0.0
  0
LWPOLYLINE
  5
20c
100
AcDbEntity
  8
Layer_1
 62
5
100
AcDbPolyline
 90
1
 70
1
 10
181.488844
 20
497.046898
 30
0.0
  0
SPLINE
  5
20d
100
AcDbEntity
  8
Layer_1
 62
5
100
AcDbSpline
 70
8
 71
3
 72
8
 73
4
 74
0
 40
0
 40
0
 40
0
 40
0
 40
1
 40
1
 40
1
 40
1
 10
184.532621
 20
496.140350
 30
0.0
 10
185.006679
 20
494.900844
 30
0.0
 10
185.210802
 20
493.503165
 30
0.0
 10
185.316335
 20
492.291524
 30
0.0
  0
SPLINE
  5
20e
100
AcDbEntity
  8
Layer_1
 62
5
100
AcDbSpline
 70
8
 71
3
 72
8
 73
4
 74
0
 40
0
 40
0
 40
0
 40
0
 40
1
 40
1
 40
1
 40
1
 10
185.316335
 20
492.291524
 30
0.0
 10
185.648632
 20
492.343115
 30
0.0
 10
185.978597
 20
492.406044
 30
0.0
 10
186.306554
 20
492.479178
 30
0.0
  0
SPLINE
  5
20f
100
AcDbEntity
  8
Layer_1
 62
5
100
AcDbSpline
 70
8
 71
3
 72
8
 73
4
 74
0
 40
0
 40
0
 40
0
 40
0
 40
1
 40
1
 40
1
 40
1
 10
186.306554
 20
492.479178
 30
0.0
 10
186.139310
 20
493.869657
 30
0.0
 10
185.463068
 20
495.025852
 30
0.0
 10
184.532621
 20
496.140463
 30
0.0
  0
LWPOLYLINE
  5
210
100
AcDbEntity
  8
Layer_1
 62
5
100
AcDbPolyline
 90
1
 70
1
 10
186.627484
 20
496.658636
 30
0.0
  0
SPLINE
  5
211
100
AcDbEntity
  8
Layer_1
 62
5
100
AcDbSpline
 70
8
 71
3
 72
8
 73
4
 74
0
 40
0
 40
0
 40
0
 40
0
 40
1
 40
1
 40
1
 40
1
 10
108.946602
 20
495.449717
 30
0.0
 10
108.195284
 20
495.450397
 30
0.0
 10
107.434712
 20
495.402378
 30
0.0
 10
106.663853
 20
495.300331
 30
0.0
  0
SPLINE
  5
212
100
AcDbEntity
  8
Layer_1
 62
5
100
AcDbSpline
 70
8
 71
3
 72
8
 73
4
 74
0
 40
0
 40
0
 40
0
 40
0
 40
1
 40
1
 40
1
 40
1
 10
106.663853
 20
495.300331
 30
0.0
 10
106.661537
 20
495.291827
 30
0.0
 10
106.659034
 20
495.280488
 30
0.0
 10
106.656766
 20
495.271984
 30
0.0
  0
SPLINE
  5
213
100
AcDbEntity
  8
Layer_1
 62
5
100
AcDbSpline
 70
8
 71
3
 72
8
 73
4
 74
0
 40
0
 40
0
 40
0
 40
0
 40
1
 40
1
 40
1
 40
1
 10
106.656766
 20
495.271984
 30
0.0
 10
107.332974
 20
495.342000
 30
0.0
 10
107.999629
 20
495.374032
 30
0.0
 10
108.657176
 20
495.373465
 30
0.0
  0
SPLINE
  5
214
100
AcDbEntity
  8
Layer_1
 62
5
100
AcDbSpline
 70
8
 71
3
 72
8
 73
4
 74
0
 40
0
 40
0
 40
0
 40
0
 40
1
 40
1
 40
1
 40
1
 10
108.657176
 20
495.373465
 30
0.0
 10
111.045929
 20
495.371679
 30
0.0
 10
113.314827
 20
494.947644
 30
0.0
 10
115.490194
 20
494.420825
 30
0.0
  0
SPLINE
  5
215
100
AcDbEntity
  8
Layer_1
 62
5
100
AcDbSpline
 70
8
 71
3
 72
8
 73
4
 74
0
 40
0
 40
0
 40
0
 40
0
 40
1
 40
1
 40
1
 40
1
 10
115.490194
 20
494.420825
 30
0.0
 10
115.493029
 20
494.449172
 30
0.0
 10
115.496147
 20
494.475817
 30
0.0
 10
115.498981
 20
494.503313
 30
0.0
  0
SPLINE
  5
216
100
AcDbEntity
  8
Layer_1
 62
5
100
AcDbSpline
 70
8
 71
3
 72
8
 73
4
 74
0
 40
0
 40
0
 40
0
 40
0
 40
1
 40
1
 40
1
 40
1
 10
115.498981
 20
494.503313
 30
0.0
 10
113.362418
 20
495.032173
 30
0.0
 10
111.194569
 20
495.447137
 30
0.0
 10
108.946610
 20
495.449178
 30
0.0
  0
LWPOLYLINE
  5
217
100
AcDbEntity
  8
Layer_1
 62
5
100
AcDbPolyline
 90
2
 70
0
 10
184.532621
 20
496.140463
 30
0.0
 10
184.532621
 20
496.140350
 30
0.0
  0
SPLINE
  5
218
100
AcDbEntity
  8
Layer_1
 62
5
100
AcDbSpline
 70
8
 71
3
 72
8
 73
4
 74
0
 40
0
 40
0
 40
0
 40
0
 40
1
 40
1
 40
1
 40
1
 10
108.817965
 20
494.060032
 30
0.0
 10
108.338485
 20
492.857915
 30
0.0
 10
108.147266
 20
492.483940
 30
0.0
 10
108.067431
 20
492.270860
 30
0.0
  0
SPLINE
  5
219
100
AcDbEntity
  8
Layer_1
 62
5
100
AcDbSpline
 70
8
 71
3
 72
8
 73
4
 74
0
 40
0
 40
0
 40
0
 40
0
 40
1
 40
1
 40
1
 40
1
 10
108.067431
 20
492.270860
 30
0.0
 10
108.003906
 20
492.101348
 30
0.0
 10
107.935053
 20
491.775902
 30
0.0
 10
107.806757
 20
491.159792
 30
0.0
  0
SPLINE
  5
21a
100
AcDbEntity
  8
Layer_1
 62
5
100
AcDbSpline
 70
8
 71
3
 72
8
 73
4
 74
0
 40
0
 40
0
 40
0
 40
0
 40
1
 40
1
 40
1
 40
1
 10
107.806757
 20
491.159792
 30
0.0
 10
108.334247
 20
491.038186
 30
0.0
 10
108.873125
 20
490.945493
 30
0.0
 10
109.422252
 20
490.878028
 30
0.0
  0
SPLINE
  5
21b
100
AcDbEntity
  8
Layer_1
 62
5
100
AcDbSpline
 70
8
 71
3
 72
8
 73
4
 74
0
 40
0
 40
0
 40
0
 40
0
 40
1
 40
1
 40
1
 40
1
 10
109.422252
 20
490.878028
 30
0.0
 10
109.394756
 20
491.860375
 30
0.0
 10
109.503692
 20
492.415909
 30
0.0
 10
109.694775
 20
492.860835
 30
0.0
  0
SPLINE
  5
21c
100
AcDbEntity
  8
Layer_1
 62
5
100
AcDbSpline
 70
8
 71
3
 72
8
 73
4
 74
0
 40
0
 40
0
 40
0
 40
0
 40
1
 40
1
 40
1
 40
1
 10
109.694775
 20
492.860835
 30
0.0
 10
109.865392
 20
493.258082
 30
0.0
 10
110.031934
 20
493.497156
 30
0.0
 10
110.203594
 20
493.998633
 30
0.0
  0
SPLINE
  5
21d
100
AcDbEntity
  8
Layer_1
 62
5
100
AcDbSpline
 70
8
 71
3
 72
8
 73
4
 74
0
 40
0
 40
0
 40
0
 40
0
 40
1
 40
1
 40
1
 40
1
 10
110.203594
 20
493.998633
 30
0.0
 10
109.744767
 20
494.034066
 30
0.0
 10
109.283057
 20
494.055609
 30
0.0
 10
108.817965
 20
494.059861
 30
0.0
  0
LWPOLYLINE
  5
21e
100
AcDbEntity
  8
Layer_1
 62
5
100
AcDbPolyline
 90
2
 70
0
 10
108.946610
 20
495.449178
 30
0.0
 10
108.946602
 20
495.449717
 30
0.0
  0
SPLINE
  5
21f
100
AcDbEntity
  8
Layer_1
 62
5
100
AcDbSpline
 70
8
 71
3
 72
8
 73
4
 74
0
 40
0
 40
0
 40
0
 40
0
 40
1
 40
1
 40
1
 40
1
 10
107.388663
 20
494.019780
 30
0.0
 10
107.036016
 20
493.994268
 30
0.0
 10
106.680966
 20
493.958268
 30
0.0
 10
106.323968
 20
493.911496
 30
0.0
  0
SPLINE
  5
220
100
AcDbEntity
  8
Layer_1
 62
5
100
AcDbSpline
 70
8
 71
3
 72
8
 73
4
 74
0
 40
0
 40
0
 40
0
 40
0
 40
1
 40
1
 40
1
 40
1
 10
106.323968
 20
493.911496
 30
0.0
 10
106.150856
 20
493.192602
 30
0.0
 10
105.982033
 20
492.482721
 30
0.0
 10
105.820566
 20
491.797672
 30
0.0
  0
SPLINE
  5
221
100
AcDbEntity
  8
Layer_1
 62
5
100
AcDbSpline
 70
8
 71
3
 72
8
 73
4
 74
0
 40
0
 40
0
 40
0
 40
0
 40
1
 40
1
 40
1
 40
1
 10
105.820566
 20
491.797672
 30
0.0
 10
106.057939
 20
491.695625
 30
0.0
 10
106.299592
 20
491.606050
 30
0.0
 10
106.543341
 20
491.521294
 30
0.0
  0
SPLINE
  5
222
100
AcDbEntity
  8
Layer_1
 62
5
100
AcDbSpline
 70
8
 71
3
 72
8
 73
4
 74
0
 40
0
 40
0
 40
0
 40
0
 40
1
 40
1
 40
1
 40
1
 10
106.543341
 20
491.521294
 30
0.0
 10
106.663983
 20
492.105345
 30
0.0
 10
106.740519
 20
492.465402
 30
0.0
 10
106.840236
 20
492.731546
 30
0.0
  0
SPLINE
  5
223
100
AcDbEntity
  8
Layer_1
 62
5
100
AcDbSpline
 70
8
 71
3
 72
8
 73
4
 74
0
 40
0
 40
0
 40
0
 40
0
 40
1
 40
1
 40
1
 40
1
 10
106.840236
 20
492.731546
 30
0.0
 10
106.948661
 20
493.020964
 30
0.0
 10
107.079877
 20
493.273077
 30
0.0
 10
107.388663
 20
494.019694
 30
0.0
  0
LWPOLYLINE
  5
224
100
AcDbEntity
  8
Layer_1
 62
5
100
AcDbPolyline
 90
2
 70
0
 10
108.817965
 20
494.059861
 30
0.0
 10
108.817965
 20
494.060032
 30
0.0
  0
SPLINE
  5
225
100
AcDbEntity
  8
Layer_1
 62
5
100
AcDbSpline
 70
8
 71
3
 72
8
 73
4
 74
0
 40
0
 40
0
 40
0
 40
0
 40
1
 40
1
 40
1
 40
1
 10
111.530656
 20
493.857921
 30
0.0
 10
111.287330
 20
493.047269
 30
0.0
 10
111.026418
 20
492.640809
 30
0.0
 10
110.898950
 20
492.343994
 30
0.0
  0
SPLINE
  5
226
100
AcDbEntity
  8
Layer_1
 62
5
100
AcDbSpline
 70
8
 71
3
 72
8
 73
4
 74
0
 40
0
 40
0
 40
0
 40
0
 40
1
 40
1
 40
1
 40
1
 10
110.898950
 20
492.343994
 30
0.0
 10
110.766827
 20
492.036321
 30
0.0
 10
110.684906
 20
491.724992
 30
0.0
 10
110.734087
 20
490.759654
 30
0.0
  0
SPLINE
  5
227
100
AcDbEntity
  8
Layer_1
 62
5
100
AcDbSpline
 70
8
 71
3
 72
8
 73
4
 74
0
 40
0
 40
0
 40
0
 40
0
 40
1
 40
1
 40
1
 40
1
 10
110.734087
 20
490.759654
 30
0.0
 10
111.495076
 20
490.712882
 30
0.0
 10
112.270901
 20
490.698142
 30
0.0
 10
113.057802
 20
490.701543
 30
0.0
  0
SPLINE
  5
228
100
AcDbEntity
  8
Layer_1
 62
5
100
AcDbSpline
 70
8
 71
3
 72
8
 73
4
 74
0
 40
0
 40
0
 40
0
 40
0
 40
1
 40
1
 40
1
 40
1
 10
113.057802
 20
490.701543
 30
0.0
 10
112.998416
 20
491.361987
 30
0.0
 10
112.964995
 20
491.742057
 30
0.0
 10
112.984328
 20
492.039439
 30
0.0
  0
SPLINE
  5
229
100
AcDbEntity
  8
Layer_1
 62
5
100
AcDbSpline
 70
8
 71
3
 72
8
 73
4
 74
0
 40
0
 40
0
 40
0
 40
0
 40
1
 40
1
 40
1
 40
1
 10
112.984328
 20
492.039439
 30
0.0
 10
113.005587
 20
492.365424
 30
0.0
 10
113.063017
 20
492.674854
 30
0.0
 10
113.150211
 20
493.592315
 30
0.0
  0
SPLINE
  5
22a
100
AcDbEntity
  8
Layer_1
 62
5
100
AcDbSpline
 70
8
 71
3
 72
8
 73
4
 74
0
 40
0
 40
0
 40
0
 40
0
 40
1
 40
1
 40
1
 40
1
 10
113.150211
 20
493.592315
 30
0.0
 10
112.613522
 20
493.695213
 30
0.0
 10
112.073919
 20
493.785071
 30
0.0
 10
111.530656
 20
493.857921
 30
0.0
  0
LWPOLYLINE
  5
22b
100
AcDbEntity
  8
Layer_1
 62
5
100
AcDbPolyline
 90
1
 70
1
 10
107.388663
 20
494.019694
 30
0.0
  0
SPLINE
  5
22c
100
AcDbEntity
  8
Layer_1
 62
5
100
AcDbSpline
 70
8
 71
3
 72
8
 73
4
 74
0
 40
0
 40
0
 40
0
 40
0
 40
1
 40
1
 40
1
 40
1
 10
114.442407
 20
493.321011
 30
0.0
 10
114.359579
 20
492.465969
 30
0.0
 10
114.304501
 20
492.144435
 30
0.0
 10
114.292086
 20
491.953663
 30
0.0
  0
SPLINE
  5
22d
100
AcDbEntity
  8
Layer_1
 62
5
100
AcDbSpline
 70
8
 71
3
 72
8
 73
4
 74
0
 40
0
 40
0
 40
0
 40
0
 40
1
 40
1
 40
1
 40
1
 10
114.292086
 20
491.953663
 30
0.0
 10
114.279613
 20
491.764025
 30
0.0
 10
114.310227
 20
491.423868
 30
0.0
 10
114.372646
 20
490.719005
 30
0.0
  0
SPLINE
  5
22e
100
AcDbEntity
  8
Layer_1
 62
5
100
AcDbSpline
 70
8
 71
3
 72
8
 73
4
 74
0
 40
0
 40
0
 40
0
 40
0
 40
1
 40
1
 40
1
 40
1
 10
114.372646
 20
490.719005
 30
0.0
 10
114.604464
 20
490.724674
 30
0.0
 10
114.838319
 20
490.730343
 30
0.0
 10
115.071384
 20
490.736013
 30
0.0
  0
SPLINE
  5
22f
100
AcDbEntity
  8
Layer_1
 62
5
100
AcDbSpline
 70
8
 71
3
 72
8
 73
4
 74
0
 40
0
 40
0
 40
0
 40
0
 40
1
 40
1
 40
1
 40
1
 10
115.071384
 20
490.736013
 30
0.0
 10
115.166599
 20
491.517694
 30
0.0
 10
115.259009
 20
492.308050
 30
0.0
 10
115.347960
 20
493.106088
 30
0.0
  0
SPLINE
  5
230
100
AcDbEntity
  8
Layer_1
 62
5
100
AcDbSpline
 70
8
 71
3
 72
8
 73
4
 74
0
 40
0
 40
0
 40
0
 40
0
 40
1
 40
1
 40
1
 40
1
 10
115.347960
 20
493.106088
 30
0.0
 10
115.046626
 20
493.179789
 30
0.0
 10
114.745116
 20
493.253206
 30
0.0
 10
114.442373
 20
493.321805
 30
0.0
  0
LWPOLYLINE
  5
231
100
AcDbEntity
  8
Layer_1
 62
5
100
AcDbPolyline
 90
1
 70
1
 10
111.530656
 20
493.857921
 30
0.0
  0
SPLINE
  5
232
100
AcDbEntity
  8
Layer_1
 62
5
100
AcDbSpline
 70
8
 71
3
 72
8
 73
4
 74
0
 40
0
 40
0
 40
0
 40
0
 40
1
 40
1
 40
1
 40
1
 10
183.284107
 20
483.291524
 30
0.0
 10
182.658056
 20
483.218391
 30
0.0
 10
182.031749
 20
483.144406
 30
0.0
 10
181.404553
 20
483.066737
 30
0.0
  0
SPLINE
  5
233
100
AcDbEntity
  8
Layer_1
 62
5
100
AcDbSpline
 70
8
 71
3
 72
8
 73
4
 74
0
 40
0
 40
0
 40
0
 40
0
 40
1
 40
1
 40
1
 40
1
 10
181.404553
 20
483.066737
 30
0.0
 10
181.823352
 20
482.799713
 30
0.0
 10
182.089412
 20
482.308384
 30
0.0
 10
182.089412
 20
481.788085
 30
0.0
  0
SPLINE
  5
234
100
AcDbEntity
  8
Layer_1
 62
5
100
AcDbSpline
 70
8
 71
3
 72
8
 73
4
 74
0
 40
0
 40
0
 40
0
 40
0
 40
1
 40
1
 40
1
 40
1
 10
182.089412
 20
481.788085
 30
0.0
 10
182.089412
 20
481.014028
 30
0.0
 10
181.502606
 20
480.301228
 30
0.0
 10
180.695996
 20
480.301228
 30
0.0
  0
SPLINE
  5
235
100
AcDbEntity
  8
Layer_1
 62
5
100
AcDbSpline
 70
8
 71
3
 72
8
 73
4
 74
0
 40
0
 40
0
 40
0
 40
0
 40
1
 40
1
 40
1
 40
1
 10
180.695996
 20
480.301228
 30
0.0
 10
179.889386
 20
480.301228
 30
0.0
 10
179.301229
 20
481.014028
 30
0.0
 10
179.301226
 20
481.788085
 30
0.0
  0
SPLINE
  5
236
100
AcDbEntity
  8
Layer_1
 62
5
100
AcDbSpline
 70
8
 71
3
 72
8
 73
4
 74
0
 40
0
 40
0
 40
0
 40
0
 40
1
 40
1
 40
1
 40
1
 10
179.301226
 20
481.788085
 30
0.0
 10
179.301226
 20
482.190066
 30
0.0
 10
179.460986
 20
482.574444
 30
0.0
 10
179.726428
 20
482.852098
 30
0.0
  0
SPLINE
  5
237
100
AcDbEntity
  8
Layer_1
 62
5
100
AcDbSpline
 70
8
 71
3
 72
8
 73
4
 74
0
 40
0
 40
0
 40
0
 40
0
 40
1
 40
1
 40
1
 40
1
 10
179.726428
 20
482.852098
 30
0.0
 10
176.647822
 20
482.453887
 30
0.0
 10
173.557919
 20
482.014942
 30
0.0
 10
170.465428
 20
481.576167
 30
0.0
  0
SPLINE
  5
238
100
AcDbEntity
  8
Layer_1
 62
5
100
AcDbSpline
 70
8
 71
3
 72
8
 73
4
 74
0
 40
0
 40
0
 40
0
 40
0
 40
1
 40
1
 40
1
 40
1
 10
170.465428
 20
481.576167
 30
0.0
 10
170.741211
 20
481.297238
 30
0.0
 10
170.907894
 20
480.905121
 30
0.0
 10
170.907894
 20
480.494551
 30
0.0
  0
SPLINE
  5
239
100
AcDbEntity
  8
Layer_1
 62
5
100
AcDbSpline
 70
8
 71
3
 72
8
 73
4
 74
0
 40
0
 40
0
 40
0
 40
0
 40
1
 40
1
 40
1
 40
1
 10
170.907894
 20
480.494551
 30
0.0
 10
170.907894
 20
479.720494
 30
0.0
 10
170.319736
 20
479.007694
 30
0.0
 10
169.513126
 20
479.007694
 30
0.0
  0
SPLINE
  5
23a
100
AcDbEntity
  8
Layer_1
 62
5
100
AcDbSpline
 70
8
 71
3
 72
8
 73
4
 74
0
 40
0
 40
0
 40
0
 40
0
 40
1
 40
1
 40
1
 40
1
 10
169.513126
 20
479.007694
 30
0.0
 10
168.706517
 20
479.007694
 30
0.0
 10
168.119711
 20
479.720494
 30
0.0
 10
168.119711
 20
480.494551
 30
0.0
  0
SPLINE
  5
23b
100
AcDbEntity
  8
Layer_1
 62
5
100
AcDbSpline
 70
8
 71
3
 72
8
 73
4
 74
0
 40
0
 40
0
 40
0
 40
0
 40
1
 40
1
 40
1
 40
1
 10
168.119711
 20
480.494551
 30
0.0
 10
168.119711
 20
480.773197
 30
0.0
 10
168.196757
 20
481.042885
 30
0.0
 10
168.331629
 20
481.275213
 30
0.0
  0
SPLINE
  5
23c
100
AcDbEntity
  8
Layer_1
 62
5
100
AcDbSpline
 70
8
 71
3
 72
8
 73
4
 74
0
 40
0
 40
0
 40
0
 40
0
 40
1
 40
1
 40
1
 40
1
 10
168.331629
 20
481.275213
 30
0.0
 10
163.168169
 20
480.548211
 30
0.0
 10
158.003263
 20
479.855055
 30
0.0
 10
152.877107
 20
479.402419
 30
0.0
  0
SPLINE
  5
23d
100
AcDbEntity
  8
Layer_1
 62
5
100
AcDbSpline
 70
8
 71
3
 72
8
 73
4
 74
0
 40
0
 40
0
 40
0
 40
0
 40
1
 40
1
 40
1
 40
1
 10
152.877107
 20
479.402419
 30
0.0
 10
153.437185
 20
479.193506
 30
0.0
 10
153.811128
 20
478.616372
 30
0.0
 10
153.811128
 20
477.999184
 30
0.0
  0
SPLINE
  5
23e
100
AcDbEntity
  8
Layer_1
 62
5
100
AcDbSpline
 70
8
 71
3
 72
8
 73
4
 74
0
 40
0
 40
0
 40
0
 40
0
 40
1
 40
1
 40
1
 40
1
 10
153.811128
 20
477.999184
 30
0.0
 10
153.811128
 20
477.225156
 30
0.0
 10
153.224323
 20
476.512668
 30
0.0
 10
152.417713
 20
476.512668
 30
0.0
  0
SPLINE
  5
23f
100
AcDbEntity
  8
Layer_1
 62
5
100
AcDbSpline
 70
8
 71
3
 72
8
 73
4
 74
0
 40
0
 40
0
 40
0
 40
0
 40
1
 40
1
 40
1
 40
1
 10
152.417713
 20
476.512668
 30
0.0
 10
151.611103
 20
476.512668
 30
0.0
 10
151.022945
 20
477.225156
 30
0.0
 10
151.022945
 20
477.999184
 30
0.0
  0
SPLINE
  5
240
100
AcDbEntity
  8
Layer_1
 62
5
100
AcDbSpline
 70
8
 71
3
 72
8
 73
4
 74
0
 40
0
 40
0
 40
0
 40
0
 40
1
 40
1
 40
1
 40
1
 10
151.022945
 20
477.999184
 30
0.0
 10
151.022945
 20
478.538816
 30
0.0
 10
151.309125
 20
479.047975
 30
0.0
 10
151.755537
 20
479.307288
 30
0.0
  0
SPLINE
  5
241
100
AcDbEntity
  8
Layer_1
 62
5
100
AcDbSpline
 70
8
 71
3
 72
8
 73
4
 74
0
 40
0
 40
0
 40
0
 40
0
 40
1
 40
1
 40
1
 40
1
 10
151.755537
 20
479.307288
 30
0.0
 10
149.415364
 20
479.117083
 30
0.0
 10
147.083567
 20
478.979433
 30
0.0
 10
144.764762
 20
478.915597
 30
0.0
  0
LWPOLYLINE
  5
242
100
AcDbEntity
  8
Layer_1
 62
5
100
AcDbPolyline
 90
2
 70
0
 10
114.442373
 20
493.321805
 30
0.0
 10
114.442407
 20
493.321011
 30
0.0
  0
SPLINE
  5
243
100
AcDbEntity
  8
Layer_1
 62
5
100
AcDbSpline
 70
8
 71
3
 72
8
 73
4
 74
0
 40
0
 40
0
 40
0
 40
0
 40
1
 40
1
 40
1
 40
1
 10
144.649675
 20
478.922769
 30
0.0
 10
137.014628
 20
480.073436
 30
0.0
 10
128.552879
 20
479.945991
 30
0.0
 10
120.186026
 20
480.040271
 30
0.0
  0
SPLINE
  5
244
100
AcDbEntity
  8
Layer_1
 62
5
100
AcDbSpline
 70
8
 71
3
 72
8
 73
4
 74
0
 40
0
 40
0
 40
0
 40
0
 40
1
 40
1
 40
1
 40
1
 10
120.186026
 20
480.040271
 30
0.0
 10
120.733543
 20
479.824271
 30
0.0
 10
121.097704
 20
479.255159
 30
0.0
 10
121.097704
 20
478.646532
 30
0.0
  0
SPLINE
  5
245
100
AcDbEntity
  8
Layer_1
 62
5
100
AcDbSpline
 70
8
 71
3
 72
8
 73
4
 74
0
 40
0
 40
0
 40
0
 40
0
 40
1
 40
1
 40
1
 40
1
 10
121.097704
 20
478.646532
 30
0.0
 10
121.097704
 20
477.872476
 30
0.0
 10
120.509889
 20
477.159676
 30
0.0
 10
119.703274
 20
477.159676
 30
0.0
  0
SPLINE
  5
246
100
AcDbEntity
  8
Layer_1
 62
5
100
AcDbSpline
 70
8
 71
3
 72
8
 73
4
 74
0
 40
0
 40
0
 40
0
 40
0
 40
1
 40
1
 40
1
 40
1
 10
119.703274
 20
477.159676
 30
0.0
 10
118.896667
 20
477.159676
 30
0.0
 10
118.308504
 20
477.872476
 30
0.0
 10
118.308504
 20
478.646532
 30
0.0
  0
SPLINE
  5
247
100
AcDbEntity
  8
Layer_1
 62
5
100
AcDbSpline
 70
8
 71
3
 72
8
 73
4
 74
0
 40
0
 40
0
 40
0
 40
0
 40
1
 40
1
 40
1
 40
1
 10
118.308504
 20
478.646532
 30
0.0
 10
118.308504
 20
479.264740
 30
0.0
 10
118.684267
 20
479.842668
 30
0.0
 10
119.246250
 20
480.050787
 30
0.0
  0
SPLINE
  5
248
100
AcDbEntity
  8
Layer_1
 62
5
100
AcDbSpline
 70
8
 71
3
 72
8
 73
4
 74
0
 40
0
 40
0
 40
0
 40
0
 40
1
 40
1
 40
1
 40
1
 10
119.246250
 20
480.050787
 30
0.0
 10
118.299243
 20
480.064961
 30
0.0
 10
117.354685
 20
480.081118
 30
0.0
 10
116.412361
 20
480.103228
 30
0.0
  0
SPLINE
  5
249
100
AcDbEntity
  8
Layer_1
 62
5
100
AcDbSpline
 70
8
 71
3
 72
8
 73
4
 74
0
 40
0
 40
0
 40
0
 40
0
 40
1
 40
1
 40
1
 40
1
 10
116.412361
 20
480.103228
 30
0.0
 10
116.548707
 20
478.881751
 30
0.0
 10
116.749307
 20
477.652365
 30
0.0
 10
117.041700
 20
476.409798
 30
0.0
  0
SPLINE
  5
24a
100
AcDbEntity
  8
Layer_1
 62
5
100
AcDbSpline
 70
8
 71
3
 72
8
 73
4
 74
0
 40
0
 40
0
 40
0
 40
0
 40
1
 40
1
 40
1
 40
1
 10
117.041700
 20
476.409798
 30
0.0
 10
122.004590
 20
475.713269
 30
0.0
 10
127.458550
 20
474.649143
 30
0.0
 10
134.868008
 20
474.914806
 30
0.0
  0
SPLINE
  5
24b
100
AcDbEntity
  8
Layer_1
 62
5
100
AcDbSpline
 70
8
 71
3
 72
8
 73
4
 74
0
 40
0
 40
0
 40
0
 40
0
 40
1
 40
1
 40
1
 40
1
 10
134.868008
 20
474.914806
 30
0.0
 10
136.052552
 20
475.098208
 30
0.0
 10
137.234341
 20
475.186649
 30
0.0
 10
138.403344
 20
475.221175
 30
0.0
  0
SPLINE
  5
24c
100
AcDbEntity
  8
Layer_1
 62
5
100
AcDbSpline
 70
8
 71
3
 72
8
 73
4
 74
0
 40
0
 40
0
 40
0
 40
0
 40
1
 40
1
 40
1
 40
1
 10
138.403344
 20
475.221175
 30
0.0
 10
141.709632
 20
475.318403
 30
0.0
 10
144.914644
 20
474.985616
 30
0.0
 10
147.805512
 20
475.151443
 30
0.0
  0
LWPOLYLINE
  5
24d
100
AcDbEntity
  8
Layer_1
 62
5
100
AcDbPolyline
 90
3
 70
0
 10
144.764762
 20
478.915597
 30
0.0
 10
144.707219
 20
478.914265
 30
0.0
 10
144.649675
 20
478.922769
 30
0.0
  0
SPLINE
  5
24e
100
AcDbEntity
  8
Layer_1
 62
5
100
AcDbSpline
 70
8
 71
3
 72
8
 73
4
 74
0
 40
0
 40
0
 40
0
 40
0
 40
1
 40
1
 40
1
 40
1
 10
148.516305
 20
475.198214
 30
0.0
 10
153.034299
 20
475.130183
 30
0.0
 10
157.556659
 20
475.713213
 30
0.0
 10
162.087888
 20
476.862803
 30
0.0
  0
SPLINE
  5
24f
100
AcDbEntity
  8
Layer_1
 62
5
100
AcDbSpline
 70
8
 71
3
 72
8
 73
4
 74
0
 40
0
 40
0
 40
0
 40
0
 40
1
 40
1
 40
1
 40
1
 10
162.087888
 20
476.862803
 30
0.0
 10
162.089583
 20
476.863257
 30
0.0
 10
162.091290
 20
476.863710
 30
0.0
 10
162.092991
 20
476.864164
 30
0.0
  0
LWPOLYLINE
  5
250
100
AcDbEntity
  8
Layer_1
 62
5
100
AcDbPolyline
 90
3
 70
0
 10
147.805512
 20
475.151443
 30
0.0
 10
147.800976
 20
475.209553
 30
0.0
 10
148.516305
 20
475.198214
 30
0.0
  0
SPLINE
  5
251
100
AcDbEntity
  8
Layer_1
 62
5
100
AcDbSpline
 70
8
 71
3
 72
8
 73
4
 74
0
 40
0
 40
0
 40
0
 40
0
 40
1
 40
1
 40
1
 40
1
 10
162.115384
 20
476.869833
 30
0.0
 10
162.430251
 20
476.952321
 30
0.0
 10
162.745084
 20
477.031691
 30
0.0
 10
163.059902
 20
477.109077
 30
0.0
  0
LWPOLYLINE
  5
252
100
AcDbEntity
  8
Layer_1
 62
5
100
AcDbPolyline
 90
2
 70
0
 10
162.092991
 20
476.864164
 30
0.0
 10
162.115384
 20
476.869833
 30
0.0
  0
SPLINE
  5
253
100
AcDbEntity
  8
Layer_1
 62
5
100
AcDbSpline
 70
8
 71
3
 72
8
 73
4
 74
0
 40
0
 40
0
 40
0
 40
0
 40
1
 40
1
 40
1
 40
1
 10
163.539252
 20
477.225581
 30
0.0
 10
167.280154
 20
478.117304
 30
0.0
 10
171.017612
 20
478.669720
 30
0.0
 10
174.748527
 20
478.994088
 30
0.0
  0
LWPOLYLINE
  5
254
100
AcDbEntity
  8
Layer_1
 62
5
100
AcDbPolyline
 90
3
 70
0
 10
163.059902
 20
477.109077
 30
0.0
 10
163.542654
 20
477.231250
 30
0.0
 10
163.539252
 20
477.225581
 30
0.0
  0
SPLINE
  5
255
100
AcDbEntity
  8
Layer_1
 62
5
100
AcDbSpline
 70
8
 71
3
 72
8
 73
4
 74
0
 40
0
 40
0
 40
0
 40
0
 40
1
 40
1
 40
1
 40
1
 10
174.753913
 20
478.994769
 30
0.0
 10
177.936083
 20
479.473767
 30
0.0
 10
181.193182
 20
479.729169
 30
0.0
 10
183.316173
 20
481.061197
 30
0.0
  0
SPLINE
  5
256
100
AcDbEntity
  8
Layer_1
 62
5
100
AcDbSpline
 70
8
 71
3
 72
8
 73
4
 74
0
 40
0
 40
0
 40
0
 40
0
 40
1
 40
1
 40
1
 40
1
 10
183.316173
 20
481.061197
 30
0.0
 10
183.343669
 20
481.794548
 30
0.0
 10
183.330062
 20
482.538671
 30
0.0
 10
183.284028
 20
483.291468
 30
0.0
  0
LWPOLYLINE
  5
257
100
AcDbEntity
  8
Layer_1
 62
5
100
AcDbPolyline
 90
2
 70
0
 10
174.748527
 20
478.994088
 30
0.0
 10
174.753913
 20
478.994769
 30
0.0
  0
SPLINE
  5
258
100
AcDbEntity
  8
Layer_1
 62
5
100
AcDbSpline
 70
8
 71
3
 72
8
 73
4
 74
0
 40
0
 40
0
 40
0
 40
0
 40
1
 40
1
 40
1
 40
1
 10
180.695996
 20
481.964457
 30
0.0
 10
180.686075
 20
481.964457
 30
0.0
 10
180.611694
 20
481.932709
 30
0.0
 10
180.611694
 20
481.788142
 30
0.0
  0
SPLINE
  5
259
100
AcDbEntity
  8
Layer_1
 62
5
100
AcDbSpline
 70
8
 71
3
 72
8
 73
4
 74
0
 40
0
 40
0
 40
0
 40
0
 40
1
 40
1
 40
1
 40
1
 10
180.611694
 20
481.788142
 30
0.0
 10
180.611694
 20
481.643575
 30
0.0
 10
180.685990
 20
481.611543
 30
0.0
 10
180.695996
 20
481.611543
 30
0.0
  0
SPLINE
  5
25a
100
AcDbEntity
  8
Layer_1
 62
5
100
AcDbSpline
 70
8
 71
3
 72
8
 73
4
 74
0
 40
0
 40
0
 40
0
 40
0
 40
1
 40
1
 40
1
 40
1
 10
180.695996
 20
481.611543
 30
0.0
 10
180.705917
 20
481.611543
 30
0.0
 10
180.779278
 20
481.643575
 30
0.0
 10
180.779278
 20
481.788142
 30
0.0
  0
SPLINE
  5
25b
100
AcDbEntity
  8
Layer_1
 62
5
100
AcDbSpline
 70
8
 71
3
 72
8
 73
4
 74
0
 40
0
 40
0
 40
0
 40
0
 40
1
 40
1
 40
1
 40
1
 10
180.779278
 20
481.788142
 30
0.0
 10
180.779278
 20
481.932709
 30
0.0
 10
180.706003
 20
481.964457
 30
0.0
 10
180.695996
 20
481.964457
 30
0.0
  0
LWPOLYLINE
  5
25c
100
AcDbEntity
  8
Layer_1
 62
5
100
AcDbPolyline
 90
1
 70
1
 10
183.284028
 20
483.291468
 30
0.0
  0
SPLINE
  5
25d
100
AcDbEntity
  8
Layer_1
 62
5
100
AcDbSpline
 70
8
 71
3
 72
8
 73
4
 74
0
 40
0
 40
0
 40
0
 40
0
 40
1
 40
1
 40
1
 40
1
 10
169.513126
 20
480.670923
 30
0.0
 10
169.503205
 20
480.670923
 30
0.0
 10
169.429844
 20
480.639175
 30
0.0
 10
169.429844
 20
480.494608
 30
0.0
  0
SPLINE
  5
25e
100
AcDbEntity
  8
Layer_1
 62
5
100
AcDbSpline
 70
8
 71
3
 72
8
 73
4
 74
0
 40
0
 40
0
 40
0
 40
0
 40
1
 40
1
 40
1
 40
1
 10
169.429844
 20
480.494608
 30
0.0
 10
169.429844
 20
480.350041
 30
0.0
 10
169.503120
 20
480.317726
 30
0.0
 10
169.513126
 20
480.318009
 30
0.0
  0
SPLINE
  5
25f
100
AcDbEntity
  8
Layer_1
 62
5
100
AcDbSpline
 70
8
 71
3
 72
8
 73
4
 74
0
 40
0
 40
0
 40
0
 40
0
 40
1
 40
1
 40
1
 40
1
 10
169.513126
 20
480.318009
 30
0.0
 10
169.523048
 20
480.318009
 30
0.0
 10
169.597429
 20
480.350041
 30
0.0
 10
169.597429
 20
480.494608
 30
0.0
  0
SPLINE
  5
260
100
AcDbEntity
  8
Layer_1
 62
5
100
AcDbSpline
 70
8
 71
3
 72
8
 73
4
 74
0
 40
0
 40
0
 40
0
 40
0
 40
1
 40
1
 40
1
 40
1
 10
169.597429
 20
480.494608
 30
0.0
 10
169.597429
 20
480.639175
 30
0.0
 10
169.523133
 20
480.670923
 30
0.0
 10
169.513126
 20
480.670923
 30
0.0
  0
LWPOLYLINE
  5
261
100
AcDbEntity
  8
Layer_1
 62
5
100
AcDbPolyline
 90
1
 70
1
 10
180.695996
 20
481.964457
 30
0.0
  0
SPLINE
  5
262
100
AcDbEntity
  8
Layer_1
 62
5
100
AcDbSpline
 70
8
 71
3
 72
8
 73
4
 74
0
 40
0
 40
0
 40
0
 40
0
 40
1
 40
1
 40
1
 40
1
 10
133.195626
 20
479.486041
 30
0.0
 10
134.002236
 20
479.486041
 30
0.0
 10
134.589042
 20
478.773241
 30
0.0
 10
134.589042
 20
477.999184
 30
0.0
  0
SPLINE
  5
263
100
AcDbEntity
  8
Layer_1
 62
5
100
AcDbSpline
 70
8
 71
3
 72
8
 73
4
 74
0
 40
0
 40
0
 40
0
 40
0
 40
1
 40
1
 40
1
 40
1
 10
134.589042
 20
477.999184
 30
0.0
 10
134.589042
 20
477.225156
 30
0.0
 10
134.002236
 20
476.512668
 30
0.0
 10
133.195626
 20
476.512668
 30
0.0
  0
SPLINE
  5
264
100
AcDbEntity
  8
Layer_1
 62
5
100
AcDbSpline
 70
8
 71
3
 72
8
 73
4
 74
0
 40
0
 40
0
 40
0
 40
0
 40
1
 40
1
 40
1
 40
1
 10
133.195626
 20
476.512668
 30
0.0
 10
132.389014
 20
476.512668
 30
0.0
 10
131.800856
 20
477.225156
 30
0.0
 10
131.800856
 20
477.999184
 30
0.0
  0
SPLINE
  5
265
100
AcDbEntity
  8
Layer_1
 62
5
100
AcDbSpline
 70
8
 71
3
 72
8
 73
4
 74
0
 40
0
 40
0
 40
0
 40
0
 40
1
 40
1
 40
1
 40
1
 10
131.800856
 20
477.999184
 30
0.0
 10
131.800856
 20
478.773241
 30
0.0
 10
132.389014
 20
479.486041
 30
0.0
 10
133.195626
 20
479.486041
 30
0.0
  0
LWPOLYLINE
  5
266
100
AcDbEntity
  8
Layer_1
 62
5
100
AcDbPolyline
 90
1
 70
1
 10
169.513126
 20
480.670923
 30
0.0
  0
SPLINE
  5
267
100
AcDbEntity
  8
Layer_1
 62
5
100
AcDbSpline
 70
8
 71
3
 72
8
 73
4
 74
0
 40
0
 40
0
 40
0
 40
0
 40
1
 40
1
 40
1
 40
1
 10
119.703263
 20
478.823187
 30
0.0
 10
119.693341
 20
478.823187
 30
0.0
 10
119.618620
 20
478.791439
 30
0.0
 10
119.618620
 20
478.646872
 30
0.0
  0
SPLINE
  5
268
100
AcDbEntity
  8
Layer_1
 62
5
100
AcDbSpline
 70
8
 71
3
 72
8
 73
4
 74
0
 40
0
 40
0
 40
0
 40
0
 40
1
 40
1
 40
1
 40
1
 10
119.618620
 20
478.646872
 30
0.0
 10
119.618620
 20
478.502306
 30
0.0
 10
119.693256
 20
478.470274
 30
0.0
 10
119.703263
 20
478.470274
 30
0.0
  0
SPLINE
  5
269
100
AcDbEntity
  8
Layer_1
 62
5
100
AcDbSpline
 70
8
 71
3
 72
8
 73
4
 74
0
 40
0
 40
0
 40
0
 40
0
 40
1
 40
1
 40
1
 40
1
 10
119.703263
 20
478.470274
 30
0.0
 10
119.713184
 20
478.470274
 30
0.0
 10
119.787565
 20
478.502306
 30
0.0
 10
119.787565
 20
478.646872
 30
0.0
  0
SPLINE
  5
26a
100
AcDbEntity
  8
Layer_1
 62
5
100
AcDbSpline
 70
8
 71
3
 72
8
 73
4
 74
0
 40
0
 40
0
 40
0
 40
0
 40
1
 40
1
 40
1
 40
1
 10
119.787565
 20
478.646872
 30
0.0
 10
119.787565
 20
478.791439
 30
0.0
 10
119.713269
 20
478.823187
 30
0.0
 10
119.703263
 20
478.823187
 30
0.0
  0
LWPOLYLINE
  5
26b
100
AcDbEntity
  8
Layer_1
 62
5
100
AcDbPolyline
 90
1
 70
1
 10
133.195626
 20
479.486041
 30
0.0
  0
SPLINE
  5
26c
100
AcDbEntity
  8
Layer_1
 62
5
100
AcDbSpline
 70
8
 71
3
 72
8
 73
4
 74
0
 40
0
 40
0
 40
0
 40
0
 40
1
 40
1
 40
1
 40
1
 10
152.417718
 20
478.175896
 30
0.0
 10
152.407797
 20
478.175896
 30
0.0
 10
152.333076
 20
478.143865
 30
0.0
 10
152.333076
 20
477.999298
 30
0.0
  0
SPLINE
  5
26d
100
AcDbEntity
  8
Layer_1
 62
5
100
AcDbSpline
 70
8
 71
3
 72
8
 73
4
 74
0
 40
0
 40
0
 40
0
 40
0
 40
1
 40
1
 40
1
 40
1
 10
152.333076
 20
477.999298
 30
0.0
 10
152.333076
 20
477.854731
 30
0.0
 10
152.407712
 20
477.822983
 30
0.0
 10
152.417718
 20
477.822983
 30
0.0
  0
SPLINE
  5
26e
100
AcDbEntity
  8
Layer_1
 62
5
100
AcDbSpline
 70
8
 71
3
 72
8
 73
4
 74
0
 40
0
 40
0
 40
0
 40
0
 40
1
 40
1
 40
1
 40
1
 10
152.417718
 20
477.822983
 30
0.0
 10
152.427640
 20
477.822983
 30
0.0
 10
152.500660
 20
477.854731
 30
0.0
 10
152.500660
 20
477.999298
 30
0.0
  0
SPLINE
  5
26f
100
AcDbEntity
  8
Layer_1
 62
5
100
AcDbSpline
 70
8
 71
3
 72
8
 73
4
 74
0
 40
0
 40
0
 40
0
 40
0
 40
1
 40
1
 40
1
 40
1
 10
152.500660
 20
477.999298
 30
0.0
 10
152.500660
 20
478.143865
 30
0.0
 10
152.427725
 20
478.175896
 30
0.0
 10
152.417718
 20
478.175896
 30
0.0
  0
LWPOLYLINE
  5
270
100
AcDbEntity
  8
Layer_1
 62
5
100
AcDbPolyline
 90
1
 70
1
 10
119.703263
 20
478.823187
 30
0.0
  0
SPLINE
  5
271
100
AcDbEntity
  8
Layer_1
 62
5
100
AcDbSpline
 70
8
 71
3
 72
8
 73
4
 74
0
 40
0
 40
0
 40
0
 40
0
 40
1
 40
1
 40
1
 40
1
 10
133.195626
 20
478.175896
 30
0.0
 10
133.185705
 20
478.175896
 30
0.0
 10
133.110984
 20
478.143865
 30
0.0
 10
133.110984
 20
477.999298
 30
0.0
  0
SPLINE
  5
272
100
AcDbEntity
  8
Layer_1
 62
5
100
AcDbSpline
 70
8
 71
3
 72
8
 73
4
 74
0
 40
0
 40
0
 40
0
 40
0
 40
1
 40
1
 40
1
 40
1
 10
133.110984
 20
477.999298
 30
0.0
 10
133.110984
 20
477.854731
 30
0.0
 10
133.185620
 20
477.822983
 30
0.0
 10
133.195626
 20
477.822983
 30
0.0
  0
SPLINE
  5
273
100
AcDbEntity
  8
Layer_1
 62
5
100
AcDbSpline
 70
8
 71
3
 72
8
 73
4
 74
0
 40
0
 40
0
 40
0
 40
0
 40
1
 40
1
 40
1
 40
1
 10
133.195626
 20
477.822983
 30
0.0
 10
133.205547
 20
477.822983
 30
0.0
 10
133.278908
 20
477.854731
 30
0.0
 10
133.278908
 20
477.999298
 30
0.0
  0
SPLINE
  5
274
100
AcDbEntity
  8
Layer_1
 62
5
100
AcDbSpline
 70
8
 71
3
 72
8
 73
4
 74
0
 40
0
 40
0
 40
0
 40
0
 40
1
 40
1
 40
1
 40
1
 10
133.278908
 20
477.999298
 30
0.0
 10
133.278908
 20
478.143865
 30
0.0
 10
133.205632
 20
478.175896
 30
0.0
 10
133.195626
 20
478.175896
 30
0.0
  0
LWPOLYLINE
  5
275
100
AcDbEntity
  8
Layer_1
 62
5
100
AcDbPolyline
 90
1
 70
1
 10
152.417718
 20
478.175896
 30
0.0
  0
SPLINE
  5
276
100
AcDbEntity
  8
Layer_1
 62
5
100
AcDbSpline
 70
8
 71
3
 72
8
 73
4
 74
0
 40
0
 40
0
 40
0
 40
0
 40
1
 40
1
 40
1
 40
1
 10
174.033601
 20
477.610214
 30
0.0
 10
170.250046
 20
477.245934
 30
0.0
 10
166.472909
 20
476.638157
 30
0.0
 10
162.699403
 20
475.666328
 30
0.0
  0
SPLINE
  5
277
100
AcDbEntity
  8
Layer_1
 62
5
100
AcDbSpline
 70
8
 71
3
 72
8
 73
4
 74
0
 40
0
 40
0
 40
0
 40
0
 40
1
 40
1
 40
1
 40
1
 10
162.699403
 20
475.666328
 30
0.0
 10
162.220623
 20
474.730639
 30
0.0
 10
161.872427
 20
473.749313
 30
0.0
 10
161.624214
 20
472.756280
 30
0.0
  0
SPLINE
  5
278
100
AcDbEntity
  8
Layer_1
 62
5
100
AcDbSpline
 70
8
 71
3
 72
8
 73
4
 74
0
 40
0
 40
0
 40
0
 40
0
 40
1
 40
1
 40
1
 40
1
 10
161.624214
 20
472.756280
 30
0.0
 10
163.132472
 20
472.452945
 30
0.0
 10
165.401470
 20
472.477918
 30
0.0
 10
167.678257
 20
472.489824
 30
0.0
  0
SPLINE
  5
279
100
AcDbEntity
  8
Layer_1
 62
5
100
AcDbSpline
 70
8
 71
3
 72
8
 73
4
 74
0
 40
0
 40
0
 40
0
 40
0
 40
1
 40
1
 40
1
 40
1
 10
167.678257
 20
472.489824
 30
0.0
 10
169.847155
 20
472.501162
 30
0.0
 10
172.023874
 20
472.506832
 30
0.0
 10
173.750247
 20
472.050057
 30
0.0
  0
SPLINE
  5
27a
100
AcDbEntity
  8
Layer_1
 62
5
100
AcDbSpline
 70
8
 71
3
 72
8
 73
4
 74
0
 40
0
 40
0
 40
0
 40
0
 40
1
 40
1
 40
1
 40
1
 10
173.750247
 20
472.050057
 30
0.0
 10
173.708691
 20
473.876220
 30
0.0
 10
173.696360
 20
475.698274
 30
0.0
 10
174.033598
 20
477.610186
 30
0.0
  0
LWPOLYLINE
  5
27b
100
AcDbEntity
  8
Layer_1
 62
5
100
AcDbPolyline
 90
1
 70
1
 10
133.195626
 20
478.175896
 30
0.0
  0
SPLINE
  5
27c
100
AcDbEntity
  8
Layer_1
 62
5
100
AcDbSpline
 70
8
 71
3
 72
8
 73
4
 74
0
 40
0
 40
0
 40
0
 40
0
 40
1
 40
1
 40
1
 40
1
 10
139.296390
 20
473.917805
 30
0.0
 10
138.032932
 20
473.912135
 30
0.0
 10
136.769967
 20
473.848639
 30
0.0
 10
135.518326
 20
473.682246
 30
0.0
  0
SPLINE
  5
27d
100
AcDbEntity
  8
Layer_1
 62
5
100
AcDbSpline
 70
8
 71
3
 72
8
 73
4
 74
0
 40
0
 40
0
 40
0
 40
0
 40
1
 40
1
 40
1
 40
1
 10
135.518326
 20
473.682246
 30
0.0
 10
135.450437
 20
472.955414
 30
0.0
 10
135.416336
 20
472.162904
 30
0.0
 10
135.407974
 20
471.335159
 30
0.0
  0
SPLINE
  5
27e
100
AcDbEntity
  8
Layer_1
 62
5
100
AcDbSpline
 70
8
 71
3
 72
8
 73
4
 74
0
 40
0
 40
0
 40
0
 40
0
 40
1
 40
1
 40
1
 40
1
 10
135.407974
 20
471.335159
 30
0.0
 10
137.071409
 20
471.064734
 30
0.0
 10
139.460845
 20
471.091663
 30
0.0
 10
141.851336
 20
471.103002
 30
0.0
  0
SPLINE
  5
27f
100
AcDbEntity
  8
Layer_1
 62
5
100
AcDbSpline
 70
8
 71
3
 72
8
 73
4
 74
0
 40
0
 40
0
 40
0
 40
0
 40
1
 40
1
 40
1
 40
1
 10
141.851336
 20
471.103002
 30
0.0
 10
144.072170
 20
471.114340
 30
0.0
 10
146.294578
 20
471.114340
 30
0.0
 10
148.098345
 20
470.746857
 30
0.0
  0
SPLINE
  5
280
100
AcDbEntity
  8
Layer_1
 62
5
100
AcDbSpline
 70
8
 71
3
 72
8
 73
4
 74
0
 40
0
 40
0
 40
0
 40
0
 40
1
 40
1
 40
1
 40
1
 10
148.098345
 20
470.746857
 30
0.0
 10
148.036493
 20
471.797688
 30
0.0
 10
147.969822
 20
472.832447
 30
0.0
 10
147.898956
 20
473.844472
 30
0.0
  0
SPLINE
  5
281
100
AcDbEntity
  8
Layer_1
 62
5
100
AcDbSpline
 70
8
 71
3
 72
8
 73
4
 74
0
 40
0
 40
0
 40
0
 40
0
 40
1
 40
1
 40
1
 40
1
 10
147.898956
 20
473.844472
 30
0.0
 10
145.122721
 20
473.678646
 30
0.0
 10
142.209360
 20
473.934047
 30
0.0
 10
139.296410
 20
473.917890
 30
0.0
  0
LWPOLYLINE
  5
282
100
AcDbEntity
  8
Layer_1
 62
5
100
AcDbPolyline
 90
1
 70
1
 10
174.033598
 20
477.610186
 30
0.0
  0
SPLINE
  5
283
100
AcDbEntity
  8
Layer_1
 62
5
100
AcDbSpline
 70
8
 71
3
 72
8
 73
4
 74
0
 40
0
 40
0
 40
0
 40
0
 40
1
 40
1
 40
1
 40
1
 10
161.356771
 20
471.472214
 30
0.0
 10
161.263029
 20
470.916709
 30
0.0
 10
161.195990
 20
470.362620
 30
0.0
 10
161.150607
 20
469.815420
 30
0.0
  0
SPLINE
  5
284
100
AcDbEntity
  8
Layer_1
 62
5
100
AcDbSpline
 70
8
 71
3
 72
8
 73
4
 74
0
 40
0
 40
0
 40
0
 40
0
 40
1
 40
1
 40
1
 40
1
 10
161.150607
 20
469.815420
 30
0.0
 10
162.649834
 20
469.452047
 30
0.0
 10
165.052814
 20
469.479288
 30
0.0
 10
167.463295
 20
469.491761
 30
0.0
  0
SPLINE
  5
285
100
AcDbEntity
  8
Layer_1
 62
5
100
AcDbSpline
 70
8
 71
3
 72
8
 73
4
 74
0
 40
0
 40
0
 40
0
 40
0
 40
1
 40
1
 40
1
 40
1
 10
167.463295
 20
469.491761
 30
0.0
 10
169.740833
 20
469.503099
 30
0.0
 10
172.024807
 20
469.508769
 30
0.0
 10
173.788846
 20
468.979228
 30
0.0
  0
SPLINE
  5
286
100
AcDbEntity
  8
Layer_1
 62
5
100
AcDbSpline
 70
8
 71
3
 72
8
 73
4
 74
0
 40
0
 40
0
 40
0
 40
0
 40
1
 40
1
 40
1
 40
1
 10
173.788846
 20
468.979228
 30
0.0
 10
173.796500
 20
469.548680
 30
0.0
 10
173.790788
 20
470.112463
 30
0.0
 10
173.779775
 20
470.673950
 30
0.0
  0
SPLINE
  5
287
100
AcDbEntity
  8
Layer_1
 62
5
100
AcDbSpline
 70
8
 71
3
 72
8
 73
4
 74
0
 40
0
 40
0
 40
0
 40
0
 40
1
 40
1
 40
1
 40
1
 10
173.779775
 20
470.673950
 30
0.0
 10
172.339396
 20
471.135798
 30
0.0
 10
170.027683
 20
471.191868
 30
0.0
 10
167.686121
 20
471.179707
 30
0.0
  0
SPLINE
  5
288
100
AcDbEntity
  8
Layer_1
 62
5
100
AcDbSpline
 70
8
 71
3
 72
8
 73
4
 74
0
 40
0
 40
0
 40
0
 40
0
 40
1
 40
1
 40
1
 40
1
 10
167.686121
 20
471.179707
 30
0.0
 10
165.420425
 20
471.168369
 30
0.0
 10
163.132934
 20
471.102605
 30
0.0
 10
161.356847
 20
471.472214
 30
0.0
  0
LWPOLYLINE
  5
289
100
AcDbEntity
  8
Layer_1
 62
5
100
AcDbPolyline
 90
1
 70
1
 10
139.296410
 20
473.917890
 30
0.0
  0
SPLINE
  5
28a
100
AcDbEntity
  8
Layer_1
 62
5
100
AcDbSpline
 70
8
 71
3
 72
8
 73
4
 74
0
 40
0
 40
0
 40
0
 40
0
 40
1
 40
1
 40
1
 40
1
 10
135.418119
 20
470.005002
 30
0.0
 10
135.427190
 20
469.535159
 30
0.0
 10
135.441363
 20
469.061688
 30
0.0
 10
135.462453
 20
468.584164
 30
0.0
  0
SPLINE
  5
28b
100
AcDbEntity
  8
Layer_1
 62
5
100
AcDbSpline
 70
8
 71
3
 72
8
 73
4
 74
0
 40
0
 40
0
 40
0
 40
0
 40
1
 40
1
 40
1
 40
1
 10
135.462453
 20
468.584164
 30
0.0
 10
137.068481
 20
468.292932
 30
0.0
 10
139.433757
 20
468.319691
 30
0.0
 10
141.804252
 20
468.331313
 30
0.0
  0
SPLINE
  5
28c
100
AcDbEntity
  8
Layer_1
 62
5
100
AcDbSpline
 70
8
 71
3
 72
8
 73
4
 74
0
 40
0
 40
0
 40
0
 40
0
 40
1
 40
1
 40
1
 40
1
 10
141.804252
 20
468.331313
 30
0.0
 10
144.117969
 20
468.342652
 30
0.0
 10
146.435255
 20
468.345487
 30
0.0
 10
148.253031
 20
467.881398
 30
0.0
  0
SPLINE
  5
28d
100
AcDbEntity
  8
Layer_1
 62
5
100
AcDbSpline
 70
8
 71
3
 72
8
 73
4
 74
0
 40
0
 40
0
 40
0
 40
0
 40
1
 40
1
 40
1
 40
1
 10
148.253031
 20
467.881398
 30
0.0
 10
148.228654
 20
468.383131
 30
0.0
 10
148.203170
 20
468.884438
 30
0.0
 10
148.176184
 20
469.384498
 30
0.0
  0
SPLINE
  5
28e
100
AcDbEntity
  8
Layer_1
 62
5
100
AcDbSpline
 70
8
 71
3
 72
8
 73
4
 74
0
 40
0
 40
0
 40
0
 40
0
 40
1
 40
1
 40
1
 40
1
 10
148.176184
 20
469.384498
 30
0.0
 10
146.572787
 20
469.760939
 30
0.0
 10
144.225377
 20
469.803912
 30
0.0
 10
141.857739
 20
469.792772
 30
0.0
  0
SPLINE
  5
28f
100
AcDbEntity
  8
Layer_1
 62
5
100
AcDbSpline
 70
8
 71
3
 72
8
 73
4
 74
0
 40
0
 40
0
 40
0
 40
0
 40
1
 40
1
 40
1
 40
1
 10
141.857739
 20
469.792772
 30
0.0
 10
139.570393
 20
469.781433
 30
0.0
 10
137.266642
 20
469.728142
 30
0.0
 10
135.418105
 20
470.005087
 30
0.0
  0
LWPOLYLINE
  5
290
100
AcDbEntity
  8
Layer_1
 62
5
100
AcDbPolyline
 90
1
 70
1
 10
161.356847
 20
471.472214
 30
0.0
  0
SPLINE
  5
291
100
AcDbEntity
  8
Layer_1
 62
5
100
AcDbSpline
 70
8
 71
3
 72
8
 73
4
 74
0
 40
0
 40
0
 40
0
 40
0
 40
1
 40
1
 40
1
 40
1
 10
161.080863
 20
468.486652
 30
0.0
 10
161.040129
 20
466.910419
 30
0.0
 10
161.147364
 20
465.439096
 30
0.0
 10
161.266731
 20
464.233294
 30
0.0
  0
SPLINE
  5
292
100
AcDbEntity
  8
Layer_1
 62
5
100
AcDbSpline
 70
8
 71
3
 72
8
 73
4
 74
0
 40
0
 40
0
 40
0
 40
0
 40
1
 40
1
 40
1
 40
1
 10
161.266731
 20
464.233294
 30
0.0
 10
161.397408
 20
464.194460
 30
0.0
 10
161.425840
 20
464.181987
 30
0.0
 10
161.623548
 20
464.139751
 30
0.0
  0
SPLINE
  5
293
100
AcDbEntity
  8
Layer_1
 62
5
100
AcDbSpline
 70
8
 71
3
 72
8
 73
4
 74
0
 40
0
 40
0
 40
0
 40
0
 40
1
 40
1
 40
1
 40
1
 10
161.623548
 20
464.139751
 30
0.0
 10
161.996848
 20
464.060381
 30
0.0
 10
162.437652
 20
463.979027
 30
0.0
 10
162.821290
 20
463.892570
 30
0.0
  0
LWPOLYLINE
  5
294
100
AcDbEntity
  8
Layer_1
 62
5
100
AcDbPolyline
 90
1
 70
1
 10
135.418105
 20
470.005087
 30
0.0
  0
SPLINE
  5
295
100
AcDbEntity
  8
Layer_1
 62
5
100
AcDbSpline
 70
8
 71
3
 72
8
 73
4
 74
0
 40
0
 40
0
 40
0
 40
0
 40
1
 40
1
 40
1
 40
1
 10
163.183187
 20
462.835729
 30
0.0
 10
161.472509
 20
460.766920
 30
0.0
 10
160.680767
 20
458.714013
 30
0.0
 10
160.486067
 20
457.057587
 30
0.0
  0
SPLINE
  5
296
100
AcDbEntity
  8
Layer_1
 62
5
100
AcDbSpline
 70
8
 71
3
 72
8
 73
4
 74
0
 40
0
 40
0
 40
0
 40
0
 40
1
 40
1
 40
1
 40
1
 10
160.486067
 20
457.057587
 30
0.0
 10
160.292574
 20
455.411424
 30
0.0
 10
160.731405
 20
454.194113
 30
0.0
 10
161.242356
 20
453.727077
 30
0.0
  0
SPLINE
  5
297
100
AcDbEntity
  8
Layer_1
 62
5
100
AcDbSpline
 70
8
 71
3
 72
8
 73
4
 74
0
 40
0
 40
0
 40
0
 40
0
 40
1
 40
1
 40
1
 40
1
 10
161.242356
 20
453.727077
 30
0.0
 10
161.295307
 20
453.687959
 30
0.0
 10
163.266948
 20
452.236876
 30
0.0
 10
165.840695
 20
451.619688
 30
0.0
  0
SPLINE
  5
298
100
AcDbEntity
  8
Layer_1
 62
5
100
AcDbSpline
 70
8
 71
3
 72
8
 73
4
 74
0
 40
0
 40
0
 40
0
 40
0
 40
1
 40
1
 40
1
 40
1
 10
165.840695
 20
451.619688
 30
0.0
 10
168.449145
 20
450.994167
 30
0.0
 10
171.485456
 20
451.161666
 30
0.0
 10
173.954055
 20
454.616391
 30
0.0
  0
LWPOLYLINE
  5
299
100
AcDbEntity
  8
Layer_1
 62
5
100
AcDbPolyline
 90
3
 70
0
 10
162.821290
 20
463.892570
 30
0.0
 10
163.862629
 20
463.658712
 30
0.0
 10
163.183187
 20
462.835729
 30
0.0
  0
SPLINE
  5
29a
100
AcDbEntity
  8
Layer_1
 62
5
100
AcDbSpline
 70
8
 71
3
 72
8
 73
4
 74
0
 40
0
 40
0
 40
0
 40
0
 40
1
 40
1
 40
1
 40
1
 10
173.955410
 20
454.617411
 30
0.0
 10
174.460535
 20
455.320233
 30
0.0
 10
174.897295
 20
456.664847
 30
0.0
 10
174.674460
 20
458.111792
 30
0.0
  0
SPLINE
  5
29b
100
AcDbEntity
  8
Layer_1
 62
5
100
AcDbSpline
 70
8
 71
3
 72
8
 73
4
 74
0
 40
0
 40
0
 40
0
 40
0
 40
1
 40
1
 40
1
 40
1
 10
174.674460
 20
458.111792
 30
0.0
 10
174.451629
 20
459.558737
 30
0.0
 10
173.620363
 20
461.140894
 30
0.0
 10
171.524381
 20
462.487720
 30
0.0
  0
LWPOLYLINE
  5
29c
100
AcDbEntity
  8
Layer_1
 62
5
100
AcDbPolyline
 90
3
 70
0
 10
173.954055
 20
454.616391
 30
0.0
 10
173.955410
 20
454.616391
 30
0.0
 10
173.955410
 20
454.617411
 30
0.0
  0
SPLINE
  5
29d
100
AcDbEntity
  8
Layer_1
 62
5
100
AcDbSpline
 70
8
 71
3
 72
8
 73
4
 74
0
 40
0
 40
0
 40
0
 40
0
 40
1
 40
1
 40
1
 40
1
 10
173.438464
 20
465.101887
 30
0.0
 10
173.599614
 20
465.959934
 30
0.0
 10
173.690946
 20
466.794794
 30
0.0
 10
173.741117
 20
467.615169
 30
0.0
  0
SPLINE
  5
29e
100
AcDbEntity
  8
Layer_1
 62
5
100
AcDbSpline
 70
8
 71
3
 72
8
 73
4
 74
0
 40
0
 40
0
 40
0
 40
0
 40
1
 40
1
 40
1
 40
1
 10
173.741117
 20
467.615169
 30
0.0
 10
172.318192
 20
468.132803
 30
0.0
 10
169.909914
 20
468.194202
 30
0.0
 10
167.469732
 20
468.181559
 30
0.0
  0
SPLINE
  5
29f
100
AcDbEntity
  8
Layer_1
 62
5
100
AcDbSpline
 70
8
 71
3
 72
8
 73
4
 74
0
 40
0
 40
0
 40
0
 40
0
 40
1
 40
1
 40
1
 40
1
 10
167.469732
 20
468.181559
 30
0.0
 10
165.178256
 20
468.170220
 30
0.0
 10
162.865128
 20
468.102756
 30
0.0
 10
161.080875
 20
468.486567
 30
0.0
  0
LWPOLYLINE
  5
2a0
100
AcDbEntity
  8
Layer_1
 62
5
100
AcDbPolyline
 90
3
 70
0
 10
171.524381
 20
462.487720
 30
0.0
 10
170.751504
 20
462.984350
 30
0.0
 10
173.438464
 20
465.101887
 30
0.0
  0
SPLINE
  5
2a1
100
AcDbEntity
  8
Layer_1
 62
5
100
AcDbSpline
 70
8
 71
3
 72
8
 73
4
 74
0
 40
0
 40
0
 40
0
 40
0
 40
1
 40
1
 40
1
 40
1
 10
135.534574
 20
467.240173
 30
0.0
 10
135.799671
 20
463.059468
 30
0.0
 10
136.388353
 20
459.112082
 30
0.0
 10
136.460809
 20
458.631524
 30
0.0
  0
LWPOLYLINE
  5
2a2
100
AcDbEntity
  8
Layer_1
 62
5
100
AcDbPolyline
 90
1
 70
1
 10
161.080875
 20
468.486567
 30
0.0
  0
SPLINE
  5
2a3
100
AcDbEntity
  8
Layer_1
 62
5
100
AcDbSpline
 70
8
 71
3
 72
8
 73
4
 74
0
 40
0
 40
0
 40
0
 40
0
 40
1
 40
1
 40
1
 40
1
 10
138.765226
 20
457.339011
 30
0.0
 10
137.086302
 20
454.477096
 30
0.0
 10
135.639334
 20
451.791014
 30
0.0
 10
136.468596
 20
448.220183
 30
0.0
  0
SPLINE
  5
2a4
100
AcDbEntity
  8
Layer_1
 62
5
100
AcDbSpline
 70
8
 71
3
 72
8
 73
4
 74
0
 40
0
 40
0
 40
0
 40
0
 40
1
 40
1
 40
1
 40
1
 10
136.468596
 20
448.220183
 30
0.0
 10
137.773874
 20
446.329843
 30
0.0
 10
139.773986
 20
445.462781
 30
0.0
 10
142.056139
 20
445.652050
 30
0.0
  0
SPLINE
  5
2a5
100
AcDbEntity
  8
Layer_1
 62
5
100
AcDbSpline
 70
8
 71
3
 72
8
 73
4
 74
0
 40
0
 40
0
 40
0
 40
0
 40
1
 40
1
 40
1
 40
1
 10
142.056139
 20
445.652050
 30
0.0
 10
144.364456
 20
445.843389
 30
0.0
 10
146.944953
 20
447.155150
 30
0.0
 10
149.150843
 20
449.708060
 30
0.0
  0
SPLINE
  5
2a6
100
AcDbEntity
  8
Layer_1
 62
5
100
AcDbSpline
 70
8
 71
3
 72
8
 73
4
 74
0
 40
0
 40
0
 40
0
 40
0
 40
1
 40
1
 40
1
 40
1
 10
149.150843
 20
449.708060
 30
0.0
 10
150.789937
 20
452.294050
 30
0.0
 10
149.241183
 20
456.626835
 30
0.0
 10
145.605353
 20
458.434488
 30
0.0
  0
LWPOLYLINE
  5
2a7
100
AcDbEntity
  8
Layer_1
 62
5
100
AcDbPolyline
 90
3
 70
0
 10
136.460809
 20
458.631524
 30
0.0
 10
139.244933
 20
458.156891
 30
0.0
 10
138.765226
 20
457.339011
 30
0.0
  0
SPLINE
  5
2a8
100
AcDbEntity
  8
Layer_1
 62
5
100
AcDbSpline
 70
8
 71
3
 72
8
 73
4
 74
0
 40
0
 40
0
 40
0
 40
0
 40
1
 40
1
 40
1
 40
1
 10
145.720454
 20
459.652564
 30
0.0
 10
146.406044
 20
459.843619
 30
0.0
 10
147.059552
 20
459.937446
 30
0.0
 10
147.540087
 20
460.129890
 30
0.0
  0
SPLINE
  5
2a9
100
AcDbEntity
  8
Layer_1
 62
5
100
AcDbSpline
 70
8
 71
3
 72
8
 73
4
 74
0
 40
0
 40
0
 40
0
 40
0
 40
1
 40
1
 40
1
 40
1
 10
147.540087
 20
460.129890
 30
0.0
 10
147.992185
 20
460.311024
 30
0.0
 10
148.275632
 20
460.533685
 30
0.0
 10
148.485620
 20
461.040888
 30
0.0
  0
SPLINE
  5
2aa
100
AcDbEntity
  8
Layer_1
 62
5
100
AcDbSpline
 70
8
 71
3
 72
8
 73
4
 74
0
 40
0
 40
0
 40
0
 40
0
 40
1
 40
1
 40
1
 40
1
 10
148.485620
 20
461.040888
 30
0.0
 10
148.455346
 20
462.796243
 30
0.0
 10
148.395705
 20
464.640123
 30
0.0
 10
148.315683
 20
466.499452
 30
0.0
  0
SPLINE
  5
2ab
100
AcDbEntity
  8
Layer_1
 62
5
100
AcDbSpline
 70
8
 71
3
 72
8
 73
4
 74
0
 40
0
 40
0
 40
0
 40
0
 40
1
 40
1
 40
1
 40
1
 10
148.315683
 20
466.499452
 30
0.0
 10
146.781261
 20
466.977402
 30
0.0
 10
144.309589
 20
467.033329
 30
0.0
 10
141.810369
 20
467.021140
 30
0.0
  0
SPLINE
  5
2ac
100
AcDbEntity
  8
Layer_1
 62
5
100
AcDbSpline
 70
8
 71
3
 72
8
 73
4
 74
0
 40
0
 40
0
 40
0
 40
0
 40
1
 40
1
 40
1
 40
1
 10
141.810369
 20
467.021140
 30
0.0
 10
139.581632
 20
467.009802
 30
0.0
 10
137.336165
 20
466.954243
 30
0.0
 10
135.534583
 20
467.240258
 30
0.0
  0
LWPOLYLINE
  5
2ad
100
AcDbEntity
  8
Layer_1
 62
5
100
AcDbPolyline
 90
3
 70
0
 10
145.605353
 20
458.434488
 30
0.0
 10
144.077876
 20
459.194513
 30
0.0
 10
145.720454
 20
459.652564
 30
0.0
  0
SPLINE
  5
2ae
100
AcDbEntity
  8
Layer_1
 62
5
100
AcDbSpline
 70
8
 71
3
 72
8
 73
4
 74
0
 40
0
 40
0
 40
0
 40
0
 40
1
 40
1
 40
1
 40
1
 10
168.127498
 20
461.694614
 30
0.0
 10
169.725155
 20
461.694614
 30
0.0
 10
171.183526
 20
461.221370
 30
0.0
 10
172.272872
 20
460.416302
 30
0.0
  0
SPLINE
  5
2af
100
AcDbEntity
  8
Layer_1
 62
5
100
AcDbSpline
 70
8
 71
3
 72
8
 73
4
 74
0
 40
0
 40
0
 40
0
 40
0
 40
1
 40
1
 40
1
 40
1
 10
172.272872
 20
460.416302
 30
0.0
 10
173.362221
 20
459.611235
 30
0.0
 10
174.093860
 20
458.437436
 30
0.0
 10
174.093860
 20
457.113883
 30
0.0
  0
SPLINE
  5
2b0
100
AcDbEntity
  8
Layer_1
 62
5
100
AcDbSpline
 70
8
 71
3
 72
8
 73
4
 74
0
 40
0
 40
0
 40
0
 40
0
 40
1
 40
1
 40
1
 40
1
 10
174.093860
 20
457.113883
 30
0.0
 10
174.093860
 20
455.790302
 30
0.0
 10
173.362221
 20
454.616504
 30
0.0
 10
172.272872
 20
453.811436
 30
0.0
  0
SPLINE
  5
2b1
100
AcDbEntity
  8
Layer_1
 62
5
100
AcDbSpline
 70
8
 71
3
 72
8
 73
4
 74
0
 40
0
 40
0
 40
0
 40
0
 40
1
 40
1
 40
1
 40
1
 10
172.272872
 20
453.811436
 30
0.0
 10
171.183526
 20
453.006369
 30
0.0
 10
169.725155
 20
452.533465
 30
0.0
 10
168.127498
 20
452.533465
 30
0.0
  0
SPLINE
  5
2b2
100
AcDbEntity
  8
Layer_1
 62
5
100
AcDbSpline
 70
8
 71
3
 72
8
 73
4
 74
0
 40
0
 40
0
 40
0
 40
0
 40
1
 40
1
 40
1
 40
1
 10
168.127498
 20
452.533465
 30
0.0
 10
166.529835
 20
452.533465
 30
0.0
 10
165.071129
 20
453.006369
 30
0.0
 10
163.981780
 20
453.811436
 30
0.0
  0
SPLINE
  5
2b3
100
AcDbEntity
  8
Layer_1
 62
5
100
AcDbSpline
 70
8
 71
3
 72
8
 73
4
 74
0
 40
0
 40
0
 40
0
 40
0
 40
1
 40
1
 40
1
 40
1
 10
163.981780
 20
453.811436
 30
0.0
 10
162.892431
 20
454.616504
 30
0.0
 10
162.159778
 20
455.790302
 30
0.0
 10
162.159778
 20
457.113883
 30
0.0
  0
SPLINE
  5
2b4
100
AcDbEntity
  8
Layer_1
 62
5
100
AcDbSpline
 70
8
 71
3
 72
8
 73
4
 74
0
 40
0
 40
0
 40
0
 40
0
 40
1
 40
1
 40
1
 40
1
 10
162.159778
 20
457.113883
 30
0.0
 10
162.159778
 20
458.437436
 30
0.0
 10
162.892431
 20
459.611235
 30
0.0
 10
163.981780
 20
460.416302
 30
0.0
  0
SPLINE
  5
2b5
100
AcDbEntity
  8
Layer_1
 62
5
100
AcDbSpline
 70
8
 71
3
 72
8
 73
4
 74
0
 40
0
 40
0
 40
0
 40
0
 40
1
 40
1
 40
1
 40
1
 10
163.981780
 20
460.416302
 30
0.0
 10
165.071129
 20
461.221370
 30
0.0
 10
166.529835
 20
461.694614
 30
0.0
 10
168.127498
 20
461.694614
 30
0.0
  0
LWPOLYLINE
  5
2b6
100
AcDbEntity
  8
Layer_1
 62
5
100
AcDbPolyline
 90
1
 70
1
 10
135.534583
 20
467.240258
 30
0.0
  0
SPLINE
  5
2b7
100
AcDbEntity
  8
Layer_1
 62
5
100
AcDbSpline
 70
8
 71
3
 72
8
 73
4
 74
0
 40
0
 40
0
 40
0
 40
0
 40
1
 40
1
 40
1
 40
1
 10
168.127498
 20
460.384469
 30
0.0
 10
166.791489
 20
460.384469
 30
0.0
 10
165.594263
 20
459.979200
 30
0.0
 10
164.761089
 20
459.363458
 30
0.0
  0
SPLINE
  5
2b8
100
AcDbEntity
  8
Layer_1
 62
5
100
AcDbSpline
 70
8
 71
3
 72
8
 73
4
 74
0
 40
0
 40
0
 40
0
 40
0
 40
1
 40
1
 40
1
 40
1
 10
164.761089
 20
459.363458
 30
0.0
 10
163.927919
 20
458.747688
 30
0.0
 10
163.469914
 20
457.958381
 30
0.0
 10
163.469914
 20
457.113883
 30
0.0
  0
SPLINE
  5
2b9
100
AcDbEntity
  8
Layer_1
 62
5
100
AcDbSpline
 70
8
 71
3
 72
8
 73
4
 74
0
 40
0
 40
0
 40
0
 40
0
 40
1
 40
1
 40
1
 40
1
 10
163.469914
 20
457.113883
 30
0.0
 10
163.469914
 20
456.269357
 30
0.0
 10
163.927919
 20
455.480391
 30
0.0
 10
164.761089
 20
454.864649
 30
0.0
  0
SPLINE
  5
2ba
100
AcDbEntity
  8
Layer_1
 62
5
100
AcDbSpline
 70
8
 71
3
 72
8
 73
4
 74
0
 40
0
 40
0
 40
0
 40
0
 40
1
 40
1
 40
1
 40
1
 10
164.761089
 20
454.864649
 30
0.0
 10
165.594263
 20
454.248879
 30
0.0
 10
166.791489
 20
453.843609
 30
0.0
 10
168.127498
 20
453.843609
 30
0.0
  0
SPLINE
  5
2bb
100
AcDbEntity
  8
Layer_1
 62
5
100
AcDbSpline
 70
8
 71
3
 72
8
 73
4
 74
0
 40
0
 40
0
 40
0
 40
0
 40
1
 40
1
 40
1
 40
1
 10
168.127498
 20
453.843609
 30
0.0
 10
169.463503
 20
453.843609
 30
0.0
 10
170.660730
 20
454.248879
 30
0.0
 10
171.493900
 20
454.864649
 30
0.0
  0
SPLINE
  5
2bc
100
AcDbEntity
  8
Layer_1
 62
5
100
AcDbSpline
 70
8
 71
3
 72
8
 73
4
 74
0
 40
0
 40
0
 40
0
 40
0
 40
1
 40
1
 40
1
 40
1
 10
171.493900
 20
454.864649
 30
0.0
 10
172.327073
 20
455.480391
 30
0.0
 10
172.783386
 20
456.269357
 30
0.0
 10
172.783386
 20
457.113883
 30
0.0
  0
SPLINE
  5
2bd
100
AcDbEntity
  8
Layer_1
 62
5
100
AcDbSpline
 70
8
 71
3
 72
8
 73
4
 74
0
 40
0
 40
0
 40
0
 40
0
 40
1
 40
1
 40
1
 40
1
 10
172.783386
 20
457.113883
 30
0.0
 10
172.783386
 20
457.958381
 30
0.0
 10
172.327073
 20
458.747688
 30
0.0
 10
171.493900
 20
459.363458
 30
0.0
  0
SPLINE
  5
2be
100
AcDbEntity
  8
Layer_1
 62
5
100
AcDbSpline
 70
8
 71
3
 72
8
 73
4
 74
0
 40
0
 40
0
 40
0
 40
0
 40
1
 40
1
 40
1
 40
1
 10
171.493900
 20
459.363458
 30
0.0
 10
170.660730
 20
459.979200
 30
0.0
 10
169.463503
 20
460.384469
 30
0.0
 10
168.127498
 20
460.384469
 30
0.0
  0
LWPOLYLINE
  5
2bf
100
AcDbEntity
  8
Layer_1
 62
5
100
AcDbPolyline
 90
1
 70
1
 10
168.127498
 20
461.694614
 30
0.0
  0
SPLINE
  5
2c0
100
AcDbEntity
  8
Layer_1
 62
5
100
AcDbSpline
 70
8
 71
3
 72
8
 73
4
 74
0
 40
0
 40
0
 40
0
 40
0
 40
1
 40
1
 40
1
 40
1
 10
142.575792
 20
457.164992
 30
0.0
 10
145.628586
 20
457.164992
 30
0.0
 10
148.218177
 20
455.048929
 30
0.0
 10
148.218177
 20
452.307997
 30
0.0
  0
SPLINE
  5
2c1
100
AcDbEntity
  8
Layer_1
 62
5
100
AcDbSpline
 70
8
 71
3
 72
8
 73
4
 74
0
 40
0
 40
0
 40
0
 40
0
 40
1
 40
1
 40
1
 40
1
 10
148.218177
 20
452.307997
 30
0.0
 10
148.218177
 20
449.567093
 30
0.0
 10
145.628586
 20
447.451030
 30
0.0
 10
142.575792
 20
447.451030
 30
0.0
  0
SPLINE
  5
2c2
100
AcDbEntity
  8
Layer_1
 62
5
100
AcDbSpline
 70
8
 71
3
 72
8
 73
4
 74
0
 40
0
 40
0
 40
0
 40
0
 40
1
 40
1
 40
1
 40
1
 10
142.575792
 20
447.451030
 30
0.0
 10
139.522989
 20
447.451030
 30
0.0
 10
136.933070
 20
449.567093
 30
0.0
 10
136.933070
 20
452.307997
 30
0.0
  0
SPLINE
  5
2c3
100
AcDbEntity
  8
Layer_1
 62
5
100
AcDbSpline
 70
8
 71
3
 72
8
 73
4
 74
0
 40
0
 40
0
 40
0
 40
0
 40
1
 40
1
 40
1
 40
1
 10
136.933070
 20
452.307997
 30
0.0
 10
136.933070
 20
455.048929
 30
0.0
 10
139.522989
 20
457.164992
 30
0.0
 10
142.575792
 20
457.164992
 30
0.0
  0
LWPOLYLINE
  5
2c4
100
AcDbEntity
  8
Layer_1
 62
5
100
AcDbPolyline
 90
1
 70
1
 10
168.127498
 20
460.384469
 30
0.0
  0
SPLINE
  5
2c5
100
AcDbEntity
  8
Layer_1
 62
5
100
AcDbSpline
 70
8
 71
3
 72
8
 73
4
 74
0
 40
0
 40
0
 40
0
 40
0
 40
1
 40
1
 40
1
 40
1
 10
142.575792
 20
455.854847
 30
0.0
 10
140.119563
 20
455.854847
 30
0.0
 10
138.243203
 20
454.208457
 30
0.0
 10
138.243203
 20
452.307997
 30
0.0
  0
SPLINE
  5
2c6
100
AcDbEntity
  8
Layer_1
 62
5
100
AcDbSpline
 70
8
 71
3
 72
8
 73
4
 74
0
 40
0
 40
0
 40
0
 40
0
 40
1
 40
1
 40
1
 40
1
 10
138.243203
 20
452.307997
 30
0.0
 10
138.243203
 20
450.407565
 30
0.0
 10
140.119563
 20
448.761175
 30
0.0
 10
142.575792
 20
448.761175
 30
0.0
  0
SPLINE
  5
2c7
100
AcDbEntity
  8
Layer_1
 62
5
100
AcDbSpline
 70
8
 71
3
 72
8
 73
4
 74
0
 40
0
 40
0
 40
0
 40
0
 40
1
 40
1
 40
1
 40
1
 10
142.575792
 20
448.761175
 30
0.0
 10
145.032012
 20
448.761175
 30
0.0
 10
146.908040
 20
450.407565
 30
0.0
 10
146.908040
 20
452.307997
 30
0.0
  0
SPLINE
  5
2c8
100
AcDbEntity
  8
Layer_1
 62
5
100
AcDbSpline
 70
8
 71
3
 72
8
 73
4
 74
0
 40
0
 40
0
 40
0
 40
0
 40
1
 40
1
 40
1
 40
1
 10
146.908040
 20
452.307997
 30
0.0
 10
146.908040
 20
454.208457
 30
0.0
 10
145.032012
 20
455.854847
 30
0.0
 10
142.575792
 20
455.854847
 30
0.0
  0
LWPOLYLINE
  5
2c9
100
AcDbEntity
  8
Layer_1
 62
5
100
AcDbPolyline
 90
1
 70
1
 10
142.575792
 20
457.164992
 30
0.0
  0
LWPOLYLINE
  5
2ca
100
AcDbEntity
  8
Layer_1
 62
5
100
AcDbPolyline
 90
1
 70
1
 10
142.575792
 20
455.854847
 30
0.0
  0
LWPOLYLINE
  5
2cb
100
AcDbEntity
  8
Layer_1
 62
7
100
AcDbPolyline
 90
4
 70
1
 10
88.850421
 20
572.618361
 30
0.0
 10
212.710382
 20
572.618361
 30
0.0
 10
212.710382
 20
430.533213
 30
0.0
 10
88.850421
 20
430.533213
 30
0.0
  0
SPLINE
  5
2cc
100
AcDbEntity
  8
Layer_1
 62
7
100
AcDbSpline
 70
8
 71
3
 72
8
 73
4
 74
0
 40
0
 40
0
 40
0
 40
0
 40
1
 40
1
 40
1
 40
1
 10
275.126952
 20
555.884887
 30
0.0
 10
277.643412
 20
555.318645
 30
0.0
 10
279.848546
 20
554.710725
 30
0.0
 10
282.991699
 20
554.254515
 30
0.0
  0
LWPOLYLINE
  5
2cd
100
AcDbEntity
  8
Layer_1
 62
7
100
AcDbPolyline
 90
6
 70
0
 10
216.710450
 20
572.667600
 30
0.0
 10
216.710450
 20
430.582149
 30
0.0
 10
340.571771
 20
430.582149
 30
0.0
 10
340.571771
 20
572.667600
 30
0.0
 10
288.914059
 20
572.667600
 30
0.0
 10
275.126952
 20
555.884887
 30
0.0
  0
SPLINE
  5
2ce
100
AcDbEntity
  8
Layer_1
 62
7
100
AcDbSpline
 70
8
 71
3
 72
8
 73
4
 74
0
 40
0
 40
0
 40
0
 40
0
 40
1
 40
1
 40
1
 40
1
 10
283.993646
 20
547.760857
 30
0.0
 10
286.231826
 20
546.296348
 30
0.0
 10
286.972316
 20
543.869813
 30
0.0
 10
286.710934
 20
541.642208
 30
0.0
  0
SPLINE
  5
2cf
100
AcDbEntity
  8
Layer_1
 62
7
100
AcDbSpline
 70
8
 71
3
 72
8
 73
4
 74
0
 40
0
 40
0
 40
0
 40
0
 40
1
 40
1
 40
1
 40
1
 10
286.710934
 20
541.642208
 30
0.0
 10
286.455529
 20
539.466053
 30
0.0
 10
285.382909
 20
537.465983
 30
0.0
 10
283.907224
 20
536.386350
 30
0.0
  0
LWPOLYLINE
  5
2d0
100
AcDbEntity
  8
Layer_1
 62
7
100
AcDbPolyline
 90
4
 70
0
 10
282.991699
 20
554.254515
 30
0.0
 10
283.513181
 20
554.179807
 30
0.0
 10
283.551266
 20
553.655392
 30
0.0
 10
283.993646
 20
547.760857
 30
0.0
  0
SPLINE
  5
2d1
100
AcDbEntity
  8
Layer_1
 62
7
100
AcDbSpline
 70
8
 71
3
 72
8
 73
4
 74
0
 40
0
 40
0
 40
0
 40
0
 40
1
 40
1
 40
1
 40
1
 10
284.090329
 20
531.255000
 30
0.0
 10
289.835216
 20
530.353725
 30
0.0
 10
293.645344
 20
528.009293
 30
0.0
 10
296.409664
 20
524.995725
 30
0.0
  0
SPLINE
  5
2d2
100
AcDbEntity
  8
Layer_1
 62
7
100
AcDbSpline
 70
8
 71
3
 72
8
 73
4
 74
0
 40
0
 40
0
 40
0
 40
0
 40
1
 40
1
 40
1
 40
1
 10
296.409664
 20
524.995725
 30
0.0
 10
299.224436
 20
521.927138
 30
0.0
 10
301.023566
 20
518.238473
 30
0.0
 10
303.004391
 20
514.772580
 30
0.0
  0
SPLINE
  5
2d3
100
AcDbEntity
  8
Layer_1
 62
7
100
AcDbSpline
 70
8
 71
3
 72
8
 73
4
 74
0
 40
0
 40
0
 40
0
 40
0
 40
1
 40
1
 40
1
 40
1
 10
303.004391
 20
514.772580
 30
0.0
 10
313.500431
 20
510.146010
 30
0.0
 10
316.534759
 20
501.194176
 30
0.0
 10
319.105953
 20
493.598266
 30
0.0
  0
LWPOLYLINE
  5
2d4
100
AcDbEntity
  8
Layer_1
 62
7
100
AcDbPolyline
 90
2
 70
0
 10
283.907224
 20
536.386350
 30
0.0
 10
284.090329
 20
531.255000
 30
0.0
  0
SPLINE
  5
2d5
100
AcDbEntity
  8
Layer_1
 62
7
100
AcDbSpline
 70
8
 71
3
 72
8
 73
4
 74
0
 40
0
 40
0
 40
0
 40
0
 40
1
 40
1
 40
1
 40
1
 10
318.801266
 20
492.814576
 30
0.0
 10
316.344679
 20
491.460803
 30
0.0
 10
313.741916
 20
490.972921
 30
0.0
 10
311.097656
 20
490.914668
 30
0.0
  0
SPLINE
  5
2d6
100
AcDbEntity
  8
Layer_1
 62
7
100
AcDbSpline
 70
8
 71
3
 72
8
 73
4
 74
0
 40
0
 40
0
 40
0
 40
0
 40
1
 40
1
 40
1
 40
1
 10
311.097656
 20
490.914668
 30
0.0
 10
312.029111
 20
487.447193
 30
0.0
 10
312.691301
 20
484.010506
 30
0.0
 10
312.508294
 20
480.690061
 30
0.0
  0
LWPOLYLINE
  5
2d7
100
AcDbEntity
  8
Layer_1
 62
7
100
AcDbPolyline
 90
3
 70
0
 10
319.105953
 20
493.598266
 30
0.0
 10
319.281731
 20
493.079708
 30
0.0
 10
318.801266
 20
492.814576
 30
0.0
  0
SPLINE
  5
2d8
100
AcDbEntity
  8
Layer_1
 62
7
100
AcDbSpline
 70
8
 71
3
 72
8
 73
4
 74
0
 40
0
 40
0
 40
0
 40
0
 40
1
 40
1
 40
1
 40
1
 10
312.232909
 20
480.190553
 30
0.0
 10
309.782329
 20
478.456538
 30
0.0
 10
306.400391
 20
478.252838
 30
0.0
 10
303.297356
 20
477.818971
 30
0.0
  0
SPLINE
  5
2d9
100
AcDbEntity
  8
Layer_1
 62
7
100
AcDbSpline
 70
8
 71
3
 72
8
 73
4
 74
0
 40
0
 40
0
 40
0
 40
0
 40
1
 40
1
 40
1
 40
1
 10
303.297356
 20
477.818971
 30
0.0
 10
302.468966
 20
473.666213
 30
0.0
 10
303.565526
 20
469.667663
 30
0.0
 10
302.562011
 20
464.676391
 30
0.0
  0
LWPOLYLINE
  5
2da
100
AcDbEntity
  8
Layer_1
 62
7
100
AcDbPolyline
 90
3
 70
0
 10
312.508294
 20
480.690061
 30
0.0
 10
312.490721
 20
480.373658
 30
0.0
 10
312.232909
 20
480.190553
 30
0.0
  0
SPLINE
  5
2db
100
AcDbEntity
  8
Layer_1
 62
7
100
AcDbSpline
 70
8
 71
3
 72
8
 73
4
 74
0
 40
0
 40
0
 40
0
 40
0
 40
1
 40
1
 40
1
 40
1
 10
300.796871
 20
463.087036
 30
0.0
 10
302.640409
 20
461.660019
 30
0.0
 10
303.585671
 20
459.961126
 30
0.0
 10
303.832031
 20
458.361451
 30
0.0
  0
SPLINE
  5
2dc
100
AcDbEntity
  8
Layer_1
 62
7
100
AcDbSpline
 70
8
 71
3
 72
8
 73
4
 74
0
 40
0
 40
0
 40
0
 40
0
 40
1
 40
1
 40
1
 40
1
 10
303.832031
 20
458.361451
 30
0.0
 10
304.110101
 20
456.556036
 30
0.0
 10
303.620906
 20
454.931611
 30
0.0
 10
302.881346
 20
453.902461
 30
0.0
  0
SPLINE
  5
2dd
100
AcDbEntity
  8
Layer_1
 62
7
100
AcDbSpline
 70
8
 71
3
 72
8
 73
4
 74
0
 40
0
 40
0
 40
0
 40
0
 40
1
 40
1
 40
1
 40
1
 10
302.881346
 20
453.902461
 30
0.0
 10
300.115639
 20
450.033346
 30
0.0
 10
296.316191
 20
449.695471
 30
0.0
 10
293.396479
 20
450.395626
 30
0.0
  0
SPLINE
  5
2de
100
AcDbEntity
  8
Layer_1
 62
7
100
AcDbSpline
 70
8
 71
3
 72
8
 73
4
 74
0
 40
0
 40
0
 40
0
 40
0
 40
1
 40
1
 40
1
 40
1
 10
293.396479
 20
450.395626
 30
0.0
 10
290.476369
 20
451.095901
 30
0.0
 10
288.282709
 20
452.749629
 30
0.0
 10
288.282709
 20
452.749629
 30
0.0
  0
LWPOLYLINE
  5
2df
100
AcDbEntity
  8
Layer_1
 62
7
100
AcDbPolyline
 90
3
 70
0
 10
302.562011
 20
464.676391
 30
0.0
 10
302.515136
 20
464.439084
 30
0.0
 10
300.796871
 20
463.087036
 30
0.0
  0
SPLINE
  5
2e0
100
AcDbEntity
  8
Layer_1
 62
7
100
AcDbSpline
 70
8
 71
3
 72
8
 73
4
 74
0
 40
0
 40
0
 40
0
 40
0
 40
1
 40
1
 40
1
 40
1
 10
288.240229
 20
452.786251
 30
0.0
 10
287.228036
 20
453.691186
 30
0.0
 10
286.819939
 20
455.321041
 30
0.0
 10
287.047849
 20
457.259889
 30
0.0
  0
SPLINE
  5
2e1
100
AcDbEntity
  8
Layer_1
 62
7
100
AcDbSpline
 70
8
 71
3
 72
8
 73
4
 74
0
 40
0
 40
0
 40
0
 40
0
 40
1
 40
1
 40
1
 40
1
 10
287.047849
 20
457.259889
 30
0.0
 10
287.245991
 20
458.946781
 30
0.0
 10
288.087919
 20
460.896736
 30
0.0
 10
289.491206
 20
462.851191
 30
0.0
  0
SPLINE
  5
2e2
100
AcDbEntity
  8
Layer_1
 62
7
100
AcDbSpline
 70
8
 71
3
 72
8
 73
4
 74
0
 40
0
 40
0
 40
0
 40
0
 40
1
 40
1
 40
1
 40
1
 10
289.491206
 20
462.851191
 30
0.0
 10
289.395394
 20
462.871036
 30
0.0
 10
289.307329
 20
462.889944
 30
0.0
 10
289.214351
 20
462.909789
 30
0.0
  0
SPLINE
  5
2e3
100
AcDbEntity
  8
Layer_1
 62
7
100
AcDbSpline
 70
8
 71
3
 72
8
 73
4
 74
0
 40
0
 40
0
 40
0
 40
0
 40
1
 40
1
 40
1
 40
1
 10
289.214351
 20
462.909789
 30
0.0
 10
288.816281
 20
462.994546
 30
0.0
 10
288.519626
 20
463.024179
 30
0.0
 10
288.165521
 20
463.224729
 30
0.0
  0
LWPOLYLINE
  5
2e4
100
AcDbEntity
  8
Layer_1
 62
7
100
AcDbPolyline
 90
3
 70
0
 10
288.282709
 20
452.749629
 30
0.0
 10
288.260741
 20
452.765746
 30
0.0
 10
288.240229
 20
452.786251
 30
0.0
  0
SPLINE
  5
2e5
100
AcDbEntity
  8
Layer_1
 62
7
100
AcDbSpline
 70
8
 71
3
 72
8
 73
4
 74
0
 40
0
 40
0
 40
0
 40
0
 40
1
 40
1
 40
1
 40
1
 10
287.837396
 20
463.727169
 30
0.0
 10
287.541799
 20
466.545061
 30
0.0
 10
287.288629
 20
471.214328
 30
0.0
 10
289.089836
 20
475.419556
 30
0.0
  0
SPLINE
  5
2e6
100
AcDbEntity
  8
Layer_1
 62
7
100
AcDbSpline
 70
8
 71
3
 72
8
 73
4
 74
0
 40
0
 40
0
 40
0
 40
0
 40
1
 40
1
 40
1
 40
1
 10
289.089836
 20
475.419556
 30
0.0
 10
285.083186
 20
474.488716
 30
0.0
 10
281.069636
 20
473.975228
 30
0.0
 10
277.053222
 20
473.978146
 30
0.0
  0
SPLINE
  5
2e7
100
AcDbEntity
  8
Layer_1
 62
7
100
AcDbSpline
 70
8
 71
3
 72
8
 73
4
 74
0
 40
0
 40
0
 40
0
 40
0
 40
1
 40
1
 40
1
 40
1
 10
277.053222
 20
473.978146
 30
0.0
 10
277.348812
 20
469.765606
 30
0.0
 10
277.597467
 20
465.123511
 30
0.0
 10
277.665522
 20
460.952754
 30
0.0
  0
LWPOLYLINE
  5
2e8
100
AcDbEntity
  8
Layer_1
 62
7
100
AcDbPolyline
 90
3
 70
0
 10
288.165521
 20
463.224729
 30
0.0
 10
287.872556
 20
463.391724
 30
0.0
 10
287.837396
 20
463.727169
 30
0.0
  0
SPLINE
  5
2e9
100
AcDbEntity
  8
Layer_1
 62
7
100
AcDbSpline
 70
8
 71
3
 72
8
 73
4
 74
0
 40
0
 40
0
 40
0
 40
0
 40
1
 40
1
 40
1
 40
1
 10
277.625974
 20
460.715454
 30
0.0
 10
277.286659
 20
459.787531
 30
0.0
 10
276.584794
 20
459.241666
 30
0.0
 10
275.890137
 20
458.963499
 30
0.0
  0
SPLINE
  5
2ea
100
AcDbEntity
  8
Layer_1
 62
7
100
AcDbSpline
 70
8
 71
3
 72
8
 73
4
 74
0
 40
0
 40
0
 40
0
 40
0
 40
1
 40
1
 40
1
 40
1
 10
275.890137
 20
458.963499
 30
0.0
 10
275.711044
 20
458.891784
 30
0.0
 10
275.563257
 20
458.879476
 30
0.0
 10
275.386227
 20
458.828731
 30
0.0
  0
SPLINE
  5
2eb
100
AcDbEntity
  8
Layer_1
 62
7
100
AcDbSpline
 70
8
 71
3
 72
8
 73
4
 74
0
 40
0
 40
0
 40
0
 40
0
 40
1
 40
1
 40
1
 40
1
 10
275.386227
 20
458.828731
 30
0.0
 10
278.694409
 20
456.407011
 30
0.0
 10
280.062011
 20
452.055781
 30
0.0
 10
278.107909
 20
449.021604
 30
0.0
  0
LWPOLYLINE
  5
2ec
100
AcDbEntity
  8
Layer_1
 62
7
100
AcDbPolyline
 90
3
 70
0
 10
277.665522
 20
460.952754
 30
0.0
 10
277.668454
 20
460.831179
 30
0.0
 10
277.625974
 20
460.715454
 30
0.0
  0
SPLINE
  5
2ed
100
AcDbEntity
  8
Layer_1
 62
7
100
AcDbSpline
 70
8
 71
3
 72
8
 73
4
 74
0
 40
0
 40
0
 40
0
 40
0
 40
1
 40
1
 40
1
 40
1
 10
278.053707
 20
448.951291
 30
0.0
 10
275.652237
 20
446.147514
 30
0.0
 10
272.760064
 20
444.622201
 30
0.0
 10
270.027829
 20
444.395626
 30
0.0
  0
SPLINE
  5
2ee
100
AcDbEntity
  8
Layer_1
 62
7
100
AcDbSpline
 70
8
 71
3
 72
8
 73
4
 74
0
 40
0
 40
0
 40
0
 40
0
 40
1
 40
1
 40
1
 40
1
 10
270.027829
 20
444.395626
 30
0.0
 10
267.295587
 20
444.169141
 30
0.0
 10
264.718977
 20
445.287564
 30
0.0
 10
263.160642
 20
447.635859
 30
0.0
  0
LWPOLYLINE
  5
2ef
100
AcDbEntity
  8
Layer_1
 62
7
100
AcDbPolyline
 90
3
 70
0
 10
278.107909
 20
449.021604
 30
0.0
 10
278.083002
 20
448.984981
 30
0.0
 10
278.053707
 20
448.951291
 30
0.0
  0
SPLINE
  5
2f0
100
AcDbEntity
  8
Layer_1
 62
7
100
AcDbSpline
 70
8
 71
3
 72
8
 73
4
 74
0
 40
0
 40
0
 40
0
 40
0
 40
1
 40
1
 40
1
 40
1
 10
263.069824
 20
447.842409
 30
0.0
 10
262.152634
 20
451.578324
 30
0.0
 10
263.504824
 20
454.529236
 30
0.0
 10
265.041499
 20
457.229124
 30
0.0
  0
LWPOLYLINE
  5
2f1
100
AcDbEntity
  8
Layer_1
 62
7
100
AcDbPolyline
 90
3
 70
0
 10
263.160642
 20
447.635859
 30
0.0
 10
263.096187
 20
447.732541
 30
0.0
 10
263.069824
 20
447.842409
 30
0.0
  0
SPLINE
  5
2f2
100
AcDbEntity
  8
Layer_1
 62
7
100
AcDbSpline
 70
8
 71
3
 72
8
 73
4
 74
0
 40
0
 40
0
 40
0
 40
0
 40
1
 40
1
 40
1
 40
1
 10
263.085934
 20
458.015746
 30
0.0
 10
263.085934
 20
458.015746
 30
0.0
 10
261.578644
 20
467.633019
 30
0.0
 10
262.111812
 20
473.661743
 30
0.0
  0
SPLINE
  5
2f3
100
AcDbEntity
  8
Layer_1
 62
7
100
AcDbSpline
 70
8
 71
3
 72
8
 73
4
 74
0
 40
0
 40
0
 40
0
 40
0
 40
1
 40
1
 40
1
 40
1
 10
262.111812
 20
473.661743
 30
0.0
 10
254.687847
 20
473.474941
 30
0.0
 10
249.121272
 20
474.565876
 30
0.0
 10
244.259764
 20
475.229123
 30
0.0
  0
LWPOLYLINE
  5
2f4
100
AcDbEntity
  8
Layer_1
 62
7
100
AcDbPolyline
 90
3
 70
0
 10
265.041499
 20
457.229124
 30
0.0
 10
263.159179
 20
457.551391
 30
0.0
 10
263.085934
 20
458.015746
 30
0.0
  0
SPLINE
  5
2f5
100
AcDbEntity
  8
Layer_1
 62
7
100
AcDbSpline
 70
8
 71
3
 72
8
 73
4
 74
0
 40
0
 40
0
 40
0
 40
0
 40
1
 40
1
 40
1
 40
1
 10
243.713374
 20
475.716916
 30
0.0
 10
242.508507
 20
480.502591
 30
0.0
 10
242.655807
 20
485.032396
 30
0.0
 10
242.849119
 20
489.490846
 30
0.0
  0
SPLINE
  5
2f6
100
AcDbEntity
  8
Layer_1
 62
7
100
AcDbSpline
 70
8
 71
3
 72
8
 73
4
 74
0
 40
0
 40
0
 40
0
 40
0
 40
1
 40
1
 40
1
 40
1
 10
242.849119
 20
489.490846
 30
0.0
 10
239.386197
 20
489.398153
 30
0.0
 10
235.813040
 20
489.265463
 30
0.0
 10
232.614252
 20
490.844356
 30
0.0
  0
LWPOLYLINE
  5
2f7
100
AcDbEntity
  8
Layer_1
 62
7
100
AcDbPolyline
 90
3
 70
0
 10
244.259764
 20
475.229123
 30
0.0
 10
243.820309
 20
475.287721
 30
0.0
 10
243.713374
 20
475.716916
 30
0.0
  0
SPLINE
  5
2f8
100
AcDbEntity
  8
Layer_1
 62
7
100
AcDbSpline
 70
8
 71
3
 72
8
 73
4
 74
0
 40
0
 40
0
 40
0
 40
0
 40
1
 40
1
 40
1
 40
1
 10
232.268555
 20
491.582641
 30
0.0
 10
233.247830
 20
495.736868
 30
0.0
 10
234.420222
 20
500.813633
 30
0.0
 10
236.220702
 20
505.318478
 30
0.0
  0
SPLINE
  5
2f9
100
AcDbEntity
  8
Layer_1
 62
7
100
AcDbSpline
 70
8
 71
3
 72
8
 73
4
 74
0
 40
0
 40
0
 40
0
 40
0
 40
1
 40
1
 40
1
 40
1
 10
236.220702
 20
505.318478
 30
0.0
 10
237.965367
 20
509.683635
 30
0.0
 10
240.318102
 20
513.515228
 30
0.0
 10
243.769039
 20
515.418578
 30
0.0
  0
SPLINE
  5
2fa
100
AcDbEntity
  8
Layer_1
 62
7
100
AcDbSpline
 70
8
 71
3
 72
8
 73
4
 74
0
 40
0
 40
0
 40
0
 40
0
 40
1
 40
1
 40
1
 40
1
 10
243.769039
 20
515.418578
 30
0.0
 10
244.314724
 20
520.426545
 30
0.0
 10
245.554482
 20
523.026548
 30
0.0
 10
247.003414
 20
524.806763
 30
0.0
  0
SPLINE
  5
2fb
100
AcDbEntity
  8
Layer_1
 62
7
100
AcDbSpline
 70
8
 71
3
 72
8
 73
4
 74
0
 40
0
 40
0
 40
0
 40
0
 40
1
 40
1
 40
1
 40
1
 10
247.003414
 20
524.806763
 30
0.0
 10
248.463859
 20
526.601145
 30
0.0
 10
249.974232
 20
527.559053
 30
0.0
 10
251.172357
 20
529.570433
 30
0.0
  0
SPLINE
  5
2fc
100
AcDbEntity
  8
Layer_1
 62
7
100
AcDbSpline
 70
8
 71
3
 72
8
 73
4
 74
0
 40
0
 40
0
 40
0
 40
0
 40
1
 40
1
 40
1
 40
1
 10
251.172357
 20
529.570433
 30
0.0
 10
251.871417
 20
532.703168
 30
0.0
 10
251.842377
 20
535.901670
 30
0.0
 10
252.143554
 20
539.176875
 30
0.0
  0
SPLINE
  5
2fd
100
AcDbEntity
  8
Layer_1
 62
7
100
AcDbSpline
 70
8
 71
3
 72
8
 73
4
 74
0
 40
0
 40
0
 40
0
 40
0
 40
1
 40
1
 40
1
 40
1
 10
252.143554
 20
539.176875
 30
0.0
 10
250.557777
 20
541.156793
 30
0.0
 10
250.454907
 20
543.201030
 30
0.0
 10
251.143062
 20
544.993770
 30
0.0
  0
SPLINE
  5
2fe
100
AcDbEntity
  8
Layer_1
 62
7
100
AcDbSpline
 70
8
 71
3
 72
8
 73
4
 74
0
 40
0
 40
0
 40
0
 40
0
 40
1
 40
1
 40
1
 40
1
 10
251.143062
 20
544.993770
 30
0.0
 10
251.855059
 20
546.848625
 30
0.0
 10
253.245484
 20
548.513857
 30
0.0
 10
254.396479
 20
550.147095
 30
0.0
  0
SPLINE
  5
2ff
100
AcDbEntity
  8
Layer_1
 62
7
100
AcDbSpline
 70
8
 71
3
 72
8
 73
4
 74
0
 40
0
 40
0
 40
0
 40
0
 40
1
 40
1
 40
1
 40
1
 10
254.396479
 20
550.147095
 30
0.0
 10
255.303597
 20
551.947515
 30
0.0
 10
255.960949
 20
553.492657
 30
0.0
 10
256.888182
 20
554.751097
 30
0.0
  0
SPLINE
  5
300
100
AcDbEntity
  8
Layer_1
 62
7
100
AcDbSpline
 70
8
 71
3
 72
8
 73
4
 74
0
 40
0
 40
0
 40
0
 40
0
 40
1
 40
1
 40
1
 40
1
 10
256.888182
 20
554.751097
 30
0.0
 10
257.822712
 20
556.019430
 30
0.0
 10
259.079697
 20
556.966020
 30
0.0
 10
260.972164
 20
557.405392
 30
0.0
  0
LWPOLYLINE
  5
301
100
AcDbEntity
  8
Layer_1
 62
7
100
AcDbPolyline
 90
3
 70
0
 10
232.614252
 20
490.844356
 30
0.0
 10
232.146972
 20
491.074336
 30
0.0
 10
232.268555
 20
491.582641
 30
0.0
  0
SPLINE
  5
302
100
AcDbEntity
  8
Layer_1
 62
7
100
AcDbSpline
 70
8
 71
3
 72
8
 73
4
 74
0
 40
0
 40
0
 40
0
 40
0
 40
1
 40
1
 40
1
 40
1
 10
261.133294
 20
557.421502
 30
0.0
 10
261.325047
 20
557.417242
 30
0.0
 10
261.492739
 20
557.408925
 30
0.0
 10
261.679684
 20
557.403930
 30
0.0
  0
LWPOLYLINE
  5
303
100
AcDbEntity
  8
Layer_1
 62
7
100
AcDbPolyline
 90
3
 70
0
 10
260.972164
 20
557.405392
 30
0.0
 10
261.051267
 20
557.424435
 30
0.0
 10
261.133294
 20
557.421502
 30
0.0
  0
LWPOLYLINE
  5
304
100
AcDbEntity
  8
Layer_1
 62
7
100
AcDbPolyline
 90
4
 70
0
 10
261.679684
 20
557.403930
 30
0.0
 10
255.102537
 20
572.667600
 30
0.0
 10
216.710450
 20
572.667600
 30
0.0
 10
216.710450
 20
572.667600
 30
0.0
  0
SPLINE
  5
305
100
AcDbEntity
  8
Layer_1
 62
1
100
AcDbSpline
 70
8
 71
3
 72
8
 73
4
 74
0
 40
0
 40
0
 40
0
 40
0
 40
1
 40
1
 40
1
 40
1
 10
400.755273
 20
533.475071
 30
0.0
 10
400.755273
 20
532.978650
 30
0.0
 10
400.490436
 20
532.519939
 30
0.0
 10
400.060523
 20
532.271729
 30
0.0
  0
SPLINE
  5
306
100
AcDbEntity
  8
Layer_1
 62
1
100
AcDbSpline
 70
8
 71
3
 72
8
 73
4
 74
0
 40
0
 40
0
 40
0
 40
0
 40
1
 40
1
 40
1
 40
1
 10
400.060523
 20
532.271729
 30
0.0
 10
399.630610
 20
532.023518
 30
0.0
 10
399.100936
 20
532.023518
 30
0.0
 10
398.671023
 20
532.271729
 30
0.0
  0
SPLINE
  5
307
100
AcDbEntity
  8
Layer_1
 62
1
100
AcDbSpline
 70
8
 71
3
 72
8
 73
4
 74
0
 40
0
 40
0
 40
0
 40
0
 40
1
 40
1
 40
1
 40
1
 10
398.671023
 20
532.271729
 30
0.0
 10
398.241111
 20
532.519939
 30
0.0
 10
397.976273
 20
532.978650
 30
0.0
 10
397.976273
 20
533.475071
 30
0.0
  0
SPLINE
  5
308
100
AcDbEntity
  8
Layer_1
 62
1
100
AcDbSpline
 70
8
 71
3
 72
8
 73
4
 74
0
 40
0
 40
0
 40
0
 40
0
 40
1
 40
1
 40
1
 40
1
 10
397.976273
 20
533.475071
 30
0.0
 10
397.976273
 20
533.971491
 30
0.0
 10
398.241111
 20
534.430203
 30
0.0
 10
398.671023
 20
534.678413
 30
0.0
  0
SPLINE
  5
309
100
AcDbEntity
  8
Layer_1
 62
1
100
AcDbSpline
 70
8
 71
3
 72
8
 73
4
 74
0
 40
0
 40
0
 40
0
 40
0
 40
1
 40
1
 40
1
 40
1
 10
398.671023
 20
534.678413
 30
0.0
 10
399.100936
 20
534.926623
 30
0.0
 10
399.630610
 20
534.926623
 30
0.0
 10
400.060523
 20
534.678413
 30
0.0
  0
SPLINE
  5
30a
100
AcDbEntity
  8
Layer_1
 62
1
100
AcDbSpline
 70
8
 71
3
 72
8
 73
4
 74
0
 40
0
 40
0
 40
0
 40
0
 40
1
 40
1
 40
1
 40
1
 10
400.060523
 20
534.678413
 30
0.0
 10
400.490436
 20
534.430203
 30
0.0
 10
400.755273
 20
533.971491
 30
0.0
 10
400.755273
 20
533.475071
 30
0.0
  0
LWPOLYLINE
  5
30b
100
AcDbEntity
  8
Layer_1
 62
7
100
AcDbPolyline
 90
4
 70
1
 10
347.211184
 20
572.667197
 30
0.0
 10
471.071146
 20
572.667197
 30
0.0
 10
471.071146
 20
430.582065
 30
0.0
 10
347.211184
 20
430.582065
 30
0.0
  0
LWPOLYLINE
  5
30c
100
AcDbEntity
  8
Layer_1
 62
1
100
AcDbPolyline
 90
1
 70
1
 10
400.755273
 20
533.475071
 30
0.0
  0
SPLINE
  5
30d
100
AcDbEntity
  8
Layer_1
 62
3
100
AcDbSpline
 70
8
 71
3
 72
8
 73
4
 74
0
 40
0
 40
0
 40
0
 40
0
 40
1
 40
1
 40
1
 40
1
 10
133.272465
 20
557.372835
 30
0.0
 10
145.774278
 20
557.094756
 30
0.0
 10
147.960899
 20
555.246595
 30
0.0
 10
155.131415
 20
554.205827
 30
0.0
  0
LWPOLYLINE
  5
30e
100
AcDbEntity
  8
Layer_1
 62
3
100
AcDbPolyline
 90
2
 70
0
 10
133.190544
 20
557.375216
 30
0.0
 10
133.272465
 20
557.372835
 30
0.0
  0
SPLINE
  5
30f
100
AcDbEntity
  8
Layer_1
 62
3
100
AcDbSpline
 70
8
 71
3
 72
8
 73
4
 74
0
 40
0
 40
0
 40
0
 40
0
 40
1
 40
1
 40
1
 40
1
 10
156.133128
 20
547.712447
 30
0.0
 10
158.371299
 20
546.247928
 30
0.0
 10
159.110949
 20
543.820337
 30
0.0
 10
158.849546
 20
541.592731
 30
0.0
  0
SPLINE
  5
310
100
AcDbEntity
  8
Layer_1
 62
3
100
AcDbSpline
 70
8
 71
3
 72
8
 73
4
 74
0
 40
0
 40
0
 40
0
 40
0
 40
1
 40
1
 40
1
 40
1
 10
158.849546
 20
541.592731
 30
0.0
 10
158.594173
 20
539.416573
 30
0.0
 10
157.521815
 20
537.417269
 30
0.0
 10
156.046127
 20
536.337638
 30
0.0
  0
LWPOLYLINE
  5
311
100
AcDbEntity
  8
Layer_1
 62
3
100
AcDbPolyline
 90
4
 70
0
 10
155.131415
 20
554.205827
 30
0.0
 10
155.652083
 20
554.130425
 30
0.0
 10
155.690663
 20
553.606044
 30
0.0
 10
156.133128
 20
547.712447
 30
0.0
  0
SPLINE
  5
312
100
AcDbEntity
  8
Layer_1
 62
3
100
AcDbSpline
 70
8
 71
3
 72
8
 73
4
 74
0
 40
0
 40
0
 40
0
 40
0
 40
1
 40
1
 40
1
 40
1
 10
156.229274
 20
531.206787
 30
0.0
 10
161.974131
 20
530.305512
 30
0.0
 10
165.785338
 20
527.959786
 30
0.0
 10
168.549627
 20
524.946217
 30
0.0
  0
SPLINE
  5
313
100
AcDbEntity
  8
Layer_1
 62
3
100
AcDbSpline
 70
8
 71
3
 72
8
 73
4
 74
0
 40
0
 40
0
 40
0
 40
0
 40
1
 40
1
 40
1
 40
1
 10
168.549627
 20
524.946217
 30
0.0
 10
171.364394
 20
521.877628
 30
0.0
 10
173.162154
 20
518.190009
 30
0.0
 10
175.142959
 20
514.724117
 30
0.0
  0
SPLINE
  5
314
100
AcDbEntity
  8
Layer_1
 62
3
100
AcDbSpline
 70
8
 71
3
 72
8
 73
4
 74
0
 40
0
 40
0
 40
0
 40
0
 40
1
 40
1
 40
1
 40
1
 10
175.142959
 20
514.724117
 30
0.0
 10
185.638924
 20
510.097550
 30
0.0
 10
188.674260
 20
501.145597
 30
0.0
 10
191.245439
 20
493.549682
 30
0.0
  0
LWPOLYLINE
  5
315
100
AcDbEntity
  8
Layer_1
 62
3
100
AcDbPolyline
 90
2
 70
0
 10
156.046127
 20
536.337638
 30
0.0
 10
156.229274
 20
531.206787
 30
0.0
  0
SPLINE
  5
316
100
AcDbEntity
  8
Layer_1
 62
3
100
AcDbSpline
 70
8
 71
3
 72
8
 73
4
 74
0
 40
0
 40
0
 40
0
 40
0
 40
1
 40
1
 40
1
 40
1
 10
190.941083
 20
492.765335
 30
0.0
 10
188.484494
 20
491.411565
 30
0.0
 10
185.881263
 20
490.924743
 30
0.0
 10
183.237012
 20
490.866491
 30
0.0
  0
SPLINE
  5
317
100
AcDbEntity
  8
Layer_1
 62
3
100
AcDbSpline
 70
8
 71
3
 72
8
 73
4
 74
0
 40
0
 40
0
 40
0
 40
0
 40
1
 40
1
 40
1
 40
1
 10
183.237012
 20
490.866491
 30
0.0
 10
184.168471
 20
487.399011
 30
0.0
 10
184.830007
 20
483.961096
 30
0.0
 10
184.647016
 20
480.640649
 30
0.0
  0
LWPOLYLINE
  5
318
100
AcDbEntity
  8
Layer_1
 62
3
100
AcDbPolyline
 90
3
 70
0
 10
191.245439
 20
493.549682
 30
0.0
 10
191.420790
 20
493.030375
 30
0.0
 10
190.941083
 20
492.765335
 30
0.0
  0
SPLINE
  5
319
100
AcDbEntity
  8
Layer_1
 62
3
100
AcDbSpline
 70
8
 71
3
 72
8
 73
4
 74
0
 40
0
 40
0
 40
0
 40
0
 40
1
 40
1
 40
1
 40
1
 10
184.370865
 20
480.141666
 30
0.0
 10
181.920300
 20
478.407657
 30
0.0
 10
178.538896
 20
478.203420
 30
0.0
 10
175.435875
 20
477.769550
 30
0.0
  0
SPLINE
  5
31a
100
AcDbEntity
  8
Layer_1
 62
3
100
AcDbSpline
 70
8
 71
3
 72
8
 73
4
 74
0
 40
0
 40
0
 40
0
 40
0
 40
1
 40
1
 40
1
 40
1
 10
175.435875
 20
477.769550
 30
0.0
 10
174.607495
 20
473.616794
 30
0.0
 10
175.703664
 20
469.619178
 30
0.0
 10
174.700236
 20
464.627906
 30
0.0
  0
LWPOLYLINE
  5
31b
100
AcDbEntity
  8
Layer_1
 62
3
100
AcDbPolyline
 90
3
 70
0
 10
184.647016
 20
480.640649
 30
0.0
 10
184.629158
 20
480.324784
 30
0.0
 10
184.370865
 20
480.141666
 30
0.0
  0
SPLINE
  5
31c
100
AcDbEntity
  8
Layer_1
 62
3
100
AcDbSpline
 70
8
 71
3
 72
8
 73
4
 74
0
 40
0
 40
0
 40
0
 40
0
 40
1
 40
1
 40
1
 40
1
 10
172.935785
 20
463.037471
 30
0.0
 10
174.779328
 20
461.610454
 30
0.0
 10
175.723393
 20
459.911849
 30
0.0
 10
175.969746
 20
458.312173
 30
0.0
  0
SPLINE
  5
31d
100
AcDbEntity
  8
Layer_1
 62
3
100
AcDbSpline
 70
8
 71
3
 72
8
 73
4
 74
0
 40
0
 40
0
 40
0
 40
0
 40
1
 40
1
 40
1
 40
1
 10
175.969746
 20
458.312173
 30
0.0
 10
176.247797
 20
456.506759
 30
0.0
 10
175.759812
 20
454.882139
 30
0.0
 10
175.020151
 20
453.852992
 30
0.0
  0
SPLINE
  5
31e
100
AcDbEntity
  8
Layer_1
 62
3
100
AcDbSpline
 70
8
 71
3
 72
8
 73
4
 74
0
 40
0
 40
0
 40
0
 40
0
 40
1
 40
1
 40
1
 40
1
 10
175.020151
 20
453.852992
 30
0.0
 10
172.254458
 20
449.983871
 30
0.0
 10
168.454735
 20
449.645924
 30
0.0
 10
165.535041
 20
450.346082
 30
0.0
  0
SPLINE
  5
31f
100
AcDbEntity
  8
Layer_1
 62
3
100
AcDbSpline
 70
8
 71
3
 72
8
 73
4
 74
0
 40
0
 40
0
 40
0
 40
0
 40
1
 40
1
 40
1
 40
1
 10
165.535041
 20
450.346082
 30
0.0
 10
162.614937
 20
451.046353
 30
0.0
 10
160.421114
 20
452.700255
 30
0.0
 10
160.421114
 20
452.700255
 30
0.0
  0
LWPOLYLINE
  5
320
100
AcDbEntity
  8
Layer_1
 62
3
100
AcDbPolyline
 90
3
 70
0
 10
174.700236
 20
464.627906
 30
0.0
 10
174.652841
 20
464.390929
 30
0.0
 10
172.935785
 20
463.037471
 30
0.0
  0
SPLINE
  5
321
100
AcDbEntity
  8
Layer_1
 62
3
100
AcDbSpline
 70
8
 71
3
 72
8
 73
4
 74
0
 40
0
 40
0
 40
0
 40
0
 40
1
 40
1
 40
1
 40
1
 10
160.377460
 20
452.737106
 30
0.0
 10
159.365248
 20
453.642038
 30
0.0
 10
158.957237
 20
455.272696
 30
0.0
 10
159.185137
 20
457.211537
 30
0.0
  0
SPLINE
  5
322
100
AcDbEntity
  8
Layer_1
 62
3
100
AcDbSpline
 70
8
 71
3
 72
8
 73
4
 74
0
 40
0
 40
0
 40
0
 40
0
 40
1
 40
1
 40
1
 40
1
 10
159.185137
 20
457.211537
 30
0.0
 10
159.383421
 20
458.898435
 30
0.0
 10
160.224415
 20
460.848359
 30
0.0
 10
161.627675
 20
462.802819
 30
0.0
  0
SPLINE
  5
323
100
AcDbEntity
  8
Layer_1
 62
3
100
AcDbSpline
 70
8
 71
3
 72
8
 73
4
 74
0
 40
0
 40
0
 40
0
 40
0
 40
1
 40
1
 40
1
 40
1
 10
161.627675
 20
462.802819
 30
0.0
 10
161.531864
 20
462.822661
 30
0.0
 10
161.444075
 20
462.840520
 30
0.0
 10
161.351099
 20
462.860362
 30
0.0
  0
SPLINE
  5
324
100
AcDbEntity
  8
Layer_1
 62
3
100
AcDbSpline
 70
8
 71
3
 72
8
 73
4
 74
0
 40
0
 40
0
 40
0
 40
0
 40
1
 40
1
 40
1
 40
1
 10
161.351099
 20
462.860362
 30
0.0
 10
160.953029
 20
462.945118
 30
0.0
 10
160.657455
 20
462.976016
 30
0.0
 10
160.303326
 20
463.176567
 30
0.0
  0
LWPOLYLINE
  5
325
100
AcDbEntity
  8
Layer_1
 62
3
100
AcDbPolyline
 90
3
 70
0
 10
160.421114
 20
452.700255
 30
0.0
 10
160.398153
 20
452.717263
 30
0.0
 10
160.377460
 20
452.737106
 30
0.0
  0
SPLINE
  5
326
100
AcDbEntity
  8
Layer_1
 62
3
100
AcDbSpline
 70
8
 71
3
 72
8
 73
4
 74
0
 40
0
 40
0
 40
0
 40
0
 40
1
 40
1
 40
1
 40
1
 10
159.974609
 20
463.677817
 30
0.0
 10
159.679020
 20
466.495710
 30
0.0
 10
159.426003
 20
471.164967
 30
0.0
 10
161.227193
 20
475.370192
 30
0.0
  0
SPLINE
  5
327
100
AcDbEntity
  8
Layer_1
 62
3
100
AcDbSpline
 70
8
 71
3
 72
8
 73
4
 74
0
 40
0
 40
0
 40
0
 40
0
 40
1
 40
1
 40
1
 40
1
 10
161.227193
 20
475.370192
 30
0.0
 10
157.220561
 20
474.439351
 30
0.0
 10
153.207295
 20
473.926450
 30
0.0
 10
149.190874
 20
473.929370
 30
0.0
  0
SPLINE
  5
328
100
AcDbEntity
  8
Layer_1
 62
3
100
AcDbSpline
 70
8
 71
3
 72
8
 73
4
 74
0
 40
0
 40
0
 40
0
 40
0
 40
1
 40
1
 40
1
 40
1
 10
149.190874
 20
473.929370
 30
0.0
 10
149.486468
 20
469.716832
 30
0.0
 10
149.734210
 20
465.074617
 30
0.0
 10
149.802270
 20
460.903861
 30
0.0
  0
LWPOLYLINE
  5
329
100
AcDbEntity
  8
Layer_1
 62
3
100
AcDbPolyline
 90
3
 70
0
 10
160.303326
 20
463.176567
 30
0.0
 10
160.010155
 20
463.342677
 30
0.0
 10
159.974609
 20
463.677817
 30
0.0
  0
SPLINE
  5
32a
100
AcDbEntity
  8
Layer_1
 62
3
100
AcDbSpline
 70
8
 71
3
 72
8
 73
4
 74
0
 40
0
 40
0
 40
0
 40
0
 40
1
 40
1
 40
1
 40
1
 10
149.762656
 20
460.667169
 30
0.0
 10
149.423343
 20
459.739247
 30
0.0
 10
148.722321
 20
459.192416
 30
0.0
 10
148.027660
 20
458.914252
 30
0.0
  0
SPLINE
  5
32b
100
AcDbEntity
  8
Layer_1
 62
3
100
AcDbSpline
 70
8
 71
3
 72
8
 73
4
 74
0
 40
0
 40
0
 40
0
 40
0
 40
1
 40
1
 40
1
 40
1
 10
148.027660
 20
458.914252
 30
0.0
 10
147.848567
 20
458.842535
 30
0.0
 10
147.700610
 20
458.830630
 30
0.0
 10
147.523578
 20
458.779890
 30
0.0
  0
SPLINE
  5
32c
100
AcDbEntity
  8
Layer_1
 62
3
100
AcDbSpline
 70
8
 71
3
 72
8
 73
4
 74
0
 40
0
 40
0
 40
0
 40
0
 40
1
 40
1
 40
1
 40
1
 10
147.523578
 20
458.779890
 30
0.0
 10
150.831760
 20
456.358167
 30
0.0
 10
152.199176
 20
452.006674
 30
0.0
 10
150.245073
 20
448.972498
 30
0.0
  0
LWPOLYLINE
  5
32d
100
AcDbEntity
  8
Layer_1
 62
3
100
AcDbPolyline
 90
3
 70
0
 10
149.802270
 20
460.903861
 30
0.0
 10
149.804977
 20
460.782255
 30
0.0
 10
149.762656
 20
460.667169
 30
0.0
  0
SPLINE
  5
32e
100
AcDbEntity
  8
Layer_1
 62
3
100
AcDbSpline
 70
8
 71
3
 72
8
 73
4
 74
0
 40
0
 40
0
 40
0
 40
0
 40
1
 40
1
 40
1
 40
1
 10
150.191243
 20
448.902482
 30
0.0
 10
147.789771
 20
446.098706
 30
0.0
 10
144.897123
 20
444.573723
 30
0.0
 10
142.164884
 20
444.347150
 30
0.0
  0
SPLINE
  5
32f
100
AcDbEntity
  8
Layer_1
 62
3
100
AcDbSpline
 70
8
 71
3
 72
8
 73
4
 74
0
 40
0
 40
0
 40
0
 40
0
 40
1
 40
1
 40
1
 40
1
 10
142.164884
 20
444.347150
 30
0.0
 10
139.432646
 20
444.120661
 30
0.0
 10
136.856347
 20
445.238617
 30
0.0
 10
135.298015
 20
447.586923
 30
0.0
  0
LWPOLYLINE
  5
330
100
AcDbEntity
  8
Layer_1
 62
3
100
AcDbPolyline
 90
3
 70
0
 10
150.245073
 20
448.972498
 30
0.0
 10
150.220695
 20
448.935647
 30
0.0
 10
150.191243
 20
448.902482
 30
0.0
  0
SPLINE
  5
331
100
AcDbEntity
  8
Layer_1
 62
3
100
AcDbSpline
 70
8
 71
3
 72
8
 73
4
 74
0
 40
0
 40
0
 40
0
 40
0
 40
1
 40
1
 40
1
 40
1
 10
135.206824
 20
447.794135
 30
0.0
 10
134.289748
 20
451.530057
 30
0.0
 10
135.641789
 20
454.480866
 30
0.0
 10
137.178462
 20
457.180753
 30
0.0
  0
LWPOLYLINE
  5
332
100
AcDbEntity
  8
Layer_1
 62
3
100
AcDbPolyline
 90
3
 70
0
 10
135.298015
 20
447.586923
 30
0.0
 10
135.234037
 20
447.683017
 30
0.0
 10
135.206824
 20
447.794135
 30
0.0
  0
SPLINE
  5
333
100
AcDbEntity
  8
Layer_1
 62
3
100
AcDbSpline
 70
8
 71
3
 72
8
 73
4
 74
0
 40
0
 40
0
 40
0
 40
0
 40
1
 40
1
 40
1
 40
1
 10
135.223404
 20
457.967509
 30
0.0
 10
135.223404
 20
457.967509
 30
0.0
 10
133.716603
 20
467.583562
 30
0.0
 10
134.249774
 20
473.612287
 30
0.0
  0
SPLINE
  5
334
100
AcDbEntity
  8
Layer_1
 62
3
100
AcDbSpline
 70
8
 71
3
 72
8
 73
4
 74
0
 40
0
 40
0
 40
0
 40
0
 40
1
 40
1
 40
1
 40
1
 10
134.249774
 20
473.612287
 30
0.0
 10
126.825806
 20
473.425483
 30
0.0
 10
121.258233
 20
474.516454
 30
0.0
 10
116.396725
 20
475.179704
 30
0.0
  0
LWPOLYLINE
  5
335
100
AcDbEntity
  8
Layer_1
 62
3
100
AcDbPolyline
 90
3
 70
0
 10
137.178462
 20
457.180753
 30
0.0
 10
135.296538
 20
457.502003
 30
0.0
 10
135.223404
 20
457.967509
 30
0.0
  0
SPLINE
  5
336
100
AcDbEntity
  8
Layer_1
 62
3
100
AcDbSpline
 70
8
 71
3
 72
8
 73
4
 74
0
 40
0
 40
0
 40
0
 40
0
 40
1
 40
1
 40
1
 40
1
 10
115.850662
 20
475.668085
 30
0.0
 10
114.645796
 20
480.453761
 30
0.0
 10
114.793410
 20
484.983666
 30
0.0
 10
114.986718
 20
489.442110
 30
0.0
  0
SPLINE
  5
337
100
AcDbEntity
  8
Layer_1
 62
3
100
AcDbSpline
 70
8
 71
3
 72
8
 73
4
 74
0
 40
0
 40
0
 40
0
 40
0
 40
1
 40
1
 40
1
 40
1
 10
114.986718
 20
489.442110
 30
0.0
 10
111.523799
 20
489.349417
 30
0.0
 10
107.950873
 20
489.217039
 30
0.0
 10
104.752089
 20
490.795937
 30
0.0
  0
LWPOLYLINE
  5
338
100
AcDbEntity
  8
Layer_1
 62
3
100
AcDbPolyline
 90
3
 70
0
 10
116.396725
 20
475.179704
 30
0.0
 10
115.957981
 20
475.239515
 30
0.0
 10
115.850662
 20
475.668085
 30
0.0
  0
SPLINE
  5
339
100
AcDbEntity
  8
Layer_1
 62
3
100
AcDbSpline
 70
8
 71
3
 72
8
 73
4
 74
0
 40
0
 40
0
 40
0
 40
0
 40
1
 40
1
 40
1
 40
1
 10
104.405437
 20
491.534249
 30
0.0
 10
105.384713
 20
495.688479
 30
0.0
 10
106.557369
 20
500.764847
 30
0.0
 10
108.357849
 20
505.269694
 30
0.0
  0
SPLINE
  5
33a
100
AcDbEntity
  8
Layer_1
 62
3
100
AcDbSpline
 70
8
 71
3
 72
8
 73
4
 74
0
 40
0
 40
0
 40
0
 40
0
 40
1
 40
1
 40
1
 40
1
 10
108.357849
 20
505.269694
 30
0.0
 10
110.102513
 20
509.634850
 30
0.0
 10
112.455933
 20
513.466554
 30
0.0
 10
115.906870
 20
515.369906
 30
0.0
  0
SPLINE
  5
33b
100
AcDbEntity
  8
Layer_1
 62
3
100
AcDbSpline
 70
8
 71
3
 72
8
 73
4
 74
0
 40
0
 40
0
 40
0
 40
0
 40
1
 40
1
 40
1
 40
1
 10
115.906870
 20
515.369906
 30
0.0
 10
116.452556
 20
520.377874
 30
0.0
 10
117.692311
 20
522.977641
 30
0.0
 10
119.141246
 20
524.757855
 30
0.0
  0
SPLINE
  5
33c
100
AcDbEntity
  8
Layer_1
 62
3
100
AcDbSpline
 70
8
 71
3
 72
8
 73
4
 74
0
 40
0
 40
0
 40
0
 40
0
 40
1
 40
1
 40
1
 40
1
 10
119.141246
 20
524.757855
 30
0.0
 10
120.601692
 20
526.552243
 30
0.0
 10
122.111855
 20
527.510041
 30
0.0
 10
123.309981
 20
529.521420
 30
0.0
  0
SPLINE
  5
33d
100
AcDbEntity
  8
Layer_1
 62
3
100
AcDbSpline
 70
8
 71
3
 72
8
 73
4
 74
0
 40
0
 40
0
 40
0
 40
0
 40
1
 40
1
 40
1
 40
1
 10
123.309981
 20
529.521420
 30
0.0
 10
124.009036
 20
532.654157
 30
0.0
 10
123.980071
 20
535.852857
 30
0.0
 10
124.281244
 20
539.128063
 30
0.0
  0
SPLINE
  5
33e
100
AcDbEntity
  8
Layer_1
 62
3
100
AcDbSpline
 70
8
 71
3
 72
8
 73
4
 74
0
 40
0
 40
0
 40
0
 40
0
 40
1
 40
1
 40
1
 40
1
 10
124.281244
 20
539.128063
 30
0.0
 10
122.695469
 20
541.107978
 30
0.0
 10
122.592373
 20
543.151701
 30
0.0
 10
123.280529
 20
544.944444
 30
0.0
  0
SPLINE
  5
33f
100
AcDbEntity
  8
Layer_1
 62
3
100
AcDbSpline
 70
8
 71
3
 72
8
 73
4
 74
0
 40
0
 40
0
 40
0
 40
0
 40
1
 40
1
 40
1
 40
1
 10
123.280529
 20
544.944444
 30
0.0
 10
123.992527
 20
546.799294
 30
0.0
 10
125.382189
 20
548.465074
 30
0.0
 10
126.533188
 20
550.098312
 30
0.0
  0
SPLINE
  5
340
100
AcDbEntity
  8
Layer_1
 62
3
100
AcDbSpline
 70
8
 71
3
 72
8
 73
4
 74
0
 40
0
 40
0
 40
0
 40
0
 40
1
 40
1
 40
1
 40
1
 10
126.533188
 20
550.098312
 30
0.0
 10
127.440300
 20
551.898737
 30
0.0
 10
128.098259
 20
553.443647
 30
0.0
 10
129.025491
 20
554.702088
 30
0.0
  0
SPLINE
  5
341
100
AcDbEntity
  8
Layer_1
 62
3
100
AcDbSpline
 70
8
 71
3
 72
8
 73
4
 74
0
 40
0
 40
0
 40
0
 40
0
 40
1
 40
1
 40
1
 40
1
 10
129.025491
 20
554.702088
 30
0.0
 10
129.960023
 20
555.970422
 30
0.0
 10
131.217463
 20
556.917846
 30
0.0
 10
133.109932
 20
557.357216
 30
0.0
  0
LWPOLYLINE
  5
342
100
AcDbEntity
  8
Layer_1
 62
3
100
AcDbPolyline
 90
3
 70
0
 10
104.752089
 20
490.795937
 30
0.0
 10
104.284908
 20
491.026110
 30
0.0
 10
104.405437
 20
491.534249
 30
0.0
  0
SPLINE
  5
343
100
AcDbEntity
  8
Layer_1
 62
3
100
AcDbSpline
 70
8
 71
3
 72
8
 73
4
 74
0
 40
0
 40
0
 40
0
 40
0
 40
1
 40
1
 40
1
 40
1
 10
133.765038
 20
556.045767
 30
0.0
 10
131.648876
 20
547.571083
 30
0.0
 10
131.355278
 20
540.074438
 30
0.0
 10
131.273751
 20
533.337109
 30
0.0
  0
SPLINE
  5
344
100
AcDbEntity
  8
Layer_1
 62
3
100
AcDbSpline
 70
8
 71
3
 72
8
 73
4
 74
0
 40
0
 40
0
 40
0
 40
0
 40
1
 40
1
 40
1
 40
1
 10
131.273751
 20
533.337109
 30
0.0
 10
132.607746
 20
533.631600
 30
0.0
 10
133.956346
 20
533.798617
 30
0.0
 10
135.313166
 20
533.863191
 30
0.0
  0
SPLINE
  5
345
100
AcDbEntity
  8
Layer_1
 62
3
100
AcDbSpline
 70
8
 71
3
 72
8
 73
4
 74
0
 40
0
 40
0
 40
0
 40
0
 40
1
 40
1
 40
1
 40
1
 10
135.313166
 20
533.863191
 30
0.0
 10
136.665629
 20
533.927537
 30
0.0
 10
138.025485
 20
533.893521
 30
0.0
 10
139.387113
 20
533.791474
 30
0.0
  0
SPLINE
  5
346
100
AcDbEntity
  8
Layer_1
 62
3
100
AcDbSpline
 70
8
 71
3
 72
8
 73
4
 74
0
 40
0
 40
0
 40
0
 40
0
 40
1
 40
1
 40
1
 40
1
 10
139.387113
 20
533.791474
 30
0.0
 10
144.576677
 20
533.402135
 30
0.0
 10
149.823700
 20
532.058003
 30
0.0
 10
154.910356
 20
531.419357
 30
0.0
  0
LWPOLYLINE
  5
347
100
AcDbEntity
  8
Layer_1
 62
3
100
AcDbPolyline
 90
2
 70
0
 10
133.109932
 20
557.357216
 30
0.0
 10
133.190544
 20
557.375216
 30
0.0
  0
SPLINE
  5
348
100
AcDbEntity
  8
Layer_1
 62
3
100
AcDbSpline
 70
8
 71
3
 72
8
 73
4
 74
0
 40
0
 40
0
 40
0
 40
0
 40
1
 40
1
 40
1
 40
1
 10
154.728910
 20
536.501792
 30
0.0
 10
153.625258
 20
539.401039
 30
0.0
 10
153.498110
 20
542.958350
 30
0.0
 10
154.838271
 20
547.459880
 30
0.0
  0
LWPOLYLINE
  5
349
100
AcDbEntity
  8
Layer_1
 62
3
100
AcDbPolyline
 90
2
 70
0
 10
154.910356
 20
531.419357
 30
0.0
 10
154.728910
 20
536.501792
 30
0.0
  0
SPLINE
  5
34a
100
AcDbEntity
  8
Layer_1
 62
3
100
AcDbSpline
 70
8
 71
3
 72
8
 73
4
 74
0
 40
0
 40
0
 40
0
 40
0
 40
1
 40
1
 40
1
 40
1
 10
154.421195
 20
553.008501
 30
0.0
 10
147.656208
 20
554.067383
 30
0.0
 10
145.321946
 20
555.738718
 30
0.0
 10
133.765061
 20
556.045824
 30
0.0
  0
LWPOLYLINE
  5
34b
100
AcDbEntity
  8
Layer_1
 62
3
100
AcDbPolyline
 90
2
 70
0
 10
154.838271
 20
547.459880
 30
0.0
 10
154.421195
 20
553.008501
 30
0.0
  0
SPLINE
  5
34c
100
AcDbEntity
  8
Layer_1
 62
3
100
AcDbSpline
 70
8
 71
3
 72
8
 73
4
 74
0
 40
0
 40
0
 40
0
 40
0
 40
1
 40
1
 40
1
 40
1
 10
132.339801
 20
555.736365
 30
0.0
 10
131.350198
 20
555.332513
 30
0.0
 10
130.684640
 20
554.741830
 30
0.0
 10
130.081425
 20
553.923156
 30
0.0
  0
SPLINE
  5
34d
100
AcDbEntity
  8
Layer_1
 62
3
100
AcDbSpline
 70
8
 71
3
 72
8
 73
4
 74
0
 40
0
 40
0
 40
0
 40
0
 40
1
 40
1
 40
1
 40
1
 10
130.081425
 20
553.923156
 30
0.0
 10
129.320606
 20
552.890580
 30
0.0
 10
128.680347
 20
551.462287
 30
0.0
 10
127.813232
 20
549.727682
 30
0.0
  0
SPLINE
  5
34e
100
AcDbEntity
  8
Layer_1
 62
3
100
AcDbSpline
 70
8
 71
3
 72
8
 73
4
 74
0
 40
0
 40
0
 40
0
 40
0
 40
1
 40
1
 40
1
 40
1
 10
127.813232
 20
549.727682
 30
0.0
 10
128.898876
 20
546.881868
 30
0.0
 10
130.008013
 20
542.734498
 30
0.0
 10
128.624029
 20
538.159550
 30
0.0
  0
LWPOLYLINE
  5
34f
100
AcDbEntity
  8
Layer_1
 62
3
100
AcDbPolyline
 90
1
 70
1
 10
133.765061
 20
556.045824
 30
0.0
  0
SPLINE
  5
350
100
AcDbEntity
  8
Layer_1
 62
3
100
AcDbSpline
 70
8
 71
3
 72
8
 73
4
 74
0
 40
0
 40
0
 40
0
 40
0
 40
1
 40
1
 40
1
 40
1
 10
128.328489
 20
537.784809
 30
0.0
 10
127.612474
 20
537.363099
 30
0.0
 10
126.846434
 20
537.155376
 30
0.0
 10
126.111076
 20
537.362674
 30
0.0
  0
SPLINE
  5
351
100
AcDbEntity
  8
Layer_1
 62
3
100
AcDbSpline
 70
8
 71
3
 72
8
 73
4
 74
0
 40
0
 40
0
 40
0
 40
0
 40
1
 40
1
 40
1
 40
1
 10
126.111076
 20
537.362674
 30
0.0
 10
125.884871
 20
537.426454
 30
0.0
 10
125.673106
 20
537.526517
 30
0.0
 10
125.475982
 20
537.659235
 30
0.0
  0
SPLINE
  5
352
100
AcDbEntity
  8
Layer_1
 62
3
100
AcDbSpline
 70
8
 71
3
 72
8
 73
4
 74
0
 40
0
 40
0
 40
0
 40
0
 40
1
 40
1
 40
1
 40
1
 10
125.475982
 20
537.659235
 30
0.0
 10
125.321465
 20
535.379811
 30
0.0
 10
125.256892
 20
533.062261
 30
0.0
 10
124.878801
 20
530.710753
 30
0.0
  0
SPLINE
  5
353
100
AcDbEntity
  8
Layer_1
 62
3
100
AcDbSpline
 70
8
 71
3
 72
8
 73
4
 74
0
 40
0
 40
0
 40
0
 40
0
 40
1
 40
1
 40
1
 40
1
 10
124.878801
 20
530.710753
 30
0.0
 10
126.532678
 20
531.761443
 30
0.0
 10
128.231240
 20
532.502022
 30
0.0
 10
129.958877
 20
533.003329
 30
0.0
  0
SPLINE
  5
354
100
AcDbEntity
  8
Layer_1
 62
3
100
AcDbSpline
 70
8
 71
3
 72
8
 73
4
 74
0
 40
0
 40
0
 40
0
 40
0
 40
1
 40
1
 40
1
 40
1
 10
129.958877
 20
533.003329
 30
0.0
 10
130.033230
 20
539.689351
 30
0.0
 10
130.290591
 20
547.222365
 30
0.0
 10
132.339804
 20
555.736394
 30
0.0
  0
LWPOLYLINE
  5
355
100
AcDbEntity
  8
Layer_1
 62
3
100
AcDbPolyline
 90
3
 70
0
 10
128.624029
 20
538.159550
 30
0.0
 10
128.549563
 20
537.915203
 30
0.0
 10
128.328489
 20
537.784809
 30
0.0
  0
SPLINE
  5
356
100
AcDbEntity
  8
Layer_1
 62
3
100
AcDbSpline
 70
8
 71
3
 72
8
 73
4
 74
0
 40
0
 40
0
 40
0
 40
0
 40
1
 40
1
 40
1
 40
1
 10
139.277764
 20
551.783282
 30
0.0
 10
145.555722
 20
551.811628
 30
0.0
 10
147.929751
 20
550.385943
 30
0.0
 10
154.174380
 20
549.620022
 30
0.0
  0
LWPOLYLINE
  5
357
100
AcDbEntity
  8
Layer_1
 62
3
100
AcDbPolyline
 90
1
 70
1
 10
132.339804
 20
555.736394
 30
0.0
  0
SPLINE
  5
358
100
AcDbEntity
  8
Layer_1
 62
3
100
AcDbSpline
 70
8
 71
3
 72
8
 73
4
 74
0
 40
0
 40
0
 40
0
 40
0
 40
1
 40
1
 40
1
 40
1
 10
154.015611
 20
548.319033
 30
0.0
 10
150.679233
 20
548.728243
 30
0.0
 10
148.471801
 20
549.303250
 30
0.0
 10
146.259405
 20
549.756454
 30
0.0
  0
SPLINE
  5
359
100
AcDbEntity
  8
Layer_1
 62
3
100
AcDbSpline
 70
8
 71
3
 72
8
 73
4
 74
0
 40
0
 40
0
 40
0
 40
0
 40
1
 40
1
 40
1
 40
1
 10
146.259405
 20
549.756454
 30
0.0
 10
146.272728
 20
549.733776
 30
0.0
 10
146.287185
 20
549.713083
 30
0.0
 10
146.300026
 20
549.690690
 30
0.0
  0
SPLINE
  5
35a
100
AcDbEntity
  8
Layer_1
 62
3
100
AcDbSpline
 70
8
 71
3
 72
8
 73
4
 74
0
 40
0
 40
0
 40
0
 40
0
 40
1
 40
1
 40
1
 40
1
 10
146.300026
 20
549.690690
 30
0.0
 10
146.760729
 20
548.891858
 30
0.0
 10
146.895066
 20
547.826854
 30
0.0
 10
146.633822
 20
546.663146
 30
0.0
  0
SPLINE
  5
35b
100
AcDbEntity
  8
Layer_1
 62
3
100
AcDbSpline
 70
8
 71
3
 72
8
 73
4
 74
0
 40
0
 40
0
 40
0
 40
0
 40
1
 40
1
 40
1
 40
1
 10
146.633822
 20
546.663146
 30
0.0
 10
146.372581
 20
545.499468
 30
0.0
 10
145.759847
 20
544.433471
 30
0.0
 10
144.940465
 20
543.634611
 30
0.0
  0
SPLINE
  5
35c
100
AcDbEntity
  8
Layer_1
 62
3
100
AcDbSpline
 70
8
 71
3
 72
8
 73
4
 74
0
 40
0
 40
0
 40
0
 40
0
 40
1
 40
1
 40
1
 40
1
 10
144.940465
 20
543.634611
 30
0.0
 10
144.121082
 20
542.835780
 30
0.0
 10
143.062515
 20
542.296035
 30
0.0
 10
142.010433
 20
542.296035
 30
0.0
  0
SPLINE
  5
35d
100
AcDbEntity
  8
Layer_1
 62
3
100
AcDbSpline
 70
8
 71
3
 72
8
 73
4
 74
0
 40
0
 40
0
 40
0
 40
0
 40
1
 40
1
 40
1
 40
1
 10
142.010433
 20
542.296035
 30
0.0
 10
140.958343
 20
542.296035
 30
0.0
 10
140.142345
 20
542.835780
 30
0.0
 10
139.681641
 20
543.634611
 30
0.0
  0
SPLINE
  5
35e
100
AcDbEntity
  8
Layer_1
 62
3
100
AcDbSpline
 70
8
 71
3
 72
8
 73
4
 74
0
 40
0
 40
0
 40
0
 40
0
 40
1
 40
1
 40
1
 40
1
 10
139.681641
 20
543.634611
 30
0.0
 10
139.220932
 20
544.433471
 30
0.0
 10
139.086938
 20
545.499468
 30
0.0
 10
139.348182
 20
546.663146
 30
0.0
  0
SPLINE
  5
35f
100
AcDbEntity
  8
Layer_1
 62
3
100
AcDbSpline
 70
8
 71
3
 72
8
 73
4
 74
0
 40
0
 40
0
 40
0
 40
0
 40
1
 40
1
 40
1
 40
1
 10
139.348182
 20
546.663146
 30
0.0
 10
139.609423
 20
547.826854
 30
0.0
 10
140.221823
 20
548.891858
 30
0.0
 10
141.041203
 20
549.690690
 30
0.0
  0
SPLINE
  5
360
100
AcDbEntity
  8
Layer_1
 62
3
100
AcDbSpline
 70
8
 71
3
 72
8
 73
4
 74
0
 40
0
 40
0
 40
0
 40
0
 40
1
 40
1
 40
1
 40
1
 10
141.041203
 20
549.690690
 30
0.0
 10
141.311316
 20
549.954028
 30
0.0
 10
141.607794
 20
550.188425
 30
0.0
 10
141.921060
 20
550.385376
 30
0.0
  0
SPLINE
  5
361
100
AcDbEntity
  8
Layer_1
 62
3
100
AcDbSpline
 70
8
 71
3
 72
8
 73
4
 74
0
 40
0
 40
0
 40
0
 40
0
 40
1
 40
1
 40
1
 40
1
 10
141.921060
 20
550.385376
 30
0.0
 10
140.953238
 20
550.456809
 30
0.0
 10
139.893208
 20
550.488841
 30
0.0
 10
138.682281
 20
550.465880
 30
0.0
  0
LWPOLYLINE
  5
362
100
AcDbEntity
  8
Layer_1
 62
3
100
AcDbPolyline
 90
2
 70
0
 10
154.174380
 20
549.620022
 30
0.0
 10
154.015611
 20
548.319033
 30
0.0
  0
SPLINE
  5
363
100
AcDbEntity
  8
Layer_1
 62
3
100
AcDbSpline
 70
8
 71
3
 72
8
 73
4
 74
0
 40
0
 40
0
 40
0
 40
0
 40
1
 40
1
 40
1
 40
1
 10
138.657903
 20
551.776025
 30
0.0
 10
138.868801
 20
551.778860
 30
0.0
 10
139.075248
 20
551.781694
 30
0.0
 10
139.277761
 20
551.784529
 30
0.0
  0
LWPOLYLINE
  5
364
100
AcDbEntity
  8
Layer_1
 62
3
100
AcDbPolyline
 90
2
 70
0
 10
138.682281
 20
550.465880
 30
0.0
 10
138.657903
 20
551.776025
 30
0.0
  0
SPLINE
  5
365
100
AcDbEntity
  8
Layer_1
 62
3
100
AcDbSpline
 70
8
 71
3
 72
8
 73
4
 74
0
 40
0
 40
0
 40
0
 40
0
 40
1
 40
1
 40
1
 40
1
 10
143.680431
 20
549.734457
 30
0.0
 10
143.144396
 20
549.734457
 30
0.0
 10
142.589106
 20
549.493512
 30
0.0
 10
142.073059
 20
549.044164
 30
0.0
  0
SPLINE
  5
366
100
AcDbEntity
  8
Layer_1
 62
3
100
AcDbSpline
 70
8
 71
3
 72
8
 73
4
 74
0
 40
0
 40
0
 40
0
 40
0
 40
1
 40
1
 40
1
 40
1
 10
142.073059
 20
549.044164
 30
0.0
 10
142.276728
 20
549.161235
 30
0.0
 10
142.514549
 20
549.232668
 30
0.0
 10
142.780938
 20
549.232668
 30
0.0
  0
SPLINE
  5
367
100
AcDbEntity
  8
Layer_1
 62
3
100
AcDbSpline
 70
8
 71
3
 72
8
 73
4
 74
0
 40
0
 40
0
 40
0
 40
0
 40
1
 40
1
 40
1
 40
1
 10
142.780938
 20
549.232668
 30
0.0
 10
143.337518
 20
549.232668
 30
0.0
 10
143.864745
 20
548.927320
 30
0.0
 10
144.230550
 20
548.524120
 30
0.0
  0
SPLINE
  5
368
100
AcDbEntity
  8
Layer_1
 62
3
100
AcDbSpline
 70
8
 71
3
 72
8
 73
4
 74
0
 40
0
 40
0
 40
0
 40
0
 40
1
 40
1
 40
1
 40
1
 10
144.230550
 20
548.524120
 30
0.0
 10
144.596344
 20
548.120920
 30
0.0
 10
144.837051
 20
547.609181
 30
0.0
 10
144.919811
 20
547.056227
 30
0.0
  0
SPLINE
  5
369
100
AcDbEntity
  8
Layer_1
 62
3
100
AcDbSpline
 70
8
 71
3
 72
8
 73
4
 74
0
 40
0
 40
0
 40
0
 40
0
 40
1
 40
1
 40
1
 40
1
 10
144.919811
 20
547.056227
 30
0.0
 10
145.002583
 20
546.503272
 30
0.0
 10
144.915276
 20
545.990173
 30
0.0
 10
144.670306
 20
545.586973
 30
0.0
  0
SPLINE
  5
36a
100
AcDbEntity
  8
Layer_1
 62
3
100
AcDbSpline
 70
8
 71
3
 72
8
 73
4
 74
0
 40
0
 40
0
 40
0
 40
0
 40
1
 40
1
 40
1
 40
1
 10
144.670306
 20
545.586973
 30
0.0
 10
144.425194
 20
545.183773
 30
0.0
 10
143.989197
 20
544.879786
 30
0.0
 10
143.432617
 20
544.879786
 30
0.0
  0
SPLINE
  5
36b
100
AcDbEntity
  8
Layer_1
 62
3
100
AcDbSpline
 70
8
 71
3
 72
8
 73
4
 74
0
 40
0
 40
0
 40
0
 40
0
 40
1
 40
1
 40
1
 40
1
 10
143.432617
 20
544.879786
 30
0.0
 10
142.876043
 20
544.879786
 30
0.0
 10
142.347784
 20
545.183773
 30
0.0
 10
141.981990
 20
545.586973
 30
0.0
  0
SPLINE
  5
36c
100
AcDbEntity
  8
Layer_1
 62
3
100
AcDbSpline
 70
8
 71
3
 72
8
 73
4
 74
0
 40
0
 40
0
 40
0
 40
0
 40
1
 40
1
 40
1
 40
1
 10
141.981990
 20
545.586973
 30
0.0
 10
141.616191
 20
545.990173
 30
0.0
 10
141.375149
 20
546.503272
 30
0.0
 10
141.292392
 20
547.056227
 30
0.0
  0
SPLINE
  5
36d
100
AcDbEntity
  8
Layer_1
 62
3
100
AcDbSpline
 70
8
 71
3
 72
8
 73
4
 74
0
 40
0
 40
0
 40
0
 40
0
 40
1
 40
1
 40
1
 40
1
 10
141.292392
 20
547.056227
 30
0.0
 10
141.219116
 20
547.545798
 30
0.0
 10
141.279636
 20
548.002715
 30
0.0
 10
141.464710
 20
548.380913
 30
0.0
  0
SPLINE
  5
36e
100
AcDbEntity
  8
Layer_1
 62
3
100
AcDbSpline
 70
8
 71
3
 72
8
 73
4
 74
0
 40
0
 40
0
 40
0
 40
0
 40
1
 40
1
 40
1
 40
1
 10
141.464710
 20
548.380913
 30
0.0
 10
141.106045
 20
547.895537
 30
0.0
 10
140.819091
 20
547.305449
 30
0.0
 10
140.674904
 20
546.663175
 30
0.0
  0
SPLINE
  5
36f
100
AcDbEntity
  8
Layer_1
 62
3
100
AcDbSpline
 70
8
 71
3
 72
8
 73
4
 74
0
 40
0
 40
0
 40
0
 40
0
 40
1
 40
1
 40
1
 40
1
 10
140.674904
 20
546.663175
 30
0.0
 10
140.475033
 20
545.772898
 30
0.0
 10
140.590205
 20
544.978403
 30
0.0
 10
140.905786
 20
544.431232
 30
0.0
  0
SPLINE
  5
370
100
AcDbEntity
  8
Layer_1
 62
3
100
AcDbSpline
 70
8
 71
3
 72
8
 73
4
 74
0
 40
0
 40
0
 40
0
 40
0
 40
1
 40
1
 40
1
 40
1
 10
140.905786
 20
544.431232
 30
0.0
 10
141.221358
 20
543.884032
 30
0.0
 10
141.707633
 20
543.590957
 30
0.0
 10
142.301234
 20
543.590957
 30
0.0
  0
SPLINE
  5
371
100
AcDbEntity
  8
Layer_1
 62
3
100
AcDbSpline
 70
8
 71
3
 72
8
 73
4
 74
0
 40
0
 40
0
 40
0
 40
0
 40
1
 40
1
 40
1
 40
1
 10
142.301234
 20
543.590957
 30
0.0
 10
142.894826
 20
543.590957
 30
0.0
 10
143.512546
 20
543.884032
 30
0.0
 10
144.073809
 20
544.431232
 30
0.0
  0
SPLINE
  5
372
100
AcDbEntity
  8
Layer_1
 62
3
100
AcDbSpline
 70
8
 71
3
 72
8
 73
4
 74
0
 40
0
 40
0
 40
0
 40
0
 40
1
 40
1
 40
1
 40
1
 10
144.073809
 20
544.431232
 30
0.0
 10
144.635071
 20
544.978403
 30
0.0
 10
145.108244
 20
545.772898
 30
0.0
 10
145.308112
 20
546.663175
 30
0.0
  0
SPLINE
  5
373
100
AcDbEntity
  8
Layer_1
 62
3
100
AcDbSpline
 70
8
 71
3
 72
8
 73
4
 74
0
 40
0
 40
0
 40
0
 40
0
 40
1
 40
1
 40
1
 40
1
 10
145.308112
 20
546.663175
 30
0.0
 10
145.507983
 20
547.553480
 30
0.0
 10
145.391451
 20
548.346954
 30
0.0
 10
145.075870
 20
548.894154
 30
0.0
  0
SPLINE
  5
374
100
AcDbEntity
  8
Layer_1
 62
3
100
AcDbSpline
 70
8
 71
3
 72
8
 73
4
 74
0
 40
0
 40
0
 40
0
 40
0
 40
1
 40
1
 40
1
 40
1
 10
145.075870
 20
548.894154
 30
0.0
 10
144.760292
 20
549.441326
 30
0.0
 10
144.274025
 20
549.734400
 30
0.0
 10
143.680425
 20
549.734400
 30
0.0
  0
LWPOLYLINE
  5
375
100
AcDbEntity
  8
Layer_1
 62
3
100
AcDbPolyline
 90
2
 70
0
 10
139.277761
 20
551.784529
 30
0.0
 10
139.277764
 20
551.783282
 30
0.0
  0
SPLINE
  5
376
100
AcDbEntity
  8
Layer_1
 62
3
100
AcDbSpline
 70
8
 71
3
 72
8
 73
4
 74
0
 40
0
 40
0
 40
0
 40
0
 40
1
 40
1
 40
1
 40
1
 10
126.908663
 20
548.375556
 30
0.0
 10
125.934299
 20
547.031735
 30
0.0
 10
124.984273
 20
545.728535
 30
0.0
 10
124.502686
 20
544.473921
 30
0.0
  0
SPLINE
  5
377
100
AcDbEntity
  8
Layer_1
 62
3
100
AcDbSpline
 70
8
 71
3
 72
8
 73
4
 74
0
 40
0
 40
0
 40
0
 40
0
 40
1
 40
1
 40
1
 40
1
 10
124.502686
 20
544.473921
 30
0.0
 10
123.901081
 20
542.906674
 30
0.0
 10
123.904363
 20
541.494510
 30
0.0
 10
125.443140
 20
539.728328
 30
0.0
  0
LWPOLYLINE
  5
378
100
AcDbEntity
  8
Layer_1
 62
3
100
AcDbPolyline
 90
1
 70
1
 10
143.680425
 20
549.734400
 30
0.0
  0
SPLINE
  5
379
100
AcDbEntity
  8
Layer_1
 62
3
100
AcDbSpline
 70
8
 71
3
 72
8
 73
4
 74
0
 40
0
 40
0
 40
0
 40
0
 40
1
 40
1
 40
1
 40
1
 10
125.621014
 20
539.436076
 30
0.0
 10
125.918113
 20
538.913622
 30
0.0
 10
126.204891
 20
538.696091
 30
0.0
 10
126.465661
 20
538.622589
 30
0.0
  0
SPLINE
  5
37a
100
AcDbEntity
  8
Layer_1
 62
3
100
AcDbSpline
 70
8
 71
3
 72
8
 73
4
 74
0
 40
0
 40
0
 40
0
 40
0
 40
1
 40
1
 40
1
 40
1
 10
126.465661
 20
538.622589
 30
0.0
 10
126.695041
 20
538.557959
 30
0.0
 10
127.045633
 20
538.683534
 30
0.0
 10
127.425073
 20
538.856731
 30
0.0
  0
SPLINE
  5
37b
100
AcDbEntity
  8
Layer_1
 62
3
100
AcDbSpline
 70
8
 71
3
 72
8
 73
4
 74
0
 40
0
 40
0
 40
0
 40
0
 40
1
 40
1
 40
1
 40
1
 10
127.425073
 20
538.856731
 30
0.0
 10
128.423395
 20
542.474787
 30
0.0
 10
127.777714
 20
545.811676
 30
0.0
 10
126.908804
 20
548.375357
 30
0.0
  0
LWPOLYLINE
  5
37c
100
AcDbEntity
  8
Layer_1
 62
3
100
AcDbPolyline
 90
3
 70
0
 10
125.443140
 20
539.728328
 30
0.0
 10
125.628667
 20
539.516013
 30
0.0
 10
125.621014
 20
539.436076
 30
0.0
  0
SPLINE
  5
37d
100
AcDbEntity
  8
Layer_1
 62
3
100
AcDbSpline
 70
8
 71
3
 72
8
 73
4
 74
0
 40
0
 40
0
 40
0
 40
0
 40
1
 40
1
 40
1
 40
1
 10
142.975936
 20
547.929383
 30
0.0
 10
142.894525
 20
547.929383
 30
0.0
 10
142.803958
 20
547.892249
 30
0.0
 10
142.713561
 20
547.743430
 30
0.0
  0
SPLINE
  5
37e
100
AcDbEntity
  8
Layer_1
 62
3
100
AcDbSpline
 70
8
 71
3
 72
8
 73
4
 74
0
 40
0
 40
0
 40
0
 40
0
 40
1
 40
1
 40
1
 40
1
 10
142.713561
 20
547.743430
 30
0.0
 10
142.623164
 20
547.594611
 30
0.0
 10
142.567038
 20
547.345361
 30
0.0
 10
142.610295
 20
547.056198
 30
0.0
  0
SPLINE
  5
37f
100
AcDbEntity
  8
Layer_1
 62
3
100
AcDbSpline
 70
8
 71
3
 72
8
 73
4
 74
0
 40
0
 40
0
 40
0
 40
0
 40
1
 40
1
 40
1
 40
1
 10
142.610295
 20
547.056198
 30
0.0
 10
142.653609
 20
546.767036
 30
0.0
 10
142.784484
 20
546.516283
 30
0.0
 10
142.919379
 20
546.367606
 30
0.0
  0
SPLINE
  5
380
100
AcDbEntity
  8
Layer_1
 62
3
100
AcDbSpline
 70
8
 71
3
 72
8
 73
4
 74
0
 40
0
 40
0
 40
0
 40
0
 40
1
 40
1
 40
1
 40
1
 10
142.919379
 20
546.367606
 30
0.0
 10
143.054252
 20
546.219071
 30
0.0
 10
143.155874
 20
546.183071
 30
0.0
 10
143.237265
 20
546.183071
 30
0.0
  0
SPLINE
  5
381
100
AcDbEntity
  8
Layer_1
 62
3
100
AcDbSpline
 70
8
 71
3
 72
8
 73
4
 74
0
 40
0
 40
0
 40
0
 40
0
 40
1
 40
1
 40
1
 40
1
 10
143.237265
 20
546.183071
 30
0.0
 10
143.318676
 20
546.183071
 30
0.0
 10
143.408563
 20
546.218787
 30
0.0
 10
143.498959
 20
546.367606
 30
0.0
  0
SPLINE
  5
382
100
AcDbEntity
  8
Layer_1
 62
3
100
AcDbSpline
 70
8
 71
3
 72
8
 73
4
 74
0
 40
0
 40
0
 40
0
 40
0
 40
1
 40
1
 40
1
 40
1
 10
143.498959
 20
546.367606
 30
0.0
 10
143.589328
 20
546.516142
 30
0.0
 10
143.646503
 20
546.767036
 30
0.0
 10
143.603218
 20
547.056198
 30
0.0
  0
SPLINE
  5
383
100
AcDbEntity
  8
Layer_1
 62
3
100
AcDbSpline
 70
8
 71
3
 72
8
 73
4
 74
0
 40
0
 40
0
 40
0
 40
0
 40
1
 40
1
 40
1
 40
1
 10
143.603218
 20
547.056198
 30
0.0
 10
143.559904
 20
547.345361
 30
0.0
 10
143.428008
 20
547.594753
 30
0.0
 10
143.293119
 20
547.743430
 30
0.0
  0
SPLINE
  5
384
100
AcDbEntity
  8
Layer_1
 62
3
100
AcDbSpline
 70
8
 71
3
 72
8
 73
4
 74
0
 40
0
 40
0
 40
0
 40
0
 40
1
 40
1
 40
1
 40
1
 10
143.293119
 20
547.743430
 30
0.0
 10
143.158246
 20
547.891965
 30
0.0
 10
143.057333
 20
547.929383
 30
0.0
 10
142.975911
 20
547.929383
 30
0.0
  0
LWPOLYLINE
  5
385
100
AcDbEntity
  8
Layer_1
 62
3
100
AcDbPolyline
 90
2
 70
0
 10
126.908804
 20
548.375357
 30
0.0
 10
126.908663
 20
548.375556
 30
0.0
  0
SPLINE
  5
386
100
AcDbEntity
  8
Layer_1
 62
3
100
AcDbSpline
 70
8
 71
3
 72
8
 73
4
 74
0
 40
0
 40
0
 40
0
 40
0
 40
1
 40
1
 40
1
 40
1
 10
150.152905
 20
547.502485
 30
0.0
 10
151.699589
 20
547.502485
 30
0.0
 10
153.072780
 20
546.423392
 30
0.0
 10
153.072780
 20
544.953969
 30
0.0
  0
SPLINE
  5
387
100
AcDbEntity
  8
Layer_1
 62
3
100
AcDbSpline
 70
8
 71
3
 72
8
 73
4
 74
0
 40
0
 40
0
 40
0
 40
0
 40
1
 40
1
 40
1
 40
1
 10
153.072780
 20
544.953969
 30
0.0
 10
153.072780
 20
543.484573
 30
0.0
 10
151.699589
 20
542.403780
 30
0.0
 10
150.152905
 20
542.403780
 30
0.0
  0
SPLINE
  5
388
100
AcDbEntity
  8
Layer_1
 62
3
100
AcDbSpline
 70
8
 71
3
 72
8
 73
4
 74
0
 40
0
 40
0
 40
0
 40
0
 40
1
 40
1
 40
1
 40
1
 10
150.152905
 20
542.403780
 30
0.0
 10
148.606223
 20
542.403780
 30
0.0
 10
147.234385
 20
543.484573
 30
0.0
 10
147.234385
 20
544.953969
 30
0.0
  0
SPLINE
  5
389
100
AcDbEntity
  8
Layer_1
 62
3
100
AcDbSpline
 70
8
 71
3
 72
8
 73
4
 74
0
 40
0
 40
0
 40
0
 40
0
 40
1
 40
1
 40
1
 40
1
 10
147.234385
 20
544.953969
 30
0.0
 10
147.234385
 20
546.423392
 30
0.0
 10
148.606223
 20
547.502485
 30
0.0
 10
150.152905
 20
547.502485
 30
0.0
  0
LWPOLYLINE
  5
38a
100
AcDbEntity
  8
Layer_1
 62
3
100
AcDbPolyline
 90
1
 70
1
 10
142.975911
 20
547.929383
 30
0.0
  0
SPLINE
  5
38b
100
AcDbEntity
  8
Layer_1
 62
3
100
AcDbSpline
 70
8
 71
3
 72
8
 73
4
 74
0
 40
0
 40
0
 40
0
 40
0
 40
1
 40
1
 40
1
 40
1
 10
155.883308
 20
546.346715
 30
0.0
 10
154.936406
 20
542.805250
 30
0.0
 10
154.994950
 20
540.025398
 30
0.0
 10
155.697129
 20
537.717770
 30
0.0
  0
SPLINE
  5
38c
100
AcDbEntity
  8
Layer_1
 62
3
100
AcDbSpline
 70
8
 71
3
 72
8
 73
4
 74
0
 40
0
 40
0
 40
0
 40
0
 40
1
 40
1
 40
1
 40
1
 10
155.697129
 20
537.717770
 30
0.0
 10
156.583018
 20
538.614737
 30
0.0
 10
157.362180
 20
540.157521
 30
0.0
 10
157.548586
 20
541.746000
 30
0.0
  0
SPLINE
  5
38d
100
AcDbEntity
  8
Layer_1
 62
3
100
AcDbSpline
 70
8
 71
3
 72
8
 73
4
 74
0
 40
0
 40
0
 40
0
 40
0
 40
1
 40
1
 40
1
 40
1
 10
157.548586
 20
541.746000
 30
0.0
 10
157.750894
 20
543.469918
 30
0.0
 10
157.352683
 20
545.171641
 30
0.0
 10
155.883322
 20
546.346715
 30
0.0
  0
LWPOLYLINE
  5
38e
100
AcDbEntity
  8
Layer_1
 62
3
100
AcDbPolyline
 90
1
 70
1
 10
150.152905
 20
547.502485
 30
0.0
  0
SPLINE
  5
38f
100
AcDbEntity
  8
Layer_1
 62
3
100
AcDbSpline
 70
8
 71
3
 72
8
 73
4
 74
0
 40
0
 40
0
 40
0
 40
0
 40
1
 40
1
 40
1
 40
1
 10
150.152905
 20
546.192227
 30
0.0
 10
149.198706
 20
546.192227
 30
0.0
 10
148.544518
 20
545.577024
 30
0.0
 10
148.544518
 20
544.953855
 30
0.0
  0
SPLINE
  5
390
100
AcDbEntity
  8
Layer_1
 62
3
100
AcDbSpline
 70
8
 71
3
 72
8
 73
4
 74
0
 40
0
 40
0
 40
0
 40
0
 40
1
 40
1
 40
1
 40
1
 10
148.544518
 20
544.953855
 30
0.0
 10
148.544518
 20
544.330715
 30
0.0
 10
149.198706
 20
543.713811
 30
0.0
 10
150.152905
 20
543.713811
 30
0.0
  0
SPLINE
  5
391
100
AcDbEntity
  8
Layer_1
 62
3
100
AcDbSpline
 70
8
 71
3
 72
8
 73
4
 74
0
 40
0
 40
0
 40
0
 40
0
 40
1
 40
1
 40
1
 40
1
 10
150.152905
 20
543.713811
 30
0.0
 10
151.107106
 20
543.713811
 30
0.0
 10
151.762646
 20
544.330715
 30
0.0
 10
151.762646
 20
544.953855
 30
0.0
  0
SPLINE
  5
392
100
AcDbEntity
  8
Layer_1
 62
3
100
AcDbSpline
 70
8
 71
3
 72
8
 73
4
 74
0
 40
0
 40
0
 40
0
 40
0
 40
1
 40
1
 40
1
 40
1
 10
151.762646
 20
544.953855
 30
0.0
 10
151.762646
 20
545.577024
 30
0.0
 10
151.107106
 20
546.192227
 30
0.0
 10
150.152905
 20
546.192227
 30
0.0
  0
LWPOLYLINE
  5
393
100
AcDbEntity
  8
Layer_1
 62
3
100
AcDbPolyline
 90
1
 70
1
 10
155.883322
 20
546.346715
 30
0.0
  0
SPLINE
  5
394
100
AcDbEntity
  8
Layer_1
 62
3
100
AcDbSpline
 70
8
 71
3
 72
8
 73
4
 74
0
 40
0
 40
0
 40
0
 40
0
 40
1
 40
1
 40
1
 40
1
 10
134.180762
 20
541.855928
 30
0.0
 10
139.343587
 20
541.567757
 30
0.0
 10
145.318969
 20
539.465301
 30
0.0
 10
152.344590
 20
539.396787
 30
0.0
  0
LWPOLYLINE
  5
395
100
AcDbEntity
  8
Layer_1
 62
3
100
AcDbPolyline
 90
1
 70
1
 10
150.152905
 20
546.192227
 30
0.0
  0
SPLINE
  5
396
100
AcDbEntity
  8
Layer_1
 62
3
100
AcDbSpline
 70
8
 71
3
 72
8
 73
4
 74
0
 40
0
 40
0
 40
0
 40
0
 40
1
 40
1
 40
1
 40
1
 10
152.332118
 20
538.086643
 30
0.0
 10
145.055781
 20
538.157509
 30
0.0
 10
138.962778
 20
540.277540
 30
0.0
 10
134.108031
 20
540.548476
 30
0.0
  0
LWPOLYLINE
  5
397
100
AcDbEntity
  8
Layer_1
 62
3
100
AcDbPolyline
 90
2
 70
0
 10
152.344590
 20
539.396787
 30
0.0
 10
152.332118
 20
538.086643
 30
0.0
  0
SPLINE
  5
398
100
AcDbEntity
  8
Layer_1
 62
3
100
AcDbSpline
 70
8
 71
3
 72
8
 73
4
 74
0
 40
0
 40
0
 40
0
 40
0
 40
1
 40
1
 40
1
 40
1
 10
136.348410
 20
532.587118
 30
0.0
 10
132.179437
 20
532.543181
 30
0.0
 10
128.191388
 20
531.605282
 30
0.0
 10
124.424821
 20
528.809414
 30
0.0
  0
SPLINE
  5
399
100
AcDbEntity
  8
Layer_1
 62
3
100
AcDbSpline
 70
8
 71
3
 72
8
 73
4
 74
0
 40
0
 40
0
 40
0
 40
0
 40
1
 40
1
 40
1
 40
1
 10
124.424821
 20
528.809414
 30
0.0
 10
123.080888
 20
526.563780
 30
0.0
 10
121.462634
 20
525.533953
 30
0.0
 10
120.157234
 20
523.930082
 30
0.0
  0
SPLINE
  5
39a
100
AcDbEntity
  8
Layer_1
 62
3
100
AcDbSpline
 70
8
 71
3
 72
8
 73
4
 74
0
 40
0
 40
0
 40
0
 40
0
 40
1
 40
1
 40
1
 40
1
 10
120.157234
 20
523.930082
 30
0.0
 10
118.835657
 20
522.306340
 30
0.0
 10
117.687753
 20
520.030261
 30
0.0
 10
117.174050
 20
515.020819
 30
0.0
  0
SPLINE
  5
39b
100
AcDbEntity
  8
Layer_1
 62
3
100
AcDbSpline
 70
8
 71
3
 72
8
 73
4
 74
0
 40
0
 40
0
 40
0
 40
0
 40
1
 40
1
 40
1
 40
1
 10
117.174050
 20
515.020819
 30
0.0
 10
118.229930
 20
508.931632
 30
0.0
 10
117.395748
 20
498.818835
 30
0.0
 10
116.307737
 20
490.044954
 30
0.0
  0
SPLINE
  5
39c
100
AcDbEntity
  8
Layer_1
 62
3
100
AcDbSpline
 70
8
 71
3
 72
8
 73
4
 74
0
 40
0
 40
0
 40
0
 40
0
 40
1
 40
1
 40
1
 40
1
 10
116.307737
 20
490.044954
 30
0.0
 10
116.180688
 20
487.163537
 30
0.0
 10
116.071639
 20
484.308765
 30
0.0
 10
116.289595
 20
481.417370
 30
0.0
  0
SPLINE
  5
39d
100
AcDbEntity
  8
Layer_1
 62
3
100
AcDbSpline
 70
8
 71
3
 72
8
 73
4
 74
0
 40
0
 40
0
 40
0
 40
0
 40
1
 40
1
 40
1
 40
1
 10
116.289595
 20
481.417370
 30
0.0
 10
125.819966
 20
481.186630
 30
0.0
 10
135.765595
 20
481.569874
 30
0.0
 10
144.754744
 20
480.227414
 30
0.0
  0
SPLINE
  5
39e
100
AcDbEntity
  8
Layer_1
 62
3
100
AcDbSpline
 70
8
 71
3
 72
8
 73
4
 74
0
 40
0
 40
0
 40
0
 40
0
 40
1
 40
1
 40
1
 40
1
 10
144.754744
 20
480.227414
 30
0.0
 10
157.282994
 20
480.575112
 30
0.0
 10
170.305155
 20
483.095112
 30
0.0
 10
183.171844
 20
484.597247
 30
0.0
  0
SPLINE
  5
39f
100
AcDbEntity
  8
Layer_1
 62
3
100
AcDbSpline
 70
8
 71
3
 72
8
 73
4
 74
0
 40
0
 40
0
 40
0
 40
0
 40
1
 40
1
 40
1
 40
1
 10
183.171844
 20
484.597247
 30
0.0
 10
182.933875
 20
486.757417
 30
0.0
 10
182.443686
 20
488.985222
 30
0.0
 10
181.807543
 20
491.255235
 30
0.0
  0
SPLINE
  5
3a0
100
AcDbEntity
  8
Layer_1
 62
3
100
AcDbSpline
 70
8
 71
3
 72
8
 73
4
 74
0
 40
0
 40
0
 40
0
 40
0
 40
1
 40
1
 40
1
 40
1
 10
181.807543
 20
491.255235
 30
0.0
 10
179.229864
 20
498.887235
 30
0.0
 10
178.417114
 20
507.006113
 30
0.0
 10
174.217898
 20
513.715436
 30
0.0
  0
LWPOLYLINE
  5
3a1
100
AcDbEntity
  8
Layer_1
 62
3
100
AcDbPolyline
 90
2
 70
0
 10
134.108031
 20
540.548476
 30
0.0
 10
134.180762
 20
541.855928
 30
0.0
  0
SPLINE
  5
3a2
100
AcDbEntity
  8
Layer_1
 62
3
100
AcDbSpline
 70
8
 71
3
 72
8
 73
4
 74
0
 40
0
 40
0
 40
0
 40
0
 40
1
 40
1
 40
1
 40
1
 10
174.099013
 20
513.910460
 30
0.0
 10
172.050644
 20
517.476501
 30
0.0
 10
170.272902
 20
521.131748
 30
0.0
 10
167.584895
 20
524.062148
 30
0.0
  0
SPLINE
  5
3a3
100
AcDbEntity
  8
Layer_1
 62
3
100
AcDbSpline
 70
8
 71
3
 72
8
 73
4
 74
0
 40
0
 40
0
 40
0
 40
0
 40
1
 40
1
 40
1
 40
1
 10
167.584895
 20
524.062148
 30
0.0
 10
164.896892
 20
526.992548
 30
0.0
 10
161.322755
 20
529.236964
 30
0.0
 10
155.503891
 20
530.028510
 30
0.0
  0
LWPOLYLINE
  5
3a4
100
AcDbEntity
  8
Layer_1
 62
3
100
AcDbPolyline
 90
3
 70
0
 10
174.217898
 20
513.715436
 30
0.0
 10
174.207694
 20
513.721106
 30
0.0
 10
174.099013
 20
513.910460
 30
0.0
  0
SPLINE
  5
3a5
100
AcDbEntity
  8
Layer_1
 62
3
100
AcDbSpline
 70
8
 71
3
 72
8
 73
4
 74
0
 40
0
 40
0
 40
0
 40
0
 40
1
 40
1
 40
1
 40
1
 10
155.467664
 20
530.034180
 30
0.0
 10
150.029167
 20
530.645187
 30
0.0
 10
144.549244
 20
532.092217
 30
0.0
 10
139.288674
 20
532.486885
 30
0.0
  0
SPLINE
  5
3a6
100
AcDbEntity
  8
Layer_1
 62
3
100
AcDbSpline
 70
8
 71
3
 72
8
 73
4
 74
0
 40
0
 40
0
 40
0
 40
0
 40
1
 40
1
 40
1
 40
1
 10
139.288674
 20
532.486885
 30
0.0
 10
138.299125
 20
532.561153
 30
0.0
 10
137.318956
 20
532.599420
 30
0.0
 10
136.348486
 20
532.589216
 30
0.0
  0
LWPOLYLINE
  5
3a7
100
AcDbEntity
  8
Layer_1
 62
3
100
AcDbPolyline
 90
2
 70
0
 10
155.503891
 20
530.028510
 30
0.0
 10
155.467664
 20
530.034180
 30
0.0
  0
SPLINE
  5
3a8
100
AcDbEntity
  8
Layer_1
 62
3
100
AcDbSpline
 70
8
 71
3
 72
8
 73
4
 74
0
 40
0
 40
0
 40
0
 40
0
 40
1
 40
1
 40
1
 40
1
 10
136.768195
 20
515.626129
 30
0.0
 10
138.555865
 20
515.617625
 30
0.0
 10
139.896479
 20
515.011153
 30
0.0
 10
140.734488
 20
514.091877
 30
0.0
  0
SPLINE
  5
3a9
100
AcDbEntity
  8
Layer_1
 62
3
100
AcDbSpline
 70
8
 71
3
 72
8
 73
4
 74
0
 40
0
 40
0
 40
0
 40
0
 40
1
 40
1
 40
1
 40
1
 10
140.734488
 20
514.091877
 30
0.0
 10
141.628363
 20
513.111317
 30
0.0
 10
141.933044
 20
511.823650
 30
0.0
 10
141.746372
 20
510.664195
 30
0.0
  0
SPLINE
  5
3aa
100
AcDbEntity
  8
Layer_1
 62
3
100
AcDbSpline
 70
8
 71
3
 72
8
 73
4
 74
0
 40
0
 40
0
 40
0
 40
0
 40
1
 40
1
 40
1
 40
1
 10
141.746372
 20
510.664195
 30
0.0
 10
141.559710
 20
509.504740
 30
0.0
 10
140.866390
 20
508.428510
 30
0.0
 10
139.731403
 20
507.949143
 30
0.0
  0
SPLINE
  5
3ab
100
AcDbEntity
  8
Layer_1
 62
3
100
AcDbSpline
 70
8
 71
3
 72
8
 73
4
 74
0
 40
0
 40
0
 40
0
 40
0
 40
1
 40
1
 40
1
 40
1
 10
139.731403
 20
507.949143
 30
0.0
 10
138.596409
 20
507.469748
 30
0.0
 10
137.113586
 20
507.647991
 30
0.0
 10
135.517980
 20
508.686123
 30
0.0
  0
LWPOLYLINE
  5
3ac
100
AcDbEntity
  8
Layer_1
 62
3
100
AcDbPolyline
 90
2
 70
0
 10
136.348486
 20
532.589216
 30
0.0
 10
136.348410
 20
532.587118
 30
0.0
  0
SPLINE
  5
3ad
100
AcDbEntity
  8
Layer_1
 62
3
100
AcDbSpline
 70
8
 71
3
 72
8
 73
4
 74
0
 40
0
 40
0
 40
0
 40
0
 40
1
 40
1
 40
1
 40
1
 10
135.229867
 20
509.123509
 30
0.0
 10
134.956551
 20
510.710145
 30
0.0
 10
134.610389
 20
512.540617
 30
0.0
 10
135.832802
 20
515.235798
 30
0.0
  0
LWPOLYLINE
  5
3ae
100
AcDbEntity
  8
Layer_1
 62
3
100
AcDbPolyline
 90
3
 70
0
 10
135.517980
 20
508.686123
 30
0.0
 10
135.278623
 20
508.842312
 30
0.0
 10
135.229867
 20
509.123509
 30
0.0
  0
SPLINE
  5
3af
100
AcDbEntity
  8
Layer_1
 62
3
100
AcDbSpline
 70
8
 71
3
 72
8
 73
4
 74
0
 40
0
 40
0
 40
0
 40
0
 40
1
 40
1
 40
1
 40
1
 10
136.404598
 20
515.618617
 30
0.0
 10
136.527735
 20
515.624287
 30
0.0
 10
136.649001
 20
515.624287
 30
0.0
 10
136.768187
 20
515.624287
 30
0.0
  0
LWPOLYLINE
  5
3b0
100
AcDbEntity
  8
Layer_1
 62
3
100
AcDbPolyline
 90
3
 70
0
 10
135.832802
 20
515.235798
 30
0.0
 10
136.000386
 20
515.604444
 30
0.0
 10
136.404598
 20
515.618617
 30
0.0
  0
SPLINE
  5
3b1
100
AcDbEntity
  8
Layer_1
 62
3
100
AcDbSpline
 70
8
 71
3
 72
8
 73
4
 74
0
 40
0
 40
0
 40
0
 40
0
 40
1
 40
1
 40
1
 40
1
 10
161.413299
 20
515.214794
 30
0.0
 10
163.441726
 20
515.214794
 30
0.0
 10
165.036903
 20
513.247833
 30
0.0
 10
165.142956
 20
510.991909
 30
0.0
  0
SPLINE
  5
3b2
100
AcDbEntity
  8
Layer_1
 62
3
100
AcDbSpline
 70
8
 71
3
 72
8
 73
4
 74
0
 40
0
 40
0
 40
0
 40
0
 40
1
 40
1
 40
1
 40
1
 10
165.142956
 20
510.991909
 30
0.0
 10
165.249000
 20
508.735956
 30
0.0
 10
163.838832
 20
506.767975
 30
0.0
 10
161.810405
 20
506.767975
 30
0.0
  0
SPLINE
  5
3b3
100
AcDbEntity
  8
Layer_1
 62
3
100
AcDbSpline
 70
8
 71
3
 72
8
 73
4
 74
0
 40
0
 40
0
 40
0
 40
0
 40
1
 40
1
 40
1
 40
1
 10
161.810405
 20
506.767975
 30
0.0
 10
159.781975
 20
506.767975
 30
0.0
 10
158.186123
 20
508.735956
 30
0.0
 10
158.080071
 20
510.991909
 30
0.0
  0
SPLINE
  5
3b4
100
AcDbEntity
  8
Layer_1
 62
3
100
AcDbSpline
 70
8
 71
3
 72
8
 73
4
 74
0
 40
0
 40
0
 40
0
 40
0
 40
1
 40
1
 40
1
 40
1
 10
158.080071
 20
510.991909
 30
0.0
 10
157.974026
 20
513.247833
 30
0.0
 10
159.384872
 20
515.214794
 30
0.0
 10
161.413299
 20
515.214794
 30
0.0
  0
LWPOLYLINE
  5
3b5
100
AcDbEntity
  8
Layer_1
 62
3
100
AcDbPolyline
 90
2
 70
0
 10
136.768187
 20
515.624287
 30
0.0
 10
136.768195
 20
515.626129
 30
0.0
  0
SPLINE
  5
3b6
100
AcDbEntity
  8
Layer_1
 62
3
100
AcDbSpline
 70
8
 71
3
 72
8
 73
4
 74
0
 40
0
 40
0
 40
0
 40
0
 40
1
 40
1
 40
1
 40
1
 10
150.105509
 20
515.150164
 30
0.0
 10
151.136946
 20
515.105093
 30
0.0
 10
152.120616
 20
514.707959
 30
0.0
 10
152.911638
 20
514.099701
 30
0.0
  0
SPLINE
  5
3b7
100
AcDbEntity
  8
Layer_1
 62
3
100
AcDbSpline
 70
8
 71
3
 72
8
 73
4
 74
0
 40
0
 40
0
 40
0
 40
0
 40
1
 40
1
 40
1
 40
1
 10
152.911638
 20
514.099701
 30
0.0
 10
154.493683
 20
512.883184
 30
0.0
 10
155.504395
 20
510.856271
 30
0.0
 10
154.989573
 20
508.970183
 30
0.0
  0
LWPOLYLINE
  5
3b8
100
AcDbEntity
  8
Layer_1
 62
3
100
AcDbPolyline
 90
1
 70
1
 10
161.413299
 20
515.214794
 30
0.0
  0
SPLINE
  5
3b9
100
AcDbEntity
  8
Layer_1
 62
3
100
AcDbSpline
 70
8
 71
3
 72
8
 73
4
 74
0
 40
0
 40
0
 40
0
 40
0
 40
1
 40
1
 40
1
 40
1
 10
154.939541
 20
508.842340
 30
0.0
 10
154.654132
 20
508.289953
 30
0.0
 10
154.138073
 20
507.982904
 30
0.0
 10
153.588444
 20
507.762397
 30
0.0
  0
SPLINE
  5
3ba
100
AcDbEntity
  8
Layer_1
 62
3
100
AcDbSpline
 70
8
 71
3
 72
8
 73
4
 74
0
 40
0
 40
0
 40
0
 40
0
 40
1
 40
1
 40
1
 40
1
 10
153.588444
 20
507.762397
 30
0.0
 10
153.038812
 20
507.541861
 30
0.0
 10
152.419734
 20
507.408321
 30
0.0
 10
151.799618
 20
507.319597
 30
0.0
  0
SPLINE
  5
3bb
100
AcDbEntity
  8
Layer_1
 62
3
100
AcDbSpline
 70
8
 71
3
 72
8
 73
4
 74
0
 40
0
 40
0
 40
0
 40
0
 40
1
 40
1
 40
1
 40
1
 10
151.799618
 20
507.319597
 30
0.0
 10
150.559379
 20
507.142148
 30
0.0
 10
149.341745
 20
507.148951
 30
0.0
 10
148.759560
 20
507.196573
 30
0.0
  0
LWPOLYLINE
  5
3bc
100
AcDbEntity
  8
Layer_1
 62
3
100
AcDbPolyline
 90
3
 70
0
 10
154.989573
 20
508.970183
 30
0.0
 10
154.971714
 20
508.903569
 30
0.0
 10
154.939541
 20
508.842340
 30
0.0
  0
SPLINE
  5
3bd
100
AcDbEntity
  8
Layer_1
 62
3
100
AcDbSpline
 70
8
 71
3
 72
8
 73
4
 74
0
 40
0
 40
0
 40
0
 40
0
 40
1
 40
1
 40
1
 40
1
 10
148.469094
 20
507.292668
 30
0.0
 10
147.411082
 20
507.944381
 30
0.0
 10
146.640591
 20
509.192901
 30
0.0
 10
146.263190
 20
510.491480
 30
0.0
  0
SPLINE
  5
3be
100
AcDbEntity
  8
Layer_1
 62
3
100
AcDbSpline
 70
8
 71
3
 72
8
 73
4
 74
0
 40
0
 40
0
 40
0
 40
0
 40
1
 40
1
 40
1
 40
1
 10
146.263190
 20
510.491480
 30
0.0
 10
146.074487
 20
511.140784
 30
0.0
 10
145.990865
 20
511.808173
 30
0.0
 10
146.085457
 20
512.445175
 30
0.0
  0
SPLINE
  5
3bf
100
AcDbEntity
  8
Layer_1
 62
3
100
AcDbSpline
 70
8
 71
3
 72
8
 73
4
 74
0
 40
0
 40
0
 40
0
 40
0
 40
1
 40
1
 40
1
 40
1
 10
146.085457
 20
512.445175
 30
0.0
 10
146.179142
 20
513.076110
 30
0.0
 10
146.478557
 20
513.695962
 30
0.0
 10
147.033697
 20
514.099616
 30
0.0
  0
SPLINE
  5
3c0
100
AcDbEntity
  8
Layer_1
 62
3
100
AcDbSpline
 70
8
 71
3
 72
8
 73
4
 74
0
 40
0
 40
0
 40
0
 40
0
 40
1
 40
1
 40
1
 40
1
 10
147.033697
 20
514.099616
 30
0.0
 10
148.010581
 20
514.888923
 30
0.0
 10
149.081071
 20
515.196085
 30
0.0
 10
150.105574
 20
515.151439
 30
0.0
  0
LWPOLYLINE
  5
3c1
100
AcDbEntity
  8
Layer_1
 62
3
100
AcDbPolyline
 90
3
 70
0
 10
148.759560
 20
507.196573
 30
0.0
 10
148.603484
 20
507.210746
 30
0.0
 10
148.469094
 20
507.292668
 30
0.0
  0
SPLINE
  5
3c2
100
AcDbEntity
  8
Layer_1
 62
3
100
AcDbSpline
 70
8
 71
3
 72
8
 73
4
 74
0
 40
0
 40
0
 40
0
 40
0
 40
1
 40
1
 40
1
 40
1
 10
136.869080
 20
514.254387
 30
0.0
 10
136.078770
 20
512.286066
 30
0.0
 10
136.244900
 20
511.041940
 30
0.0
 10
136.483824
 20
509.677739
 30
0.0
  0
SPLINE
  5
3c3
100
AcDbEntity
  8
Layer_1
 62
3
100
AcDbSpline
 70
8
 71
3
 72
8
 73
4
 74
0
 40
0
 40
0
 40
0
 40
0
 40
1
 40
1
 40
1
 40
1
 10
136.483824
 20
509.677739
 30
0.0
 10
137.689444
 20
508.971572
 30
0.0
 10
138.606437
 20
508.896198
 30
0.0
 10
139.220889
 20
509.155710
 30
0.0
  0
SPLINE
  5
3c4
100
AcDbEntity
  8
Layer_1
 62
3
100
AcDbSpline
 70
8
 71
3
 72
8
 73
4
 74
0
 40
0
 40
0
 40
0
 40
0
 40
1
 40
1
 40
1
 40
1
 10
139.220889
 20
509.155710
 30
0.0
 10
139.882881
 20
509.435206
 30
0.0
 10
140.325942
 20
510.084680
 30
0.0
 10
140.452824
 20
510.872769
 30
0.0
  0
SPLINE
  5
3c5
100
AcDbEntity
  8
Layer_1
 62
3
100
AcDbSpline
 70
8
 71
3
 72
8
 73
4
 74
0
 40
0
 40
0
 40
0
 40
0
 40
1
 40
1
 40
1
 40
1
 10
140.452824
 20
510.872769
 30
0.0
 10
140.579702
 20
511.660857
 30
0.0
 10
140.374984
 20
512.542346
 30
0.0
 10
139.767287
 20
513.208998
 30
0.0
  0
SPLINE
  5
3c6
100
AcDbEntity
  8
Layer_1
 62
3
100
AcDbSpline
 70
8
 71
3
 72
8
 73
4
 74
0
 40
0
 40
0
 40
0
 40
0
 40
1
 40
1
 40
1
 40
1
 10
139.767287
 20
513.208998
 30
0.0
 10
139.220810
 20
513.808469
 30
0.0
 10
138.262093
 20
514.214277
 30
0.0
 10
136.869080
 20
514.254387
 30
0.0
  0
LWPOLYLINE
  5
3c7
100
AcDbEntity
  8
Layer_1
 62
3
100
AcDbPolyline
 90
2
 70
0
 10
150.105574
 20
515.151439
 30
0.0
 10
150.105509
 20
515.150164
 30
0.0
  0
SPLINE
  5
3c8
100
AcDbEntity
  8
Layer_1
 62
3
100
AcDbSpline
 70
8
 71
3
 72
8
 73
4
 74
0
 40
0
 40
0
 40
0
 40
0
 40
1
 40
1
 40
1
 40
1
 10
116.010164
 20
513.959187
 30
0.0
 10
113.255782
 20
512.187420
 30
0.0
 10
111.170996
 20
508.776746
 30
0.0
 10
109.574589
 20
504.782504
 30
0.0
  0
SPLINE
  5
3c9
100
AcDbEntity
  8
Layer_1
 62
3
100
AcDbSpline
 70
8
 71
3
 72
8
 73
4
 74
0
 40
0
 40
0
 40
0
 40
0
 40
1
 40
1
 40
1
 40
1
 10
109.574589
 20
504.782504
 30
0.0
 10
108.750600
 20
502.720866
 30
0.0
 10
108.059533
 20
500.523024
 30
0.0
 10
107.456029
 20
498.339468
 30
0.0
  0
SPLINE
  5
3ca
100
AcDbEntity
  8
Layer_1
 62
3
100
AcDbSpline
 70
8
 71
3
 72
8
 73
4
 74
0
 40
0
 40
0
 40
0
 40
0
 40
1
 40
1
 40
1
 40
1
 10
107.456029
 20
498.339468
 30
0.0
 10
108.154755
 20
498.412602
 30
0.0
 10
108.822246
 20
498.445767
 30
0.0
 10
109.467272
 20
498.445200
 30
0.0
  0
SPLINE
  5
3cb
100
AcDbEntity
  8
Layer_1
 62
3
100
AcDbSpline
 70
8
 71
3
 72
8
 73
4
 74
0
 40
0
 40
0
 40
0
 40
0
 40
1
 40
1
 40
1
 40
1
 10
109.467272
 20
498.445200
 30
0.0
 10
111.703303
 20
498.442365
 30
0.0
 10
113.675406
 20
498.036954
 30
0.0
 10
115.793501
 20
497.529128
 30
0.0
  0
SPLINE
  5
3cc
100
AcDbEntity
  8
Layer_1
 62
3
100
AcDbSpline
 70
8
 71
3
 72
8
 73
4
 74
0
 40
0
 40
0
 40
0
 40
0
 40
1
 40
1
 40
1
 40
1
 10
115.793501
 20
497.529128
 30
0.0
 10
116.345421
 20
503.700803
 30
0.0
 10
116.573502
 20
509.788375
 30
0.0
 10
116.010153
 20
513.959301
 30
0.0
  0
LWPOLYLINE
  5
3cd
100
AcDbEntity
  8
Layer_1
 62
3
100
AcDbPolyline
 90
1
 70
1
 10
136.869080
 20
514.254387
 30
0.0
  0
SPLINE
  5
3ce
100
AcDbEntity
  8
Layer_1
 62
3
100
AcDbSpline
 70
8
 71
3
 72
8
 73
4
 74
0
 40
0
 40
0
 40
0
 40
0
 40
1
 40
1
 40
1
 40
1
 10
161.474576
 20
513.906180
 30
0.0
 10
160.326349
 20
513.906180
 30
0.0
 10
159.312288
 20
512.678353
 30
0.0
 10
159.391562
 20
510.992079
 30
0.0
  0
SPLINE
  5
3cf
100
AcDbEntity
  8
Layer_1
 62
3
100
AcDbSpline
 70
8
 71
3
 72
8
 73
4
 74
0
 40
0
 40
0
 40
0
 40
0
 40
1
 40
1
 40
1
 40
1
 10
159.391562
 20
510.992079
 30
0.0
 10
159.470847
 20
509.305776
 30
0.0
 10
160.600561
 20
508.076929
 30
0.0
 10
161.748791
 20
508.076929
 30
0.0
  0
SPLINE
  5
3d0
100
AcDbEntity
  8
Layer_1
 62
3
100
AcDbSpline
 70
8
 71
3
 72
8
 73
4
 74
0
 40
0
 40
0
 40
0
 40
0
 40
1
 40
1
 40
1
 40
1
 10
161.748791
 20
508.076929
 30
0.0
 10
162.897018
 20
508.076929
 30
0.0
 10
163.912090
 20
509.305776
 30
0.0
 10
163.832820
 20
510.992079
 30
0.0
  0
SPLINE
  5
3d1
100
AcDbEntity
  8
Layer_1
 62
3
100
AcDbSpline
 70
8
 71
3
 72
8
 73
4
 74
0
 40
0
 40
0
 40
0
 40
0
 40
1
 40
1
 40
1
 40
1
 10
163.832820
 20
510.992079
 30
0.0
 10
163.753534
 20
512.678353
 30
0.0
 10
162.622803
 20
513.906180
 30
0.0
 10
161.474576
 20
513.906180
 30
0.0
  0
LWPOLYLINE
  5
3d2
100
AcDbEntity
  8
Layer_1
 62
3
100
AcDbPolyline
 90
2
 70
0
 10
116.010153
 20
513.959301
 30
0.0
 10
116.010164
 20
513.959187
 30
0.0
  0
SPLINE
  5
3d3
100
AcDbEntity
  8
Layer_1
 62
3
100
AcDbSpline
 70
8
 71
3
 72
8
 73
4
 74
0
 40
0
 40
0
 40
0
 40
0
 40
1
 40
1
 40
1
 40
1
 10
149.812676
 20
513.883502
 30
0.0
 10
149.170252
 20
513.857991
 30
0.0
 10
148.503492
 20
513.611093
 30
0.0
 10
147.840701
 20
513.070328
 30
0.0
  0
LWPOLYLINE
  5
3d4
100
AcDbEntity
  8
Layer_1
 62
3
100
AcDbPolyline
 90
1
 70
1
 10
161.474576
 20
513.906180
 30
0.0
  0
SPLINE
  5
3d5
100
AcDbEntity
  8
Layer_1
 62
3
100
AcDbSpline
 70
8
 71
3
 72
8
 73
4
 74
0
 40
0
 40
0
 40
0
 40
0
 40
1
 40
1
 40
1
 40
1
 10
147.807252
 20
513.044816
 30
0.0
 10
147.572827
 20
512.877572
 30
0.0
 10
147.438281
 20
512.633480
 30
0.0
 10
147.381372
 20
512.250265
 30
0.0
  0
SPLINE
  5
3d6
100
AcDbEntity
  8
Layer_1
 62
3
100
AcDbSpline
 70
8
 71
3
 72
8
 73
4
 74
0
 40
0
 40
0
 40
0
 40
0
 40
1
 40
1
 40
1
 40
1
 10
147.381372
 20
512.250265
 30
0.0
 10
147.324453
 20
511.867049
 30
0.0
 10
147.373152
 20
511.367187
 30
0.0
 10
147.521857
 20
510.855506
 30
0.0
  0
SPLINE
  5
3d7
100
AcDbEntity
  8
Layer_1
 62
3
100
AcDbSpline
 70
8
 71
3
 72
8
 73
4
 74
0
 40
0
 40
0
 40
0
 40
0
 40
1
 40
1
 40
1
 40
1
 10
147.521857
 20
510.855506
 30
0.0
 10
147.803706
 20
509.885660
 30
0.0
 10
148.465341
 20
508.932198
 30
0.0
 10
149.057461
 20
508.508759
 30
0.0
  0
SPLINE
  5
3d8
100
AcDbEntity
  8
Layer_1
 62
3
100
AcDbSpline
 70
8
 71
3
 72
8
 73
4
 74
0
 40
0
 40
0
 40
0
 40
0
 40
1
 40
1
 40
1
 40
1
 10
149.057461
 20
508.508759
 30
0.0
 10
149.550786
 20
508.480413
 30
0.0
 10
150.581551
 20
508.468791
 30
0.0
 10
151.613748
 20
508.616476
 30
0.0
  0
SPLINE
  5
3d9
100
AcDbEntity
  8
Layer_1
 62
3
100
AcDbSpline
 70
8
 71
3
 72
8
 73
4
 74
0
 40
0
 40
0
 40
0
 40
0
 40
1
 40
1
 40
1
 40
1
 10
151.613748
 20
508.616476
 30
0.0
 10
152.168329
 20
508.695846
 30
0.0
 10
152.703768
 20
508.818302
 30
0.0
 10
153.100599
 20
508.977354
 30
0.0
  0
SPLINE
  5
3da
100
AcDbEntity
  8
Layer_1
 62
3
100
AcDbSpline
 70
8
 71
3
 72
8
 73
4
 74
0
 40
0
 40
0
 40
0
 40
0
 40
1
 40
1
 40
1
 40
1
 10
153.100599
 20
508.977354
 30
0.0
 10
153.471645
 20
509.126173
 30
0.0
 10
153.657975
 20
509.299342
 30
0.0
 10
153.731290
 20
509.412359
 30
0.0
  0
SPLINE
  5
3db
100
AcDbEntity
  8
Layer_1
 62
3
100
AcDbSpline
 70
8
 71
3
 72
8
 73
4
 74
0
 40
0
 40
0
 40
0
 40
0
 40
1
 40
1
 40
1
 40
1
 10
153.731290
 20
509.412359
 30
0.0
 10
153.997662
 20
510.595852
 30
0.0
 10
153.305442
 20
512.142973
 30
0.0
 10
152.112750
 20
513.060094
 30
0.0
  0
SPLINE
  5
3dc
100
AcDbEntity
  8
Layer_1
 62
3
100
AcDbSpline
 70
8
 71
3
 72
8
 73
4
 74
0
 40
0
 40
0
 40
0
 40
0
 40
1
 40
1
 40
1
 40
1
 10
152.112750
 20
513.060094
 30
0.0
 10
151.500855
 20
513.530617
 30
0.0
 10
150.811605
 20
513.842315
 30
0.0
 10
150.085933
 20
513.881717
 30
0.0
  0
SPLINE
  5
3dd
100
AcDbEntity
  8
Layer_1
 62
3
100
AcDbSpline
 70
8
 71
3
 72
8
 73
4
 74
0
 40
0
 40
0
 40
0
 40
0
 40
1
 40
1
 40
1
 40
1
 10
150.085933
 20
513.881717
 30
0.0
 10
149.995225
 20
513.887386
 30
0.0
 10
149.904176
 20
513.887386
 30
0.0
 10
149.812390
 20
513.883417
 30
0.0
  0
LWPOLYLINE
  5
3de
100
AcDbEntity
  8
Layer_1
 62
3
100
AcDbPolyline
 90
3
 70
0
 10
147.840701
 20
513.070328
 30
0.0
 10
147.823977
 20
513.056154
 30
0.0
 10
147.807252
 20
513.044816
 30
0.0
  0
SPLINE
  5
3df
100
AcDbEntity
  8
Layer_1
 62
3
100
AcDbSpline
 70
8
 71
3
 72
8
 73
4
 74
0
 40
0
 40
0
 40
0
 40
0
 40
1
 40
1
 40
1
 40
1
 10
176.304835
 20
512.727392
 30
0.0
 10
178.274123
 20
509.056980
 30
0.0
 10
179.418277
 20
505.114639
 30
0.0
 10
180.437012
 20
501.166063
 30
0.0
  0
SPLINE
  5
3e0
100
AcDbEntity
  8
Layer_1
 62
3
100
AcDbSpline
 70
8
 71
3
 72
8
 73
4
 74
0
 40
0
 40
0
 40
0
 40
0
 40
1
 40
1
 40
1
 40
1
 10
180.437012
 20
501.166063
 30
0.0
 10
182.002110
 20
501.692088
 30
0.0
 10
183.269883
 20
501.773131
 30
0.0
 10
184.413118
 20
501.670120
 30
0.0
  0
SPLINE
  5
3e1
100
AcDbEntity
  8
Layer_1
 62
3
100
AcDbSpline
 70
8
 71
3
 72
8
 73
4
 74
0
 40
0
 40
0
 40
0
 40
0
 40
1
 40
1
 40
1
 40
1
 10
184.413118
 20
501.670120
 30
0.0
 10
185.287090
 20
501.591317
 30
0.0
 10
186.089352
 20
501.405647
 30
0.0
 10
186.898652
 20
501.230041
 30
0.0
  0
SPLINE
  5
3e2
100
AcDbEntity
  8
Layer_1
 62
3
100
AcDbSpline
 70
8
 71
3
 72
8
 73
4
 74
0
 40
0
 40
0
 40
0
 40
0
 40
1
 40
1
 40
1
 40
1
 10
186.898652
 20
501.230041
 30
0.0
 10
184.784417
 20
505.698293
 30
0.0
 10
181.738463
 20
509.857682
 30
0.0
 10
176.304835
 20
512.727392
 30
0.0
  0
LWPOLYLINE
  5
3e3
100
AcDbEntity
  8
Layer_1
 62
3
100
AcDbPolyline
 90
2
 70
0
 10
149.812390
 20
513.883417
 30
0.0
 10
149.812676
 20
513.883502
 30
0.0
  0
LWPOLYLINE
  5
3e4
100
AcDbEntity
  8
Layer_1
 62
3
100
AcDbPolyline
 90
1
 70
1
 10
176.304835
 20
512.727392
 30
0.0
  0
SPLINE
  5
3e5
100
AcDbEntity
  8
Layer_1
 62
3
100
AcDbSpline
 70
8
 71
3
 72
8
 73
4
 74
0
 40
0
 40
0
 40
0
 40
0
 40
1
 40
1
 40
1
 40
1
 10
134.311436
 20
504.160838
 30
0.0
 10
146.119694
 20
504.027043
 30
0.0
 10
157.697583
 20
503.480891
 30
0.0
 10
169.682049
 20
503.791143
 30
0.0
  0
LWPOLYLINE
  5
3e6
100
AcDbEntity
  8
Layer_1
 62
3
100
AcDbPolyline
 90
2
 70
0
 10
133.745743
 20
504.166507
 30
0.0
 10
134.311436
 20
504.160838
 30
0.0
  0
SPLINE
  5
3e7
100
AcDbEntity
  8
Layer_1
 62
3
100
AcDbSpline
 70
8
 71
3
 72
8
 73
4
 74
0
 40
0
 40
0
 40
0
 40
0
 40
1
 40
1
 40
1
 40
1
 10
170.233526
 20
502.760013
 30
0.0
 10
169.715049
 20
502.023572
 30
0.0
 10
169.640620
 20
501.257339
 30
0.0
 10
169.744680
 20
500.340161
 30
0.0
  0
SPLINE
  5
3e8
100
AcDbEntity
  8
Layer_1
 62
3
100
AcDbSpline
 70
8
 71
3
 72
8
 73
4
 74
0
 40
0
 40
0
 40
0
 40
0
 40
1
 40
1
 40
1
 40
1
 10
169.744680
 20
500.340161
 30
0.0
 10
169.848740
 20
499.422983
 30
0.0
 10
170.157940
 20
498.401688
 30
0.0
 10
170.343550
 20
497.334643
 30
0.0
  0
LWPOLYLINE
  5
3e9
100
AcDbEntity
  8
Layer_1
 62
3
100
AcDbPolyline
 90
3
 70
0
 10
169.682049
 20
503.791143
 30
0.0
 10
170.984398
 20
503.825726
 30
0.0
 10
170.233526
 20
502.760013
 30
0.0
  0
SPLINE
  5
3ea
100
AcDbEntity
  8
Layer_1
 62
3
100
AcDbSpline
 70
8
 71
3
 72
8
 73
4
 74
0
 40
0
 40
0
 40
0
 40
0
 40
1
 40
1
 40
1
 40
1
 10
169.665457
 20
496.568183
 30
0.0
 10
157.621408
 20
497.177660
 30
0.0
 10
145.699832
 20
498.261543
 30
0.0
 10
133.514178
 20
497.492050
 30
0.0
  0
LWPOLYLINE
  5
3eb
100
AcDbEntity
  8
Layer_1
 62
3
100
AcDbPolyline
 90
3
 70
0
 10
170.343550
 20
497.334643
 30
0.0
 10
170.484375
 20
496.526230
 30
0.0
 10
169.665457
 20
496.568183
 30
0.0
  0
SPLINE
  5
3ec
100
AcDbEntity
  8
Layer_1
 62
3
100
AcDbSpline
 70
8
 71
3
 72
8
 73
4
 74
0
 40
0
 40
0
 40
0
 40
0
 40
1
 40
1
 40
1
 40
1
 10
132.824580
 20
498.246066
 30
0.0
 10
133.081852
 20
499.912668
 30
0.0
 10
133.180206
 20
500.623143
 30
0.0
 10
133.657379
 20
503.609499
 30
0.0
  0
LWPOLYLINE
  5
3ed
100
AcDbEntity
  8
Layer_1
 62
3
100
AcDbPolyline
 90
3
 70
0
 10
133.514178
 20
497.492050
 30
0.0
 10
132.700337
 20
497.441027
 30
0.0
 10
132.824580
 20
498.246066
 30
0.0
  0
SPLINE
  5
3ee
100
AcDbEntity
  8
Layer_1
 62
3
100
AcDbSpline
 70
8
 71
3
 72
8
 73
4
 74
0
 40
0
 40
0
 40
0
 40
0
 40
1
 40
1
 40
1
 40
1
 10
134.863929
 20
502.838079
 30
0.0
 10
134.586360
 20
501.087883
 30
0.0
 10
134.442289
 20
500.144712
 30
0.0
 10
134.289431
 20
499.143628
 30
0.0
  0
SPLINE
  5
3ef
100
AcDbEntity
  8
Layer_1
 62
3
100
AcDbSpline
 70
8
 71
3
 72
8
 73
4
 74
0
 40
0
 40
0
 40
0
 40
0
 40
1
 40
1
 40
1
 40
1
 10
134.289431
 20
499.143628
 30
0.0
 10
139.125980
 20
500.834183
 30
0.0
 10
144.539107
 20
501.506901
 30
0.0
 10
150.211811
 20
501.706006
 30
0.0
  0
SPLINE
  5
3f0
100
AcDbEntity
  8
Layer_1
 62
3
100
AcDbSpline
 70
8
 71
3
 72
8
 73
4
 74
0
 40
0
 40
0
 40
0
 40
0
 40
1
 40
1
 40
1
 40
1
 10
150.211811
 20
501.706006
 30
0.0
 10
156.136235
 20
501.914069
 30
0.0
 10
162.342034
 20
501.606794
 30
0.0
 10
168.470090
 20
501.404712
 30
0.0
  0
SPLINE
  5
3f1
100
AcDbEntity
  8
Layer_1
 62
3
100
AcDbSpline
 70
8
 71
3
 72
8
 73
4
 74
0
 40
0
 40
0
 40
0
 40
0
 40
1
 40
1
 40
1
 40
1
 10
168.470090
 20
501.404712
 30
0.0
 10
168.523013
 20
501.764117
 30
0.0
 10
168.612219
 20
502.125080
 30
0.0
 10
168.735158
 20
502.482614
 30
0.0
  0
SPLINE
  5
3f2
100
AcDbEntity
  8
Layer_1
 62
3
100
AcDbSpline
 70
8
 71
3
 72
8
 73
4
 74
0
 40
0
 40
0
 40
0
 40
0
 40
1
 40
1
 40
1
 40
1
 10
168.735158
 20
502.482614
 30
0.0
 10
157.237792
 20
502.228630
 30
0.0
 10
146.122302
 20
502.698047
 30
0.0
 10
134.863923
 20
502.838079
 30
0.0
  0
LWPOLYLINE
  5
3f3
100
AcDbEntity
  8
Layer_1
 62
3
100
AcDbPolyline
 90
2
 70
0
 10
133.657379
 20
503.609499
 30
0.0
 10
133.745743
 20
504.166507
 30
0.0
  0
SPLINE
  5
3f4
100
AcDbEntity
  8
Layer_1
 62
3
100
AcDbSpline
 70
8
 71
3
 72
8
 73
4
 74
0
 40
0
 40
0
 40
0
 40
0
 40
1
 40
1
 40
1
 40
1
 10
154.825384
 20
500.451052
 30
0.0
 10
149.057320
 20
500.459556
 30
0.0
 10
143.511284
 20
500.149984
 30
0.0
 10
138.521812
 20
498.996369
 30
0.0
  0
SPLINE
  5
3f5
100
AcDbEntity
  8
Layer_1
 62
3
100
AcDbSpline
 70
8
 71
3
 72
8
 73
4
 74
0
 40
0
 40
0
 40
0
 40
0
 40
1
 40
1
 40
1
 40
1
 10
138.521812
 20
498.996369
 30
0.0
 10
148.774005
 20
499.256872
 30
0.0
 10
158.825418
 20
498.448517
 30
0.0
 10
168.891228
 20
497.921187
 30
0.0
  0
SPLINE
  5
3f6
100
AcDbEntity
  8
Layer_1
 62
3
100
AcDbSpline
 70
8
 71
3
 72
8
 73
4
 74
0
 40
0
 40
0
 40
0
 40
0
 40
1
 40
1
 40
1
 40
1
 10
168.891228
 20
497.921187
 30
0.0
 10
168.733508
 20
498.625824
 30
0.0
 10
168.549778
 20
499.331934
 30
0.0
 10
168.454857
 20
500.094907
 30
0.0
  0
SPLINE
  5
3f7
100
AcDbEntity
  8
Layer_1
 62
3
100
AcDbSpline
 70
8
 71
3
 72
8
 73
4
 74
0
 40
0
 40
0
 40
0
 40
0
 40
1
 40
1
 40
1
 40
1
 10
168.454857
 20
500.094907
 30
0.0
 10
163.882324
 20
500.244860
 30
0.0
 10
159.287610
 20
500.443455
 30
0.0
 10
154.825384
 20
500.451052
 30
0.0
  0
LWPOLYLINE
  5
3f8
100
AcDbEntity
  8
Layer_1
 62
3
100
AcDbPolyline
 90
1
 70
1
 10
134.863923
 20
502.838079
 30
0.0
  0
SPLINE
  5
3f9
100
AcDbEntity
  8
Layer_1
 62
3
100
AcDbSpline
 70
8
 71
3
 72
8
 73
4
 74
0
 40
0
 40
0
 40
0
 40
0
 40
1
 40
1
 40
1
 40
1
 10
183.484176
 20
500.417603
 30
0.0
 10
182.730600
 20
500.409099
 30
0.0
 10
181.902336
 20
500.275304
 30
0.0
 10
180.907574
 20
499.941950
 30
0.0
  0
SPLINE
  5
3fa
100
AcDbEntity
  8
Layer_1
 62
3
100
AcDbSpline
 70
8
 71
3
 72
8
 73
4
 74
0
 40
0
 40
0
 40
0
 40
0
 40
1
 40
1
 40
1
 40
1
 10
180.907574
 20
499.941950
 30
0.0
 10
183.267306
 20
499.634220
 30
0.0
 10
185.466580
 20
499.705257
 30
0.0
 10
187.669500
 20
499.498809
 30
0.0
  0
SPLINE
  5
3fb
100
AcDbEntity
  8
Layer_1
 62
3
100
AcDbSpline
 70
8
 71
3
 72
8
 73
4
 74
0
 40
0
 40
0
 40
0
 40
0
 40
1
 40
1
 40
1
 40
1
 10
187.669500
 20
499.498809
 30
0.0
 10
187.632933
 20
499.586117
 30
0.0
 10
187.595260
 20
499.673140
 30
0.0
 10
187.558126
 20
499.760164
 30
0.0
  0
SPLINE
  5
3fc
100
AcDbEntity
  8
Layer_1
 62
3
100
AcDbSpline
 70
8
 71
3
 72
8
 73
4
 74
0
 40
0
 40
0
 40
0
 40
0
 40
1
 40
1
 40
1
 40
1
 10
187.558126
 20
499.760164
 30
0.0
 10
186.040210
 20
500.039093
 30
0.0
 10
184.886342
 20
500.436000
 30
0.0
 10
183.484182
 20
500.417603
 30
0.0
  0
LWPOLYLINE
  5
3fd
100
AcDbEntity
  8
Layer_1
 62
3
100
AcDbPolyline
 90
1
 70
1
 10
154.825384
 20
500.451052
 30
0.0
  0
SPLINE
  5
3fe
100
AcDbEntity
  8
Layer_1
 62
3
100
AcDbSpline
 70
8
 71
3
 72
8
 73
4
 74
0
 40
0
 40
0
 40
0
 40
0
 40
1
 40
1
 40
1
 40
1
 10
181.092078
 20
498.598639
 30
0.0
 10
181.104834
 20
498.547899
 30
0.0
 10
181.117874
 20
498.497159
 30
0.0
 10
181.130658
 20
498.446702
 30
0.0
  0
SPLINE
  5
3ff
100
AcDbEntity
  8
Layer_1
 62
3
100
AcDbSpline
 70
8
 71
3
 72
8
 73
4
 74
0
 40
0
 40
0
 40
0
 40
0
 40
1
 40
1
 40
1
 40
1
 10
181.130658
 20
498.446702
 30
0.0
 10
181.926595
 20
498.302986
 30
0.0
 10
182.646768
 20
498.142091
 30
0.0
 10
183.364656
 20
498.024539
 30
0.0
  0
LWPOLYLINE
  5
400
100
AcDbEntity
  8
Layer_1
 62
3
100
AcDbPolyline
 90
1
 70
1
 10
183.484182
 20
500.417603
 30
0.0
  0
SPLINE
  5
401
100
AcDbEntity
  8
Layer_1
 62
3
100
AcDbSpline
 70
8
 71
3
 72
8
 73
4
 74
0
 40
0
 40
0
 40
0
 40
0
 40
1
 40
1
 40
1
 40
1
 10
183.405957
 20
498.061672
 30
0.0
 10
183.420981
 20
498.044665
 30
0.0
 10
183.435182
 20
498.027657
 30
0.0
 10
183.449951
 20
498.010932
 30
0.0
  0
SPLINE
  5
402
100
AcDbEntity
  8
Layer_1
 62
3
100
AcDbSpline
 70
8
 71
3
 72
8
 73
4
 74
0
 40
0
 40
0
 40
0
 40
0
 40
1
 40
1
 40
1
 40
1
 10
183.449951
 20
498.010932
 30
0.0
 10
184.702445
 20
497.812224
 30
0.0
 10
185.966855
 20
497.759499
 30
0.0
 10
187.649495
 20
498.182428
 30
0.0
  0
SPLINE
  5
403
100
AcDbEntity
  8
Layer_1
 62
3
100
AcDbSpline
 70
8
 71
3
 72
8
 73
4
 74
0
 40
0
 40
0
 40
0
 40
0
 40
1
 40
1
 40
1
 40
1
 10
187.649495
 20
498.182428
 30
0.0
 10
185.622352
 20
498.374617
 30
0.0
 10
183.473887
 20
498.316791
 30
0.0
 10
181.092047
 20
498.598469
 30
0.0
  0
LWPOLYLINE
  5
404
100
AcDbEntity
  8
Layer_1
 62
3
100
AcDbPolyline
 90
2
 70
0
 10
183.364656
 20
498.024539
 30
0.0
 10
183.405957
 20
498.061672
 30
0.0
  0
SPLINE
  5
405
100
AcDbEntity
  8
Layer_1
 62
3
100
AcDbSpline
 70
8
 71
3
 72
8
 73
4
 74
0
 40
0
 40
0
 40
0
 40
0
 40
1
 40
1
 40
1
 40
1
 10
109.473367
 20
497.136501
 30
0.0
 10
108.719427
 20
497.136756
 30
0.0
 10
107.932085
 20
497.085761
 30
0.0
 10
107.091425
 20
496.974926
 30
0.0
  0
SPLINE
  5
406
100
AcDbEntity
  8
Layer_1
 62
3
100
AcDbSpline
 70
8
 71
3
 72
8
 73
4
 74
0
 40
0
 40
0
 40
0
 40
0
 40
1
 40
1
 40
1
 40
1
 10
107.091425
 20
496.974926
 30
0.0
 10
107.064213
 20
496.870611
 30
0.0
 10
107.034789
 20
496.765162
 30
0.0
 10
107.007803
 20
496.661102
 30
0.0
  0
SPLINE
  5
407
100
AcDbEntity
  8
Layer_1
 62
3
100
AcDbSpline
 70
8
 71
3
 72
8
 73
4
 74
0
 40
0
 40
0
 40
0
 40
0
 40
1
 40
1
 40
1
 40
1
 10
107.007803
 20
496.661102
 30
0.0
 10
107.662371
 20
496.728567
 30
0.0
 10
108.308378
 20
496.759748
 30
0.0
 10
108.945247
 20
496.759181
 30
0.0
  0
SPLINE
  5
408
100
AcDbEntity
  8
Layer_1
 62
3
100
AcDbSpline
 70
8
 71
3
 72
8
 73
4
 74
0
 40
0
 40
0
 40
0
 40
0
 40
1
 40
1
 40
1
 40
1
 10
108.945247
 20
496.759181
 30
0.0
 10
111.282846
 20
496.758019
 30
0.0
 10
113.503535
 20
496.341298
 30
0.0
 10
115.632692
 20
495.820772
 30
0.0
  0
SPLINE
  5
409
100
AcDbEntity
  8
Layer_1
 62
3
100
AcDbSpline
 70
8
 71
3
 72
8
 73
4
 74
0
 40
0
 40
0
 40
0
 40
0
 40
1
 40
1
 40
1
 40
1
 10
115.632692
 20
495.820772
 30
0.0
 10
115.645448
 20
495.950598
 30
0.0
 10
115.658203
 20
496.080142
 30
0.0
 10
115.670619
 20
496.210082
 30
0.0
  0
SPLINE
  5
40a
100
AcDbEntity
  8
Layer_1
 62
3
100
AcDbSpline
 70
8
 71
3
 72
8
 73
4
 74
0
 40
0
 40
0
 40
0
 40
0
 40
1
 40
1
 40
1
 40
1
 10
115.670619
 20
496.210082
 30
0.0
 10
113.512139
 20
496.731713
 30
0.0
 10
111.618193
 20
497.135622
 30
0.0
 10
109.473375
 20
497.136302
 30
0.0
  0
LWPOLYLINE
  5
40b
100
AcDbEntity
  8
Layer_1
 62
3
100
AcDbPolyline
 90
2
 70
0
 10
181.092047
 20
498.598469
 30
0.0
 10
181.092078
 20
498.598639
 30
0.0
  0
SPLINE
  5
40c
100
AcDbEntity
  8
Layer_1
 62
3
100
AcDbSpline
 70
8
 71
3
 72
8
 73
4
 74
0
 40
0
 40
0
 40
0
 40
0
 40
1
 40
1
 40
1
 40
1
 10
188.610293
 20
497.088879
 30
0.0
 10
188.372041
 20
497.018013
 30
0.0
 10
188.140192
 20
496.955083
 30
0.0
 10
187.914263
 20
496.900375
 30
0.0
  0
SPLINE
  5
40d
100
AcDbEntity
  8
Layer_1
 62
3
100
AcDbSpline
 70
8
 71
3
 72
8
 73
4
 74
0
 40
0
 40
0
 40
0
 40
0
 40
1
 40
1
 40
1
 40
1
 10
187.914263
 20
496.900375
 30
0.0
 10
188.109711
 20
495.819156
 30
0.0
 10
188.778730
 20
494.889052
 30
0.0
 10
189.704441
 20
493.976778
 30
0.0
  0
SPLINE
  5
40e
100
AcDbEntity
  8
Layer_1
 62
3
100
AcDbSpline
 70
8
 71
3
 72
8
 73
4
 74
0
 40
0
 40
0
 40
0
 40
0
 40
1
 40
1
 40
1
 40
1
 10
189.704441
 20
493.976778
 30
0.0
 10
189.354662
 20
495.007370
 30
0.0
 10
188.993687
 20
496.047827
 30
0.0
 10
188.610293
 20
497.088935
 30
0.0
  0
LWPOLYLINE
  5
40f
100
AcDbEntity
  8
Layer_1
 62
3
100
AcDbPolyline
 90
2
 70
0
 10
109.473375
 20
497.136302
 30
0.0
 10
109.473367
 20
497.136501
 30
0.0
  0
SPLINE
  5
410
100
AcDbEntity
  8
Layer_1
 62
3
100
AcDbSpline
 70
8
 71
3
 72
8
 73
4
 74
0
 40
0
 40
0
 40
0
 40
0
 40
1
 40
1
 40
1
 40
1
 10
181.488844
 20
497.046926
 30
0.0
 10
181.922451
 20
495.374598
 30
0.0
 10
182.377871
 20
493.717975
 30
0.0
 10
182.909004
 20
492.098202
 30
0.0
  0
SPLINE
  5
411
100
AcDbEntity
  8
Layer_1
 62
3
100
AcDbSpline
 70
8
 71
3
 72
8
 73
4
 74
0
 40
0
 40
0
 40
0
 40
0
 40
1
 40
1
 40
1
 40
1
 10
182.909004
 20
492.098202
 30
0.0
 10
183.278038
 20
492.101036
 30
0.0
 10
183.644167
 20
492.118044
 30
0.0
 10
184.007891
 20
492.143839
 30
0.0
  0
SPLINE
  5
412
100
AcDbEntity
  8
Layer_1
 62
3
100
AcDbSpline
 70
8
 71
3
 72
8
 73
4
 74
0
 40
0
 40
0
 40
0
 40
0
 40
1
 40
1
 40
1
 40
1
 10
184.007891
 20
492.143839
 30
0.0
 10
183.846628
 20
493.760693
 30
0.0
 10
183.447541
 20
495.695679
 30
0.0
 10
182.713666
 20
496.813606
 30
0.0
  0
SPLINE
  5
413
100
AcDbEntity
  8
Layer_1
 62
3
100
AcDbSpline
 70
8
 71
3
 72
8
 73
4
 74
0
 40
0
 40
0
 40
0
 40
0
 40
1
 40
1
 40
1
 40
1
 10
182.713666
 20
496.813606
 30
0.0
 10
182.303354
 20
496.886457
 30
0.0
 10
181.897430
 20
496.967528
 30
0.0
 10
181.488844
 20
497.046898
 30
0.0
  0
LWPOLYLINE
  5
414
100
AcDbEntity
  8
Layer_1
 62
3
100
AcDbPolyline
 90
1
 70
1
 10
188.610293
 20
497.088935
 30
0.0
  0
SPLINE
  5
415
100
AcDbEntity
  8
Layer_1
 62
3
100
AcDbSpline
 70
8
 71
3
 72
8
 73
4
 74
0
 40
0
 40
0
 40
0
 40
0
 40
1
 40
1
 40
1
 40
1
 10
186.627484
 20
496.658636
 30
0.0
 10
186.361736
 20
496.623770
 30
0.0
 10
186.104704
 20
496.600526
 30
0.0
 10
185.853929
 20
496.585502
 30
0.0
  0
SPLINE
  5
416
100
AcDbEntity
  8
Layer_1
 62
3
100
AcDbSpline
 70
8
 71
3
 72
8
 73
4
 74
0
 40
0
 40
0
 40
0
 40
0
 40
1
 40
1
 40
1
 40
1
 10
185.853929
 20
496.585502
 30
0.0
 10
186.695031
 20
495.497849
 30
0.0
 10
187.363114
 20
494.273169
 30
0.0
 10
187.580126
 20
492.820639
 30
0.0
  0
SPLINE
  5
417
100
AcDbEntity
  8
Layer_1
 62
3
100
AcDbSpline
 70
8
 71
3
 72
8
 73
4
 74
0
 40
0
 40
0
 40
0
 40
0
 40
1
 40
1
 40
1
 40
1
 10
187.580126
 20
492.820639
 30
0.0
 10
187.932609
 20
492.932324
 30
0.0
 10
188.282001
 20
493.059600
 30
0.0
 10
188.629588
 20
493.198781
 30
0.0
  0
SPLINE
  5
418
100
AcDbEntity
  8
Layer_1
 62
3
100
AcDbSpline
 70
8
 71
3
 72
8
 73
4
 74
0
 40
0
 40
0
 40
0
 40
0
 40
1
 40
1
 40
1
 40
1
 10
188.629588
 20
493.198781
 30
0.0
 10
187.670744
 20
494.174438
 30
0.0
 10
186.877157
 20
495.290835
 30
0.0
 10
186.627484
 20
496.658636
 30
0.0
  0
LWPOLYLINE
  5
419
100
AcDbEntity
  8
Layer_1
 62
3
100
AcDbPolyline
 90
1
 70
1
 10
181.488844
 20
497.046898
 30
0.0
  0
SPLINE
  5
41a
100
AcDbEntity
  8
Layer_1
 62
3
100
AcDbSpline
 70
8
 71
3
 72
8
 73
4
 74
0
 40
0
 40
0
 40
0
 40
0
 40
1
 40
1
 40
1
 40
1
 10
184.532621
 20
496.140350
 30
0.0
 10
185.006679
 20
494.900844
 30
0.0
 10
185.210802
 20
493.503165
 30
0.0
 10
185.316335
 20
492.291524
 30
0.0
  0
SPLINE
  5
41b
100
AcDbEntity
  8
Layer_1
 62
3
100
AcDbSpline
 70
8
 71
3
 72
8
 73
4
 74
0
 40
0
 40
0
 40
0
 40
0
 40
1
 40
1
 40
1
 40
1
 10
185.316335
 20
492.291524
 30
0.0
 10
185.648632
 20
492.343115
 30
0.0
 10
185.978597
 20
492.406044
 30
0.0
 10
186.306554
 20
492.479178
 30
0.0
  0
SPLINE
  5
41c
100
AcDbEntity
  8
Layer_1
 62
3
100
AcDbSpline
 70
8
 71
3
 72
8
 73
4
 74
0
 40
0
 40
0
 40
0
 40
0
 40
1
 40
1
 40
1
 40
1
 10
186.306554
 20
492.479178
 30
0.0
 10
186.139310
 20
493.869657
 30
0.0
 10
185.463068
 20
495.025852
 30
0.0
 10
184.532621
 20
496.140463
 30
0.0
  0
LWPOLYLINE
  5
41d
100
AcDbEntity
  8
Layer_1
 62
3
100
AcDbPolyline
 90
1
 70
1
 10
186.627484
 20
496.658636
 30
0.0
  0
SPLINE
  5
41e
100
AcDbEntity
  8
Layer_1
 62
3
100
AcDbSpline
 70
8
 71
3
 72
8
 73
4
 74
0
 40
0
 40
0
 40
0
 40
0
 40
1
 40
1
 40
1
 40
1
 10
108.946602
 20
495.449717
 30
0.0
 10
108.195284
 20
495.450397
 30
0.0
 10
107.434712
 20
495.402378
 30
0.0
 10
106.663853
 20
495.300331
 30
0.0
  0
SPLINE
  5
41f
100
AcDbEntity
  8
Layer_1
 62
3
100
AcDbSpline
 70
8
 71
3
 72
8
 73
4
 74
0
 40
0
 40
0
 40
0
 40
0
 40
1
 40
1
 40
1
 40
1
 10
106.663853
 20
495.300331
 30
0.0
 10
106.661537
 20
495.291827
 30
0.0
 10
106.659034
 20
495.280488
 30
0.0
 10
106.656766
 20
495.271984
 30
0.0
  0
SPLINE
  5
420
100
AcDbEntity
  8
Layer_1
 62
3
100
AcDbSpline
 70
8
 71
3
 72
8
 73
4
 74
0
 40
0
 40
0
 40
0
 40
0
 40
1
 40
1
 40
1
 40
1
 10
106.656766
 20
495.271984
 30
0.0
 10
107.332974
 20
495.342000
 30
0.0
 10
107.999629
 20
495.374032
 30
0.0
 10
108.657176
 20
495.373465
 30
0.0
  0
SPLINE
  5
421
100
AcDbEntity
  8
Layer_1
 62
3
100
AcDbSpline
 70
8
 71
3
 72
8
 73
4
 74
0
 40
0
 40
0
 40
0
 40
0
 40
1
 40
1
 40
1
 40
1
 10
108.657176
 20
495.373465
 30
0.0
 10
111.045929
 20
495.371679
 30
0.0
 10
113.314827
 20
494.947644
 30
0.0
 10
115.490194
 20
494.420825
 30
0.0
  0
SPLINE
  5
422
100
AcDbEntity
  8
Layer_1
 62
3
100
AcDbSpline
 70
8
 71
3
 72
8
 73
4
 74
0
 40
0
 40
0
 40
0
 40
0
 40
1
 40
1
 40
1
 40
1
 10
115.490194
 20
494.420825
 30
0.0
 10
115.493029
 20
494.449172
 30
0.0
 10
115.496147
 20
494.475817
 30
0.0
 10
115.498981
 20
494.503313
 30
0.0
  0
SPLINE
  5
423
100
AcDbEntity
  8
Layer_1
 62
3
100
AcDbSpline
 70
8
 71
3
 72
8
 73
4
 74
0
 40
0
 40
0
 40
0
 40
0
 40
1
 40
1
 40
1
 40
1
 10
115.498981
 20
494.503313
 30
0.0
 10
113.362418
 20
495.032173
 30
0.0
 10
111.194569
 20
495.447137
 30
0.0
 10
108.946610
 20
495.449178
 30
0.0
  0
LWPOLYLINE
  5
424
100
AcDbEntity
  8
Layer_1
 62
3
100
AcDbPolyline
 90
2
 70
0
 10
184.532621
 20
496.140463
 30
0.0
 10
184.532621
 20
496.140350
 30
0.0
  0
SPLINE
  5
425
100
AcDbEntity
  8
Layer_1
 62
3
100
AcDbSpline
 70
8
 71
3
 72
8
 73
4
 74
0
 40
0
 40
0
 40
0
 40
0
 40
1
 40
1
 40
1
 40
1
 10
108.817965
 20
494.060032
 30
0.0
 10
108.338485
 20
492.857915
 30
0.0
 10
108.147266
 20
492.483940
 30
0.0
 10
108.067431
 20
492.270860
 30
0.0
  0
SPLINE
  5
426
100
AcDbEntity
  8
Layer_1
 62
3
100
AcDbSpline
 70
8
 71
3
 72
8
 73
4
 74
0
 40
0
 40
0
 40
0
 40
0
 40
1
 40
1
 40
1
 40
1
 10
108.067431
 20
492.270860
 30
0.0
 10
108.003906
 20
492.101348
 30
0.0
 10
107.935053
 20
491.775902
 30
0.0
 10
107.806757
 20
491.159792
 30
0.0
  0
SPLINE
  5
427
100
AcDbEntity
  8
Layer_1
 62
3
100
AcDbSpline
 70
8
 71
3
 72
8
 73
4
 74
0
 40
0
 40
0
 40
0
 40
0
 40
1
 40
1
 40
1
 40
1
 10
107.806757
 20
491.159792
 30
0.0
 10
108.334247
 20
491.038186
 30
0.0
 10
108.873125
 20
490.945493
 30
0.0
 10
109.422252
 20
490.878028
 30
0.0
  0
SPLINE
  5
428
100
AcDbEntity
  8
Layer_1
 62
3
100
AcDbSpline
 70
8
 71
3
 72
8
 73
4
 74
0
 40
0
 40
0
 40
0
 40
0
 40
1
 40
1
 40
1
 40
1
 10
109.422252
 20
490.878028
 30
0.0
 10
109.394756
 20
491.860375
 30
0.0
 10
109.503692
 20
492.415909
 30
0.0
 10
109.694775
 20
492.860835
 30
0.0
  0
SPLINE
  5
429
100
AcDbEntity
  8
Layer_1
 62
3
100
AcDbSpline
 70
8
 71
3
 72
8
 73
4
 74
0
 40
0
 40
0
 40
0
 40
0
 40
1
 40
1
 40
1
 40
1
 10
109.694775
 20
492.860835
 30
0.0
 10
109.865392
 20
493.258082
 30
0.0
 10
110.031934
 20
493.497156
 30
0.0
 10
110.203594
 20
493.998633
 30
0.0
  0
SPLINE
  5
42a
100
AcDbEntity
  8
Layer_1
 62
3
100
AcDbSpline
 70
8
 71
3
 72
8
 73
4
 74
0
 40
0
 40
0
 40
0
 40
0
 40
1
 40
1
 40
1
 40
1
 10
110.203594
 20
493.998633
 30
0.0
 10
109.744767
 20
494.034066
 30
0.0
 10
109.283057
 20
494.055609
 30
0.0
 10
108.817965
 20
494.059861
 30
0.0
  0
LWPOLYLINE
  5
42b
100
AcDbEntity
  8
Layer_1
 62
3
100
AcDbPolyline
 90
2
 70
0
 10
108.946610
 20
495.449178
 30
0.0
 10
108.946602
 20
495.449717
 30
0.0
  0
SPLINE
  5
42c
100
AcDbEntity
  8
Layer_1
 62
3
100
AcDbSpline
 70
8
 71
3
 72
8
 73
4
 74
0
 40
0
 40
0
 40
0
 40
0
 40
1
 40
1
 40
1
 40
1
 10
107.388663
 20
494.019780
 30
0.0
 10
107.036016
 20
493.994268
 30
0.0
 10
106.680966
 20
493.958268
 30
0.0
 10
106.323968
 20
493.911496
 30
0.0
  0
SPLINE
  5
42d
100
AcDbEntity
  8
Layer_1
 62
3
100
AcDbSpline
 70
8
 71
3
 72
8
 73
4
 74
0
 40
0
 40
0
 40
0
 40
0
 40
1
 40
1
 40
1
 40
1
 10
106.323968
 20
493.911496
 30
0.0
 10
106.150856
 20
493.192602
 30
0.0
 10
105.982033
 20
492.482721
 30
0.0
 10
105.820566
 20
491.797672
 30
0.0
  0
SPLINE
  5
42e
100
AcDbEntity
  8
Layer_1
 62
3
100
AcDbSpline
 70
8
 71
3
 72
8
 73
4
 74
0
 40
0
 40
0
 40
0
 40
0
 40
1
 40
1
 40
1
 40
1
 10
105.820566
 20
491.797672
 30
0.0
 10
106.057939
 20
491.695625
 30
0.0
 10
106.299592
 20
491.606050
 30
0.0
 10
106.543341
 20
491.521294
 30
0.0
  0
SPLINE
  5
42f
100
AcDbEntity
  8
Layer_1
 62
3
100
AcDbSpline
 70
8
 71
3
 72
8
 73
4
 74
0
 40
0
 40
0
 40
0
 40
0
 40
1
 40
1
 40
1
 40
1
 10
106.543341
 20
491.521294
 30
0.0
 10
106.663983
 20
492.105345
 30
0.0
 10
106.740519
 20
492.465402
 30
0.0
 10
106.840236
 20
492.731546
 30
0.0
  0
SPLINE
  5
430
100
AcDbEntity
  8
Layer_1
 62
3
100
AcDbSpline
 70
8
 71
3
 72
8
 73
4
 74
0
 40
0
 40
0
 40
0
 40
0
 40
1
 40
1
 40
1
 40
1
 10
106.840236
 20
492.731546
 30
0.0
 10
106.948661
 20
493.020964
 30
0.0
 10
107.079877
 20
493.273077
 30
0.0
 10
107.388663
 20
494.019694
 30
0.0
  0
LWPOLYLINE
  5
431
100
AcDbEntity
  8
Layer_1
 62
3
100
AcDbPolyline
 90
2
 70
0
 10
108.817965
 20
494.059861
 30
0.0
 10
108.817965
 20
494.060032
 30
0.0
  0
SPLINE
  5
432
100
AcDbEntity
  8
Layer_1
 62
3
100
AcDbSpline
 70
8
 71
3
 72
8
 73
4
 74
0
 40
0
 40
0
 40
0
 40
0
 40
1
 40
1
 40
1
 40
1
 10
111.530656
 20
493.857921
 30
0.0
 10
111.287330
 20
493.047269
 30
0.0
 10
111.026418
 20
492.640809
 30
0.0
 10
110.898950
 20
492.343994
 30
0.0
  0
SPLINE
  5
433
100
AcDbEntity
  8
Layer_1
 62
3
100
AcDbSpline
 70
8
 71
3
 72
8
 73
4
 74
0
 40
0
 40
0
 40
0
 40
0
 40
1
 40
1
 40
1
 40
1
 10
110.898950
 20
492.343994
 30
0.0
 10
110.766827
 20
492.036321
 30
0.0
 10
110.684906
 20
491.724992
 30
0.0
 10
110.734087
 20
490.759654
 30
0.0
  0
SPLINE
  5
434
100
AcDbEntity
  8
Layer_1
 62
3
100
AcDbSpline
 70
8
 71
3
 72
8
 73
4
 74
0
 40
0
 40
0
 40
0
 40
0
 40
1
 40
1
 40
1
 40
1
 10
110.734087
 20
490.759654
 30
0.0
 10
111.495076
 20
490.712882
 30
0.0
 10
112.270901
 20
490.698142
 30
0.0
 10
113.057802
 20
490.701543
 30
0.0
  0
SPLINE
  5
435
100
AcDbEntity
  8
Layer_1
 62
3
100
AcDbSpline
 70
8
 71
3
 72
8
 73
4
 74
0
 40
0
 40
0
 40
0
 40
0
 40
1
 40
1
 40
1
 40
1
 10
113.057802
 20
490.701543
 30
0.0
 10
112.998416
 20
491.361987
 30
0.0
 10
112.964995
 20
491.742057
 30
0.0
 10
112.984328
 20
492.039439
 30
0.0
  0
SPLINE
  5
436
100
AcDbEntity
  8
Layer_1
 62
3
100
AcDbSpline
 70
8
 71
3
 72
8
 73
4
 74
0
 40
0
 40
0
 40
0
 40
0
 40
1
 40
1
 40
1
 40
1
 10
112.984328
 20
492.039439
 30
0.0
 10
113.005587
 20
492.365424
 30
0.0
 10
113.063017
 20
492.674854
 30
0.0
 10
113.150211
 20
493.592315
 30
0.0
  0
SPLINE
  5
437
100
AcDbEntity
  8
Layer_1
 62
3
100
AcDbSpline
 70
8
 71
3
 72
8
 73
4
 74
0
 40
0
 40
0
 40
0
 40
0
 40
1
 40
1
 40
1
 40
1
 10
113.150211
 20
493.592315
 30
0.0
 10
112.613522
 20
493.695213
 30
0.0
 10
112.073919
 20
493.785071
 30
0.0
 10
111.530656
 20
493.857921
 30
0.0
  0
LWPOLYLINE
  5
438
100
AcDbEntity
  8
Layer_1
 62
3
100
AcDbPolyline
 90
1
 70
1
 10
107.388663
 20
494.019694
 30
0.0
  0
SPLINE
  5
439
100
AcDbEntity
  8
Layer_1
 62
3
100
AcDbSpline
 70
8
 71
3
 72
8
 73
4
 74
0
 40
0
 40
0
 40
0
 40
0
 40
1
 40
1
 40
1
 40
1
 10
114.442407
 20
493.321011
 30
0.0
 10
114.359579
 20
492.465969
 30
0.0
 10
114.304501
 20
492.144435
 30
0.0
 10
114.292086
 20
491.953663
 30
0.0
  0
SPLINE
  5
43a
100
AcDbEntity
  8
Layer_1
 62
3
100
AcDbSpline
 70
8
 71
3
 72
8
 73
4
 74
0
 40
0
 40
0
 40
0
 40
0
 40
1
 40
1
 40
1
 40
1
 10
114.292086
 20
491.953663
 30
0.0
 10
114.279613
 20
491.764025
 30
0.0
 10
114.310227
 20
491.423868
 30
0.0
 10
114.372646
 20
490.719005
 30
0.0
  0
SPLINE
  5
43b
100
AcDbEntity
  8
Layer_1
 62
3
100
AcDbSpline
 70
8
 71
3
 72
8
 73
4
 74
0
 40
0
 40
0
 40
0
 40
0
 40
1
 40
1
 40
1
 40
1
 10
114.372646
 20
490.719005
 30
0.0
 10
114.604464
 20
490.724674
 30
0.0
 10
114.838319
 20
490.730343
 30
0.0
 10
115.071384
 20
490.736013
 30
0.0
  0
SPLINE
  5
43c
100
AcDbEntity
  8
Layer_1
 62
3
100
AcDbSpline
 70
8
 71
3
 72
8
 73
4
 74
0
 40
0
 40
0
 40
0
 40
0
 40
1
 40
1
 40
1
 40
1
 10
115.071384
 20
490.736013
 30
0.0
 10
115.166599
 20
491.517694
 30
0.0
 10
115.259009
 20
492.308050
 30
0.0
 10
115.347960
 20
493.106088
 30
0.0
  0
SPLINE
  5
43d
100
AcDbEntity
  8
Layer_1
 62
3
100
AcDbSpline
 70
8
 71
3
 72
8
 73
4
 74
0
 40
0
 40
0
 40
0
 40
0
 40
1
 40
1
 40
1
 40
1
 10
115.347960
 20
493.106088
 30
0.0
 10
115.046626
 20
493.179789
 30
0.0
 10
114.745116
 20
493.253206
 30
0.0
 10
114.442373
 20
493.321805
 30
0.0
  0
LWPOLYLINE
  5
43e
100
AcDbEntity
  8
Layer_1
 62
3
100
AcDbPolyline
 90
1
 70
1
 10
111.530656
 20
493.857921
 30
0.0
  0
SPLINE
  5
43f
100
AcDbEntity
  8
Layer_1
 62
3
100
AcDbSpline
 70
8
 71
3
 72
8
 73
4
 74
0
 40
0
 40
0
 40
0
 40
0
 40
1
 40
1
 40
1
 40
1
 10
183.284107
 20
483.291524
 30
0.0
 10
182.658056
 20
483.218391
 30
0.0
 10
182.031749
 20
483.144406
 30
0.0
 10
181.404553
 20
483.066737
 30
0.0
  0
SPLINE
  5
440
100
AcDbEntity
  8
Layer_1
 62
3
100
AcDbSpline
 70
8
 71
3
 72
8
 73
4
 74
0
 40
0
 40
0
 40
0
 40
0
 40
1
 40
1
 40
1
 40
1
 10
181.404553
 20
483.066737
 30
0.0
 10
181.823352
 20
482.799713
 30
0.0
 10
182.089412
 20
482.308384
 30
0.0
 10
182.089412
 20
481.788085
 30
0.0
  0
SPLINE
  5
441
100
AcDbEntity
  8
Layer_1
 62
3
100
AcDbSpline
 70
8
 71
3
 72
8
 73
4
 74
0
 40
0
 40
0
 40
0
 40
0
 40
1
 40
1
 40
1
 40
1
 10
182.089412
 20
481.788085
 30
0.0
 10
182.089412
 20
481.014028
 30
0.0
 10
181.502606
 20
480.301228
 30
0.0
 10
180.695996
 20
480.301228
 30
0.0
  0
SPLINE
  5
442
100
AcDbEntity
  8
Layer_1
 62
3
100
AcDbSpline
 70
8
 71
3
 72
8
 73
4
 74
0
 40
0
 40
0
 40
0
 40
0
 40
1
 40
1
 40
1
 40
1
 10
180.695996
 20
480.301228
 30
0.0
 10
179.889386
 20
480.301228
 30
0.0
 10
179.301229
 20
481.014028
 30
0.0
 10
179.301226
 20
481.788085
 30
0.0
  0
SPLINE
  5
443
100
AcDbEntity
  8
Layer_1
 62
3
100
AcDbSpline
 70
8
 71
3
 72
8
 73
4
 74
0
 40
0
 40
0
 40
0
 40
0
 40
1
 40
1
 40
1
 40
1
 10
179.301226
 20
481.788085
 30
0.0
 10
179.301226
 20
482.190066
 30
0.0
 10
179.460986
 20
482.574444
 30
0.0
 10
179.726428
 20
482.852098
 30
0.0
  0
SPLINE
  5
444
100
AcDbEntity
  8
Layer_1
 62
3
100
AcDbSpline
 70
8
 71
3
 72
8
 73
4
 74
0
 40
0
 40
0
 40
0
 40
0
 40
1
 40
1
 40
1
 40
1
 10
179.726428
 20
482.852098
 30
0.0
 10
176.647822
 20
482.453887
 30
0.0
 10
173.557919
 20
482.014942
 30
0.0
 10
170.465428
 20
481.576167
 30
0.0
  0
SPLINE
  5
445
100
AcDbEntity
  8
Layer_1
 62
3
100
AcDbSpline
 70
8
 71
3
 72
8
 73
4
 74
0
 40
0
 40
0
 40
0
 40
0
 40
1
 40
1
 40
1
 40
1
 10
170.465428
 20
481.576167
 30
0.0
 10
170.741211
 20
481.297238
 30
0.0
 10
170.907894
 20
480.905121
 30
0.0
 10
170.907894
 20
480.494551
 30
0.0
  0
SPLINE
  5
446
100
AcDbEntity
  8
Layer_1
 62
3
100
AcDbSpline
 70
8
 71
3
 72
8
 73
4
 74
0
 40
0
 40
0
 40
0
 40
0
 40
1
 40
1
 40
1
 40
1
 10
170.907894
 20
480.494551
 30
0.0
 10
170.907894
 20
479.720494
 30
0.0
 10
170.319736
 20
479.007694
 30
0.0
 10
169.513126
 20
479.007694
 30
0.0
  0
SPLINE
  5
447
100
AcDbEntity
  8
Layer_1
 62
3
100
AcDbSpline
 70
8
 71
3
 72
8
 73
4
 74
0
 40
0
 40
0
 40
0
 40
0
 40
1
 40
1
 40
1
 40
1
 10
169.513126
 20
479.007694
 30
0.0
 10
168.706517
 20
479.007694
 30
0.0
 10
168.119711
 20
479.720494
 30
0.0
 10
168.119711
 20
480.494551
 30
0.0
  0
SPLINE
  5
448
100
AcDbEntity
  8
Layer_1
 62
3
100
AcDbSpline
 70
8
 71
3
 72
8
 73
4
 74
0
 40
0
 40
0
 40
0
 40
0
 40
1
 40
1
 40
1
 40
1
 10
168.119711
 20
480.494551
 30
0.0
 10
168.119711
 20
480.773197
 30
0.0
 10
168.196757
 20
481.042885
 30
0.0
 10
168.331629
 20
481.275213
 30
0.0
  0
SPLINE
  5
449
100
AcDbEntity
  8
Layer_1
 62
3
100
AcDbSpline
 70
8
 71
3
 72
8
 73
4
 74
0
 40
0
 40
0
 40
0
 40
0
 40
1
 40
1
 40
1
 40
1
 10
168.331629
 20
481.275213
 30
0.0
 10
163.168169
 20
480.548211
 30
0.0
 10
158.003263
 20
479.855055
 30
0.0
 10
152.877107
 20
479.402419
 30
0.0
  0
SPLINE
  5
44a
100
AcDbEntity
  8
Layer_1
 62
3
100
AcDbSpline
 70
8
 71
3
 72
8
 73
4
 74
0
 40
0
 40
0
 40
0
 40
0
 40
1
 40
1
 40
1
 40
1
 10
152.877107
 20
479.402419
 30
0.0
 10
153.437185
 20
479.193506
 30
0.0
 10
153.811128
 20
478.616372
 30
0.0
 10
153.811128
 20
477.999184
 30
0.0
  0
SPLINE
  5
44b
100
AcDbEntity
  8
Layer_1
 62
3
100
AcDbSpline
 70
8
 71
3
 72
8
 73
4
 74
0
 40
0
 40
0
 40
0
 40
0
 40
1
 40
1
 40
1
 40
1
 10
153.811128
 20
477.999184
 30
0.0
 10
153.811128
 20
477.225156
 30
0.0
 10
153.224323
 20
476.512668
 30
0.0
 10
152.417713
 20
476.512668
 30
0.0
  0
SPLINE
  5
44c
100
AcDbEntity
  8
Layer_1
 62
3
100
AcDbSpline
 70
8
 71
3
 72
8
 73
4
 74
0
 40
0
 40
0
 40
0
 40
0
 40
1
 40
1
 40
1
 40
1
 10
152.417713
 20
476.512668
 30
0.0
 10
151.611103
 20
476.512668
 30
0.0
 10
151.022945
 20
477.225156
 30
0.0
 10
151.022945
 20
477.999184
 30
0.0
  0
SPLINE
  5
44d
100
AcDbEntity
  8
Layer_1
 62
3
100
AcDbSpline
 70
8
 71
3
 72
8
 73
4
 74
0
 40
0
 40
0
 40
0
 40
0
 40
1
 40
1
 40
1
 40
1
 10
151.022945
 20
477.999184
 30
0.0
 10
151.022945
 20
478.538816
 30
0.0
 10
151.309125
 20
479.047975
 30
0.0
 10
151.755537
 20
479.307288
 30
0.0
  0
SPLINE
  5
44e
100
AcDbEntity
  8
Layer_1
 62
3
100
AcDbSpline
 70
8
 71
3
 72
8
 73
4
 74
0
 40
0
 40
0
 40
0
 40
0
 40
1
 40
1
 40
1
 40
1
 10
151.755537
 20
479.307288
 30
0.0
 10
149.415364
 20
479.117083
 30
0.0
 10
147.083567
 20
478.979433
 30
0.0
 10
144.764762
 20
478.915597
 30
0.0
  0
LWPOLYLINE
  5
44f
100
AcDbEntity
  8
Layer_1
 62
3
100
AcDbPolyline
 90
2
 70
0
 10
114.442373
 20
493.321805
 30
0.0
 10
114.442407
 20
493.321011
 30
0.0
  0
SPLINE
  5
450
100
AcDbEntity
  8
Layer_1
 62
3
100
AcDbSpline
 70
8
 71
3
 72
8
 73
4
 74
0
 40
0
 40
0
 40
0
 40
0
 40
1
 40
1
 40
1
 40
1
 10
144.649675
 20
478.922769
 30
0.0
 10
137.014628
 20
480.073436
 30
0.0
 10
128.552879
 20
479.945991
 30
0.0
 10
120.186026
 20
480.040271
 30
0.0
  0
SPLINE
  5
451
100
AcDbEntity
  8
Layer_1
 62
3
100
AcDbSpline
 70
8
 71
3
 72
8
 73
4
 74
0
 40
0
 40
0
 40
0
 40
0
 40
1
 40
1
 40
1
 40
1
 10
120.186026
 20
480.040271
 30
0.0
 10
120.733543
 20
479.824271
 30
0.0
 10
121.097704
 20
479.255159
 30
0.0
 10
121.097704
 20
478.646532
 30
0.0
  0
SPLINE
  5
452
100
AcDbEntity
  8
Layer_1
 62
3
100
AcDbSpline
 70
8
 71
3
 72
8
 73
4
 74
0
 40
0
 40
0
 40
0
 40
0
 40
1
 40
1
 40
1
 40
1
 10
121.097704
 20
478.646532
 30
0.0
 10
121.097704
 20
477.872476
 30
0.0
 10
120.509889
 20
477.159676
 30
0.0
 10
119.703274
 20
477.159676
 30
0.0
  0
SPLINE
  5
453
100
AcDbEntity
  8
Layer_1
 62
3
100
AcDbSpline
 70
8
 71
3
 72
8
 73
4
 74
0
 40
0
 40
0
 40
0
 40
0
 40
1
 40
1
 40
1
 40
1
 10
119.703274
 20
477.159676
 30
0.0
 10
118.896667
 20
477.159676
 30
0.0
 10
118.308504
 20
477.872476
 30
0.0
 10
118.308504
 20
478.646532
 30
0.0
  0
SPLINE
  5
454
100
AcDbEntity
  8
Layer_1
 62
3
100
AcDbSpline
 70
8
 71
3
 72
8
 73
4
 74
0
 40
0
 40
0
 40
0
 40
0
 40
1
 40
1
 40
1
 40
1
 10
118.308504
 20
478.646532
 30
0.0
 10
118.308504
 20
479.264740
 30
0.0
 10
118.684267
 20
479.842668
 30
0.0
 10
119.246250
 20
480.050787
 30
0.0
  0
SPLINE
  5
455
100
AcDbEntity
  8
Layer_1
 62
3
100
AcDbSpline
 70
8
 71
3
 72
8
 73
4
 74
0
 40
0
 40
0
 40
0
 40
0
 40
1
 40
1
 40
1
 40
1
 10
119.246250
 20
480.050787
 30
0.0
 10
118.299243
 20
480.064961
 30
0.0
 10
117.354685
 20
480.081118
 30
0.0
 10
116.412361
 20
480.103228
 30
0.0
  0
SPLINE
  5
456
100
AcDbEntity
  8
Layer_1
 62
3
100
AcDbSpline
 70
8
 71
3
 72
8
 73
4
 74
0
 40
0
 40
0
 40
0
 40
0
 40
1
 40
1
 40
1
 40
1
 10
116.412361
 20
480.103228
 30
0.0
 10
116.548707
 20
478.881751
 30
0.0
 10
116.749307
 20
477.652365
 30
0.0
 10
117.041700
 20
476.409798
 30
0.0
  0
SPLINE
  5
457
100
AcDbEntity
  8
Layer_1
 62
3
100
AcDbSpline
 70
8
 71
3
 72
8
 73
4
 74
0
 40
0
 40
0
 40
0
 40
0
 40
1
 40
1
 40
1
 40
1
 10
117.041700
 20
476.409798
 30
0.0
 10
122.004590
 20
475.713269
 30
0.0
 10
127.458550
 20
474.649143
 30
0.0
 10
134.868008
 20
474.914806
 30
0.0
  0
SPLINE
  5
458
100
AcDbEntity
  8
Layer_1
 62
3
100
AcDbSpline
 70
8
 71
3
 72
8
 73
4
 74
0
 40
0
 40
0
 40
0
 40
0
 40
1
 40
1
 40
1
 40
1
 10
134.868008
 20
474.914806
 30
0.0
 10
136.052552
 20
475.098208
 30
0.0
 10
137.234341
 20
475.186649
 30
0.0
 10
138.403344
 20
475.221175
 30
0.0
  0
SPLINE
  5
459
100
AcDbEntity
  8
Layer_1
 62
3
100
AcDbSpline
 70
8
 71
3
 72
8
 73
4
 74
0
 40
0
 40
0
 40
0
 40
0
 40
1
 40
1
 40
1
 40
1
 10
138.403344
 20
475.221175
 30
0.0
 10
141.709632
 20
475.318403
 30
0.0
 10
144.914644
 20
474.985616
 30
0.0
 10
147.805512
 20
475.151443
 30
0.0
  0
LWPOLYLINE
  5
45a
100
AcDbEntity
  8
Layer_1
 62
3
100
AcDbPolyline
 90
3
 70
0
 10
144.764762
 20
478.915597
 30
0.0
 10
144.707219
 20
478.914265
 30
0.0
 10
144.649675
 20
478.922769
 30
0.0
  0
SPLINE
  5
45b
100
AcDbEntity
  8
Layer_1
 62
3
100
AcDbSpline
 70
8
 71
3
 72
8
 73
4
 74
0
 40
0
 40
0
 40
0
 40
0
 40
1
 40
1
 40
1
 40
1
 10
148.516305
 20
475.198214
 30
0.0
 10
153.034299
 20
475.130183
 30
0.0
 10
157.556659
 20
475.713213
 30
0.0
 10
162.087888
 20
476.862803
 30
0.0
  0
SPLINE
  5
45c
100
AcDbEntity
  8
Layer_1
 62
3
100
AcDbSpline
 70
8
 71
3
 72
8
 73
4
 74
0
 40
0
 40
0
 40
0
 40
0
 40
1
 40
1
 40
1
 40
1
 10
162.087888
 20
476.862803
 30
0.0
 10
162.089583
 20
476.863257
 30
0.0
 10
162.091290
 20
476.863710
 30
0.0
 10
162.092991
 20
476.864164
 30
0.0
  0
LWPOLYLINE
  5
45d
100
AcDbEntity
  8
Layer_1
 62
3
100
AcDbPolyline
 90
3
 70
0
 10
147.805512
 20
475.151443
 30
0.0
 10
147.800976
 20
475.209553
 30
0.0
 10
148.516305
 20
475.198214
 30
0.0
  0
SPLINE
  5
45e
100
AcDbEntity
  8
Layer_1
 62
3
100
AcDbSpline
 70
8
 71
3
 72
8
 73
4
 74
0
 40
0
 40
0
 40
0
 40
0
 40
1
 40
1
 40
1
 40
1
 10
162.115384
 20
476.869833
 30
0.0
 10
162.430251
 20
476.952321
 30
0.0
 10
162.745084
 20
477.031691
 30
0.0
 10
163.059902
 20
477.109077
 30
0.0
  0
LWPOLYLINE
  5
45f
100
AcDbEntity
  8
Layer_1
 62
3
100
AcDbPolyline
 90
2
 70
0
 10
162.092991
 20
476.864164
 30
0.0
 10
162.115384
 20
476.869833
 30
0.0
  0
SPLINE
  5
460
100
AcDbEntity
  8
Layer_1
 62
3
100
AcDbSpline
 70
8
 71
3
 72
8
 73
4
 74
0
 40
0
 40
0
 40
0
 40
0
 40
1
 40
1
 40
1
 40
1
 10
163.539252
 20
477.225581
 30
0.0
 10
167.280154
 20
478.117304
 30
0.0
 10
171.017612
 20
478.669720
 30
0.0
 10
174.748527
 20
478.994088
 30
0.0
  0
LWPOLYLINE
  5
461
100
AcDbEntity
  8
Layer_1
 62
3
100
AcDbPolyline
 90
3
 70
0
 10
163.059902
 20
477.109077
 30
0.0
 10
163.542654
 20
477.231250
 30
0.0
 10
163.539252
 20
477.225581
 30
0.0
  0
SPLINE
  5
462
100
AcDbEntity
  8
Layer_1
 62
3
100
AcDbSpline
 70
8
 71
3
 72
8
 73
4
 74
0
 40
0
 40
0
 40
0
 40
0
 40
1
 40
1
 40
1
 40
1
 10
174.753913
 20
478.994769
 30
0.0
 10
177.936083
 20
479.473767
 30
0.0
 10
181.193182
 20
479.729169
 30
0.0
 10
183.316173
 20
481.061197
 30
0.0
  0
SPLINE
  5
463
100
AcDbEntity
  8
Layer_1
 62
3
100
AcDbSpline
 70
8
 71
3
 72
8
 73
4
 74
0
 40
0
 40
0
 40
0
 40
0
 40
1
 40
1
 40
1
 40
1
 10
183.316173
 20
481.061197
 30
0.0
 10
183.343669
 20
481.794548
 30
0.0
 10
183.330062
 20
482.538671
 30
0.0
 10
183.284028
 20
483.291468
 30
0.0
  0
LWPOLYLINE
  5
464
100
AcDbEntity
  8
Layer_1
 62
3
100
AcDbPolyline
 90
2
 70
0
 10
174.748527
 20
478.994088
 30
0.0
 10
174.753913
 20
478.994769
 30
0.0
  0
SPLINE
  5
465
100
AcDbEntity
  8
Layer_1
 62
3
100
AcDbSpline
 70
8
 71
3
 72
8
 73
4
 74
0
 40
0
 40
0
 40
0
 40
0
 40
1
 40
1
 40
1
 40
1
 10
180.695996
 20
481.964457
 30
0.0
 10
180.686075
 20
481.964457
 30
0.0
 10
180.611694
 20
481.932709
 30
0.0
 10
180.611694
 20
481.788142
 30
0.0
  0
SPLINE
  5
466
100
AcDbEntity
  8
Layer_1
 62
3
100
AcDbSpline
 70
8
 71
3
 72
8
 73
4
 74
0
 40
0
 40
0
 40
0
 40
0
 40
1
 40
1
 40
1
 40
1
 10
180.611694
 20
481.788142
 30
0.0
 10
180.611694
 20
481.643575
 30
0.0
 10
180.685990
 20
481.611543
 30
0.0
 10
180.695996
 20
481.611543
 30
0.0
  0
SPLINE
  5
467
100
AcDbEntity
  8
Layer_1
 62
3
100
AcDbSpline
 70
8
 71
3
 72
8
 73
4
 74
0
 40
0
 40
0
 40
0
 40
0
 40
1
 40
1
 40
1
 40
1
 10
180.695996
 20
481.611543
 30
0.0
 10
180.705917
 20
481.611543
 30
0.0
 10
180.779278
 20
481.643575
 30
0.0
 10
180.779278
 20
481.788142
 30
0.0
  0
SPLINE
  5
468
100
AcDbEntity
  8
Layer_1
 62
3
100
AcDbSpline
 70
8
 71
3
 72
8
 73
4
 74
0
 40
0
 40
0
 40
0
 40
0
 40
1
 40
1
 40
1
 40
1
 10
180.779278
 20
481.788142
 30
0.0
 10
180.779278
 20
481.932709
 30
0.0
 10
180.706003
 20
481.964457
 30
0.0
 10
180.695996
 20
481.964457
 30
0.0
  0
LWPOLYLINE
  5
469
100
AcDbEntity
  8
Layer_1
 62
3
100
AcDbPolyline
 90
1
 70
1
 10
183.284028
 20
483.291468
 30
0.0
  0
SPLINE
  5
46a
100
AcDbEntity
  8
Layer_1
 62
3
100
AcDbSpline
 70
8
 71
3
 72
8
 73
4
 74
0
 40
0
 40
0
 40
0
 40
0
 40
1
 40
1
 40
1
 40
1
 10
169.513126
 20
480.670923
 30
0.0
 10
169.503205
 20
480.670923
 30
0.0
 10
169.429844
 20
480.639175
 30
0.0
 10
169.429844
 20
480.494608
 30
0.0
  0
SPLINE
  5
46b
100
AcDbEntity
  8
Layer_1
 62
3
100
AcDbSpline
 70
8
 71
3
 72
8
 73
4
 74
0
 40
0
 40
0
 40
0
 40
0
 40
1
 40
1
 40
1
 40
1
 10
169.429844
 20
480.494608
 30
0.0
 10
169.429844
 20
480.350041
 30
0.0
 10
169.503120
 20
480.317726
 30
0.0
 10
169.513126
 20
480.318009
 30
0.0
  0
SPLINE
  5
46c
100
AcDbEntity
  8
Layer_1
 62
3
100
AcDbSpline
 70
8
 71
3
 72
8
 73
4
 74
0
 40
0
 40
0
 40
0
 40
0
 40
1
 40
1
 40
1
 40
1
 10
169.513126
 20
480.318009
 30
0.0
 10
169.523048
 20
480.318009
 30
0.0
 10
169.597429
 20
480.350041
 30
0.0
 10
169.597429
 20
480.494608
 30
0.0
  0
SPLINE
  5
46d
100
AcDbEntity
  8
Layer_1
 62
3
100
AcDbSpline
 70
8
 71
3
 72
8
 73
4
 74
0
 40
0
 40
0
 40
0
 40
0
 40
1
 40
1
 40
1
 40
1
 10
169.597429
 20
480.494608
 30
0.0
 10
169.597429
 20
480.639175
 30
0.0
 10
169.523133
 20
480.670923
 30
0.0
 10
169.513126
 20
480.670923
 30
0.0
  0
LWPOLYLINE
  5
46e
100
AcDbEntity
  8
Layer_1
 62
3
100
AcDbPolyline
 90
1
 70
1
 10
180.695996
 20
481.964457
 30
0.0
  0
SPLINE
  5
46f
100
AcDbEntity
  8
Layer_1
 62
3
100
AcDbSpline
 70
8
 71
3
 72
8
 73
4
 74
0
 40
0
 40
0
 40
0
 40
0
 40
1
 40
1
 40
1
 40
1
 10
133.195626
 20
479.486041
 30
0.0
 10
134.002236
 20
479.486041
 30
0.0
 10
134.589042
 20
478.773241
 30
0.0
 10
134.589042
 20
477.999184
 30
0.0
  0
SPLINE
  5
470
100
AcDbEntity
  8
Layer_1
 62
3
100
AcDbSpline
 70
8
 71
3
 72
8
 73
4
 74
0
 40
0
 40
0
 40
0
 40
0
 40
1
 40
1
 40
1
 40
1
 10
134.589042
 20
477.999184
 30
0.0
 10
134.589042
 20
477.225156
 30
0.0
 10
134.002236
 20
476.512668
 30
0.0
 10
133.195626
 20
476.512668
 30
0.0
  0
SPLINE
  5
471
100
AcDbEntity
  8
Layer_1
 62
3
100
AcDbSpline
 70
8
 71
3
 72
8
 73
4
 74
0
 40
0
 40
0
 40
0
 40
0
 40
1
 40
1
 40
1
 40
1
 10
133.195626
 20
476.512668
 30
0.0
 10
132.389014
 20
476.512668
 30
0.0
 10
131.800856
 20
477.225156
 30
0.0
 10
131.800856
 20
477.999184
 30
0.0
  0
SPLINE
  5
472
100
AcDbEntity
  8
Layer_1
 62
3
100
AcDbSpline
 70
8
 71
3
 72
8
 73
4
 74
0
 40
0
 40
0
 40
0
 40
0
 40
1
 40
1
 40
1
 40
1
 10
131.800856
 20
477.999184
 30
0.0
 10
131.800856
 20
478.773241
 30
0.0
 10
132.389014
 20
479.486041
 30
0.0
 10
133.195626
 20
479.486041
 30
0.0
  0
LWPOLYLINE
  5
473
100
AcDbEntity
  8
Layer_1
 62
3
100
AcDbPolyline
 90
1
 70
1
 10
169.513126
 20
480.670923
 30
0.0
  0
SPLINE
  5
474
100
AcDbEntity
  8
Layer_1
 62
3
100
AcDbSpline
 70
8
 71
3
 72
8
 73
4
 74
0
 40
0
 40
0
 40
0
 40
0
 40
1
 40
1
 40
1
 40
1
 10
119.703263
 20
478.823187
 30
0.0
 10
119.693341
 20
478.823187
 30
0.0
 10
119.618620
 20
478.791439
 30
0.0
 10
119.618620
 20
478.646872
 30
0.0
  0
SPLINE
  5
475
100
AcDbEntity
  8
Layer_1
 62
3
100
AcDbSpline
 70
8
 71
3
 72
8
 73
4
 74
0
 40
0
 40
0
 40
0
 40
0
 40
1
 40
1
 40
1
 40
1
 10
119.618620
 20
478.646872
 30
0.0
 10
119.618620
 20
478.502306
 30
0.0
 10
119.693256
 20
478.470274
 30
0.0
 10
119.703263
 20
478.470274
 30
0.0
  0
SPLINE
  5
476
100
AcDbEntity
  8
Layer_1
 62
3
100
AcDbSpline
 70
8
 71
3
 72
8
 73
4
 74
0
 40
0
 40
0
 40
0
 40
0
 40
1
 40
1
 40
1
 40
1
 10
119.703263
 20
478.470274
 30
0.0
 10
119.713184
 20
478.470274
 30
0.0
 10
119.787565
 20
478.502306
 30
0.0
 10
119.787565
 20
478.646872
 30
0.0
  0
SPLINE
  5
477
100
AcDbEntity
  8
Layer_1
 62
3
100
AcDbSpline
 70
8
 71
3
 72
8
 73
4
 74
0
 40
0
 40
0
 40
0
 40
0
 40
1
 40
1
 40
1
 40
1
 10
119.787565
 20
478.646872
 30
0.0
 10
119.787565
 20
478.791439
 30
0.0
 10
119.713269
 20
478.823187
 30
0.0
 10
119.703263
 20
478.823187
 30
0.0
  0
LWPOLYLINE
  5
478
100
AcDbEntity
  8
Layer_1
 62
3
100
AcDbPolyline
 90
1
 70
1
 10
133.195626
 20
479.486041
 30
0.0
  0
SPLINE
  5
479
100
AcDbEntity
  8
Layer_1
 62
3
100
AcDbSpline
 70
8
 71
3
 72
8
 73
4
 74
0
 40
0
 40
0
 40
0
 40
0
 40
1
 40
1
 40
1
 40
1
 10
152.417718
 20
478.175896
 30
0.0
 10
152.407797
 20
478.175896
 30
0.0
 10
152.333076
 20
478.143865
 30
0.0
 10
152.333076
 20
477.999298
 30
0.0
  0
SPLINE
  5
47a
100
AcDbEntity
  8
Layer_1
 62
3
100
AcDbSpline
 70
8
 71
3
 72
8
 73
4
 74
0
 40
0
 40
0
 40
0
 40
0
 40
1
 40
1
 40
1
 40
1
 10
152.333076
 20
477.999298
 30
0.0
 10
152.333076
 20
477.854731
 30
0.0
 10
152.407712
 20
477.822983
 30
0.0
 10
152.417718
 20
477.822983
 30
0.0
  0
SPLINE
  5
47b
100
AcDbEntity
  8
Layer_1
 62
3
100
AcDbSpline
 70
8
 71
3
 72
8
 73
4
 74
0
 40
0
 40
0
 40
0
 40
0
 40
1
 40
1
 40
1
 40
1
 10
152.417718
 20
477.822983
 30
0.0
 10
152.427640
 20
477.822983
 30
0.0
 10
152.500660
 20
477.854731
 30
0.0
 10
152.500660
 20
477.999298
 30
0.0
  0
SPLINE
  5
47c
100
AcDbEntity
  8
Layer_1
 62
3
100
AcDbSpline
 70
8
 71
3
 72
8
 73
4
 74
0
 40
0
 40
0
 40
0
 40
0
 40
1
 40
1
 40
1
 40
1
 10
152.500660
 20
477.999298
 30
0.0
 10
152.500660
 20
478.143865
 30
0.0
 10
152.427725
 20
478.175896
 30
0.0
 10
152.417718
 20
478.175896
 30
0.0
  0
LWPOLYLINE
  5
47d
100
AcDbEntity
  8
Layer_1
 62
3
100
AcDbPolyline
 90
1
 70
1
 10
119.703263
 20
478.823187
 30
0.0
  0
SPLINE
  5
47e
100
AcDbEntity
  8
Layer_1
 62
3
100
AcDbSpline
 70
8
 71
3
 72
8
 73
4
 74
0
 40
0
 40
0
 40
0
 40
0
 40
1
 40
1
 40
1
 40
1
 10
133.195626
 20
478.175896
 30
0.0
 10
133.185705
 20
478.175896
 30
0.0
 10
133.110984
 20
478.143865
 30
0.0
 10
133.110984
 20
477.999298
 30
0.0
  0
SPLINE
  5
47f
100
AcDbEntity
  8
Layer_1
 62
3
100
AcDbSpline
 70
8
 71
3
 72
8
 73
4
 74
0
 40
0
 40
0
 40
0
 40
0
 40
1
 40
1
 40
1
 40
1
 10
133.110984
 20
477.999298
 30
0.0
 10
133.110984
 20
477.854731
 30
0.0
 10
133.185620
 20
477.822983
 30
0.0
 10
133.195626
 20
477.822983
 30
0.0
  0
SPLINE
  5
480
100
AcDbEntity
  8
Layer_1
 62
3
100
AcDbSpline
 70
8
 71
3
 72
8
 73
4
 74
0
 40
0
 40
0
 40
0
 40
0
 40
1
 40
1
 40
1
 40
1
 10
133.195626
 20
477.822983
 30
0.0
 10
133.205547
 20
477.822983
 30
0.0
 10
133.278908
 20
477.854731
 30
0.0
 10
133.278908
 20
477.999298
 30
0.0
  0
SPLINE
  5
481
100
AcDbEntity
  8
Layer_1
 62
3
100
AcDbSpline
 70
8
 71
3
 72
8
 73
4
 74
0
 40
0
 40
0
 40
0
 40
0
 40
1
 40
1
 40
1
 40
1
 10
133.278908
 20
477.999298
 30
0.0
 10
133.278908
 20
478.143865
 30
0.0
 10
133.205632
 20
478.175896
 30
0.0
 10
133.195626
 20
478.175896
 30
0.0
  0
LWPOLYLINE
  5
482
100
AcDbEntity
  8
Layer_1
 62
3
100
AcDbPolyline
 90
1
 70
1
 10
152.417718
 20
478.175896
 30
0.0
  0
SPLINE
  5
483
100
AcDbEntity
  8
Layer_1
 62
3
100
AcDbSpline
 70
8
 71
3
 72
8
 73
4
 74
0
 40
0
 40
0
 40
0
 40
0
 40
1
 40
1
 40
1
 40
1
 10
174.033601
 20
477.610214
 30
0.0
 10
170.250046
 20
477.245934
 30
0.0
 10
166.472909
 20
476.638157
 30
0.0
 10
162.699403
 20
475.666328
 30
0.0
  0
SPLINE
  5
484
100
AcDbEntity
  8
Layer_1
 62
3
100
AcDbSpline
 70
8
 71
3
 72
8
 73
4
 74
0
 40
0
 40
0
 40
0
 40
0
 40
1
 40
1
 40
1
 40
1
 10
162.699403
 20
475.666328
 30
0.0
 10
162.220623
 20
474.730639
 30
0.0
 10
161.872427
 20
473.749313
 30
0.0
 10
161.624214
 20
472.756280
 30
0.0
  0
SPLINE
  5
485
100
AcDbEntity
  8
Layer_1
 62
3
100
AcDbSpline
 70
8
 71
3
 72
8
 73
4
 74
0
 40
0
 40
0
 40
0
 40
0
 40
1
 40
1
 40
1
 40
1
 10
161.624214
 20
472.756280
 30
0.0
 10
163.132472
 20
472.452945
 30
0.0
 10
165.401470
 20
472.477918
 30
0.0
 10
167.678257
 20
472.489824
 30
0.0
  0
SPLINE
  5
486
100
AcDbEntity
  8
Layer_1
 62
3
100
AcDbSpline
 70
8
 71
3
 72
8
 73
4
 74
0
 40
0
 40
0
 40
0
 40
0
 40
1
 40
1
 40
1
 40
1
 10
167.678257
 20
472.489824
 30
0.0
 10
169.847155
 20
472.501162
 30
0.0
 10
172.023874
 20
472.506832
 30
0.0
 10
173.750247
 20
472.050057
 30
0.0
  0
SPLINE
  5
487
100
AcDbEntity
  8
Layer_1
 62
3
100
AcDbSpline
 70
8
 71
3
 72
8
 73
4
 74
0
 40
0
 40
0
 40
0
 40
0
 40
1
 40
1
 40
1
 40
1
 10
173.750247
 20
472.050057
 30
0.0
 10
173.708691
 20
473.876220
 30
0.0
 10
173.696360
 20
475.698274
 30
0.0
 10
174.033598
 20
477.610186
 30
0.0
  0
LWPOLYLINE
  5
488
100
AcDbEntity
  8
Layer_1
 62
3
100
AcDbPolyline
 90
1
 70
1
 10
133.195626
 20
478.175896
 30
0.0
  0
SPLINE
  5
489
100
AcDbEntity
  8
Layer_1
 62
3
100
AcDbSpline
 70
8
 71
3
 72
8
 73
4
 74
0
 40
0
 40
0
 40
0
 40
0
 40
1
 40
1
 40
1
 40
1
 10
139.296390
 20
473.917805
 30
0.0
 10
138.032932
 20
473.912135
 30
0.0
 10
136.769967
 20
473.848639
 30
0.0
 10
135.518326
 20
473.682246
 30
0.0
  0
SPLINE
  5
48a
100
AcDbEntity
  8
Layer_1
 62
3
100
AcDbSpline
 70
8
 71
3
 72
8
 73
4
 74
0
 40
0
 40
0
 40
0
 40
0
 40
1
 40
1
 40
1
 40
1
 10
135.518326
 20
473.682246
 30
0.0
 10
135.450437
 20
472.955414
 30
0.0
 10
135.416336
 20
472.162904
 30
0.0
 10
135.407974
 20
471.335159
 30
0.0
  0
SPLINE
  5
48b
100
AcDbEntity
  8
Layer_1
 62
3
100
AcDbSpline
 70
8
 71
3
 72
8
 73
4
 74
0
 40
0
 40
0
 40
0
 40
0
 40
1
 40
1
 40
1
 40
1
 10
135.407974
 20
471.335159
 30
0.0
 10
137.071409
 20
471.064734
 30
0.0
 10
139.460845
 20
471.091663
 30
0.0
 10
141.851336
 20
471.103002
 30
0.0
  0
SPLINE
  5
48c
100
AcDbEntity
  8
Layer_1
 62
3
100
AcDbSpline
 70
8
 71
3
 72
8
 73
4
 74
0
 40
0
 40
0
 40
0
 40
0
 40
1
 40
1
 40
1
 40
1
 10
141.851336
 20
471.103002
 30
0.0
 10
144.072170
 20
471.114340
 30
0.0
 10
146.294578
 20
471.114340
 30
0.0
 10
148.098345
 20
470.746857
 30
0.0
  0
SPLINE
  5
48d
100
AcDbEntity
  8
Layer_1
 62
3
100
AcDbSpline
 70
8
 71
3
 72
8
 73
4
 74
0
 40
0
 40
0
 40
0
 40
0
 40
1
 40
1
 40
1
 40
1
 10
148.098345
 20
470.746857
 30
0.0
 10
148.036493
 20
471.797688
 30
0.0
 10
147.969822
 20
472.832447
 30
0.0
 10
147.898956
 20
473.844472
 30
0.0
  0
SPLINE
  5
48e
100
AcDbEntity
  8
Layer_1
 62
3
100
AcDbSpline
 70
8
 71
3
 72
8
 73
4
 74
0
 40
0
 40
0
 40
0
 40
0
 40
1
 40
1
 40
1
 40
1
 10
147.898956
 20
473.844472
 30
0.0
 10
145.122721
 20
473.678646
 30
0.0
 10
142.209360
 20
473.934047
 30
0.0
 10
139.296410
 20
473.917890
 30
0.0
  0
LWPOLYLINE
  5
48f
100
AcDbEntity
  8
Layer_1
 62
3
100
AcDbPolyline
 90
1
 70
1
 10
174.033598
 20
477.610186
 30
0.0
  0
SPLINE
  5
490
100
AcDbEntity
  8
Layer_1
 62
3
100
AcDbSpline
 70
8
 71
3
 72
8
 73
4
 74
0
 40
0
 40
0
 40
0
 40
0
 40
1
 40
1
 40
1
 40
1
 10
161.356771
 20
471.472214
 30
0.0
 10
161.263029
 20
470.916709
 30
0.0
 10
161.195990
 20
470.362620
 30
0.0
 10
161.150607
 20
469.815420
 30
0.0
  0
SPLINE
  5
491
100
AcDbEntity
  8
Layer_1
 62
3
100
AcDbSpline
 70
8
 71
3
 72
8
 73
4
 74
0
 40
0
 40
0
 40
0
 40
0
 40
1
 40
1
 40
1
 40
1
 10
161.150607
 20
469.815420
 30
0.0
 10
162.649834
 20
469.452047
 30
0.0
 10
165.052814
 20
469.479288
 30
0.0
 10
167.463295
 20
469.491761
 30
0.0
  0
SPLINE
  5
492
100
AcDbEntity
  8
Layer_1
 62
3
100
AcDbSpline
 70
8
 71
3
 72
8
 73
4
 74
0
 40
0
 40
0
 40
0
 40
0
 40
1
 40
1
 40
1
 40
1
 10
167.463295
 20
469.491761
 30
0.0
 10
169.740833
 20
469.503099
 30
0.0
 10
172.024807
 20
469.508769
 30
0.0
 10
173.788846
 20
468.979228
 30
0.0
  0
SPLINE
  5
493
100
AcDbEntity
  8
Layer_1
 62
3
100
AcDbSpline
 70
8
 71
3
 72
8
 73
4
 74
0
 40
0
 40
0
 40
0
 40
0
 40
1
 40
1
 40
1
 40
1
 10
173.788846
 20
468.979228
 30
0.0
 10
173.796500
 20
469.548680
 30
0.0
 10
173.790788
 20
470.112463
 30
0.0
 10
173.779775
 20
470.673950
 30
0.0
  0
SPLINE
  5
494
100
AcDbEntity
  8
Layer_1
 62
3
100
AcDbSpline
 70
8
 71
3
 72
8
 73
4
 74
0
 40
0
 40
0
 40
0
 40
0
 40
1
 40
1
 40
1
 40
1
 10
173.779775
 20
470.673950
 30
0.0
 10
172.339396
 20
471.135798
 30
0.0
 10
170.027683
 20
471.191868
 30
0.0
 10
167.686121
 20
471.179707
 30
0.0
  0
SPLINE
  5
495
100
AcDbEntity
  8
Layer_1
 62
3
100
AcDbSpline
 70
8
 71
3
 72
8
 73
4
 74
0
 40
0
 40
0
 40
0
 40
0
 40
1
 40
1
 40
1
 40
1
 10
167.686121
 20
471.179707
 30
0.0
 10
165.420425
 20
471.168369
 30
0.0
 10
163.132934
 20
471.102605
 30
0.0
 10
161.356847
 20
471.472214
 30
0.0
  0
LWPOLYLINE
  5
496
100
AcDbEntity
  8
Layer_1
 62
3
100
AcDbPolyline
 90
1
 70
1
 10
139.296410
 20
473.917890
 30
0.0
  0
SPLINE
  5
497
100
AcDbEntity
  8
Layer_1
 62
3
100
AcDbSpline
 70
8
 71
3
 72
8
 73
4
 74
0
 40
0
 40
0
 40
0
 40
0
 40
1
 40
1
 40
1
 40
1
 10
135.418119
 20
470.005002
 30
0.0
 10
135.427190
 20
469.535159
 30
0.0
 10
135.441363
 20
469.061688
 30
0.0
 10
135.462453
 20
468.584164
 30
0.0
  0
SPLINE
  5
498
100
AcDbEntity
  8
Layer_1
 62
3
100
AcDbSpline
 70
8
 71
3
 72
8
 73
4
 74
0
 40
0
 40
0
 40
0
 40
0
 40
1
 40
1
 40
1
 40
1
 10
135.462453
 20
468.584164
 30
0.0
 10
137.068481
 20
468.292932
 30
0.0
 10
139.433757
 20
468.319691
 30
0.0
 10
141.804252
 20
468.331313
 30
0.0
  0
SPLINE
  5
499
100
AcDbEntity
  8
Layer_1
 62
3
100
AcDbSpline
 70
8
 71
3
 72
8
 73
4
 74
0
 40
0
 40
0
 40
0
 40
0
 40
1
 40
1
 40
1
 40
1
 10
141.804252
 20
468.331313
 30
0.0
 10
144.117969
 20
468.342652
 30
0.0
 10
146.435255
 20
468.345487
 30
0.0
 10
148.253031
 20
467.881398
 30
0.0
  0
SPLINE
  5
49a
100
AcDbEntity
  8
Layer_1
 62
3
100
AcDbSpline
 70
8
 71
3
 72
8
 73
4
 74
0
 40
0
 40
0
 40
0
 40
0
 40
1
 40
1
 40
1
 40
1
 10
148.253031
 20
467.881398
 30
0.0
 10
148.228654
 20
468.383131
 30
0.0
 10
148.203170
 20
468.884438
 30
0.0
 10
148.176184
 20
469.384498
 30
0.0
  0
SPLINE
  5
49b
100
AcDbEntity
  8
Layer_1
 62
3
100
AcDbSpline
 70
8
 71
3
 72
8
 73
4
 74
0
 40
0
 40
0
 40
0
 40
0
 40
1
 40
1
 40
1
 40
1
 10
148.176184
 20
469.384498
 30
0.0
 10
146.572787
 20
469.760939
 30
0.0
 10
144.225377
 20
469.803912
 30
0.0
 10
141.857739
 20
469.792772
 30
0.0
  0
SPLINE
  5
49c
100
AcDbEntity
  8
Layer_1
 62
3
100
AcDbSpline
 70
8
 71
3
 72
8
 73
4
 74
0
 40
0
 40
0
 40
0
 40
0
 40
1
 40
1
 40
1
 40
1
 10
141.857739
 20
469.792772
 30
0.0
 10
139.570393
 20
469.781433
 30
0.0
 10
137.266642
 20
469.728142
 30
0.0
 10
135.418105
 20
470.005087
 30
0.0
  0
LWPOLYLINE
  5
49d
100
AcDbEntity
  8
Layer_1
 62
3
100
AcDbPolyline
 90
1
 70
1
 10
161.356847
 20
471.472214
 30
0.0
  0
SPLINE
  5
49e
100
AcDbEntity
  8
Layer_1
 62
3
100
AcDbSpline
 70
8
 71
3
 72
8
 73
4
 74
0
 40
0
 40
0
 40
0
 40
0
 40
1
 40
1
 40
1
 40
1
 10
161.080863
 20
468.486652
 30
0.0
 10
161.040129
 20
466.910419
 30
0.0
 10
161.147364
 20
465.439096
 30
0.0
 10
161.266731
 20
464.233294
 30
0.0
  0
SPLINE
  5
49f
100
AcDbEntity
  8
Layer_1
 62
3
100
AcDbSpline
 70
8
 71
3
 72
8
 73
4
 74
0
 40
0
 40
0
 40
0
 40
0
 40
1
 40
1
 40
1
 40
1
 10
161.266731
 20
464.233294
 30
0.0
 10
161.397408
 20
464.194460
 30
0.0
 10
161.425840
 20
464.181987
 30
0.0
 10
161.623548
 20
464.139751
 30
0.0
  0
SPLINE
  5
4a0
100
AcDbEntity
  8
Layer_1
 62
3
100
AcDbSpline
 70
8
 71
3
 72
8
 73
4
 74
0
 40
0
 40
0
 40
0
 40
0
 40
1
 40
1
 40
1
 40
1
 10
161.623548
 20
464.139751
 30
0.0
 10
161.996848
 20
464.060381
 30
0.0
 10
162.437652
 20
463.979027
 30
0.0
 10
162.821290
 20
463.892570
 30
0.0
  0
LWPOLYLINE
  5
4a1
100
AcDbEntity
  8
Layer_1
 62
3
100
AcDbPolyline
 90
1
 70
1
 10
135.418105
 20
470.005087
 30
0.0
  0
SPLINE
  5
4a2
100
AcDbEntity
  8
Layer_1
 62
3
100
AcDbSpline
 70
8
 71
3
 72
8
 73
4
 74
0
 40
0
 40
0
 40
0
 40
0
 40
1
 40
1
 40
1
 40
1
 10
163.183187
 20
462.835729
 30
0.0
 10
161.472509
 20
460.766920
 30
0.0
 10
160.680767
 20
458.714013
 30
0.0
 10
160.486067
 20
457.057587
 30
0.0
  0
SPLINE
  5
4a3
100
AcDbEntity
  8
Layer_1
 62
3
100
AcDbSpline
 70
8
 71
3
 72
8
 73
4
 74
0
 40
0
 40
0
 40
0
 40
0
 40
1
 40
1
 40
1
 40
1
 10
160.486067
 20
457.057587
 30
0.0
 10
160.292574
 20
455.411424
 30
0.0
 10
160.731405
 20
454.194113
 30
0.0
 10
161.242356
 20
453.727077
 30
0.0
  0
SPLINE
  5
4a4
100
AcDbEntity
  8
Layer_1
 62
3
100
AcDbSpline
 70
8
 71
3
 72
8
 73
4
 74
0
 40
0
 40
0
 40
0
 40
0
 40
1
 40
1
 40
1
 40
1
 10
161.242356
 20
453.727077
 30
0.0
 10
161.295307
 20
453.687959
 30
0.0
 10
163.266948
 20
452.236876
 30
0.0
 10
165.840695
 20
451.619688
 30
0.0
  0
SPLINE
  5
4a5
100
AcDbEntity
  8
Layer_1
 62
3
100
AcDbSpline
 70
8
 71
3
 72
8
 73
4
 74
0
 40
0
 40
0
 40
0
 40
0
 40
1
 40
1
 40
1
 40
1
 10
165.840695
 20
451.619688
 30
0.0
 10
168.449145
 20
450.994167
 30
0.0
 10
171.485456
 20
451.161666
 30
0.0
 10
173.954055
 20
454.616391
 30
0.0
  0
LWPOLYLINE
  5
4a6
100
AcDbEntity
  8
Layer_1
 62
3
100
AcDbPolyline
 90
3
 70
0
 10
162.821290
 20
463.892570
 30
0.0
 10
163.862629
 20
463.658712
 30
0.0
 10
163.183187
 20
462.835729
 30
0.0
  0
SPLINE
  5
4a7
100
AcDbEntity
  8
Layer_1
 62
3
100
AcDbSpline
 70
8
 71
3
 72
8
 73
4
 74
0
 40
0
 40
0
 40
0
 40
0
 40
1
 40
1
 40
1
 40
1
 10
173.955410
 20
454.617411
 30
0.0
 10
174.460535
 20
455.320233
 30
0.0
 10
174.897295
 20
456.664847
 30
0.0
 10
174.674460
 20
458.111792
 30
0.0
  0
SPLINE
  5
4a8
100
AcDbEntity
  8
Layer_1
 62
3
100
AcDbSpline
 70
8
 71
3
 72
8
 73
4
 74
0
 40
0
 40
0
 40
0
 40
0
 40
1
 40
1
 40
1
 40
1
 10
174.674460
 20
458.111792
 30
0.0
 10
174.451629
 20
459.558737
 30
0.0
 10
173.620363
 20
461.140894
 30
0.0
 10
171.524381
 20
462.487720
 30
0.0
  0
LWPOLYLINE
  5
4a9
100
AcDbEntity
  8
Layer_1
 62
3
100
AcDbPolyline
 90
3
 70
0
 10
173.954055
 20
454.616391
 30
0.0
 10
173.955410
 20
454.616391
 30
0.0
 10
173.955410
 20
454.617411
 30
0.0
  0
SPLINE
  5
4aa
100
AcDbEntity
  8
Layer_1
 62
3
100
AcDbSpline
 70
8
 71
3
 72
8
 73
4
 74
0
 40
0
 40
0
 40
0
 40
0
 40
1
 40
1
 40
1
 40
1
 10
173.438464
 20
465.101887
 30
0.0
 10
173.599614
 20
465.959934
 30
0.0
 10
173.690946
 20
466.794794
 30
0.0
 10
173.741117
 20
467.615169
 30
0.0
  0
SPLINE
  5
4ab
100
AcDbEntity
  8
Layer_1
 62
3
100
AcDbSpline
 70
8
 71
3
 72
8
 73
4
 74
0
 40
0
 40
0
 40
0
 40
0
 40
1
 40
1
 40
1
 40
1
 10
173.741117
 20
467.615169
 30
0.0
 10
172.318192
 20
468.132803
 30
0.0
 10
169.909914
 20
468.194202
 30
0.0
 10
167.469732
 20
468.181559
 30
0.0
  0
SPLINE
  5
4ac
100
AcDbEntity
  8
Layer_1
 62
3
100
AcDbSpline
 70
8
 71
3
 72
8
 73
4
 74
0
 40
0
 40
0
 40
0
 40
0
 40
1
 40
1
 40
1
 40
1
 10
167.469732
 20
468.181559
 30
0.0
 10
165.178256
 20
468.170220
 30
0.0
 10
162.865128
 20
468.102756
 30
0.0
 10
161.080875
 20
468.486567
 30
0.0
  0
LWPOLYLINE
  5
4ad
100
AcDbEntity
  8
Layer_1
 62
3
100
AcDbPolyline
 90
3
 70
0
 10
171.524381
 20
462.487720
 30
0.0
 10
170.751504
 20
462.984350
 30
0.0
 10
173.438464
 20
465.101887
 30
0.0
  0
SPLINE
  5
4ae
100
AcDbEntity
  8
Layer_1
 62
3
100
AcDbSpline
 70
8
 71
3
 72
8
 73
4
 74
0
 40
0
 40
0
 40
0
 40
0
 40
1
 40
1
 40
1
 40
1
 10
135.534574
 20
467.240173
 30
0.0
 10
135.799671
 20
463.059468
 30
0.0
 10
136.388353
 20
459.112082
 30
0.0
 10
136.460809
 20
458.631524
 30
0.0
  0
LWPOLYLINE
  5
4af
100
AcDbEntity
  8
Layer_1
 62
3
100
AcDbPolyline
 90
1
 70
1
 10
161.080875
 20
468.486567
 30
0.0
  0
SPLINE
  5
4b0
100
AcDbEntity
  8
Layer_1
 62
3
100
AcDbSpline
 70
8
 71
3
 72
8
 73
4
 74
0
 40
0
 40
0
 40
0
 40
0
 40
1
 40
1
 40
1
 40
1
 10
138.765226
 20
457.339011
 30
0.0
 10
137.086302
 20
454.477096
 30
0.0
 10
135.639334
 20
451.791014
 30
0.0
 10
136.468596
 20
448.220183
 30
0.0
  0
SPLINE
  5
4b1
100
AcDbEntity
  8
Layer_1
 62
3
100
AcDbSpline
 70
8
 71
3
 72
8
 73
4
 74
0
 40
0
 40
0
 40
0
 40
0
 40
1
 40
1
 40
1
 40
1
 10
136.468596
 20
448.220183
 30
0.0
 10
137.773874
 20
446.329843
 30
0.0
 10
139.773986
 20
445.462781
 30
0.0
 10
142.056139
 20
445.652050
 30
0.0
  0
SPLINE
  5
4b2
100
AcDbEntity
  8
Layer_1
 62
3
100
AcDbSpline
 70
8
 71
3
 72
8
 73
4
 74
0
 40
0
 40
0
 40
0
 40
0
 40
1
 40
1
 40
1
 40
1
 10
142.056139
 20
445.652050
 30
0.0
 10
144.364456
 20
445.843389
 30
0.0
 10
146.944953
 20
447.155150
 30
0.0
 10
149.150843
 20
449.708060
 30
0.0
  0
SPLINE
  5
4b3
100
AcDbEntity
  8
Layer_1
 62
3
100
AcDbSpline
 70
8
 71
3
 72
8
 73
4
 74
0
 40
0
 40
0
 40
0
 40
0
 40
1
 40
1
 40
1
 40
1
 10
149.150843
 20
449.708060
 30
0.0
 10
150.789937
 20
452.294050
 30
0.0
 10
149.241183
 20
456.626835
 30
0.0
 10
145.605353
 20
458.434488
 30
0.0
  0
LWPOLYLINE
  5
4b4
100
AcDbEntity
  8
Layer_1
 62
3
100
AcDbPolyline
 90
3
 70
0
 10
136.460809
 20
458.631524
 30
0.0
 10
139.244933
 20
458.156891
 30
0.0
 10
138.765226
 20
457.339011
 30
0.0
  0
SPLINE
  5
4b5
100
AcDbEntity
  8
Layer_1
 62
3
100
AcDbSpline
 70
8
 71
3
 72
8
 73
4
 74
0
 40
0
 40
0
 40
0
 40
0
 40
1
 40
1
 40
1
 40
1
 10
145.720454
 20
459.652564
 30
0.0
 10
146.406044
 20
459.843619
 30
0.0
 10
147.059552
 20
459.937446
 30
0.0
 10
147.540087
 20
460.129890
 30
0.0
  0
SPLINE
  5
4b6
100
AcDbEntity
  8
Layer_1
 62
3
100
AcDbSpline
 70
8
 71
3
 72
8
 73
4
 74
0
 40
0
 40
0
 40
0
 40
0
 40
1
 40
1
 40
1
 40
1
 10
147.540087
 20
460.129890
 30
0.0
 10
147.992185
 20
460.311024
 30
0.0
 10
148.275632
 20
460.533685
 30
0.0
 10
148.485620
 20
461.040888
 30
0.0
  0
SPLINE
  5
4b7
100
AcDbEntity
  8
Layer_1
 62
3
100
AcDbSpline
 70
8
 71
3
 72
8
 73
4
 74
0
 40
0
 40
0
 40
0
 40
0
 40
1
 40
1
 40
1
 40
1
 10
148.485620
 20
461.040888
 30
0.0
 10
148.455346
 20
462.796243
 30
0.0
 10
148.395705
 20
464.640123
 30
0.0
 10
148.315683
 20
466.499452
 30
0.0
  0
SPLINE
  5
4b8
100
AcDbEntity
  8
Layer_1
 62
3
100
AcDbSpline
 70
8
 71
3
 72
8
 73
4
 74
0
 40
0
 40
0
 40
0
 40
0
 40
1
 40
1
 40
1
 40
1
 10
148.315683
 20
466.499452
 30
0.0
 10
146.781261
 20
466.977402
 30
0.0
 10
144.309589
 20
467.033329
 30
0.0
 10
141.810369
 20
467.021140
 30
0.0
  0
SPLINE
  5
4b9
100
AcDbEntity
  8
Layer_1
 62
3
100
AcDbSpline
 70
8
 71
3
 72
8
 73
4
 74
0
 40
0
 40
0
 40
0
 40
0
 40
1
 40
1
 40
1
 40
1
 10
141.810369
 20
467.021140
 30
0.0
 10
139.581632
 20
467.009802
 30
0.0
 10
137.336165
 20
466.954243
 30
0.0
 10
135.534583
 20
467.240258
 30
0.0
  0
LWPOLYLINE
  5
4ba
100
AcDbEntity
  8
Layer_1
 62
3
100
AcDbPolyline
 90
3
 70
0
 10
145.605353
 20
458.434488
 30
0.0
 10
144.077876
 20
459.194513
 30
0.0
 10
145.720454
 20
459.652564
 30
0.0
  0
SPLINE
  5
4bb
100
AcDbEntity
  8
Layer_1
 62
3
100
AcDbSpline
 70
8
 71
3
 72
8
 73
4
 74
0
 40
0
 40
0
 40
0
 40
0
 40
1
 40
1
 40
1
 40
1
 10
168.127498
 20
461.694614
 30
0.0
 10
169.725155
 20
461.694614
 30
0.0
 10
171.183526
 20
461.221370
 30
0.0
 10
172.272872
 20
460.416302
 30
0.0
  0
SPLINE
  5
4bc
100
AcDbEntity
  8
Layer_1
 62
3
100
AcDbSpline
 70
8
 71
3
 72
8
 73
4
 74
0
 40
0
 40
0
 40
0
 40
0
 40
1
 40
1
 40
1
 40
1
 10
172.272872
 20
460.416302
 30
0.0
 10
173.362221
 20
459.611235
 30
0.0
 10
174.093860
 20
458.437436
 30
0.0
 10
174.093860
 20
457.113883
 30
0.0
  0
SPLINE
  5
4bd
100
AcDbEntity
  8
Layer_1
 62
3
100
AcDbSpline
 70
8
 71
3
 72
8
 73
4
 74
0
 40
0
 40
0
 40
0
 40
0
 40
1
 40
1
 40
1
 40
1
 10
174.093860
 20
457.113883
 30
0.0
 10
174.093860
 20
455.790302
 30
0.0
 10
173.362221
 20
454.616504
 30
0.0
 10
172.272872
 20
453.811436
 30
0.0
  0
SPLINE
  5
4be
100
AcDbEntity
  8
Layer_1
 62
3
100
AcDbSpline
 70
8
 71
3
 72
8
 73
4
 74
0
 40
0
 40
0
 40
0
 40
0
 40
1
 40
1
 40
1
 40
1
 10
172.272872
 20
453.811436
 30
0.0
 10
171.183526
 20
453.006369
 30
0.0
 10
169.725155
 20
452.533465
 30
0.0
 10
168.127498
 20
452.533465
 30
0.0
  0
SPLINE
  5
4bf
100
AcDbEntity
  8
Layer_1
 62
3
100
AcDbSpline
 70
8
 71
3
 72
8
 73
4
 74
0
 40
0
 40
0
 40
0
 40
0
 40
1
 40
1
 40
1
 40
1
 10
168.127498
 20
452.533465
 30
0.0
 10
166.529835
 20
452.533465
 30
0.0
 10
165.071129
 20
453.006369
 30
0.0
 10
163.981780
 20
453.811436
 30
0.0
  0
SPLINE
  5
4c0
100
AcDbEntity
  8
Layer_1
 62
3
100
AcDbSpline
 70
8
 71
3
 72
8
 73
4
 74
0
 40
0
 40
0
 40
0
 40
0
 40
1
 40
1
 40
1
 40
1
 10
163.981780
 20
453.811436
 30
0.0
 10
162.892431
 20
454.616504
 30
0.0
 10
162.159778
 20
455.790302
 30
0.0
 10
162.159778
 20
457.113883
 30
0.0
  0
SPLINE
  5
4c1
100
AcDbEntity
  8
Layer_1
 62
3
100
AcDbSpline
 70
8
 71
3
 72
8
 73
4
 74
0
 40
0
 40
0
 40
0
 40
0
 40
1
 40
1
 40
1
 40
1
 10
162.159778
 20
457.113883
 30
0.0
 10
162.159778
 20
458.437436
 30
0.0
 10
162.892431
 20
459.611235
 30
0.0
 10
163.981780
 20
460.416302
 30
0.0
  0
SPLINE
  5
4c2
100
AcDbEntity
  8
Layer_1
 62
3
100
AcDbSpline
 70
8
 71
3
 72
8
 73
4
 74
0
 40
0
 40
0
 40
0
 40
0
 40
1
 40
1
 40
1
 40
1
 10
163.981780
 20
460.416302
 30
0.0
 10
165.071129
 20
461.221370
 30
0.0
 10
166.529835
 20
461.694614
 30
0.0
 10
168.127498
 20
461.694614
 30
0.0
  0
LWPOLYLINE
  5
4c3
100
AcDbEntity
  8
Layer_1
 62
3
100
AcDbPolyline
 90
1
 70
1
 10
135.534583
 20
467.240258
 30
0.0
  0
SPLINE
  5
4c4
100
AcDbEntity
  8
Layer_1
 62
3
100
AcDbSpline
 70
8
 71
3
 72
8
 73
4
 74
0
 40
0
 40
0
 40
0
 40
0
 40
1
 40
1
 40
1
 40
1
 10
168.127498
 20
460.384469
 30
0.0
 10
166.791489
 20
460.384469
 30
0.0
 10
165.594263
 20
459.979200
 30
0.0
 10
164.761089
 20
459.363458
 30
0.0
  0
SPLINE
  5
4c5
100
AcDbEntity
  8
Layer_1
 62
3
100
AcDbSpline
 70
8
 71
3
 72
8
 73
4
 74
0
 40
0
 40
0
 40
0
 40
0
 40
1
 40
1
 40
1
 40
1
 10
164.761089
 20
459.363458
 30
0.0
 10
163.927919
 20
458.747688
 30
0.0
 10
163.469914
 20
457.958381
 30
0.0
 10
163.469914
 20
457.113883
 30
0.0
  0
SPLINE
  5
4c6
100
AcDbEntity
  8
Layer_1
 62
3
100
AcDbSpline
 70
8
 71
3
 72
8
 73
4
 74
0
 40
0
 40
0
 40
0
 40
0
 40
1
 40
1
 40
1
 40
1
 10
163.469914
 20
457.113883
 30
0.0
 10
163.469914
 20
456.269357
 30
0.0
 10
163.927919
 20
455.480391
 30
0.0
 10
164.761089
 20
454.864649
 30
0.0
  0
SPLINE
  5
4c7
100
AcDbEntity
  8
Layer_1
 62
3
100
AcDbSpline
 70
8
 71
3
 72
8
 73
4
 74
0
 40
0
 40
0
 40
0
 40
0
 40
1
 40
1
 40
1
 40
1
 10
164.761089
 20
454.864649
 30
0.0
 10
165.594263
 20
454.248879
 30
0.0
 10
166.791489
 20
453.843609
 30
0.0
 10
168.127498
 20
453.843609
 30
0.0
  0
SPLINE
  5
4c8
100
AcDbEntity
  8
Layer_1
 62
3
100
AcDbSpline
 70
8
 71
3
 72
8
 73
4
 74
0
 40
0
 40
0
 40
0
 40
0
 40
1
 40
1
 40
1
 40
1
 10
168.127498
 20
453.843609
 30
0.0
 10
169.463503
 20
453.843609
 30
0.0
 10
170.660730
 20
454.248879
 30
0.0
 10
171.493900
 20
454.864649
 30
0.0
  0
SPLINE
  5
4c9
100
AcDbEntity
  8
Layer_1
 62
3
100
AcDbSpline
 70
8
 71
3
 72
8
 73
4
 74
0
 40
0
 40
0
 40
0
 40
0
 40
1
 40
1
 40
1
 40
1
 10
171.493900
 20
454.864649
 30
0.0
 10
172.327073
 20
455.480391
 30
0.0
 10
172.783386
 20
456.269357
 30
0.0
 10
172.783386
 20
457.113883
 30
0.0
  0
SPLINE
  5
4ca
100
AcDbEntity
  8
Layer_1
 62
3
100
AcDbSpline
 70
8
 71
3
 72
8
 73
4
 74
0
 40
0
 40
0
 40
0
 40
0
 40
1
 40
1
 40
1
 40
1
 10
172.783386
 20
457.113883
 30
0.0
 10
172.783386
 20
457.958381
 30
0.0
 10
172.327073
 20
458.747688
 30
0.0
 10
171.493900
 20
459.363458
 30
0.0
  0
SPLINE
  5
4cb
100
AcDbEntity
  8
Layer_1
 62
3
100
AcDbSpline
 70
8
 71
3
 72
8
 73
4
 74
0
 40
0
 40
0
 40
0
 40
0
 40
1
 40
1
 40
1
 40
1
 10
171.493900
 20
459.363458
 30
0.0
 10
170.660730
 20
459.979200
 30
0.0
 10
169.463503
 20
460.384469
 30
0.0
 10
168.127498
 20
460.384469
 30
0.0
  0
LWPOLYLINE
  5
4cc
100
AcDbEntity
  8
Layer_1
 62
3
100
AcDbPolyline
 90
1
 70
1
 10
168.127498
 20
461.694614
 30
0.0
  0
SPLINE
  5
4cd
100
AcDbEntity
  8
Layer_1
 62
3
100
AcDbSpline
 70
8
 71
3
 72
8
 73
4
 74
0
 40
0
 40
0
 40
0
 40
0
 40
1
 40
1
 40
1
 40
1
 10
142.575792
 20
457.164992
 30
0.0
 10
145.628586
 20
457.164992
 30
0.0
 10
148.218177
 20
455.048929
 30
0.0
 10
148.218177
 20
452.307997
 30
0.0
  0
SPLINE
  5
4ce
100
AcDbEntity
  8
Layer_1
 62
3
100
AcDbSpline
 70
8
 71
3
 72
8
 73
4
 74
0
 40
0
 40
0
 40
0
 40
0
 40
1
 40
1
 40
1
 40
1
 10
148.218177
 20
452.307997
 30
0.0
 10
148.218177
 20
449.567093
 30
0.0
 10
145.628586
 20
447.451030
 30
0.0
 10
142.575792
 20
447.451030
 30
0.0
  0
SPLINE
  5
4cf
100
AcDbEntity
  8
Layer_1
 62
3
100
AcDbSpline
 70
8
 71
3
 72
8
 73
4
 74
0
 40
0
 40
0
 40
0
 40
0
 40
1
 40
1
 40
1
 40
1
 10
142.575792
 20
447.451030
 30
0.0
 10
139.522989
 20
447.451030
 30
0.0
 10
136.933070
 20
449.567093
 30
0.0
 10
136.933070
 20
452.307997
 30
0.0
  0
SPLINE
  5
4d0
100
AcDbEntity
  8
Layer_1
 62
3
100
AcDbSpline
 70
8
 71
3
 72
8
 73
4
 74
0
 40
0
 40
0
 40
0
 40
0
 40
1
 40
1
 40
1
 40
1
 10
136.933070
 20
452.307997
 30
0.0
 10
136.933070
 20
455.048929
 30
0.0
 10
139.522989
 20
457.164992
 30
0.0
 10
142.575792
 20
457.164992
 30
0.0
  0
LWPOLYLINE
  5
4d1
100
AcDbEntity
  8
Layer_1
 62
3
100
AcDbPolyline
 90
1
 70
1
 10
168.127498
 20
460.384469
 30
0.0
  0
SPLINE
  5
4d2
100
AcDbEntity
  8
Layer_1
 62
3
100
AcDbSpline
 70
8
 71
3
 72
8
 73
4
 74
0
 40
0
 40
0
 40
0
 40
0
 40
1
 40
1
 40
1
 40
1
 10
142.575792
 20
455.854847
 30
0.0
 10
140.119563
 20
455.854847
 30
0.0
 10
138.243203
 20
454.208457
 30
0.0
 10
138.243203
 20
452.307997
 30
0.0
  0
SPLINE
  5
4d3
100
AcDbEntity
  8
Layer_1
 62
3
100
AcDbSpline
 70
8
 71
3
 72
8
 73
4
 74
0
 40
0
 40
0
 40
0
 40
0
 40
1
 40
1
 40
1
 40
1
 10
138.243203
 20
452.307997
 30
0.0
 10
138.243203
 20
450.407565
 30
0.0
 10
140.119563
 20
448.761175
 30
0.0
 10
142.575792
 20
448.761175
 30
0.0
  0
SPLINE
  5
4d4
100
AcDbEntity
  8
Layer_1
 62
3
100
AcDbSpline
 70
8
 71
3
 72
8
 73
4
 74
0
 40
0
 40
0
 40
0
 40
0
 40
1
 40
1
 40
1
 40
1
 10
142.575792
 20
448.761175
 30
0.0
 10
145.032012
 20
448.761175
 30
0.0
 10
146.908040
 20
450.407565
 30
0.0
 10
146.908040
 20
452.307997
 30
0.0
  0
SPLINE
  5
4d5
100
AcDbEntity
  8
Layer_1
 62
3
100
AcDbSpline
 70
8
 71
3
 72
8
 73
4
 74
0
 40
0
 40
0
 40
0
 40
0
 40
1
 40
1
 40
1
 40
1
 10
146.908040
 20
452.307997
 30
0.0
 10
146.908040
 20
454.208457
 30
0.0
 10
145.032012
 20
455.854847
 30
0.0
 10
142.575792
 20
455.854847
 30
0.0
  0
LWPOLYLINE
  5
4d6
100
AcDbEntity
  8
Layer_1
 62
3
100
AcDbPolyline
 90
1
 70
1
 10
142.575792
 20
457.164992
 30
0.0
  0
LWPOLYLINE
  5
4d7
100
AcDbEntity
  8
Layer_1
 62
3
100
AcDbPolyline
 90
1
 70
1
 10
142.575792
 20
455.854847
 30
0.0
  0
ENDSEC
  0
SECTION
  2
OBJECTS
  0
DICTIONARY
  5
C
330
0
100
AcDbDictionary
  3
ACAD_GROUP
350
D
  3
ACAD_MLINESTYLE
350
17
  0
DICTIONARY
  5
D
330
C
100
AcDbDictionary
  0
DICTIONARY
  5
1A
330
C
100
AcDbDictionary
  0
DICTIONARY
  5
17
330
C
100
AcDbDictionary
  3
STANDARD
350
18
  0
DICTIONARY
  5
19
330
C
100
AcDbDictionary
  0
ENDSEC
  0
EOF
